  0
SECTION
  2
HEADER
  9
$ACADVER
  1
AC1015
  9
$ACADMAINTVER
 70
     6
  9
$DWGCODEPAGE
  3
ANSI_1250
  9
$INSBASE
 10
0.0
 20
0.0
 30
0.0
  9
$EXTMIN
 10
0.0
 20
0.0
 30
0.0
  9
$EXTMAX
 10
20000.0
 20
10000.0
 30
0.0
  9
$LIMMIN
 10
0.0
 20
0.0
  9
$LIMMAX
 10
20000.0
 20
10000.0
  9
$ORTHOMODE
 70
     0
  9
$REGENMODE
 70
     1
  9
$FILLMODE
 70
     1
  9
$QTEXTMODE
 70
     0
  9
$MIRRTEXT
 70
     1
  9
$LTSCALE
 40
1.0
  9
$ATTMODE
 70
     1
  9
$TEXTSIZE
 40
2.0
  9
$TRACEWID
 40
1.0
  9
$TEXTSTYLE
  7
Standard
  9
$CLAYER
  8
0
  9
$CELTYPE
  6
ByLayer
  9
$CECOLOR
 62
   256
  9
$CELTSCALE
 40
1.0
  9
$DISPSILH
 70
     0
  9
$DIMSCALE
 40
1.0
  9
$DIMASZ
 40
2.0
  9
$DIMEXO
 40
1.0
  9
$DIMDLI
 40
3.75
  9
$DIMRND
 40
0.0
  9
$DIMDLE
 40
0.0
  9
$DIMEXE
 40
1.0
  9
$DIMTP
 40
0.0
  9
$DIMTM
 40
0.0
  9
$DIMTXT
 40
2.0
  9
$DIMCEN
 40
2.5
  9
$DIMTSZ
 40
0.0
  9
$DIMTOL
 70
     0
  9
$DIMLIM
 70
     0
  9
$DIMTIH
 70
     1
  9
$DIMTOH
 70
     1
  9
$DIMSE1
 70
     0
  9
$DIMSE2
 70
     0
  9
$DIMTAD
 70
     1
  9
$DIMZIN
 70
     0
  9
$DIMBLK
  1

  9
$DIMASO
 70
     1
  9
$DIMSHO
 70
     1
  9
$DIMPOST
  1

  9
$DIMAPOST
  1

  9
$DIMALT
 70
     0
  9
$DIMALTD
 70
     3
  9
$DIMALTF
 40
0.0393700787
  9
$DIMLFAC
 40
1.0
  9
$DIMTOFL
 70
     1
  9
$DIMTVP
 40
0.0
  9
$DIMTIX
 70
     0
  9
$DIMSOXD
 70
     0
  9
$DIMSAH
 70
     0
  9
$DIMBLK1
  1

  9
$DIMBLK2
  1

  9
$DIMSTYLE
  2
ISO-25
  9
$DIMCLRD
 70
     0
  9
$DIMCLRE
 70
     0
  9
$DIMCLRT
 70
     0
  9
$DIMTFAC
 40
1.0
  9
$DIMGAP
 40
1.524
  9
$DIMJUST
 70
     0
  9
$DIMSD1
 70
     0
  9
$DIMSD2
 70
     0
  9
$DIMTOLJ
 70
     0
  9
$DIMTZIN
 70
     0
  9
$DIMALTZ
 70
     0
  9
$DIMALTTZ
 70
     0
  9
$DIMUPT
 70
     0
  9
$DIMDEC
 70
     2
  9
$DIMTDEC
 70
     0
  9
$DIMALTU
 70
     2
  9
$DIMALTTD
 70
     3
  9
$DIMTXSTY
  7
Standard
  9
$DIMAUNIT
 70
     0
  9
$DIMADEC
 70
     2
  9
$DIMALTRND
 40
0.0
  9
$DIMAZIN
 70
     0
  9
$DIMDSEP
 70
    44
  9
$DIMATFIT
 70
     3
  9
$DIMFRAC
 70
     0
  9
$DIMLDRBLK
  1

  9
$DIMLUNIT
 70
     2
  9
$DIMLWD
 70
    -2
  9
$DIMLWE
 70
    -2
  9
$DIMTMOVE
 70
     0
  9
$LUNITS
 70
     2
  9
$LUPREC
 70
     3
  9
$SKETCHINC
 40
1.0
  9
$FILLETRAD
 40
10.0
  9
$AUNITS
 70
     0
  9
$AUPREC
 70
     2
  9
$MENU
  1
.
  9
$ELEVATION
 40
0.0
  9
$PELEVATION
 40
0.0
  9
$THICKNESS
 40
0.0
  9
$LIMCHECK
 70
     0
  9
$CHAMFERA
 40
0.0
  9
$CHAMFERB
 40
0.0
  9
$CHAMFERC
 40
0.0
  9
$CHAMFERD
 40
0.0
  9
$SKPOLY
 70
     0
  9
$TDCREATE
 40
2459095.441891018
  9
$TDUCREATE
 40
2459095.358557685
  9
$TDUPDATE
 40
2459095.441891366
  9
$TDUUPDATE
 40
2459095.358558032
  9
$TDINDWG
 40
0.0000000116
  9
$TDUSRTIMER
 40
0.0000000116
  9
$USRTIMER
 70
     1
  9
$ANGBASE
 50
0.0
  9
$ANGDIR
 70
     0
  9
$PDMODE
 70
     0
  9
$PDSIZE
 40
-1.0
  9
$PLINEWID
 40
0.0
  9
$SPLFRAME
 70
     0
  9
$SPLINETYPE
 70
     6
  9
$SPLINESEGS
 70
     8
  9
$HANDSEED
  5
3A1
  9
$SURFTAB1
 70
     6
  9
$SURFTAB2
 70
     6
  9
$SURFTYPE
 70
     6
  9
$SURFU
 70
     6
  9
$SURFV
 70
     6
  9
$UCSBASE
  2

  9
$UCSNAME
  2

  9
$UCSORG
 10
0.0
 20
0.0
 30
0.0
  9
$UCSXDIR
 10
1.0
 20
0.0
 30
0.0
  9
$UCSYDIR
 10
0.0
 20
1.0
 30
0.0
  9
$UCSORTHOREF
  2

  9
$UCSORTHOVIEW
 70
     0
  9
$UCSORGTOP
 10
0.0
 20
0.0
 30
0.0
  9
$UCSORGBOTTOM
 10
0.0
 20
0.0
 30
0.0
  9
$UCSORGLEFT
 10
0.0
 20
0.0
 30
0.0
  9
$UCSORGRIGHT
 10
0.0
 20
0.0
 30
0.0
  9
$UCSORGFRONT
 10
0.0
 20
0.0
 30
0.0
  9
$UCSORGBACK
 10
0.0
 20
0.0
 30
0.0
  9
$PUCSBASE
  2

  9
$PUCSNAME
  2

  9
$PUCSORG
 10
0.0
 20
0.0
 30
0.0
  9
$PUCSXDIR
 10
1.0
 20
0.0
 30
0.0
  9
$PUCSYDIR
 10
0.0
 20
1.0
 30
0.0
  9
$PUCSORTHOREF
  2

  9
$PUCSORTHOVIEW
 70
     0
  9
$PUCSORGTOP
 10
0.0
 20
0.0
 30
0.0
  9
$PUCSORGBOTTOM
 10
0.0
 20
0.0
 30
0.0
  9
$PUCSORGLEFT
 10
0.0
 20
0.0
 30
0.0
  9
$PUCSORGRIGHT
 10
0.0
 20
0.0
 30
0.0
  9
$PUCSORGFRONT
 10
0.0
 20
0.0
 30
0.0
  9
$PUCSORGBACK
 10
0.0
 20
0.0
 30
0.0
  9
$USERI1
 70
     0
  9
$USERI2
 70
     0
  9
$USERI3
 70
     0
  9
$USERI4
 70
     0
  9
$USERI5
 70
     0
  9
$USERR1
 40
0.0
  9
$USERR2
 40
0.0
  9
$USERR3
 40
0.0
  9
$USERR4
 40
0.0
  9
$USERR5
 40
0.0
  9
$WORLDVIEW
 70
     1
  9
$SHADEDGE
 70
     3
  9
$SHADEDIF
 70
    70
  9
$TILEMODE
 70
     1
  9
$MAXACTVP
 70
    64
  9
$PINSBASE
 10
0.0
 20
0.0
 30
0.0
  9
$PLIMCHECK
 70
     0
  9
$PEXTMIN
 10
1.0000000000E+20
 20
1.0000000000E+20
 30
1.0000000000E+20
  9
$PEXTMAX
 10
-1.0000000000E+20
 20
-1.0000000000E+20
 30
-1.0000000000E+20
  9
$PLIMMIN
 10
0.0
 20
0.0
  9
$PLIMMAX
 10
420.0
 20
297.0
  9
$UNITMODE
 70
     0
  9
$VISRETAIN
 70
     1
  9
$PLINEGEN
 70
     0
  9
$PSLTSCALE
 70
     1
  9
$TREEDEPTH
 70
  3020
  9
$CMLSTYLE
  2
Standard
  9
$CMLJUST
 70
     0
  9
$CMLSCALE
 40
20.0
  9
$PROXYGRAPHICS
 70
     1
  9
$MEASUREMENT
 70
     1
  9
$CELWEIGHT
370
    -1
  9
$ENDCAPS
280
     0
  9
$JOINSTYLE
280
     0
  9
$LWDISPLAY
290
     1
  9
$INSUNITS
 70
     4
  9
$HYPERLINKBASE
  1

  9
$STYLESHEET
  1

  9
$XEDIT
290
     1
  9
$CEPSNTYPE
380
     0
  9
$PSTYLEMODE
290
     1
  9
$FINGERPRINTGUID
  2
{37e38320-d29a-4a82-97b6-b7a6fb145209}
  9
$VERSIONGUID
  2
{FAEB1C32-E019-11D5-929B-00C0DF256EC4}
  9
$EXTNAMES
290
     1
  9
$PSVPSCALE
 40
0.0
  9
$OLESTARTUP
290
     0
  0
ENDSEC
  0
SECTION
  2
CLASSES
  0
CLASS
  1
ACDBDICTIONARYWDFLT
  2
AcDbDictionaryWithDefault
  3
ObjectDBX Classes
 90
        0
280
     0
281
     0
  0
CLASS
  1
VISUALSTYLE
  2
AcDbVisualStyle
  3
ObjectDBX Classes
 90
     4095
280
     0
281
     0
  0
CLASS
  1
MATERIAL
  2
AcDbMaterial
  3
ObjectDBX Classes
 90
     1153
280
     0
281
     0
  0
CLASS
  1
SCALE
  2
AcDbScale
  3
ObjectDBX Classes
 90
     1153
280
     0
281
     0
  0
CLASS
  1
TABLESTYLE
  2
AcDbTableStyle
  3
ObjectDBX Classes
 90
     4095
280
     0
281
     0
  0
CLASS
  1
MLEADERSTYLE
  2
AcDbMLeaderStyle
  3
ACDB_MLEADERSTYLE_CLASS
 90
     4095
280
     0
281
     0
  0
CLASS
  1
SUN
  2
AcDbSun
  3
SCENEOE
 90
     1153
280
     0
281
     0
  0
CLASS
  1
ACDBPLACEHOLDER
  2
AcDbPlaceHolder
  3
ObjectDBX Classes
 90
        0
280
     0
281
     0
  0
CLASS
  1
LAYOUT
  2
AcDbLayout
  3
ObjectDBX Classes
 90
        0
280
     0
281
     0
  0
ENDSEC
  0
SECTION
  2
TABLES
  0
TABLE
  2
VPORT
  5
8
330
0
100
AcDbSymbolTable
 70
     1
  0
VPORT
  5
29
330
8
100
AcDbSymbolTableRecord
100
AcDbViewportTableRecord
  2
*Active
 70
     0
 10
0.0
 20
0.0
 11
1.0
 21
1.0
 12
10000.0
 22
5000.0
 13
0.0
 23
0.0
 14
10.0
 24
10.0
 15
10.0
 25
10.0
 16
0.0
 26
0.0
 36
1.0
 17
0.0
 27
0.0
 37
0.0
 40
10000.0
 41
2.0
 42
50.0
 43
0.0
 44
0.0
 50
0.0
 51
0.0
 71
     0
 72
  2000
 73
     1
 74
     3
 75
     0
 76
     0
 77
     0
 78
     0
281
     0
 65
     1
110
0.0
120
0.0
130
0.0
111
1.0
121
0.0
131
0.0
112
0.0
122
1.0
132
0.0
 79
     0
146
0.0
  0
ENDTAB
  0
TABLE
  2
LTYPE
  5
5
330
0
100
AcDbSymbolTable
 70
     6
  0
LTYPE
  5
14
330
5
100
AcDbSymbolTableRecord
100
AcDbLinetypeTableRecord
  2
ByBlock
 70
     0
  3

 72
    65
 73
     0
 40
0.0
  0
LTYPE
  5
15
330
5
100
AcDbSymbolTableRecord
100
AcDbLinetypeTableRecord
  2
ByLayer
 70
     0
  3

 72
    65
 73
     0
 40
0.0
  0
LTYPE
  5
16
330
5
100
AcDbSymbolTableRecord
100
AcDbLinetypeTableRecord
  2
Continuous
 70
     0
  3
Solid line
 72
    65
 73
     0
 40
0.0
  0
LTYPE
  5
6E
330
5
100
AcDbSymbolTableRecord
100
AcDbLinetypeTableRecord
  2
HIDDEN
 70
     0
  3
Hidden __ __ __ __ __ __ __ __ __ __ __ __ __ __
 72
    65
 73
     2
 40
1.905
 49
1.27
 74
     0
 49
-0.635
 74
     0
  0
LTYPE
  5
6F
330
5
100
AcDbSymbolTableRecord
100
AcDbLinetypeTableRecord
  2
PHANTOM
 70
     0
  3
Phantom ______  __  __  ______  __  __  ______
 72
    65
 73
     6
 40
12.7
 49
6.35
 74
     0
 49
-1.27
 74
     0
 49
1.27
 74
     0
 49
-1.27
 74
     0
 49
1.27
 74
     0
 49
-1.27
 74
     0
  0
LTYPE
  5
70
330
5
100
AcDbSymbolTableRecord
100
AcDbLinetypeTableRecord
  2
CENTER
 70
     0
  3
Center ____ _ ____ _ ____ _ ____ _ ____ _ ____
 72
    65
 73
     4
 40
10.16
 49
6.35
 74
     0
 49
-1.27
 74
     0
 49
1.27
 74
     0
 49
-1.27
 74
     0
  0
LTYPE
  5
71
330
5
100
AcDbSymbolTableRecord
100
AcDbLinetypeTableRecord
  2
CENTERX2
 70
     0
  3
Center (2x) ________  __  ________  __  _____
 72
    65
 73
     4
 40
20.32
 49
12.7
 74
     0
 49
-2.54
 74
     0
 49
2.54
 74
     0
 49
-2.54
 74
     0
  0
LTYPE
  5
72
330
5
100
AcDbSymbolTableRecord
100
AcDbLinetypeTableRecord
  2
DOT2
 70
     0
  3
Dot (.5x) ........................................
 72
    65
 73
     2
 40
0.635
 49
0.0
 74
     0
 49
-0.635
 74
     0
  0
ENDTAB
  0
TABLE
  2
LAYER
  5
2
330
0
100
AcDbSymbolTable
 70
    13
  0
LAYER
  5
10
330
2
100
AcDbSymbolTableRecord
100
AcDbLayerTableRecord
  2
0
 70
     0
 62
     7
  6
Continuous
370
    -3
390
F
  0
LAYER
  5
73
330
2
100
AcDbSymbolTableRecord
100
AcDbLayerTableRecord
  2
FORMAT
 70
     0
 62
     7
  6
Continuous
370
    -3
390
F
  0
LAYER
  5
74
330
2
100
AcDbSymbolTableRecord
100
AcDbLayerTableRecord
  2
OSA
 70
     0
 62
     7
  6
CENTER
370
    -3
390
F
  0
LAYER
  5
75
330
2
100
AcDbSymbolTableRecord
100
AcDbLayerTableRecord
  2
0_35
 70
     0
 62
     7
  6
Continuous
370
    35
390
F
  0
LAYER
  5
76
330
2
100
AcDbSymbolTableRecord
100
AcDbLayerTableRecord
  2
0_5
 70
     0
 62
     7
  6
Continuous
370
    50
390
F
  0
LAYER
  5
77
330
2
100
AcDbSymbolTableRecord
100
AcDbLayerTableRecord
  2
0_25
 70
     0
 62
     7
  6
Continuous
370
    25
390
F
  0
LAYER
  5
78
330
2
100
AcDbSymbolTableRecord
100
AcDbLayerTableRecord
  2
0_18
 70
     0
 62
     7
  6
Continuous
370
    -3
390
F
  0
LAYER
  5
79
330
2
100
AcDbSymbolTableRecord
100
AcDbLayerTableRecord
  2
SLD-0
 70
     0
 62
   179
  6
Continuous
370
    -3
390
F
  0
LAYER
  5
7A
330
2
100
AcDbSymbolTableRecord
100
AcDbLayerTableRecord
  2
KOTY
 70
     0
 62
     7
  6
Continuous
370
    -3
390
F
  0
LAYER
  5
7B
330
2
100
AcDbSymbolTableRecord
100
AcDbLayerTableRecord
  2
SILNA
 70
     0
 62
   179
  6
Continuous
370
    -3
390
F
  0
LAYER
  5
7C
330
2
100
AcDbSymbolTableRecord
100
AcDbLayerTableRecord
  2
0_18_1
 70
     0
 62
   179
  6
Continuous
370
    -3
390
F
  0
LAYER
  5
7D
330
2
100
AcDbSymbolTableRecord
100
AcDbLayerTableRecord
  2
0_35_1
 70
     0
 62
   179
  6
Continuous
370
    35
390
F
  0
LAYER
  5
7E
330
2
100
AcDbSymbolTableRecord
100
AcDbLayerTableRecord
  2
0_5_1
 70
     0
 62
   179
  6
Continuous
370
    50
390
F
  0
ENDTAB
  0
TABLE
  2
STYLE
  5
3
330
0
100
AcDbSymbolTable
 70
     1
  0
STYLE
  5
11
330
3
100
AcDbSymbolTableRecord
100
AcDbTextStyleTableRecord
  2
Standard
 70
     0
 40
0.0
 41
1.0
 50
0.0
 71
     0
 42
2.0
  3
txt
  4

  0
ENDTAB
  0
TABLE
  2
VIEW
  5
6
330
0
100
AcDbSymbolTable
 70
     0
  0
ENDTAB
  0
TABLE
  2
UCS
  5
7
330
0
100
AcDbSymbolTable
 70
     0
  0
ENDTAB
  0
TABLE
  2
APPID
  5
9
330
0
100
AcDbSymbolTable
 70
     1
  0
APPID
  5
12
330
9
100
AcDbSymbolTableRecord
100
AcDbRegAppTableRecord
  2
ACAD
 70
     0
  0
ENDTAB
  0
TABLE
  2
DIMSTYLE
  5
A
330
0
100
AcDbSymbolTable
 70
     1
100
AcDbDimStyleTable
  0
DIMSTYLE
105
27
330
A
100
AcDbSymbolTableRecord
100
AcDbDimStyleTableRecord
  2
ISO-25
 70
     0
 41
2.5
 42
0.625
 43
3.75
 44
1.25
 73
     0
 74
     0
 77
     1
 78
     8
140
2.5
141
2.5
143
0.0393700787
147
0.625
171
     3
172
     1
178
     0
271
     2
272
     2
274
     3
278
    44
283
     0
284
     8
340
11
  0
ENDTAB
  0
TABLE
  2
BLOCK_RECORD
  5
1
330
0
100
AcDbSymbolTable
 70
     1
  0
BLOCK_RECORD
  5
1F
330
1
100
AcDbSymbolTableRecord
100
AcDbBlockTableRecord
  2
*Model_Space
340
22
  0
BLOCK_RECORD
  5
1B
330
1
100
AcDbSymbolTableRecord
100
AcDbBlockTableRecord
  2
*Paper_Space
340
1E
  0
BLOCK_RECORD
  5
23
330
1
100
AcDbSymbolTableRecord
100
AcDbBlockTableRecord
  2
*Paper_Space0
340
26
  0
ENDTAB
  0
ENDSEC
  0
SECTION
  2
BLOCKS
  0
BLOCK
  5
20
330
1F
100
AcDbEntity
  8
0
100
AcDbBlockBegin
  2
*Model_Space
 70
     0
 10
0.0
 20
0.0
 30
0.0
  3
*Model_Space
  1

  0
ENDBLK
  5
21
330
1F
100
AcDbEntity
  8
0
100
AcDbBlockEnd
  0
BLOCK
  5
1C
330
1B
100
AcDbEntity
 67
     1
  8
0
100
AcDbBlockBegin
  2
*Paper_Space
 70
     0
 10
0.0
 20
0.0
 30
0.0
  3
*Paper_Space
  1

  0
ENDBLK
  5
1D
330
1B
100
AcDbEntity
 67
     1
  8
0
100
AcDbBlockEnd
  0
BLOCK
  5
24
330
23
100
AcDbEntity
  8
0
100
AcDbBlockBegin
  2
*Paper_Space0
 70
     0
 10
0.0
 20
0.0
 30
0.0
  3
*Paper_Space0
  1

  0
ENDBLK
  5
25
330
23
100
AcDbEntity
  8
0
100
AcDbBlockEnd
  0
ENDSEC
  0
SECTION
  2
ENTITIES
  0
LINE
  5
7F
330
1F
100
AcDbEntity
  8
0
  6
Continuous
 62
     7
100
AcDbLine
 10
820.2906104724
 20
8283.7763725417
 30
0.0
 11
1480.2906104724
 21
8283.7763725417
 31
0.0
  0
LINE
  5
80
330
1F
100
AcDbEntity
  8
0
  6
Continuous
 62
     7
100
AcDbLine
 10
810.2906104724
 20
9179.7763725417
 30
0.0
 11
810.2906104724
 21
7559.7763725417
 31
0.0
  0
LINE
  5
81
330
1F
100
AcDbEntity
  8
0
  6
Continuous
 62
     7
100
AcDbLine
 10
1490.2906104724
 20
9179.7763725417
 30
0.0
 11
1490.2906104724
 21
7559.7763725417
 31
0.0
  0
LINE
  5
82
330
1F
100
AcDbEntity
  8
0
  6
Continuous
 62
     7
370
    25
100
AcDbLine
 10
1200.2906104724
 20
7675.855859526
 30
0.0
 11
1200.2906104724
 21
7692.2432532272
 31
0.0
  0
LINE
  5
83
330
1F
100
AcDbEntity
  8
0
  6
Continuous
 62
     7
370
    25
100
AcDbLine
 10
1100.2906104724
 20
7692.2432532272
 30
0.0
 11
1100.2906104724
 21
7675.855859526
 31
0.0
  0
LINE
  5
84
330
1F
100
AcDbEntity
  8
0
  6
Continuous
 62
     7
370
    25
100
AcDbLine
 10
1200.2906104724
 20
7573.995646981
 30
0.0
 11
1200.2906104724
 21
7675.855859526
 31
0.0
  0
LINE
  5
85
330
1F
100
AcDbEntity
  8
0
  6
Continuous
 62
     7
370
    25
100
AcDbLine
 10
1100.2906104724
 20
7675.855859526
 30
0.0
 11
1100.2906104724
 21
7573.995646981
 31
0.0
  0
ARC
  5
86
330
1F
100
AcDbEntity
  8
0
  6
Continuous
 62
     7
370
    25
100
AcDbCircle
 10
1225.2906104724
 20
7713.7763725418
 30
0.0
 40
4.000000000000909
100
AcDbArc
 50
180.0
 51
270.0
  0
ARC
  5
87
330
1F
100
AcDbEntity
  8
0
  6
Continuous
 62
     7
370
    25
100
AcDbCircle
 10
1237.2906104724
 20
7713.7763725418
 30
0.0
 40
4.000000000000909
100
AcDbArc
 50
270.0
 51
0.0
  0
ARC
  5
88
330
1F
100
AcDbEntity
  8
0
  6
Continuous
 62
     7
370
    25
100
AcDbCircle
 10
1063.2906104724
 20
7713.7763725418
 30
0.0
 40
4.000000000000909
100
AcDbArc
 50
180.0
 51
270.0
  0
ARC
  5
89
330
1F
100
AcDbEntity
  8
0
  6
Continuous
 62
     7
370
    25
100
AcDbCircle
 10
1075.2906104724
 20
7713.7763725418
 30
0.0
 40
4.000000000000909
100
AcDbArc
 50
270.0
 51
0.0
  0
LINE
  5
8A
330
1F
100
AcDbEntity
  8
0
  6
Continuous
 62
     7
370
    25
100
AcDbLine
 10
1241.2906104724
 20
7713.7763725418
 30
0.0
 11
1241.2906104724
 21
7717.7763725418
 31
0.0
  0
LINE
  5
8B
330
1F
100
AcDbEntity
  8
0
  6
Continuous
 62
     7
370
    25
100
AcDbLine
 10
1221.2906104724
 20
7717.7763725418
 30
0.0
 11
1221.2906104724
 21
7713.7763725418
 31
0.0
  0
LINE
  5
8C
330
1F
100
AcDbEntity
  8
0
  6
Continuous
 62
     7
370
    25
100
AcDbLine
 10
1079.2906104724
 20
7713.7763725418
 30
0.0
 11
1079.2906104724
 21
7717.7763725418
 31
0.0
  0
LINE
  5
8D
330
1F
100
AcDbEntity
  8
0
  6
Continuous
 62
     7
370
    25
100
AcDbLine
 10
1059.2906104724
 20
7717.7763725418
 30
0.0
 11
1059.2906104724
 21
7713.7763725418
 31
0.0
  0
LINE
  5
8E
330
1F
100
AcDbEntity
  8
0
  6
Continuous
 62
     7
370
    25
100
AcDbLine
 10
1239.2906104724
 20
7749.7763725418
 30
0.0
 11
1239.2906104724
 21
7752.7763725418
 31
0.0
  0
LINE
  5
8F
330
1F
100
AcDbEntity
  8
0
  6
Continuous
 62
     7
370
    25
100
AcDbLine
 10
1223.2906104724
 20
7752.7763725418
 30
0.0
 11
1223.2906104724
 21
7749.7763725418
 31
0.0
  0
LINE
  5
90
330
1F
100
AcDbEntity
  8
0
  6
Continuous
 62
     7
370
    25
100
AcDbLine
 10
1077.2906104724
 20
7749.7763725418
 30
0.0
 11
1077.2906104724
 21
7752.7763725418
 31
0.0
  0
LINE
  5
91
330
1F
100
AcDbEntity
  8
0
  6
Continuous
 62
     7
370
    25
100
AcDbLine
 10
1061.2906104724
 20
7752.7763725418
 30
0.0
 11
1061.2906104724
 21
7749.7763725418
 31
0.0
  0
LINE
  5
92
330
1F
100
AcDbEntity
  8
0
  6
Continuous
 62
     7
370
    25
100
AcDbLine
 10
1158.2906104724
 20
7814.7763725418
 30
0.0
 11
1158.2906104724
 21
7837.7763725418
 31
0.0
  0
LINE
  5
93
330
1F
100
AcDbEntity
  8
0
  6
Continuous
 62
     7
370
    25
100
AcDbLine
 10
1142.2906104724
 20
7837.7763725418
 30
0.0
 11
1142.2906104724
 21
7814.7763725418
 31
0.0
  0
LINE
  5
94
330
1F
100
AcDbEntity
  8
0
  6
Continuous
 62
     7
370
    25
100
AcDbLine
 10
1225.2906104724
 20
7761.7763725418
 30
0.0
 11
1225.2906104724
 21
7752.7763725418
 31
0.0
  0
LINE
  5
95
330
1F
100
AcDbEntity
  8
0
  6
Continuous
 62
     7
370
    25
100
AcDbLine
 10
1237.2906104724
 20
7752.7763725418
 30
0.0
 11
1237.2906104724
 21
7761.7763725418
 31
0.0
  0
LINE
  5
96
330
1F
100
AcDbEntity
  8
0
  6
Continuous
 62
     7
370
    25
100
AcDbLine
 10
1063.2906104724
 20
7745.7763725418
 30
0.0
 11
1063.2906104724
 21
7721.7763725418
 31
0.0
  0
LINE
  5
97
330
1F
100
AcDbEntity
  8
0
  6
Continuous
 62
     7
370
    25
100
AcDbLine
 10
1075.2906104724
 20
7721.7763725418
 30
0.0
 11
1075.2906104724
 21
7745.7763725418
 31
0.0
  0
LINE
  5
98
330
1F
100
AcDbEntity
  8
0
  6
Continuous
 62
     7
370
    25
100
AcDbLine
 10
1225.2906104724
 20
7745.7763725418
 30
0.0
 11
1225.2906104724
 21
7721.7763725418
 31
0.0
  0
LINE
  5
99
330
1F
100
AcDbEntity
  8
0
  6
Continuous
 62
     7
370
    25
100
AcDbLine
 10
1237.2906104724
 20
7721.7763725418
 30
0.0
 11
1237.2906104724
 21
7745.7763725418
 31
0.0
  0
LINE
  5
9A
330
1F
100
AcDbEntity
  8
0
  6
Continuous
 62
     7
370
    25
100
AcDbLine
 10
1063.2906104724
 20
7761.7763725418
 30
0.0
 11
1063.2906104724
 21
7752.7763725418
 31
0.0
  0
LINE
  5
9B
330
1F
100
AcDbEntity
  8
0
  6
Continuous
 62
     7
370
    25
100
AcDbLine
 10
1075.2906104724
 20
7752.7763725418
 30
0.0
 11
1075.2906104724
 21
7761.7763725418
 31
0.0
  0
LINE
  5
9C
330
1F
100
AcDbEntity
  8
0
  6
Continuous
 62
     7
370
    25
100
AcDbLine
 10
812.2906104724
 20
7135.7763725418
 30
0.0
 11
810.2906104724
 21
7135.7763725418
 31
0.0
  0
LINE
  5
9D
330
1F
100
AcDbEntity
  8
0
  6
Continuous
 62
     7
370
    25
100
AcDbLine
 10
810.2906104724
 20
7103.7763725418
 30
0.0
 11
812.2906104724
 21
7103.7763725418
 31
0.0
  0
LINE
  5
9E
330
1F
100
AcDbEntity
  8
0
  6
Continuous
 62
     7
370
    25
100
AcDbLine
 10
1488.2906104724
 20
7103.7763725418
 30
0.0
 11
1490.2906104724
 21
7103.7763725418
 31
0.0
  0
LINE
  5
9F
330
1F
100
AcDbEntity
  8
0
  6
Continuous
 62
     7
370
    25
100
AcDbLine
 10
1490.2906104724
 20
7135.7763725418
 30
0.0
 11
1488.2906104724
 21
7135.7763725418
 31
0.0
  0
LINE
  5
A0
330
1F
100
AcDbEntity
  8
0
  6
Continuous
 62
     7
370
    25
100
AcDbLine
 10
815.5094969114
 20
9356.0724084908
 30
0.0
 11
817.2906104724
 21
9359.0634936057
 31
0.0
  0
LINE
  5
A1
330
1F
100
AcDbEntity
  8
0
  6
Continuous
 62
     7
370
    25
100
AcDbLine
 10
1483.2906104724
 20
9359.0634936057
 30
0.0
 11
1484.5499961432
 21
9356.9485640378
 31
0.0
  0
SPLINE
  5
A2
330
1F
100
AcDbEntity
  8
0
  6
Continuous
 62
     7
370
    25
100
AcDbSpline
210
0.0
220
0.0
230
1.0
 70
    24
 71
     3
 72
     9
 73
     5
 74
     0
 42
0.00000001
 43
0.00000001
 40
0.0
 40
0.0
 40
0.0
 40
0.0
 40
0.4912124615585006
 40
1.0
 40
1.0
 40
1.0
 40
1.0
 10
1183.22541832861
 20
8581.165575808309
 30
0.0
 10
1184.732653068377
 20
8581.287531962309
 30
0.0
 10
1187.801049857388
 20
8581.535807736123
 30
0.0
 10
1190.870985690944
 20
8581.784208039948
 30
0.0
 10
1192.432930786872
 20
8581.910591019077
 30
0.0
  0
SPLINE
  5
A3
330
1F
100
AcDbEntity
  8
0
  6
Continuous
 62
     7
370
    25
100
AcDbSpline
210
0.0
220
0.0
230
1.0
 70
    24
 71
     3
 72
     9
 73
     5
 74
     0
 42
0.00000001
 43
0.00000001
 40
0.0
 40
0.0
 40
0.0
 40
0.0
 40
0.4912124615585001
 40
0.9999999999999999
 40
0.9999999999999999
 40
0.9999999999999999
 40
0.9999999999999999
 10
1192.432930786872
 20
8581.910591019077
 30
0.0
 10
1193.292165284269
 20
8580.666265521972
 30
0.0
 10
1195.041376806042
 20
8578.133093840706
 30
0.0
 10
1196.791465696238
 20
8575.59865157277
 30
0.0
 10
1197.681889114735
 20
8574.309158929944
 30
0.0
  0
SPLINE
  5
A4
330
1F
100
AcDbEntity
  8
0
  6
Continuous
 62
     7
370
    25
100
AcDbSpline
210
0.0
220
0.0
230
1.0
 70
    24
 71
     3
 72
    11
 73
     7
 74
     0
 42
0.00000001
 43
0.00000001
 40
0.0
 40
0.0
 40
0.0
 40
0.0
 40
0.0135174075564533
 40
0.4378140192517082
 40
0.8734727424333388
 40
1.0
 40
1.0
 40
1.0
 40
1.0
 10
1197.681889114735
 20
8574.309158929944
 30
0.0
 10
1197.664246780547
 20
8574.271960799593
 30
0.0
 10
1197.092830907517
 20
8573.067154116781
 30
0.0
 10
1195.93695929715
 20
8570.630046737777
 30
0.0
 10
1194.623548708525
 20
8567.860774953186
 30
0.0
 10
1193.888718147326
 20
8566.311415173992
 30
0.0
 10
1193.723334984337
 20
8565.962711630043
 30
0.0
  0
SPLINE
  5
A5
330
1F
100
AcDbEntity
  8
0
  6
Continuous
 62
     7
370
    25
100
AcDbSpline
210
0.0
220
0.0
230
1.0
 70
    24
 71
     3
 72
     9
 73
     5
 74
     0
 42
0.00000001
 43
0.00000001
 40
0.0
 40
0.0
 40
0.0
 40
0.0
 40
0.4912124615584992
 40
1.0
 40
1.0
 40
1.0
 40
1.0
 10
1193.723334984337
 20
8565.962711630043
 30
0.0
 10
1192.216100244569
 20
8565.840755476042
 30
0.0
 10
1189.147703455558
 20
8565.592479702227
 30
0.0
 10
1186.077767622003
 20
8565.344079398405
 30
0.0
 10
1184.515822526074
 20
8565.217696419273
 30
0.0
  0
SPLINE
  5
A6
330
1F
100
AcDbEntity
  8
0
  6
Continuous
 62
     7
370
    25
100
AcDbSpline
210
0.0
220
0.0
230
1.0
 70
    24
 71
     3
 72
     9
 73
     5
 74
     0
 42
0.00000001
 43
0.00000001
 40
0.0
 40
0.0
 40
0.0
 40
0.0
 40
0.4912124615585027
 40
0.9999999999999999
 40
0.9999999999999999
 40
0.9999999999999999
 40
0.9999999999999999
 10
1184.515822526074
 20
8565.217696419273
 30
0.0
 10
1183.656588028677
 20
8566.462021916377
 30
0.0
 10
1181.907376506904
 20
8568.995193597644
 30
0.0
 10
1180.157287616707
 20
8571.529635865581
 30
0.0
 10
1179.266864198211
 20
8572.819128508407
 30
0.0
  0
SPLINE
  5
A7
330
1F
100
AcDbEntity
  8
0
  6
Continuous
 62
     7
370
    25
100
AcDbSpline
210
0.0
220
0.0
230
1.0
 70
    24
 71
     3
 72
    11
 73
     7
 74
     0
 42
0.00000001
 43
0.00000001
 40
0.0
 40
0.0
 40
0.0
 40
0.0
 40
0.1265265638841775
 40
0.550477395473474
 40
0.9864826276262932
 40
1.0
 40
1.0
 40
1.0
 40
1.0
 10
1179.266864198211
 20
8572.819128508407
 30
0.0
 10
1179.4322495178
 20
8573.167836599454
 30
0.0
 10
1180.151789171624
 20
8574.684956134264
 30
0.0
 10
1181.46450398389
 20
8577.452760903243
 30
0.0
 10
1182.62107680042
 20
8579.891346746379
 30
0.0
 10
1183.207775986944
 20
8581.12837766219
 30
0.0
 10
1183.22541832861
 20
8581.165575808309
 30
0.0
  0
CIRCLE
  5
A8
330
1F
100
AcDbEntity
  8
0
  6
Continuous
 62
     7
370
    25
100
AcDbCircle
 10
1188.4743766565
 20
8573.5641437192
 30
0.0
 40
7.252522580545262
  0
CIRCLE
  5
A9
330
1F
100
AcDbEntity
  8
0
  6
Continuous
 62
     7
370
    25
100
AcDbCircle
 10
1112.1068442883
 20
8497.196611351
 30
0.0
 40
7.252522580545468
  0
SPLINE
  5
AA
330
1F
100
AcDbEntity
  8
0
  6
Continuous
 62
     7
370
    25
100
AcDbSpline
210
0.0
220
0.0
230
1.0
 70
    24
 71
     3
 72
     9
 73
     5
 74
     0
 42
0.00000001
 43
0.00000001
 40
0.0
 40
0.0
 40
0.0
 40
0.0
 40
0.4912124615585006
 40
1.0
 40
1.0
 40
1.0
 40
1.0
 10
1106.857885960462
 20
8504.798043440162
 30
0.0
 10
1108.36512070023
 20
8504.919999594162
 30
0.0
 10
1111.433517489241
 20
8505.168275367976
 30
0.0
 10
1114.503453322797
 20
8505.4166756718
 30
0.0
 10
1116.065398418724
 20
8505.54305865093
 30
0.0
  0
SPLINE
  5
AB
330
1F
100
AcDbEntity
  8
0
  6
Continuous
 62
     7
370
    25
100
AcDbSpline
210
0.0
220
0.0
230
1.0
 70
    24
 71
     3
 72
     9
 73
     5
 74
     0
 42
0.00000001
 43
0.00000001
 40
0.0
 40
0.0
 40
0.0
 40
0.0
 40
0.4912124615585001
 40
0.9999999999999999
 40
0.9999999999999999
 40
0.9999999999999999
 40
0.9999999999999999
 10
1116.065398418724
 20
8505.54305865093
 30
0.0
 10
1116.924632916121
 20
8504.298733153824
 30
0.0
 10
1118.673844437895
 20
8501.765561472559
 30
0.0
 10
1120.423933328091
 20
8499.231119204624
 30
0.0
 10
1121.314356746588
 20
8497.941626561797
 30
0.0
  0
SPLINE
  5
AC
330
1F
100
AcDbEntity
  8
0
  6
Continuous
 62
     7
370
    25
100
AcDbSpline
210
0.0
220
0.0
230
1.0
 70
    24
 71
     3
 72
    11
 73
     7
 74
     0
 42
0.00000001
 43
0.00000001
 40
0.0
 40
0.0
 40
0.0
 40
0.0
 40
0.0135174075564533
 40
0.4378140192517083
 40
0.8734727424333443
 40
1.0
 40
1.0
 40
1.0
 40
1.0
 10
1121.314356746588
 20
8497.941626561797
 30
0.0
 10
1121.2967144124
 20
8497.904428431446
 30
0.0
 10
1120.72529853937
 20
8496.699621748634
 30
0.0
 10
1119.569426929002
 20
8494.26251436963
 30
0.0
 10
1118.256016340378
 20
8491.493242585038
 30
0.0
 10
1117.521185779179
 20
8489.943882805845
 30
0.0
 10
1117.355802616189
 20
8489.595179261896
 30
0.0
  0
SPLINE
  5
AD
330
1F
100
AcDbEntity
  8
0
  6
Continuous
 62
     7
370
    25
100
AcDbSpline
210
0.0
220
0.0
230
1.0
 70
    24
 71
     3
 72
     9
 73
     5
 74
     0
 42
0.00000001
 43
0.00000001
 40
0.0
 40
0.0
 40
0.0
 40
0.0
 40
0.4912124615584992
 40
1.0
 40
1.0
 40
1.0
 40
1.0
 10
1117.355802616189
 20
8489.595179261896
 30
0.0
 10
1115.848567876421
 20
8489.473223107894
 30
0.0
 10
1112.780171087411
 20
8489.22494733408
 30
0.0
 10
1109.710235253855
 20
8488.976547030257
 30
0.0
 10
1108.148290157927
 20
8488.850164051126
 30
0.0
  0
SPLINE
  5
AE
330
1F
100
AcDbEntity
  8
0
  6
Continuous
 62
     7
370
    25
100
AcDbSpline
210
0.0
220
0.0
230
1.0
 70
    24
 71
     3
 72
     9
 73
     5
 74
     0
 42
0.00000001
 43
0.00000001
 40
0.0
 40
0.0
 40
0.0
 40
0.0
 40
0.4912124615585027
 40
0.9999999999999999
 40
0.9999999999999999
 40
0.9999999999999999
 40
0.9999999999999999
 10
1108.148290157927
 20
8488.850164051126
 30
0.0
 10
1107.28905566053
 20
8490.09448954823
 30
0.0
 10
1105.539844138757
 20
8492.627661229497
 30
0.0
 10
1103.789755248561
 20
8495.162103497434
 30
0.0
 10
1102.899331830064
 20
8496.45159614026
 30
0.0
  0
SPLINE
  5
AF
330
1F
100
AcDbEntity
  8
0
  6
Continuous
 62
     7
370
    25
100
AcDbSpline
210
0.0
220
0.0
230
1.0
 70
    24
 71
     3
 72
    11
 73
     7
 74
     0
 42
0.00000001
 43
0.00000001
 40
0.0
 40
0.0
 40
0.0
 40
0.0
 40
0.1265265638841777
 40
0.550477395473474
 40
0.9864826276262932
 40
1.0
 40
1.0
 40
1.0
 40
1.0
 10
1102.899331830064
 20
8496.45159614026
 30
0.0
 10
1103.064717149652
 20
8496.800304231307
 30
0.0
 10
1103.784256803477
 20
8498.317423766117
 30
0.0
 10
1105.096971615743
 20
8501.085228535096
 30
0.0
 10
1106.253544432273
 20
8503.523814378232
 30
0.0
 10
1106.840243618796
 20
8504.760845294042
 30
0.0
 10
1106.857885960462
 20
8504.798043440162
 30
0.0
  0
LINE
  5
B0
330
1F
100
AcDbEntity
  8
0
  6
Continuous
 62
     7
370
    25
100
AcDbLine
 10
810.2906104724
 20
8959.7763725417
 30
0.0
 11
811.2906104724
 21
8959.7763725417
 31
0.0
  0
LINE
  5
B1
330
1F
100
AcDbEntity
  8
0
  6
Continuous
 62
     7
370
    25
100
AcDbLine
 10
811.2906104724
 20
9169.7763725418
 30
0.0
 11
810.2906104724
 21
9169.7763725418
 31
0.0
  0
LINE
  5
B2
330
1F
100
AcDbEntity
  8
0
  6
Continuous
 62
     7
370
    25
100
AcDbLine
 10
811.2906104724
 20
8959.7763725417
 30
0.0
 11
811.2906104724
 21
9169.7763725418
 31
0.0
  0
LINE
  5
B3
330
1F
100
AcDbEntity
  8
0
  6
Continuous
 62
     7
370
    25
100
AcDbLine
 10
1489.2906104724
 20
9169.7763725418
 30
0.0
 11
1489.2906104724
 21
8959.7763725417
 31
0.0
  0
LINE
  5
B4
330
1F
100
AcDbEntity
  8
0
  6
Continuous
 62
     7
370
    25
100
AcDbLine
 10
1490.2906104724
 20
9169.7763725418
 30
0.0
 11
1489.2906104724
 21
9169.7763725418
 31
0.0
  0
LINE
  5
B5
330
1F
100
AcDbEntity
  8
0
  6
Continuous
 62
     7
370
    25
100
AcDbLine
 10
1489.2906104724
 20
8959.7763725417
 30
0.0
 11
1490.2906104724
 21
8959.7763725417
 31
0.0
  0
LINE
  5
B6
330
1F
100
AcDbEntity
  8
0
  6
Continuous
 62
     7
370
    25
100
AcDbLine
 10
920.2906104724
 20
8959.7763725417
 30
0.0
 11
920.2906104724
 21
8840.7763725417
 31
0.0
  0
LINE
  5
B7
330
1F
100
AcDbEntity
  8
0
  6
Continuous
 62
     7
370
    25
100
AcDbLine
 10
811.2906104724
 20
8959.7763725417
 30
0.0
 11
920.2906104724
 21
8959.7763725417
 31
0.0
  0
LINE
  5
B8
330
1F
100
AcDbEntity
  8
0
  6
Continuous
 62
     7
370
    25
100
AcDbLine
 10
920.2906104724
 20
9169.7763725418
 30
0.0
 11
811.2906104724
 21
9169.7763725418
 31
0.0
  0
LINE
  5
B9
330
1F
100
AcDbEntity
  8
0
  6
Continuous
 62
     7
370
    25
100
AcDbLine
 10
920.2906104724
 20
9288.7763725417
 30
0.0
 11
920.2906104724
 21
9169.7763725418
 31
0.0
  0
LINE
  5
BA
330
1F
100
AcDbEntity
  8
0
  6
Continuous
 62
     7
370
    25
100
AcDbLine
 10
1380.2906104724
 20
9288.7763725417
 30
0.0
 11
920.2906104724
 21
9288.7763725417
 31
0.0
  0
LINE
  5
BB
330
1F
100
AcDbEntity
  8
0
  6
Continuous
 62
     7
370
    25
100
AcDbLine
 10
1380.2906104724
 20
9169.7763725418
 30
0.0
 11
1380.2906104724
 21
9288.7763725417
 31
0.0
  0
LINE
  5
BC
330
1F
100
AcDbEntity
  8
0
  6
Continuous
 62
     7
370
    25
100
AcDbLine
 10
1489.2906104724
 20
9169.7763725418
 30
0.0
 11
1380.2906104724
 21
9169.7763725418
 31
0.0
  0
LINE
  5
BD
330
1F
100
AcDbEntity
  8
0
  6
Continuous
 62
     7
370
    25
100
AcDbLine
 10
1380.2906104724
 20
8959.7763725417
 30
0.0
 11
1489.2906104724
 21
8959.7763725417
 31
0.0
  0
LINE
  5
BE
330
1F
100
AcDbEntity
  8
0
  6
Continuous
 62
     7
370
    25
100
AcDbLine
 10
1380.2906104724
 20
8840.7763725417
 30
0.0
 11
1380.2906104724
 21
8959.7763725417
 31
0.0
  0
LINE
  5
BF
330
1F
100
AcDbEntity
  8
0
  6
Continuous
 62
     7
370
    25
100
AcDbLine
 10
920.2906104724
 20
8840.7763725417
 30
0.0
 11
1380.2906104724
 21
8840.7763725417
 31
0.0
  0
CIRCLE
  5
C0
330
1F
100
AcDbEntity
  8
0
  6
Continuous
 62
     7
370
    25
100
AcDbCircle
 10
1273.2906104724
 20
9187.7763725418
 30
0.0
 40
9.0
  0
CIRCLE
  5
C1
330
1F
100
AcDbEntity
  8
0
  6
Continuous
 62
     7
370
    25
100
AcDbCircle
 10
1273.2906104724
 20
8941.7763725418
 30
0.0
 40
9.0
  0
CIRCLE
  5
C2
330
1F
100
AcDbEntity
  8
0
  6
Continuous
 62
     7
370
    25
100
AcDbCircle
 10
1027.2906104724
 20
8941.7763725418
 30
0.0
 40
9.000000000000114
  0
CIRCLE
  5
C3
330
1F
100
AcDbEntity
  8
0
  6
Continuous
 62
     7
370
    25
100
AcDbCircle
 10
1027.2906104724
 20
9187.7763725418
 30
0.0
 40
9.000000000000114
  0
LINE
  5
C4
330
1F
100
AcDbEntity
  8
0
  6
Continuous
 62
     7
370
    25
100
AcDbLine
 10
1380.2906104724
 20
9292.7763725417
 30
0.0
 11
920.2906104724
 21
9292.7763725417
 31
0.0
  0
LINE
  5
C5
330
1F
100
AcDbEntity
  8
0
  6
Continuous
 62
     7
370
    25
100
AcDbLine
 10
1380.2906104724
 20
9292.7763725417
 30
0.0
 11
1380.2906104724
 21
9288.7763725417
 31
0.0
  0
LINE
  5
C6
330
1F
100
AcDbEntity
  8
0
  6
Continuous
 62
     7
370
    25
100
AcDbLine
 10
920.2906104724
 20
9288.7763725417
 30
0.0
 11
920.2906104724
 21
9292.7763725417
 31
0.0
  0
LINE
  5
C7
330
1F
100
AcDbEntity
  8
0
  6
Continuous
 62
     7
370
    25
100
AcDbLine
 10
920.2906104724
 20
8836.7763725417
 30
0.0
 11
1380.2906104724
 21
8836.7763725417
 31
0.0
  0
LINE
  5
C8
330
1F
100
AcDbEntity
  8
0
  6
Continuous
 62
     7
370
    25
100
AcDbLine
 10
920.2906104724
 20
8836.7763725417
 30
0.0
 11
920.2906104724
 21
8840.7763725417
 31
0.0
  0
LINE
  5
C9
330
1F
100
AcDbEntity
  8
0
  6
Continuous
 62
     7
370
    25
100
AcDbLine
 10
1380.2906104724
 20
8840.7763725417
 30
0.0
 11
1380.2906104724
 21
8836.7763725417
 31
0.0
  0
LINE
  5
CA
330
1F
100
AcDbEntity
  8
0
  6
Continuous
 62
     7
370
    25
100
AcDbLine
 10
1480.2906104724
 20
8452.8803775351
 30
0.0
 11
820.2906104724
 21
8452.8803775351
 31
0.0
  0
LINE
  5
CB
330
1F
100
AcDbEntity
  8
0
  6
Continuous
 62
     7
370
    25
100
AcDbLine
 10
1480.2906104724
 20
8449.8803775351
 30
0.0
 11
820.2906104724
 21
8449.8803775351
 31
0.0
  0
LINE
  5
CC
330
1F
100
AcDbEntity
  8
0
  6
Continuous
 62
     7
370
    25
100
AcDbLine
 10
1480.2906104724
 20
8476.8803775351
 30
0.0
 11
1205.2906104724
 21
8476.8803775351
 31
0.0
  0
LINE
  5
CD
330
1F
100
AcDbEntity
  8
0
  6
Continuous
 62
     7
370
    25
100
AcDbLine
 10
1480.2906104724
 20
8479.8803775351
 30
0.0
 11
1205.2906104724
 21
8479.8803775351
 31
0.0
  0
LINE
  5
CE
330
1F
100
AcDbEntity
  8
0
  6
Continuous
 62
     7
370
    25
100
AcDbLine
 10
820.2906104724
 20
8434.8803775351
 30
0.0
 11
820.2906104724
 21
8452.8803775351
 31
0.0
  0
LINE
  5
CF
330
1F
100
AcDbEntity
  8
0
  6
Continuous
 62
     7
370
    25
100
AcDbLine
 10
814.2906104724
 20
8434.8803775351
 30
0.0
 11
820.2906104724
 21
8434.8803775351
 31
0.0
  0
LINE
  5
D0
330
1F
100
AcDbEntity
  8
0
  6
Continuous
 62
     7
370
    25
100
AcDbLine
 10
814.2906104724
 20
8434.8803775351
 30
0.0
 11
814.2906104724
 21
8494.8803775351
 31
0.0
  0
LINE
  5
D1
330
1F
100
AcDbEntity
  8
0
  6
Continuous
 62
     7
370
    25
100
AcDbLine
 10
814.2906104724
 20
8494.8803775351
 30
0.0
 11
820.2906104724
 21
8494.8803775351
 31
0.0
  0
LINE
  5
D2
330
1F
100
AcDbEntity
  8
0
  6
Continuous
 62
     7
370
    25
100
AcDbLine
 10
820.2906104724
 20
8476.8803775351
 30
0.0
 11
820.2906104724
 21
8494.8803775351
 31
0.0
  0
LINE
  5
D3
330
1F
100
AcDbEntity
  8
0
  6
Continuous
 62
     7
370
    25
100
AcDbLine
 10
1095.2906104724
 20
8476.8803775351
 30
0.0
 11
820.2906104724
 21
8476.8803775351
 31
0.0
  0
LINE
  5
D4
330
1F
100
AcDbEntity
  8
0
  6
Continuous
 62
     7
370
    25
100
AcDbLine
 10
1095.2906104724
 20
8590.8803775351
 30
0.0
 11
1095.2906104724
 21
8476.8803775351
 31
0.0
  0
LINE
  5
D5
330
1F
100
AcDbEntity
  8
0
  6
Continuous
 62
     7
370
    25
100
AcDbLine
 10
1205.2906104724
 20
8590.8803775351
 30
0.0
 11
1095.2906104724
 21
8590.8803775351
 31
0.0
  0
LINE
  5
D6
330
1F
100
AcDbEntity
  8
0
  6
Continuous
 62
     7
370
    25
100
AcDbLine
 10
1205.2906104724
 20
8476.8803775351
 30
0.0
 11
1205.2906104724
 21
8590.8803775351
 31
0.0
  0
CIRCLE
  5
D7
330
1F
100
AcDbEntity
  8
0
  6
Continuous
 62
     7
370
    25
100
AcDbCircle
 10
1150.2906104724
 20
8535.3803775351
 30
0.0
 40
26.99999999999818
  0
LINE
  5
D8
330
1F
100
AcDbEntity
  8
0
  6
Continuous
 62
     7
370
    25
100
AcDbLine
 10
1480.2906104724
 20
8476.8803775351
 30
0.0
 11
1480.2906104724
 21
8494.8803775351
 31
0.0
  0
LINE
  5
D9
330
1F
100
AcDbEntity
  8
0
  6
Continuous
 62
     7
370
    25
100
AcDbLine
 10
1480.2906104724
 20
8434.8803775351
 30
0.0
 11
1480.2906104724
 21
8452.8803775351
 31
0.0
  0
LINE
  5
DA
330
1F
100
AcDbEntity
  8
0
  6
Continuous
 62
     7
370
    25
100
AcDbLine
 10
1486.2906104724
 20
8434.8803775351
 30
0.0
 11
1486.2906104724
 21
8494.8803775351
 31
0.0
  0
LINE
  5
DB
330
1F
100
AcDbEntity
  8
0
  6
Continuous
 62
     7
370
    25
100
AcDbLine
 10
1486.2906104724
 20
8434.8803775351
 30
0.0
 11
1480.2906104724
 21
8434.8803775351
 31
0.0
  0
LINE
  5
DC
330
1F
100
AcDbEntity
  8
0
  6
Continuous
 62
     7
370
    25
100
AcDbLine
 10
1486.2906104724
 20
8494.8803775351
 30
0.0
 11
1480.2906104724
 21
8494.8803775351
 31
0.0
  0
LINE
  5
DD
330
1F
100
AcDbEntity
  8
0
  6
Continuous
 62
     7
370
    25
100
AcDbLine
 10
1095.2906104724
 20
8590.8803775351
 30
0.0
 11
1095.2906104724
 21
8596.8803775351
 31
0.0
  0
LINE
  5
DE
330
1F
100
AcDbEntity
  8
0
  6
Continuous
 62
     7
370
    25
100
AcDbLine
 10
1095.2906104724
 20
8596.8803775351
 30
0.0
 11
1205.2906104724
 21
8596.8803775351
 31
0.0
  0
LINE
  5
DF
330
1F
100
AcDbEntity
  8
0
  6
Continuous
 62
     7
370
    25
100
AcDbLine
 10
1205.2906104724
 20
8596.8803775351
 30
0.0
 11
1205.2906104724
 21
8590.8803775351
 31
0.0
  0
LINE
  5
E0
330
1F
100
AcDbEntity
  8
0
  6
Continuous
 62
     7
370
    25
100
AcDbLine
 10
1095.2906104724
 20
8479.8803775351
 30
0.0
 11
820.2906104724
 21
8479.8803775351
 31
0.0
  0
LINE
  5
E1
330
1F
100
AcDbEntity
  8
0
  6
Continuous
 62
     7
370
    25
100
AcDbLine
 10
1488.2906104724
 20
8494.8803775351
 30
0.0
 11
1488.2906104724
 21
8434.8803775351
 31
0.0
  0
LINE
  5
E2
330
1F
100
AcDbEntity
  8
0
  6
Continuous
 62
     7
370
    25
100
AcDbLine
 10
1488.2906104724
 20
8434.8803775351
 30
0.0
 11
1486.2906104724
 21
8434.8803775351
 31
0.0
  0
LINE
  5
E3
330
1F
100
AcDbEntity
  8
0
  6
Continuous
 62
     7
370
    25
100
AcDbLine
 10
1486.2906104724
 20
8494.8803775351
 30
0.0
 11
1488.2906104724
 21
8494.8803775351
 31
0.0
  0
LINE
  5
E4
330
1F
100
AcDbEntity
  8
0
  6
Continuous
 62
     7
370
    25
100
AcDbLine
 10
812.2906104724
 20
8434.8803775351
 30
0.0
 11
812.2906104724
 21
8494.8803775351
 31
0.0
  0
LINE
  5
E5
330
1F
100
AcDbEntity
  8
0
  6
Continuous
 62
     7
370
    25
100
AcDbLine
 10
814.2906104724
 20
8434.8803775351
 30
0.0
 11
812.2906104724
 21
8434.8803775351
 31
0.0
  0
LINE
  5
E6
330
1F
100
AcDbEntity
  8
0
  6
Continuous
 62
     7
370
    25
100
AcDbLine
 10
812.2906104724
 20
8494.8803775351
 30
0.0
 11
814.2906104724
 21
8494.8803775351
 31
0.0
  0
LINE
  5
E7
330
1F
100
AcDbEntity
  8
0
  6
Continuous
 62
     7
370
    25
100
AcDbLine
 10
1490.2906104724
 20
8434.8803775351
 30
0.0
 11
1488.2906104724
 21
8434.8803775351
 31
0.0
  0
LINE
  5
E8
330
1F
100
AcDbEntity
  8
0
  6
Continuous
 62
     7
370
    25
100
AcDbLine
 10
1490.2906104724
 20
8494.8803775351
 30
0.0
 11
1488.2906104724
 21
8494.8803775351
 31
0.0
  0
LINE
  5
E9
330
1F
100
AcDbEntity
  8
0
  6
Continuous
 62
     7
370
    25
100
AcDbLine
 10
810.2906104724
 20
8434.8803775351
 30
0.0
 11
812.2906104724
 21
8434.8803775351
 31
0.0
  0
LINE
  5
EA
330
1F
100
AcDbEntity
  8
0
  6
Continuous
 62
     7
370
    25
100
AcDbLine
 10
810.2906104724
 20
8494.8803775351
 30
0.0
 11
812.2906104724
 21
8494.8803775351
 31
0.0
  0
CIRCLE
  5
EB
330
1F
100
AcDbEntity
  8
0
  6
Continuous
 62
     7
370
    25
100
AcDbCircle
 10
910.2906104724
 20
8253.7763725417
 30
0.0
 40
8.0
  0
CIRCLE
  5
EC
330
1F
100
AcDbEntity
  8
0
  6
Continuous
 62
     7
370
    25
100
AcDbCircle
 10
910.2906104724
 20
8253.7763725417
 30
0.0
 40
10.0
  0
LINE
  5
ED
330
1F
100
AcDbEntity
  8
0
  6
Continuous
 62
     7
370
    25
100
AcDbLine
 10
878.7906104724
 20
8266.2763725418
 30
0.0
 11
878.7906104724
 21
8241.2763725418
 31
0.0
  0
LINE
  5
EE
330
1F
100
AcDbEntity
  8
0
  6
Continuous
 62
     7
370
    25
100
AcDbLine
 10
941.7906104724
 20
8241.2763725418
 30
0.0
 11
941.7906104724
 21
8266.2763725418
 31
0.0
  0
CIRCLE
  5
EF
330
1F
100
AcDbEntity
  8
0
  6
Continuous
 62
     7
370
    25
100
AcDbCircle
 10
1390.2906104724
 20
8253.7763725417
 30
0.0
 40
8.0
  0
CIRCLE
  5
F0
330
1F
100
AcDbEntity
  8
0
  6
Continuous
 62
     7
370
    25
100
AcDbCircle
 10
1390.2906104724
 20
8253.7763725417
 30
0.0
 40
10.0
  0
LINE
  5
F1
330
1F
100
AcDbEntity
  8
0
  6
Continuous
 62
     7
370
    25
100
AcDbLine
 10
1421.7906104724
 20
8241.2763725418
 30
0.0
 11
1421.7906104724
 21
8266.2763725418
 31
0.0
  0
LINE
  5
F2
330
1F
100
AcDbEntity
  8
0
  6
Continuous
 62
     7
370
    25
100
AcDbLine
 10
1358.7906104724
 20
8266.2763725418
 30
0.0
 11
1358.7906104724
 21
8241.2763725418
 31
0.0
  0
LINE
  5
F3
330
1F
100
AcDbEntity
  8
0
  6
Continuous
 62
     7
370
    25
100
AcDbLine
 10
1486.2906104724
 20
8223.7763725418
 30
0.0
 11
814.2906104724
 21
8223.7763725418
 31
0.0
  0
LINE
  5
F4
330
1F
100
AcDbEntity
  8
0
  6
Continuous
 62
     7
370
    25
100
AcDbLine
 10
814.2906104724
 20
8227.7763725417
 30
0.0
 11
1486.2906104724
 21
8227.7763725417
 31
0.0
  0
LINE
  5
F5
330
1F
100
AcDbEntity
  8
0
  6
Continuous
 62
     7
370
    25
100
AcDbLine
 10
1486.2906104724
 20
8227.7763725417
 30
0.0
 11
1486.2906104724
 21
8223.7763725418
 31
0.0
  0
LINE
  5
F6
330
1F
100
AcDbEntity
  8
0
  6
Continuous
 62
     7
370
    25
100
AcDbLine
 10
814.2906104724
 20
8223.7763725418
 30
0.0
 11
814.2906104724
 21
8227.7763725417
 31
0.0
  0
LINE
  5
F7
330
1F
100
AcDbEntity
  8
0
  6
Continuous
 62
     7
370
    25
100
AcDbLine
 10
1486.2906104724
 20
8279.7763725417
 30
0.0
 11
814.2906104724
 21
8279.7763725417
 31
0.0
  0
LINE
  5
F8
330
1F
100
AcDbEntity
  8
0
  6
Continuous
 62
     7
370
    25
100
AcDbLine
 10
1486.2906104724
 20
8279.7763725417
 30
0.0
 11
1486.2906104724
 21
8227.7763725417
 31
0.0
  0
LINE
  5
F9
330
1F
100
AcDbEntity
  8
0
  6
Continuous
 62
     7
370
    25
100
AcDbLine
 10
1480.2906104724
 20
8266.2763725418
 30
0.0
 11
1480.2906104724
 21
8241.2763725418
 31
0.0
  0
LINE
  5
FA
330
1F
100
AcDbEntity
  8
0
  6
Continuous
 62
     7
370
    25
100
AcDbLine
 10
820.2906104724
 20
8266.2763725418
 30
0.0
 11
820.2906104724
 21
8241.2763725418
 31
0.0
  0
LINE
  5
FB
330
1F
100
AcDbEntity
  8
0
  6
Continuous
 62
     7
370
    25
100
AcDbLine
 10
814.2906104724
 20
8279.7763725417
 30
0.0
 11
814.2906104724
 21
8227.7763725417
 31
0.0
  0
LINE
  5
FC
330
1F
100
AcDbEntity
  8
0
  6
Continuous
 62
     7
370
    25
100
AcDbLine
 10
820.2906104724
 20
8241.2763725418
 30
0.0
 11
1480.2906104724
 21
8241.2763725418
 31
0.0
  0
LINE
  5
FD
330
1F
100
AcDbEntity
  8
0
  6
Continuous
 62
     7
370
    25
100
AcDbLine
 10
1480.2906104724
 20
8266.2763725418
 30
0.0
 11
820.2906104724
 21
8266.2763725418
 31
0.0
  0
LINE
  5
FE
330
1F
100
AcDbEntity
  8
0
  6
Continuous
 62
     7
370
    25
100
AcDbLine
 10
814.2906104724
 20
8283.7763725418
 30
0.0
 11
1486.2906104724
 21
8283.7763725418
 31
0.0
  0
LINE
  5
FF
330
1F
100
AcDbEntity
  8
0
  6
Continuous
 62
     7
370
    25
100
AcDbLine
 10
1486.2906104724
 20
8283.7763725418
 30
0.0
 11
1486.2906104724
 21
8279.7763725417
 31
0.0
  0
LINE
  5
100
330
1F
100
AcDbEntity
  8
0
  6
Continuous
 62
     7
370
    25
100
AcDbLine
 10
814.2906104724
 20
8279.7763725417
 30
0.0
 11
814.2906104724
 21
8283.7763725418
 31
0.0
  0
LINE
  5
101
330
1F
100
AcDbEntity
  8
0
  6
Continuous
 62
     7
370
    25
100
AcDbLine
 10
1486.2906104724
 20
8283.7763725418
 30
0.0
 11
1490.2906104724
 21
8283.7763725418
 31
0.0
  0
LINE
  5
102
330
1F
100
AcDbEntity
  8
0
  6
Continuous
 62
     7
370
    25
100
AcDbLine
 10
1490.2906104724
 20
8223.7763725418
 30
0.0
 11
1486.2906104724
 21
8223.7763725418
 31
0.0
  0
LINE
  5
103
330
1F
100
AcDbEntity
  8
0
  6
Continuous
 62
     7
370
    25
100
AcDbLine
 10
810.2906104724
 20
8283.7763725418
 30
0.0
 11
814.2906104724
 21
8283.7763725418
 31
0.0
  0
LINE
  5
104
330
1F
100
AcDbEntity
  8
0
  6
Continuous
 62
     7
370
    25
100
AcDbLine
 10
814.2906104724
 20
8223.7763725418
 30
0.0
 11
810.2906104724
 21
8223.7763725418
 31
0.0
  0
CIRCLE
  5
105
330
1F
100
AcDbEntity
  8
0
  6
Continuous
 62
     7
370
    25
100
AcDbCircle
 10
1150.2906104724
 20
7733.7763725418
 30
0.0
 40
55.0
  0
CIRCLE
  5
106
330
1F
100
AcDbEntity
  8
0
  6
Continuous
 62
     7
370
    25
100
AcDbCircle
 10
1150.2906104724
 20
7733.7763725418
 30
0.0
 40
51.0
  0
CIRCLE
  5
107
330
1F
100
AcDbEntity
  8
0
  6
Continuous
 62
     7
370
    25
100
AcDbCircle
 10
1150.2906104724
 20
7733.7763725418
 30
0.0
 40
65.0
  0
LWPOLYLINE
  5
108
330
1F
100
AcDbEntity
  8
0
  6
Continuous
 62
     7
370
    25
100
AcDbPolyline
 90
       28
 70
   128
 43
0.0
 10
1200.2906104724
 20
7573.995646981
 10
1200.0931026032
 20
7573.7632860764
 10
1199.2184350874
 20
7573.4566425821
 10
1197.6569281651
 20
7573.1575655281
 10
1195.4305019707
 20
7572.8702533006
 10
1192.5704106475
 20
7572.5987391335
 10
1189.1168036083
 20
7572.3468344905
 10
1185.1181619255
 20
7572.1180755606
 10
1180.6306177633
 20
7571.9156736178
 10
1175.7171664049
 20
7571.7424699416
 10
1170.4467819368
 20
7571.600895932
 10
1164.8934490042
 20
7571.4929389778
 10
1159.1351242285
 20
7571.420114558
 10
1153.2526418671
 20
7571.3834449677
 10
1147.3285790777
 20
7571.3834449677
 10
1141.4460967163
 20
7571.420114558
 10
1135.6877719406
 20
7571.4929389778
 10
1130.134439008
 20
7571.600895932
 10
1124.8640545399
 20
7571.7424699416
 10
1119.9506031815
 20
7571.9156736178
 10
1115.4630590192
 20
7572.1180755606
 10
1111.4644173365
 20
7572.3468344905
 10
1108.0108102973
 20
7572.5987391335
 10
1105.1507189741
 20
7572.8702533006
 10
1102.9242927797
 20
7573.1575655281
 10
1101.3627858574
 20
7573.4566425821
 10
1100.4881183416
 20
7573.7632860764
 10
1100.2906104724
 20
7573.995646981
  0
LINE
  5
109
330
1F
100
AcDbEntity
  8
0
  6
Continuous
 62
     7
370
    25
100
AcDbLine
 10
1213.2906104724
 20
7717.7763725418
 30
0.0
 11
1246.2906104724
 21
7717.7763725418
 31
0.0
  0
LINE
  5
10A
330
1F
100
AcDbEntity
  8
0
  6
Continuous
 62
     7
370
    25
100
AcDbLine
 10
1054.2906104724
 20
7717.7763725418
 30
0.0
 11
1087.2906104724
 21
7717.7763725418
 31
0.0
  0
LINE
  5
10B
330
1F
100
AcDbEntity
  8
0
  6
Continuous
 62
     7
370
    25
100
AcDbLine
 10
1054.2906104724
 20
7721.7763725418
 30
0.0
 11
1054.2906104724
 21
7717.7763725418
 31
0.0
  0
LINE
  5
10C
330
1F
100
AcDbEntity
  8
0
  6
Continuous
 62
     7
370
    25
100
AcDbLine
 10
1086.4079054577
 20
7721.7763725418
 30
0.0
 11
1054.2906104724
 21
7721.7763725418
 31
0.0
  0
LINE
  5
10D
330
1F
100
AcDbEntity
  8
0
  6
Continuous
 62
     7
370
    25
100
AcDbLine
 10
1246.2906104724
 20
7721.7763725418
 30
0.0
 11
1214.1733154871
 21
7721.7763725418
 31
0.0
  0
LINE
  5
10E
330
1F
100
AcDbEntity
  8
0
  6
Continuous
 62
     7
370
    25
100
AcDbLine
 10
1246.2906104724
 20
7717.7763725418
 30
0.0
 11
1246.2906104724
 21
7721.7763725418
 31
0.0
  0
LINE
  5
10F
330
1F
100
AcDbEntity
  8
0
  6
Continuous
 62
     7
370
    25
100
AcDbLine
 10
1246.2906104724
 20
7749.7763725418
 30
0.0
 11
1213.2906104724
 21
7749.7763725418
 31
0.0
  0
LINE
  5
110
330
1F
100
AcDbEntity
  8
0
  6
Continuous
 62
     7
370
    25
100
AcDbLine
 10
1246.2906104724
 20
7745.7763725418
 30
0.0
 11
1246.2906104724
 21
7749.7763725418
 31
0.0
  0
LINE
  5
111
330
1F
100
AcDbEntity
  8
0
  6
Continuous
 62
     7
370
    25
100
AcDbLine
 10
1214.1733154871
 20
7745.7763725418
 30
0.0
 11
1246.2906104724
 21
7745.7763725418
 31
0.0
  0
LINE
  5
112
330
1F
100
AcDbEntity
  8
0
  6
Continuous
 62
     7
370
    25
100
AcDbLine
 10
1054.2906104724
 20
7745.7763725418
 30
0.0
 11
1086.4079054577
 21
7745.7763725418
 31
0.0
  0
LINE
  5
113
330
1F
100
AcDbEntity
  8
0
  6
Continuous
 62
     7
370
    25
100
AcDbLine
 10
1087.2906104724
 20
7749.7763725418
 30
0.0
 11
1054.2906104724
 21
7749.7763725418
 31
0.0
  0
LINE
  5
114
330
1F
100
AcDbEntity
  8
0
  6
Continuous
 62
     7
370
    25
100
AcDbLine
 10
1054.2906104724
 20
7749.7763725418
 30
0.0
 11
1054.2906104724
 21
7745.7763725418
 31
0.0
  0
LINE
  5
115
330
1F
100
AcDbEntity
  8
0
  6
Continuous
 62
     7
370
    25
100
AcDbLine
 10
1135.2795034735
 20
7797.0192904588
 30
0.0
 11
1135.2795034735
 21
7814.7763725418
 31
0.0
  0
LINE
  5
116
330
1F
100
AcDbEntity
  8
0
  6
Continuous
 62
     7
370
    25
100
AcDbLine
 10
1135.2795034735
 20
7814.7763725418
 30
0.0
 11
1142.7850569729
 21
7814.7763725418
 31
0.0
  0
LINE
  5
117
330
1F
100
AcDbEntity
  8
0
  6
Continuous
 62
     7
370
    25
100
AcDbLine
 10
1142.7850569729
 20
7798.3415850533
 30
0.0
 11
1142.7850569729
 21
7814.7763725418
 31
0.0
  0
LINE
  5
118
330
1F
100
AcDbEntity
  8
0
  6
Continuous
 62
     7
370
    25
100
AcDbLine
 10
1157.7961639719
 20
7798.3415850533
 30
0.0
 11
1157.7961639719
 21
7814.7763725418
 31
0.0
  0
LINE
  5
119
330
1F
100
AcDbEntity
  8
0
  6
Continuous
 62
     7
370
    25
100
AcDbLine
 10
1157.7961639719
 20
7814.7763725418
 30
0.0
 11
1165.3017174713
 21
7814.7763725418
 31
0.0
  0
LINE
  5
11A
330
1F
100
AcDbEntity
  8
0
  6
Continuous
 62
     7
370
    25
100
AcDbLine
 10
1165.3017174713
 20
7797.0192904588
 30
0.0
 11
1165.3017174713
 21
7814.7763725418
 31
0.0
  0
LINE
  5
11B
330
1F
100
AcDbEntity
  8
0
  6
Continuous
 62
     7
370
    25
100
AcDbLine
 10
1142.7850569729
 20
7814.7763725418
 30
0.0
 11
1157.7961639719
 21
7814.7763725418
 31
0.0
  0
LINE
  5
11C
330
1F
100
AcDbEntity
  8
0
  6
Continuous
 62
     7
370
    25
100
AcDbLine
 10
1237.2906104724
 20
7709.7763725418
 30
0.0
 11
1232.7906104724
 21
7709.7763725418
 31
0.0
  0
SPLINE
  5
11D
330
1F
100
AcDbEntity
  8
0
  6
Continuous
 62
     7
370
    25
100
AcDbSpline
210
0.0
220
0.0
230
1.0
 70
    24
 71
     3
 72
    12
 73
     8
 74
     0
 42
0.00000001
 43
0.00000001
 40
0.0
 40
0.0
 40
0.0
 40
0.0
 40
0.1252589097461053
 40
0.3963794982280563
 40
0.6567784500644084
 40
0.9113888296389078
 40
1.0
 40
1.0
 40
1.0
 40
1.0
 10
1232.7906104724
 20
7709.776372541751
 30
0.0
 10
1232.7906104724
 20
7709.786864158906
 30
0.0
 10
1232.7906104724
 20
7709.820064686928
 30
0.0
 10
1232.7906104724
 20
7710.220728319915
 30
0.0
 10
1232.7906104724
 20
7711.110628765995
 30
0.0
 10
1232.7906104724
 20
7712.04319140685
 30
0.0
 10
1232.7906104724
 20
7712.625925307448
 30
0.0
 10
1232.7906104724
 20
7712.776372541751
 30
0.0
  0
LINE
  5
11E
330
1F
100
AcDbEntity
  8
0
  6
Continuous
 62
     7
370
    25
100
AcDbLine
 10
1232.7906104724
 20
7712.7763725418
 30
0.0
 11
1229.7906104724
 21
7712.7763725418
 31
0.0
  0
SPLINE
  5
11F
330
1F
100
AcDbEntity
  8
0
  6
Continuous
 62
     7
370
    25
100
AcDbSpline
210
0.0
220
0.0
230
1.0
 70
    24
 71
     3
 72
    12
 73
     8
 74
     0
 42
0.00000001
 43
0.00000001
 40
0.0
 40
0.0
 40
0.0
 40
0.0
 40
0.0193846634676387
 40
0.2693276308745756
 40
0.5202342974107284
 40
0.7735218441625005
 40
1.0
 40
1.0
 40
1.0
 40
1.0
 10
1229.7906104724
 20
7712.776372541751
 30
0.0
 10
1229.7906104724
 20
7712.743226028598
 30
0.0
 10
1229.7906104724
 20
7712.282693305173
 30
0.0
 10
1229.7906104724
 20
7711.433585433692
 30
0.0
 10
1229.7906104724
 20
7710.478355736373
 30
0.0
 10
1229.7906104724
 20
7709.880369286623
 30
0.0
 10
1229.7906104724
 20
7709.809722199537
 30
0.0
 10
1229.7906104724
 20
7709.776372541751
 30
0.0
  0
LINE
  5
120
330
1F
100
AcDbEntity
  8
0
  6
Continuous
 62
     7
370
    25
100
AcDbLine
 10
1229.7906104724
 20
7709.7763725418
 30
0.0
 11
1225.2906104724
 21
7709.7763725418
 31
0.0
  0
LINE
  5
121
330
1F
100
AcDbEntity
  8
0
  6
Continuous
 62
     7
370
    25
100
AcDbLine
 10
1075.2906104724
 20
7709.7763725418
 30
0.0
 11
1070.7906104724
 21
7709.7763725418
 31
0.0
  0
LINE
  5
122
330
1F
100
AcDbEntity
  8
0
  6
Continuous
 62
     7
370
    25
100
AcDbLine
 10
1070.7906104724
 20
7712.7763725418
 30
0.0
 11
1067.7906104724
 21
7712.7763725418
 31
0.0
  0
SPLINE
  5
123
330
1F
100
AcDbEntity
  8
0
  6
Continuous
 62
     7
370
    25
100
AcDbSpline
210
0.0
220
0.0
230
1.0
 70
    24
 71
     3
 72
    12
 73
     8
 74
     0
 42
0.00000001
 43
0.00000001
 40
0.0
 40
0.0
 40
0.0
 40
0.0
 40
0.0193846634676387
 40
0.2693276308745756
 40
0.5202342974107284
 40
0.7735218441625005
 40
1.0
 40
1.0
 40
1.0
 40
1.0
 10
1067.7906104724
 20
7712.776372541751
 30
0.0
 10
1067.7906104724
 20
7712.743226028598
 30
0.0
 10
1067.7906104724
 20
7712.282693305173
 30
0.0
 10
1067.7906104724
 20
7711.433585433692
 30
0.0
 10
1067.7906104724
 20
7710.478355736373
 30
0.0
 10
1067.7906104724
 20
7709.880369286623
 30
0.0
 10
1067.7906104724
 20
7709.809722199537
 30
0.0
 10
1067.7906104724
 20
7709.776372541751
 30
0.0
  0
LINE
  5
124
330
1F
100
AcDbEntity
  8
0
  6
Continuous
 62
     7
370
    25
100
AcDbLine
 10
1067.7906104724
 20
7709.7763725418
 30
0.0
 11
1063.2906104724
 21
7709.7763725418
 31
0.0
  0
SPLINE
  5
125
330
1F
100
AcDbEntity
  8
0
  6
Continuous
 62
     7
370
    25
100
AcDbSpline
210
0.0
220
0.0
230
1.0
 70
    24
 71
     3
 72
    12
 73
     8
 74
     0
 42
0.00000001
 43
0.00000001
 40
0.0
 40
0.0
 40
0.0
 40
0.0
 40
0.1252589097461042
 40
0.3963794982280579
 40
0.6567784500644094
 40
0.911388829638908
 40
1.0
 40
1.0
 40
1.0
 40
1.0
 10
1070.7906104724
 20
7709.776372541751
 30
0.0
 10
1070.7906104724
 20
7709.786864158906
 30
0.0
 10
1070.7906104724
 20
7709.820064686928
 30
0.0
 10
1070.7906104724
 20
7710.220728319915
 30
0.0
 10
1070.7906104724
 20
7711.110628765995
 30
0.0
 10
1070.7906104724
 20
7712.04319140685
 30
0.0
 10
1070.7906104724
 20
7712.625925307448
 30
0.0
 10
1070.7906104724
 20
7712.776372541751
 30
0.0
  0
LINE
  5
126
330
1F
100
AcDbEntity
  8
0
  6
Continuous
 62
     7
370
    25
100
AcDbLine
 10
1223.2906104724
 20
7752.7763725418
 30
0.0
 11
1239.2906104724
 21
7752.7763725418
 31
0.0
  0
LINE
  5
127
330
1F
100
AcDbEntity
  8
0
  6
Continuous
 62
     7
370
    25
100
AcDbLine
 10
1061.2906104724
 20
7752.7763725418
 30
0.0
 11
1077.2906104724
 21
7752.7763725418
 31
0.0
  0
LINE
  5
128
330
1F
100
AcDbEntity
  8
0
  6
Continuous
 62
     7
370
    25
100
AcDbLine
 10
1225.2906104724
 20
7761.7763725418
 30
0.0
 11
1237.2906104724
 21
7761.7763725418
 31
0.0
  0
LINE
  5
129
330
1F
100
AcDbEntity
  8
0
  6
Continuous
 62
     7
370
    25
100
AcDbLine
 10
1063.2906104724
 20
7761.7763725418
 30
0.0
 11
1075.2906104724
 21
7761.7763725418
 31
0.0
  0
LINE
  5
12A
330
1F
100
AcDbEntity
  8
0
  6
Continuous
 62
     7
370
    25
100
AcDbLine
 10
1480.2906104724
 20
7867.7763725418
 30
0.0
 11
820.2906104724
 21
7867.7763725418
 31
0.0
  0
LINE
  5
12B
330
1F
100
AcDbEntity
  8
0
  6
Continuous
 62
     7
370
    25
100
AcDbLine
 10
1480.2906104724
 20
7864.7763725418
 30
0.0
 11
820.2906104724
 21
7864.7763725418
 31
0.0
  0
LINE
  5
12C
330
1F
100
AcDbEntity
  8
0
  6
Continuous
 62
     7
370
    25
100
AcDbLine
 10
1486.2906104724
 20
7882.7763725418
 30
0.0
 11
1480.2906104724
 21
7882.7763725418
 31
0.0
  0
LINE
  5
12D
330
1F
100
AcDbEntity
  8
0
  6
Continuous
 62
     7
370
    25
100
AcDbLine
 10
1486.2906104724
 20
7822.7763725418
 30
0.0
 11
1486.2906104724
 21
7882.7763725418
 31
0.0
  0
LINE
  5
12E
330
1F
100
AcDbEntity
  8
0
  6
Continuous
 62
     7
370
    25
100
AcDbLine
 10
1486.2906104724
 20
7822.7763725418
 30
0.0
 11
1480.2906104724
 21
7822.7763725418
 31
0.0
  0
LINE
  5
12F
330
1F
100
AcDbEntity
  8
0
  6
Continuous
 62
     7
370
    25
100
AcDbLine
 10
1480.2906104724
 20
7840.7763725418
 30
0.0
 11
820.2906104724
 21
7840.7763725418
 31
0.0
  0
LINE
  5
130
330
1F
100
AcDbEntity
  8
0
  6
Continuous
 62
     7
370
    25
100
AcDbLine
 10
820.2906104724
 20
7822.7763725418
 30
0.0
 11
820.2906104724
 21
7840.7763725418
 31
0.0
  0
LINE
  5
131
330
1F
100
AcDbEntity
  8
0
  6
Continuous
 62
     7
370
    25
100
AcDbLine
 10
814.2906104724
 20
7822.7763725418
 30
0.0
 11
820.2906104724
 21
7822.7763725418
 31
0.0
  0
LINE
  5
132
330
1F
100
AcDbEntity
  8
0
  6
Continuous
 62
     7
370
    25
100
AcDbLine
 10
814.2906104724
 20
7822.7763725418
 30
0.0
 11
814.2906104724
 21
7882.7763725418
 31
0.0
  0
LINE
  5
133
330
1F
100
AcDbEntity
  8
0
  6
Continuous
 62
     7
370
    25
100
AcDbLine
 10
814.2906104724
 20
7882.7763725418
 30
0.0
 11
820.2906104724
 21
7882.7763725418
 31
0.0
  0
LINE
  5
134
330
1F
100
AcDbEntity
  8
0
  6
Continuous
 62
     7
370
    25
100
AcDbLine
 10
820.2906104724
 20
7864.7763725418
 30
0.0
 11
820.2906104724
 21
7882.7763725418
 31
0.0
  0
LINE
  5
135
330
1F
100
AcDbEntity
  8
0
  6
Continuous
 62
     7
370
    25
100
AcDbLine
 10
1480.2906104724
 20
7864.7763725418
 30
0.0
 11
1480.2906104724
 21
7882.7763725418
 31
0.0
  0
LINE
  5
136
330
1F
100
AcDbEntity
  8
0
  6
Continuous
 62
     7
370
    25
100
AcDbLine
 10
1480.2906104724
 20
7822.7763725418
 30
0.0
 11
1480.2906104724
 21
7840.7763725418
 31
0.0
  0
LINE
  5
137
330
1F
100
AcDbEntity
  8
0
  6
Continuous
 62
     7
370
    25
100
AcDbLine
 10
1480.2906104724
 20
7837.7763725418
 30
0.0
 11
820.2906104724
 21
7837.7763725418
 31
0.0
  0
LINE
  5
138
330
1F
100
AcDbEntity
  8
0
  6
Continuous
 62
     7
370
    25
100
AcDbLine
 10
1488.2906104724
 20
7882.7763725418
 30
0.0
 11
1488.2906104724
 21
7822.7763725418
 31
0.0
  0
LINE
  5
139
330
1F
100
AcDbEntity
  8
0
  6
Continuous
 62
     7
370
    25
100
AcDbLine
 10
1486.2906104724
 20
7882.7763725418
 30
0.0
 11
1488.2906104724
 21
7882.7763725418
 31
0.0
  0
LINE
  5
13A
330
1F
100
AcDbEntity
  8
0
  6
Continuous
 62
     7
370
    25
100
AcDbLine
 10
1488.2906104724
 20
7822.7763725418
 30
0.0
 11
1486.2906104724
 21
7822.7763725418
 31
0.0
  0
LINE
  5
13B
330
1F
100
AcDbEntity
  8
0
  6
Continuous
 62
     7
370
    25
100
AcDbLine
 10
812.2906104724
 20
7822.7763725418
 30
0.0
 11
812.2906104724
 21
7882.7763725418
 31
0.0
  0
LINE
  5
13C
330
1F
100
AcDbEntity
  8
0
  6
Continuous
 62
     7
370
    25
100
AcDbLine
 10
814.2906104724
 20
7822.7763725418
 30
0.0
 11
812.2906104724
 21
7822.7763725418
 31
0.0
  0
LINE
  5
13D
330
1F
100
AcDbEntity
  8
0
  6
Continuous
 62
     7
370
    25
100
AcDbLine
 10
812.2906104724
 20
7882.7763725418
 30
0.0
 11
814.2906104724
 21
7882.7763725418
 31
0.0
  0
LINE
  5
13E
330
1F
100
AcDbEntity
  8
0
  6
Continuous
 62
     7
370
    25
100
AcDbLine
 10
1490.2906104724
 20
7882.7763725418
 30
0.0
 11
1488.2906104724
 21
7882.7763725418
 31
0.0
  0
LINE
  5
13F
330
1F
100
AcDbEntity
  8
0
  6
Continuous
 62
     7
370
    25
100
AcDbLine
 10
1490.2906104724
 20
7822.7763725418
 30
0.0
 11
1488.2906104724
 21
7822.7763725418
 31
0.0
  0
LINE
  5
140
330
1F
100
AcDbEntity
  8
0
  6
Continuous
 62
     7
370
    25
100
AcDbLine
 10
810.2906104724
 20
7822.7763725418
 30
0.0
 11
812.2906104724
 21
7822.7763725418
 31
0.0
  0
LINE
  5
141
330
1F
100
AcDbEntity
  8
0
  6
Continuous
 62
     7
370
    25
100
AcDbLine
 10
810.2906104724
 20
7882.7763725418
 30
0.0
 11
812.2906104724
 21
7882.7763725418
 31
0.0
  0
LINE
  5
142
330
1F
100
AcDbEntity
  8
0
  6
Continuous
 62
     7
370
    25
100
AcDbLine
 10
812.2906104724
 20
7103.7763725418
 30
0.0
 11
812.2906104724
 21
7135.7763725418
 31
0.0
  0
LINE
  5
143
330
1F
100
AcDbEntity
  8
0
  6
Continuous
 62
     7
370
    25
100
AcDbLine
 10
1488.2906104724
 20
7135.7763725418
 30
0.0
 11
1488.2906104724
 21
7103.7763725418
 31
0.0
  0
LINE
  5
144
330
1F
100
AcDbEntity
  8
0
  6
Continuous
 62
     7
370
    25
100
AcDbLine
 10
1478.2906104724
 20
7119.7763725418
 30
0.0
 11
1488.2906104724
 21
7119.7763725418
 31
0.0
  0
LINE
  5
145
330
1F
100
AcDbEntity
  8
0
  6
Continuous
 62
     7
370
    25
100
AcDbLine
 10
1478.2906104724
 20
7119.7763725418
 30
0.0
 11
1478.2906104724
 21
7132.7763725418
 31
0.0
  0
LINE
  5
146
330
1F
100
AcDbEntity
  8
0
  6
Continuous
 62
     7
370
    25
100
AcDbLine
 10
1478.2906104724
 20
7132.7763725418
 30
0.0
 11
1488.2906104724
 21
7132.7763725418
 31
0.0
  0
LINE
  5
147
330
1F
100
AcDbEntity
  8
0
  6
Continuous
 62
     7
370
    25
100
AcDbLine
 10
1478.2906104724
 20
7106.7763725418
 30
0.0
 11
1488.2906104724
 21
7106.7763725418
 31
0.0
  0
LINE
  5
148
330
1F
100
AcDbEntity
  8
0
  6
Continuous
 62
     7
370
    25
100
AcDbLine
 10
1478.2906104724
 20
7106.7763725418
 30
0.0
 11
1478.2906104724
 21
7119.7763725418
 31
0.0
  0
LINE
  5
149
330
1F
100
AcDbEntity
  8
0
  6
Continuous
 62
     7
370
    25
100
AcDbLine
 10
822.2906104724
 20
7119.7763725418
 30
0.0
 11
812.2906104724
 21
7119.7763725418
 31
0.0
  0
LINE
  5
14A
330
1F
100
AcDbEntity
  8
0
  6
Continuous
 62
     7
370
    25
100
AcDbLine
 10
822.2906104724
 20
7119.7763725418
 30
0.0
 11
822.2906104724
 21
7106.7763725418
 31
0.0
  0
LINE
  5
14B
330
1F
100
AcDbEntity
  8
0
  6
Continuous
 62
     7
370
    25
100
AcDbLine
 10
822.2906104724
 20
7106.7763725418
 30
0.0
 11
812.2906104724
 21
7106.7763725418
 31
0.0
  0
LINE
  5
14C
330
1F
100
AcDbEntity
  8
0
  6
Continuous
 62
     7
370
    25
100
AcDbLine
 10
822.2906104724
 20
7132.7763725418
 30
0.0
 11
812.2906104724
 21
7132.7763725418
 31
0.0
  0
LINE
  5
14D
330
1F
100
AcDbEntity
  8
0
  6
Continuous
 62
     7
370
    25
100
AcDbLine
 10
822.2906104724
 20
7132.7763725418
 30
0.0
 11
822.2906104724
 21
7119.7763725418
 31
0.0
  0
SPLINE
  5
14E
330
1F
100
AcDbEntity
  8
0
  6
Continuous
 62
     7
370
    25
100
AcDbSpline
210
0.0
220
0.0
230
1.0
 70
     8
 71
     3
 72
    12
 73
     8
 74
     0
 42
0.00000001
 43
0.00000001
 40
0.0
 40
0.0
 40
0.0
 40
0.0
 40
0.1396336002931205
 40
0.3784300081756238
 40
0.6173337834414702
 40
0.8512619083365962
 40
1.0
 40
1.0
 40
1.0
 40
1.0
 10
1147.520469254887
 20
8555.817288899394
 30
0.0
 10
1146.218758476786
 20
8555.508013164797
 30
0.0
 10
1142.690908307736
 20
8554.669825088813
 30
0.0
 10
1137.533481739037
 20
8551.495618966728
 30
0.0
 10
1133.126442274736
 20
8546.189272605852
 30
0.0
 10
1130.980201136875
 20
8540.474032038848
 30
0.0
 10
1130.891914007492
 20
8536.806072507381
 30
0.0
 10
1130.857597784699
 20
8535.380377535103
 30
0.0
  0
SPLINE
  5
14F
330
1F
100
AcDbEntity
  8
0
  6
Continuous
 62
     7
370
    25
100
AcDbSpline
210
0.0
220
0.0
230
1.0
 70
     8
 71
     3
 72
    27
 73
    23
 74
     0
 42
0.00000001
 43
0.00000001
 40
0.0
 40
0.0
 40
0.0
 40
0.0
 40
0.055307180958092
 40
0.1106148874488111
 40
0.1659231279504129
 40
0.2212319109409052
 40
0.2765412448980482
 40
0.3318511382993475
 40
0.3871602115276425
 40
0.4424667721855626
 40
0.4977736839838243
 40
0.5530809553986754
 40
0.6083885949061979
 40
0.6636966109823051
 40
0.7190050121027369
 40
0.743559495819717
 40
0.7610347424139702
 40
0.7998518161647319
 40
0.8438521674720821
 40
0.8930304432823164
 40
0.9473806591553685
 40
1.0
 40
1.0
 40
1.0
 40
1.0
 10
1131.2906104724
 20
8535.380377535103
 30
0.0
 10
1131.392210874831
 20
8536.869909792205
 30
0.0
 10
1131.595412645107
 20
8539.848988460053
 30
0.0
 10
1133.209915104744
 20
8544.071527057398
 30
0.0
 10
1135.689787736226
 20
8547.815523757188
 30
0.0
 10
1138.993725980686
 20
8550.874825766077
 30
0.0
 10
1142.914289828229
 20
8553.080985497914
 30
0.0
 10
1147.242415816825
 20
8554.312518034943
 30
0.0
 10
1151.737848763304
 20
8554.501642415544
 30
0.0
 10
1156.153661895987
 20
8553.638036673927
 30
0.0
 10
1160.246653999664
 20
8551.769219172169
 30
0.0
 10
1163.791571120342
 20
8548.998140639138
 30
0.0
 10
1166.593186662306
 20
8545.476873788426
 30
0.0
 10
1168.497244714781
 20
8541.400963784323
 30
0.0
 10
1169.231625623671
 20
8537.806332860166
 30
0.0
 10
1169.31500915416
 20
8535.18817595222
 30
0.0
 10
1169.19094756279
 20
8533.017599943301
 30
0.0
 10
1168.714766041722
 20
8530.352461989367
 30
0.0
 10
1167.484896813602
 20
8527.0010542649
 30
0.0
 10
1165.38743131187
 20
8523.614284955689
 30
0.0
 10
1162.474316930866
 20
8520.508950389025
 30
0.0
 10
1159.949267230264
 20
8519.10581600136
 30
0.0
 10
1158.707171302016
 20
8518.415600870432
 30
0.0
  0
SPLINE
  5
150
330
1F
100
AcDbEntity
  8
0
  6
Continuous
 62
     7
370
    25
100
AcDbSpline
210
0.0
220
0.0
230
1.0
 70
     8
 71
     3
 72
     9
 73
     5
 74
     0
 42
0.00000001
 43
0.00000001
 40
0.0
 40
0.0
 40
0.0
 40
0.0
 40
0.4933025139571536
 40
0.9999999999999999
 40
0.9999999999999999
 40
0.9999999999999999
 40
0.9999999999999999
 10
1132.600665077087
 20
8528.649809452882
 30
0.0
 10
1132.182082560405
 20
8529.8252201819
 30
0.0
 10
1131.333551476863
 20
8532.2079583512
 30
0.0
 10
1131.355188839103
 20
8534.73788783405
 30
0.0
 10
1131.366152436154
 20
8536.019796742876
 30
0.0
  0
LINE
  5
151
330
1F
100
AcDbEntity
  8
0
  6
Continuous
 62
     7
370
    25
100
AcDbLine
 10
1167.036299292
 20
8526.5000992027
 30
0.0
 11
1166.7734248565
 21
8525.9296193655
 31
0.0
  0
CIRCLE
  5
152
330
1F
100
AcDbEntity
  8
0
  6
Continuous
 62
     7
370
    25
100
AcDbCircle
 10
1150.2906104724
 20
8535.3803775351
 30
0.0
 40
26.0
  0
LINE
  5
153
330
1F
100
AcDbEntity
  8
0
  6
Continuous
 62
     7
370
    25
100
AcDbLine
 10
1131.2906104724
 20
8535.3803775351
 30
0.0
 11
1130.8575977847
 21
8535.3803775351
 31
0.0
  0
SPLINE
  5
154
330
1F
100
AcDbEntity
  8
0
  6
Continuous
 62
     7
370
    25
100
AcDbSpline
210
0.0
220
0.0
230
1.0
 70
     8
 71
     3
 72
    11
 73
     7
 74
     0
 42
0.00000001
 43
0.00000001
 40
0.0
 40
0.0
 40
0.0
 40
0.0
 40
0.0464528982462112
 40
0.232729747243149
 40
0.6083757702745051
 40
1.0
 40
1.0
 40
1.0
 40
1.0
 10
1162.782903444852
 20
8551.79024178705
 30
0.0
 10
1162.582201496846
 20
8551.939476319252
 30
0.0
 10
1161.576681596165
 20
8552.687143661236
 30
0.0
 10
1158.756942708955
 20
8554.361683192554
 30
0.0
 10
1153.801103007429
 20
8556.108142747358
 30
0.0
 10
1149.642878492921
 20
8555.915576893593
 30
0.0
 10
1147.520469254887
 20
8555.817288899394
 30
0.0
  0
ARC
  5
155
330
1F
100
AcDbEntity
  8
0
  6
Continuous
 62
     7
370
    25
100
AcDbCircle
 10
1150.2906104724
 20
8535.3803775351
 30
0.0
 40
19.00000000000197
100
AcDbArc
 50
180.0
 51
299.8286825404
  0
SPLINE
  5
156
330
1F
100
AcDbEntity
  8
0
  6
Continuous
 62
     7
370
    25
100
AcDbSpline
210
0.0
220
0.0
230
1.0
 70
     8
 71
     3
 72
    14
 73
    10
 74
     0
 42
0.00000001
 43
0.00000001
 40
0.0
 40
0.0
 40
0.0
 40
0.0
 40
0.1029758392938172
 40
0.2699914116691495
 40
0.4375301558121159
 40
0.6059770803338866
 40
0.7771020803965009
 40
0.9511923104931572
 40
1.0
 40
1.0
 40
1.0
 40
1.0
 10
1159.741368291365
 20
8518.897562949986
 30
0.0
 10
1160.890687606271
 20
8519.58658299589
 30
0.0
 10
1163.904077411278
 20
8521.39311835542
 30
0.0
 10
1167.646055083968
 20
8525.853372110381
 30
0.0
 10
1170.111416795757
 20
8532.004963057132
 30
0.0
 10
1170.382606729002
 20
8538.708514699829
 30
0.0
 10
1168.456981807576
 20
8545.199483905415
 30
0.0
 10
1165.43615122573
 20
8549.470045544806
 30
0.0
 10
1163.259518168773
 20
8551.373454595363
 30
0.0
 10
1162.782903444852
 20
8551.79024178705
 30
0.0
  0
CIRCLE
  5
157
330
1F
100
AcDbEntity
  8
0
  6
Continuous
 62
     7
370
    25
100
AcDbCircle
 10
1150.2906104724
 20
8535.3803775351
 30
0.0
 40
18.70000000000005
  0
SPLINE
  5
158
330
1F
100
AcDbEntity
  8
0
  6
Continuous
 62
     7
370
    25
100
AcDbSpline
210
0.0
220
0.0
230
1.0
 70
     8
 71
     3
 72
    10
 73
     6
 74
     0
 42
0.00000001
 43
0.00000001
 40
0.0
 40
0.0
 40
0.0
 40
0.0
 40
0.3018616305160506
 40
0.6107246088107577
 40
1.0
 40
1.0
 40
1.0
 40
1.0
 10
814.8686460497927
 20
9355.193364052851
 30
0.0
 10
815.2046670057751
 20
9355.645848543802
 30
0.0
 10
815.8845025534193
 20
9356.561312404696
 30
0.0
 10
816.2581005404419
 20
9358.124676547812
 30
0.0
 10
815.5612484335891
 20
9359.185093833112
 30
0.0
 10
815.1726902503502
 20
9359.77637254175
 30
0.0
  0
LINE
  5
159
330
1F
100
AcDbEntity
  8
0
  6
Continuous
 62
     7
370
    25
100
AcDbLine
 10
817.2906104724
 20
9359.0634936057
 30
0.0
 11
817.2906104724
 21
9359.7763725417
 31
0.0
  0
LINE
  5
15A
330
1F
100
AcDbEntity
  8
0
  6
Continuous
 62
     7
370
    25
100
AcDbLine
 10
814.8686460498
 20
9355.1933640529
 30
0.0
 11
810.2906104724
 21
9355.1933640529
 31
0.0
  0
LINE
  5
15B
330
1F
100
AcDbEntity
  8
0
  6
Continuous
 62
     7
370
    25
100
AcDbLine
 10
1485.712574895
 20
9357.4904623642
 30
0.0
 11
1490.2906104724
 21
9357.4904623642
 31
0.0
  0
LINE
  5
15C
330
1F
100
AcDbEntity
  8
0
  6
Continuous
 62
     7
370
    25
100
AcDbLine
 10
1485.2756281593
 20
9359.7763725417
 30
0.0
 11
1485.712574895
 21
9357.4904623642
 31
0.0
  0
SPLINE
  5
15D
330
1F
100
AcDbEntity
  8
0
  6
Continuous
 62
     7
370
    25
100
AcDbSpline
210
0.0
220
0.0
230
1.0
 70
     8
 71
     3
 72
    11
 73
     7
 74
     0
 42
0.00000001
 43
0.00000001
 40
0.0
 40
0.0
 40
0.0
 40
0.0
 40
0.3707801040744182
 40
0.6218784424669557
 40
0.8802594157766743
 40
1.0
 40
1.0
 40
1.0
 40
1.0
 10
1485.712574895007
 20
9357.49046236424
 30
0.0
 10
1485.255910314932
 20
9357.371625353135
 30
0.0
 10
1484.489985027501
 20
9357.17230997844
 30
0.0
 10
1484.510872717224
 20
9356.880462939314
 30
0.0
 10
1485.036077840944
 20
9356.675495356047
 30
0.0
 10
1485.549870913955
 20
9356.555711405597
 30
0.0
 10
1485.712574895007
 20
9356.517779158887
 30
0.0
  0
LINE
  5
15E
330
1F
100
AcDbEntity
  8
0
  6
Continuous
 62
     7
370
    25
100
AcDbLine
 10
1483.2906104724
 20
9359.7763725417
 30
0.0
 11
1483.2906104724
 21
9359.0634936057
 31
0.0
  0
LINE
  5
15F
330
1F
100
AcDbEntity
  8
0
  6
Continuous
 62
     7
370
    25
100
AcDbLine
 10
1485.712574895
 20
9356.5177791589
 30
0.0
 11
1490.2906104724
 21
9356.5177791589
 31
0.0
  0
LINE
  5
160
330
1F
100
AcDbEntity
  8
0
  6
Continuous
 62
     7
370
    25
100
AcDbLine
 10
895.2906104724
 20
9359.7763725417
 30
0.0
 11
895.2906104724
 21
9346.7763725417
 31
0.0
  0
LINE
  5
161
330
1F
100
AcDbEntity
  8
0
  6
Continuous
 62
     7
370
    25
100
AcDbLine
 10
895.2906104724
 20
9346.7763725417
 30
0.0
 11
810.2906104724
 21
9346.7763725417
 31
0.0
  0
LINE
  5
162
330
1F
100
AcDbEntity
  8
0
  6
Continuous
 62
     7
370
    25
100
AcDbLine
 10
1405.2906104724
 20
9346.7763725417
 30
0.0
 11
1405.2906104724
 21
9359.7763725417
 31
0.0
  0
LINE
  5
163
330
1F
100
AcDbEntity
  8
0
  6
Continuous
 62
     7
370
    25
100
AcDbLine
 10
1405.2906104724
 20
9346.7763725417
 30
0.0
 11
1490.2906104724
 21
9346.7763725417
 31
0.0
  0
LINE
  5
164
330
1F
100
AcDbEntity
  8
0
  6
Continuous
 62
     7
370
    25
100
AcDbLine
 10
1495.2906104724
 20
7059.7763725418
 30
0.0
 11
1495.2906104724
 21
7029.7763725418
 31
0.0
  0
LINE
  5
165
330
1F
100
AcDbEntity
  8
0
  6
Continuous
 62
     7
370
    25
100
AcDbLine
 10
1499.2906104724
 20
7029.7763725418
 30
0.0
 11
1551.2906104724
 21
7029.7763725418
 31
0.0
  0
LINE
  5
166
330
1F
100
AcDbEntity
  8
0
  6
Continuous
 62
     7
370
    25
100
AcDbLine
 10
1555.2906104724
 20
7059.7763725418
 30
0.0
 11
1555.2906104724
 21
7029.7763725418
 31
0.0
  0
LINE
  5
167
330
1F
100
AcDbEntity
  8
0
  6
Continuous
 62
     7
370
    25
100
AcDbLine
 10
1555.2906104724
 20
7023.7763725418
 30
0.0
 11
1555.2906104724
 21
7029.7763725418
 31
0.0
  0
LINE
  5
168
330
1F
100
AcDbEntity
  8
0
  6
Continuous
 62
     7
370
    25
100
AcDbLine
 10
1555.2906104724
 20
7023.7763725418
 30
0.0
 11
1415.2906104724
 21
7023.7763725418
 31
0.0
  0
LINE
  5
169
330
1F
100
AcDbEntity
  8
0
  6
Continuous
 62
     7
370
    25
100
AcDbLine
 10
1415.2906104724
 20
7023.7763725418
 30
0.0
 11
1415.2906104724
 21
7029.7763725418
 31
0.0
  0
LINE
  5
16A
330
1F
100
AcDbEntity
  8
0
  6
Continuous
 62
     7
370
    25
100
AcDbLine
 10
1555.2906104724
 20
7029.7763725418
 30
0.0
 11
1415.2906104724
 21
7029.7763725418
 31
0.0
  0
LINE
  5
16B
330
1F
100
AcDbEntity
  8
0
  6
Continuous
 62
     7
370
    25
100
AcDbLine
 10
745.2906104724
 20
7059.7763725418
 30
0.0
 11
745.2906104724
 21
7029.7763725418
 31
0.0
  0
LINE
  5
16C
330
1F
100
AcDbEntity
  8
0
  6
Continuous
 62
     7
370
    25
100
AcDbLine
 10
749.2906104724
 20
7029.7763725418
 30
0.0
 11
801.2906104724
 21
7029.7763725418
 31
0.0
  0
LINE
  5
16D
330
1F
100
AcDbEntity
  8
0
  6
Continuous
 62
     7
370
    25
100
AcDbLine
 10
805.2906104724
 20
7059.7763725418
 30
0.0
 11
805.2906104724
 21
7029.7763725418
 31
0.0
  0
LINE
  5
16E
330
1F
100
AcDbEntity
  8
0
  6
Continuous
 62
     7
370
    25
100
AcDbLine
 10
885.2906104724
 20
7023.7763725418
 30
0.0
 11
885.2906104724
 21
7029.7763725418
 31
0.0
  0
LINE
  5
16F
330
1F
100
AcDbEntity
  8
0
  6
Continuous
 62
     7
370
    25
100
AcDbLine
 10
885.2906104724
 20
7029.7763725418
 30
0.0
 11
745.2906104724
 21
7029.7763725418
 31
0.0
  0
LINE
  5
170
330
1F
100
AcDbEntity
  8
0
  6
Continuous
 62
     7
370
    25
100
AcDbLine
 10
885.2906104724
 20
7023.7763725418
 30
0.0
 11
745.2906104724
 21
7023.7763725418
 31
0.0
  0
LINE
  5
171
330
1F
100
AcDbEntity
  8
0
  6
Continuous
 62
     7
370
    25
100
AcDbLine
 10
745.2906104724
 20
7023.7763725418
 30
0.0
 11
745.2906104724
 21
7029.7763725418
 31
0.0
  0
LINE
  5
172
330
1F
100
AcDbEntity
  8
0
  6
Continuous
 62
     7
370
    25
100
AcDbLine
 10
1560.2906104724
 20
7059.7763725418
 30
0.0
 11
1560.2906104724
 21
9399.7763725418
 31
0.0
  0
LINE
  5
173
330
1F
100
AcDbEntity
  8
0
  6
Continuous
 62
     7
370
    25
100
AcDbLine
 10
1555.2906104724
 20
7059.7763725418
 30
0.0
 11
1555.2906104724
 21
9399.7763725418
 31
0.0
  0
LINE
  5
174
330
1F
100
AcDbEntity
  8
0
  6
Continuous
 62
     7
370
    25
100
AcDbLine
 10
1560.2906104724
 20
9399.7763725418
 30
0.0
 11
1555.2906104724
 21
9399.7763725418
 31
0.0
  0
LINE
  5
175
330
1F
100
AcDbEntity
  8
0
  6
Continuous
 62
     7
370
    25
100
AcDbLine
 10
1560.2906104724
 20
7059.7763725418
 30
0.0
 11
1555.2906104724
 21
7059.7763725418
 31
0.0
  0
LINE
  5
176
330
1F
100
AcDbEntity
  8
0
  6
Continuous
 62
     7
370
    25
100
AcDbLine
 10
1495.2906104724
 20
7059.7763725418
 30
0.0
 11
1495.2906104724
 21
9399.7763725418
 31
0.0
  0
LINE
  5
177
330
1F
100
AcDbEntity
  8
0
  6
Continuous
 62
     7
370
    25
100
AcDbLine
 10
1555.2906104724
 20
9399.7763725418
 30
0.0
 11
1495.2906104724
 21
9399.7763725418
 31
0.0
  0
LINE
  5
178
330
1F
100
AcDbEntity
  8
0
  6
Continuous
 62
     7
370
    25
100
AcDbLine
 10
1555.2906104724
 20
7059.7763725418
 30
0.0
 11
1495.2906104724
 21
7059.7763725418
 31
0.0
  0
LINE
  5
179
330
1F
100
AcDbEntity
  8
0
  6
Continuous
 62
     7
370
    25
100
AcDbLine
 10
1490.2906104724
 20
7059.7763725418
 30
0.0
 11
1490.2906104724
 21
7224.7763725418
 31
0.0
  0
LINE
  5
17A
330
1F
100
AcDbEntity
  8
0
  6
Continuous
 62
     7
370
    25
100
AcDbLine
 10
1490.2906104724
 20
7294.7763725418
 30
0.0
 11
1490.2906104724
 21
9359.7763725417
 31
0.0
  0
LINE
  5
17B
330
1F
100
AcDbEntity
  8
0
  6
Continuous
 62
     7
370
    25
100
AcDbLine
 10
1495.2906104724
 20
9399.7763725418
 30
0.0
 11
1490.2906104724
 21
9399.7763725418
 31
0.0
  0
LINE
  5
17C
330
1F
100
AcDbEntity
  8
0
  6
Continuous
 62
     7
370
    25
100
AcDbLine
 10
1495.2906104724
 20
7059.7763725418
 30
0.0
 11
1490.2906104724
 21
7059.7763725418
 31
0.0
  0
LINE
  5
17D
330
1F
100
AcDbEntity
  8
0
  6
Continuous
 62
     7
370
    25
100
AcDbLine
 10
810.2906104724
 20
7059.7763725418
 30
0.0
 11
810.2906104724
 21
7224.7763725418
 31
0.0
  0
LINE
  5
17E
330
1F
100
AcDbEntity
  8
0
  6
Continuous
 62
     7
370
    25
100
AcDbLine
 10
810.2906104724
 20
7294.7763725418
 30
0.0
 11
810.2906104724
 21
9359.7763725417
 31
0.0
  0
LINE
  5
17F
330
1F
100
AcDbEntity
  8
0
  6
Continuous
 62
     7
370
    25
100
AcDbLine
 10
810.2906104724
 20
7059.7763725418
 30
0.0
 11
805.2906104724
 21
7059.7763725418
 31
0.0
  0
LINE
  5
180
330
1F
100
AcDbEntity
  8
0
  6
Continuous
 62
     7
370
    25
100
AcDbLine
 10
805.2906104724
 20
7059.7763725418
 30
0.0
 11
805.2906104724
 21
9399.7763725418
 31
0.0
  0
LINE
  5
181
330
1F
100
AcDbEntity
  8
0
  6
Continuous
 62
     7
370
    25
100
AcDbLine
 10
810.2906104724
 20
9399.7763725418
 30
0.0
 11
805.2906104724
 21
9399.7763725418
 31
0.0
  0
LINE
  5
182
330
1F
100
AcDbEntity
  8
0
  6
Continuous
 62
     7
370
    25
100
AcDbLine
 10
745.2906104724
 20
7059.7763725418
 30
0.0
 11
745.2906104724
 21
9399.7763725418
 31
0.0
  0
LINE
  5
183
330
1F
100
AcDbEntity
  8
0
  6
Continuous
 62
     7
370
    25
100
AcDbLine
 10
745.2906104724
 20
7059.7763725418
 30
0.0
 11
740.2906104724
 21
7059.7763725418
 31
0.0
  0
LINE
  5
184
330
1F
100
AcDbEntity
  8
0
  6
Continuous
 62
     7
370
    25
100
AcDbLine
 10
740.2906104724
 20
7059.7763725418
 30
0.0
 11
740.2906104724
 21
9399.7763725418
 31
0.0
  0
LINE
  5
185
330
1F
100
AcDbEntity
  8
0
  6
Continuous
 62
     7
370
    25
100
AcDbLine
 10
745.2906104724
 20
9399.7763725418
 30
0.0
 11
740.2906104724
 21
9399.7763725418
 31
0.0
  0
LINE
  5
186
330
1F
100
AcDbEntity
  8
0
  6
Continuous
 62
     7
370
    25
100
AcDbLine
 10
805.2906104724
 20
7059.7763725418
 30
0.0
 11
745.2906104724
 21
7059.7763725418
 31
0.0
  0
LINE
  5
187
330
1F
100
AcDbEntity
  8
0
  6
Continuous
 62
     7
370
    25
100
AcDbLine
 10
805.2906104724
 20
9399.7763725418
 30
0.0
 11
745.2906104724
 21
9399.7763725418
 31
0.0
  0
LINE
  5
188
330
1F
100
AcDbEntity
  8
0
  6
Continuous
 62
     7
370
    25
100
AcDbLine
 10
1490.2906104724
 20
7294.7763725418
 30
0.0
 11
810.2906104724
 21
7294.7763725418
 31
0.0
  0
LINE
  5
189
330
1F
100
AcDbEntity
  8
0
  6
Continuous
 62
     7
370
    25
100
AcDbLine
 10
1490.2906104724
 20
7294.7763725418
 30
0.0
 11
1490.2906104724
 21
7289.7763725418
 31
0.0
  0
LINE
  5
18A
330
1F
100
AcDbEntity
  8
0
  6
Continuous
 62
     7
370
    25
100
AcDbLine
 10
1490.2906104724
 20
7289.7763725418
 30
0.0
 11
810.2906104724
 21
7289.7763725418
 31
0.0
  0
LINE
  5
18B
330
1F
100
AcDbEntity
  8
0
  6
Continuous
 62
     7
370
    25
100
AcDbLine
 10
810.2906104724
 20
7289.7763725418
 30
0.0
 11
810.2906104724
 21
7294.7763725418
 31
0.0
  0
LINE
  5
18C
330
1F
100
AcDbEntity
  8
0
  6
Continuous
 62
     7
370
    25
100
AcDbLine
 10
1490.2906104724
 20
7229.7763725418
 30
0.0
 11
810.2906104724
 21
7229.7763725418
 31
0.0
  0
LINE
  5
18D
330
1F
100
AcDbEntity
  8
0
  6
Continuous
 62
     7
370
    25
100
AcDbLine
 10
1490.2906104724
 20
7229.7763725418
 30
0.0
 11
1490.2906104724
 21
7224.7763725418
 31
0.0
  0
LINE
  5
18E
330
1F
100
AcDbEntity
  8
0
  6
Continuous
 62
     7
370
    25
100
AcDbLine
 10
1490.2906104724
 20
7224.7763725418
 30
0.0
 11
810.2906104724
 21
7224.7763725418
 31
0.0
  0
LINE
  5
18F
330
1F
100
AcDbEntity
  8
0
  6
Continuous
 62
     7
370
    25
100
AcDbLine
 10
810.2906104724
 20
7224.7763725418
 30
0.0
 11
810.2906104724
 21
7229.7763725418
 31
0.0
  0
LINE
  5
190
330
1F
100
AcDbEntity
  8
0
  6
Continuous
 62
     7
370
    25
100
AcDbLine
 10
1490.2906104724
 20
7229.7763725418
 30
0.0
 11
1490.2906104724
 21
7289.7763725418
 31
0.0
  0
LINE
  5
191
330
1F
100
AcDbEntity
  8
0
  6
Continuous
 62
     7
370
    25
100
AcDbLine
 10
810.2906104724
 20
7229.7763725418
 30
0.0
 11
810.2906104724
 21
7289.7763725418
 31
0.0
  0
LINE
  5
192
330
1F
100
AcDbEntity
  8
0
  6
Continuous
 62
     7
370
    25
100
AcDbLine
 10
1490.2906104724
 20
9359.7763725417
 30
0.0
 11
1490.2906104724
 21
9362.7763725417
 31
0.0
  0
LINE
  5
193
330
1F
100
AcDbEntity
  8
0
  6
Continuous
 62
     7
370
    25
100
AcDbLine
 10
1490.2906104724
 20
9359.7763725417
 30
0.0
 11
810.2906104724
 21
9359.7763725417
 31
0.0
  0
LINE
  5
194
330
1F
100
AcDbEntity
  8
0
  6
Continuous
 62
     7
370
    25
100
AcDbLine
 10
810.2906104724
 20
9362.7763725417
 30
0.0
 11
810.2906104724
 21
9359.7763725417
 31
0.0
  0
LINE
  5
195
330
1F
100
AcDbEntity
  8
0
  6
Continuous
 62
     7
370
    25
100
AcDbLine
 10
1490.2906104724
 20
9362.7763725417
 30
0.0
 11
810.2906104724
 21
9362.7763725417
 31
0.0
  0
LINE
  5
196
330
1F
100
AcDbEntity
  8
0
  6
Continuous
 62
     7
370
    25
100
AcDbLine
 10
1490.2906104724
 20
9396.7763725418
 30
0.0
 11
1490.2906104724
 21
9399.7763725418
 31
0.0
  0
LINE
  5
197
330
1F
100
AcDbEntity
  8
0
  6
Continuous
 62
     7
370
    25
100
AcDbLine
 10
1490.2906104724
 20
9396.7763725418
 30
0.0
 11
810.2906104724
 21
9396.7763725418
 31
0.0
  0
LINE
  5
198
330
1F
100
AcDbEntity
  8
0
  6
Continuous
 62
     7
370
    25
100
AcDbLine
 10
810.2906104724
 20
9399.7763725418
 30
0.0
 11
810.2906104724
 21
9396.7763725418
 31
0.0
  0
LINE
  5
199
330
1F
100
AcDbEntity
  8
0
  6
Continuous
 62
     7
370
    25
100
AcDbLine
 10
1490.2906104724
 20
9399.7763725418
 30
0.0
 11
810.2906104724
 21
9399.7763725418
 31
0.0
  0
LINE
  5
19A
330
1F
100
AcDbEntity
  8
0
  6
Continuous
 62
     7
370
    25
100
AcDbLine
 10
1490.2906104724
 20
9362.7763725417
 30
0.0
 11
1490.2906104724
 21
9396.7763725418
 31
0.0
  0
LINE
  5
19B
330
1F
100
AcDbEntity
  8
0
  6
Continuous
 62
     7
370
    25
100
AcDbLine
 10
810.2906104724
 20
9396.7763725418
 30
0.0
 11
810.2906104724
 21
9362.7763725417
 31
0.0
  0
LWPOLYLINE
  5
19C
330
1F
100
AcDbEntity
  8
0
  6
Continuous
 62
     8
370
    25
100
AcDbPolyline
 90
       11
 70
   128
 43
0.0
 10
1174.801897911
 20
7673.5750703291
 10
1178.2229487626
 20
7673.6854725429
 10
1182.9317163819
 20
7673.8736057648
 10
1187.1822744245
 20
7674.0895654844
 10
1190.9149543727
 20
7674.3303201005
 10
1194.0773575822
 20
7674.5924899462
 10
1196.625090844
 20
7674.8723947314
 10
1198.5223895678
 20
7675.1661052065
 10
1199.7426198385
 20
7675.4694983203
 10
1200.2686522978
 20
7675.7783150986
 10
1200.2906104724
 20
7675.855859526
  0
LWPOLYLINE
  5
19D
330
1F
100
AcDbEntity
  8
0
  6
Continuous
 62
     8
370
    25
100
AcDbPolyline
 90
       11
 70
   128
 43
0.0
 10
1100.2906104724
 20
7675.855859526
 10
1100.312568647
 20
7675.7783150986
 10
1100.8386011063
 20
7675.4694983203
 10
1102.058831377
 20
7675.1661052065
 10
1103.9561301008
 20
7674.8723947314
 10
1106.5038633626
 20
7674.5924899462
 10
1109.6662665721
 20
7674.3303201005
 10
1113.3989465203
 20
7674.0895654844
 10
1117.6495045629
 20
7673.8736057648
 10
1122.3582721822
 20
7673.6854725429
 10
1125.7793230338
 20
7673.5750703291
  0
LINE
  5
19E
330
1F
100
AcDbEntity
  8
0
  6
Continuous
 62
     8
370
    25
100
AcDbLine
 10
1221.2906104724
 20
7713.7763725418
 30
0.0
 11
1241.2906104724
 21
7713.7763725418
 31
0.0
  0
LINE
  5
19F
330
1F
100
AcDbEntity
  8
0
  6
Continuous
 62
     8
370
    25
100
AcDbLine
 10
1059.2906104724
 20
7713.7763725418
 30
0.0
 11
1079.2906104724
 21
7713.7763725418
 31
0.0
  0
LINE
  5
1A0
330
1F
100
AcDbEntity
  8
0
  6
Continuous
 62
     8
370
    25
100
AcDbLine
 10
1499.2906104724
 20
7059.7763725418
 30
0.0
 11
1499.2906104724
 21
7029.7763725418
 31
0.0
  0
LINE
  5
1A1
330
1F
100
AcDbEntity
  8
0
  6
Continuous
 62
     8
370
    25
100
AcDbLine
 10
1551.2906104724
 20
7059.7763725418
 30
0.0
 11
1551.2906104724
 21
7029.7763725418
 31
0.0
  0
LINE
  5
1A2
330
1F
100
AcDbEntity
  8
0
  6
Continuous
 62
     8
370
    25
100
AcDbLine
 10
749.2906104724
 20
7059.7763725418
 30
0.0
 11
749.2906104724
 21
7029.7763725418
 31
0.0
  0
LINE
  5
1A3
330
1F
100
AcDbEntity
  8
0
  6
Continuous
 62
     8
370
    25
100
AcDbLine
 10
801.2906104724
 20
7059.7763725418
 30
0.0
 11
801.2906104724
 21
7029.7763725418
 31
0.0
  0
LINE
  5
1A4
330
1F
100
AcDbEntity
  8
0
  6
Continuous
 62
     7
370
    25
100
AcDbLine
 10
2343.6712318536
 20
8565.5189186929
 30
0.0
 11
2343.9597519485
 21
8566.3116211386
 31
0.0
  0
LINE
  5
1A5
330
1F
100
AcDbEntity
  8
0
  6
Continuous
 62
     7
370
    25
100
AcDbLine
 10
2343.9597519485
 20
8580.8166662997
 30
0.0
 11
2343.6712318536
 21
8581.6093687454
 31
0.0
  0
LINE
  5
1A6
330
1F
100
AcDbEntity
  8
0
  6
Continuous
 62
     7
370
    25
100
AcDbLine
 10
2343.6712318536
 20
8489.1513863248
 30
0.0
 11
2343.9597519485
 21
8489.9440887705
 31
0.0
  0
LINE
  5
1A7
330
1F
100
AcDbEntity
  8
0
  6
Continuous
 62
     7
370
    25
100
AcDbLine
 10
2343.9597519485
 20
8504.4491339316
 30
0.0
 11
2343.6712318536
 21
8505.2418363773
 31
0.0
  0
LINE
  5
1A8
330
1F
100
AcDbEntity
  8
0
  6
Continuous
 62
     7
370
    25
100
AcDbLine
 10
2337.9597519485
 20
8243.7763725417
 30
0.0
 11
2522.9597519485
 21
8243.7763725417
 31
0.0
  0
LINE
  5
1A9
330
1F
100
AcDbEntity
  8
0
  6
Continuous
 62
     7
370
    25
100
AcDbLine
 10
2522.9597519485
 20
8263.7763725417
 30
0.0
 11
2337.9597519485
 21
8263.7763725417
 31
0.0
  0
LINE
  5
1AA
330
1F
100
AcDbEntity
  8
0
  6
Continuous
 62
     7
370
    25
100
AcDbLine
 10
2522.9597519485
 20
8243.7763725417
 30
0.0
 11
2524.9597519485
 21
8245.7763725418
 31
0.0
  0
LINE
  5
1AB
330
1F
100
AcDbEntity
  8
0
  6
Continuous
 62
     7
370
    25
100
AcDbLine
 10
2524.9597519485
 20
8261.7763725418
 30
0.0
 11
2522.9597519485
 21
8263.7763725417
 31
0.0
  0
LINE
  5
1AC
330
1F
100
AcDbEntity
  8
0
  6
Continuous
 62
     7
370
    25
100
AcDbLine
 10
2353.9597519485
 20
7798.7763725418
 30
0.0
 11
2337.9597519485
 21
7798.7763725418
 31
0.0
  0
LINE
  5
1AD
330
1F
100
AcDbEntity
  8
0
  6
Continuous
 62
     7
370
    25
100
AcDbLine
 10
2337.9597519485
 20
7668.7763725418
 30
0.0
 11
2353.9597519485
 21
7668.7763725418
 31
0.0
  0
LINE
  5
1AE
330
1F
100
AcDbEntity
  8
0
  6
Continuous
 62
     7
370
    25
100
AcDbLine
 10
2365.1597519485
 20
7788.7763725418
 30
0.0
 11
2353.9597519485
 21
7788.7763725418
 31
0.0
  0
LINE
  5
1AF
330
1F
100
AcDbEntity
  8
0
  6
Continuous
 62
     7
370
    25
100
AcDbLine
 10
2353.9597519485
 20
7678.7763725418
 30
0.0
 11
2365.1597519485
 21
7678.7763725418
 31
0.0
  0
LINE
  5
1B0
330
1F
100
AcDbEntity
  8
0
  6
Continuous
 62
     7
370
    25
100
AcDbLine
 10
2226.7174756873
 20
7571.3788491689
 30
0.0
 11
2232.0557432241
 21
7673.2390617138
 31
0.0
  0
LINE
  5
1B1
330
1F
100
AcDbEntity
  8
0
  6
Continuous
 62
     7
370
    25
100
AcDbLine
 10
2132.1927897486
 20
7678.4726573381
 30
0.0
 11
2126.8545222119
 21
7576.6124447932
 31
0.0
  0
ARC
  5
1B2
330
1F
100
AcDbEntity
  8
0
  6
Continuous
 62
     7
370
    25
100
AcDbCircle
 10
2243.1597519485
 20
7672.6571252755
 30
0.0
 40
11.11924726629515
100
AcDbArc
 50
117.8823505433
 51
177.0
  0
ARC
  5
1B3
330
1F
100
AcDbEntity
  8
0
  6
Continuous
 62
     7
370
    25
100
AcDbCircle
 10
2243.1597519485
 20
7672.6571252755
 30
0.0
 40
111.1192472662953
100
AcDbArc
 50
92.6822257303
 51
177.0
  0
LINE
  5
1B4
330
1F
100
AcDbEntity
  8
0
  6
Continuous
 62
     7
370
    25
100
AcDbLine
 10
2231.9597519485
 20
7868.7763725418
 30
0.0
 11
2229.9597519485
 21
7868.7763725418
 31
0.0
  0
LINE
  5
1B5
330
1F
100
AcDbEntity
  8
0
  6
Continuous
 62
     7
370
    25
100
AcDbLine
 10
2229.9597519485
 20
7836.7763725418
 30
0.0
 11
2231.9597519485
 21
7836.7763725418
 31
0.0
  0
LINE
  5
1B6
330
1F
100
AcDbEntity
  8
0
  6
Continuous
 62
     7
370
    25
100
AcDbLine
 10
2231.9597519485
 20
8268.7763725418
 30
0.0
 11
2229.9597519485
 21
8268.7763725418
 31
0.0
  0
LINE
  5
1B7
330
1F
100
AcDbEntity
  8
0
  6
Continuous
 62
     7
370
    25
100
AcDbLine
 10
2229.9597519485
 20
8236.7763725418
 30
0.0
 11
2231.9597519485
 21
8236.7763725418
 31
0.0
  0
LINE
  5
1B8
330
1F
100
AcDbEntity
  8
0
  6
Continuous
 62
     7
370
    25
100
AcDbLine
 10
2232.9597519485
 20
8998.7763725418
 30
0.0
 11
2234.9597519485
 21
8998.7763725418
 31
0.0
  0
LINE
  5
1B9
330
1F
100
AcDbEntity
  8
0
  6
Continuous
 62
     7
370
    25
100
AcDbLine
 10
2234.9597519485
 20
9030.7763725418
 30
0.0
 11
2232.9597519485
 21
9030.7763725418
 31
0.0
  0
LINE
  5
1BA
330
1F
100
AcDbEntity
  8
0
  6
Continuous
 62
     7
370
    25
100
AcDbLine
 10
2232.9597519485
 20
9098.7763725418
 30
0.0
 11
2234.9597519485
 21
9098.7763725418
 31
0.0
  0
LINE
  5
1BB
330
1F
100
AcDbEntity
  8
0
  6
Continuous
 62
     7
370
    25
100
AcDbLine
 10
2234.9597519485
 20
9130.7763725418
 30
0.0
 11
2232.9597519485
 21
9130.7763725418
 31
0.0
  0
LINE
  5
1BC
330
1F
100
AcDbEntity
  8
0
  6
Continuous
 62
     7
370
    25
100
AcDbLine
 10
2229.9597519485
 20
8448.8803775351
 30
0.0
 11
2231.9597519485
 21
8448.8803775351
 31
0.0
  0
LINE
  5
1BD
330
1F
100
AcDbEntity
  8
0
  6
Continuous
 62
     7
370
    25
100
AcDbLine
 10
2231.9597519485
 20
8480.8803775351
 30
0.0
 11
2229.9597519485
 21
8480.8803775351
 31
0.0
  0
LINE
  5
1BE
330
1F
100
AcDbEntity
  8
0
  6
Continuous
 62
     7
370
    25
100
AcDbLine
 10
2337.9597519485
 20
8509.3803775351
 30
0.0
 11
2359.3597519485
 21
8509.3803775351
 31
0.0
  0
LINE
  5
1BF
330
1F
100
AcDbEntity
  8
0
  6
Continuous
 62
     7
370
    25
100
AcDbLine
 10
2359.3597519485
 20
8561.3803775351
 30
0.0
 11
2337.9597519485
 21
8561.3803775351
 31
0.0
  0
LINE
  5
1C0
330
1F
100
AcDbEntity
  8
0
  6
Continuous
 62
     7
370
    25
100
AcDbLine
 10
2337.9597519485
 20
8572.8191285084
 30
0.0
 11
2343.2372412874
 21
8572.8191285084
 31
0.0
  0
SPLINE
  5
1C1
330
1F
100
AcDbEntity
  8
0
  6
Continuous
 62
     7
370
    25
100
AcDbSpline
210
0.0
220
0.0
230
1.0
 70
     8
 71
     3
 72
     9
 73
     5
 74
     0
 42
0.00000001
 43
0.00000001
 40
0.0
 40
0.0
 40
0.0
 40
0.0
 40
0.4912124615585027
 40
0.9999999999999999
 40
0.9999999999999999
 40
0.9999999999999999
 40
0.9999999999999999
 10
2343.237241287423
 20
8565.217696419273
 30
0.0
 10
2343.459798025633
 20
8566.462021916377
 30
0.0
 10
2343.912874353346
 20
8568.995193597644
 30
0.0
 10
2343.465075674799
 20
8571.529635865581
 30
0.0
 10
2343.237241287423
 20
8572.819128508407
 30
0.0
  0
LINE
  5
1C2
330
1F
100
AcDbEntity
  8
0
  6
Continuous
 62
     7
370
    25
100
AcDbLine
 10
2337.9597519485
 20
8565.2176964193
 30
0.0
 11
2343.2372412874
 21
8565.2176964193
 31
0.0
  0
SPLINE
  5
1C3
330
1F
100
AcDbEntity
  8
0
  6
Continuous
 62
     7
370
    25
100
AcDbSpline
210
0.0
220
0.0
230
1.0
 70
     8
 71
     3
 72
     9
 73
     5
 74
     0
 42
0.00000001
 43
0.00000001
 40
0.0
 40
0.0
 40
0.0
 40
0.0
 40
0.4912124615585006
 40
1.0
 40
1.0
 40
1.0
 40
1.0
 10
2343.237241287423
 20
8581.165575808309
 30
0.0
 10
2343.459798025633
 20
8581.287531962309
 30
0.0
 10
2343.912874353346
 20
8581.535807736123
 30
0.0
 10
2343.465075674799
 20
8581.784208039948
 30
0.0
 10
2343.237241287423
 20
8581.910591019077
 30
0.0
  0
LINE
  5
1C4
330
1F
100
AcDbEntity
  8
0
  6
Continuous
 62
     7
370
    25
100
AcDbLine
 10
2343.6180227573
 20
8565.5382852202
 30
0.0
 11
2343.2372412874
 21
8565.2176964193
 31
0.0
  0
SPLINE
  5
1C5
330
1F
100
AcDbEntity
  8
0
  6
Continuous
 62
     7
370
    25
100
AcDbSpline
210
0.0
220
0.0
230
1.0
 70
     8
 71
     3
 72
    11
 73
     7
 74
     0
 42
0.00000001
 43
0.00000001
 40
0.0
 40
0.0
 40
0.0
 40
0.0
 40
0.1265265638841775
 40
0.550477395473474
 40
0.9864826276262932
 40
1.0
 40
1.0
 40
1.0
 40
1.0
 10
2343.237241287423
 20
8572.819128508407
 30
0.0
 10
2343.303510262102
 20
8573.167836599454
 30
0.0
 10
2343.591825786224
 20
8574.684956134264
 30
0.0
 10
2343.805567102841
 20
8577.452760903243
 30
0.0
 10
2343.492227818758
 20
8579.891346746379
 30
0.0
 10
2343.244685024608
 20
8581.12837766219
 30
0.0
 10
2343.237241287423
 20
8581.165575808309
 30
0.0
  0
LINE
  5
1C6
330
1F
100
AcDbEntity
  8
0
  6
Continuous
 62
     7
370
    25
100
AcDbLine
 10
2343.9597519485
 20
8576.6720386087
 30
0.0
 11
2343.9597519485
 21
8580.8166662997
 31
0.0
  0
LINE
  5
1C7
330
1F
100
AcDbEntity
  8
0
  6
Continuous
 62
     7
370
    25
100
AcDbLine
 10
2343.9597519485
 20
8566.3116211386
 30
0.0
 11
2343.9597519485
 21
8576.6720386087
 31
0.0
  0
LINE
  5
1C8
330
1F
100
AcDbEntity
  8
0
  6
Continuous
 62
     7
370
    25
100
AcDbLine
 10
2337.9597519485
 20
8581.1655758083
 30
0.0
 11
2343.2372412874
 21
8581.1655758083
 31
0.0
  0
LINE
  5
1C9
330
1F
100
AcDbEntity
  8
0
  6
Continuous
 62
     7
370
    25
100
AcDbLine
 10
2337.9597519485
 20
8581.9105910191
 30
0.0
 11
2343.2372412874
 21
8581.9105910191
 31
0.0
  0
LINE
  5
1CA
330
1F
100
AcDbEntity
  8
0
  6
Continuous
 62
     7
370
    25
100
AcDbLine
 10
2337.9597519485
 20
8496.4515961403
 30
0.0
 11
2343.2372412874
 21
8496.4515961403
 31
0.0
  0
SPLINE
  5
1CB
330
1F
100
AcDbEntity
  8
0
  6
Continuous
 62
     7
370
    25
100
AcDbSpline
210
0.0
220
0.0
230
1.0
 70
     8
 71
     3
 72
     9
 73
     5
 74
     0
 42
0.00000001
 43
0.00000001
 40
0.0
 40
0.0
 40
0.0
 40
0.0
 40
0.4912124615585027
 40
0.9999999999999999
 40
0.9999999999999999
 40
0.9999999999999999
 40
0.9999999999999999
 10
2343.237241287423
 20
8488.850164051126
 30
0.0
 10
2343.459798025633
 20
8490.09448954823
 30
0.0
 10
2343.912874353346
 20
8492.627661229497
 30
0.0
 10
2343.465075674799
 20
8495.162103497434
 30
0.0
 10
2343.237241287423
 20
8496.45159614026
 30
0.0
  0
LINE
  5
1CC
330
1F
100
AcDbEntity
  8
0
  6
Continuous
 62
     7
370
    25
100
AcDbLine
 10
2337.9597519485
 20
8488.8501640511
 30
0.0
 11
2343.2372412874
 21
8488.8501640511
 31
0.0
  0
SPLINE
  5
1CD
330
1F
100
AcDbEntity
  8
0
  6
Continuous
 62
     7
370
    25
100
AcDbSpline
210
0.0
220
0.0
230
1.0
 70
     8
 71
     3
 72
     9
 73
     5
 74
     0
 42
0.00000001
 43
0.00000001
 40
0.0
 40
0.0
 40
0.0
 40
0.0
 40
0.4912124615585006
 40
1.0
 40
1.0
 40
1.0
 40
1.0
 10
2343.237241287423
 20
8504.798043440162
 30
0.0
 10
2343.459798025633
 20
8504.919999594162
 30
0.0
 10
2343.912874353346
 20
8505.168275367976
 30
0.0
 10
2343.465075674799
 20
8505.4166756718
 30
0.0
 10
2343.237241287423
 20
8505.54305865093
 30
0.0
  0
LINE
  5
1CE
330
1F
100
AcDbEntity
  8
0
  6
Continuous
 62
     7
370
    25
100
AcDbLine
 10
2343.6180227573
 20
8489.170752852
 30
0.0
 11
2343.2372412874
 21
8488.8501640511
 31
0.0
  0
SPLINE
  5
1CF
330
1F
100
AcDbEntity
  8
0
  6
Continuous
 62
     7
370
    25
100
AcDbSpline
210
0.0
220
0.0
230
1.0
 70
     8
 71
     3
 72
    11
 73
     7
 74
     0
 42
0.00000001
 43
0.00000001
 40
0.0
 40
0.0
 40
0.0
 40
0.0
 40
0.1265265638841777
 40
0.550477395473474
 40
0.9864826276262932
 40
1.0
 40
1.0
 40
1.0
 40
1.0
 10
2343.237241287423
 20
8496.45159614026
 30
0.0
 10
2343.303510262102
 20
8496.800304231307
 30
0.0
 10
2343.591825786224
 20
8498.317423766117
 30
0.0
 10
2343.805567102841
 20
8501.085228535096
 30
0.0
 10
2343.492227818757
 20
8503.523814378232
 30
0.0
 10
2343.244685024608
 20
8504.760845294042
 30
0.0
 10
2343.237241287423
 20
8504.798043440162
 30
0.0
  0
LINE
  5
1D0
330
1F
100
AcDbEntity
  8
0
  6
Continuous
 62
     7
370
    25
100
AcDbLine
 10
2343.9597519485
 20
8500.3045062405
 30
0.0
 11
2343.9597519485
 21
8504.4491339316
 31
0.0
  0
LINE
  5
1D1
330
1F
100
AcDbEntity
  8
0
  6
Continuous
 62
     7
370
    25
100
AcDbLine
 10
2343.9597519485
 20
8489.9440887705
 30
0.0
 11
2343.9597519485
 21
8500.3045062405
 31
0.0
  0
LINE
  5
1D2
330
1F
100
AcDbEntity
  8
0
  6
Continuous
 62
     7
370
    25
100
AcDbLine
 10
2337.9597519485
 20
8504.7980434402
 30
0.0
 11
2343.2372412874
 21
8504.7980434402
 31
0.0
  0
LINE
  5
1D3
330
1F
100
AcDbEntity
  8
0
  6
Continuous
 62
     7
370
    25
100
AcDbLine
 10
2337.9597519485
 20
8505.5430586509
 30
0.0
 11
2343.2372412874
 21
8505.5430586509
 31
0.0
  0
LINE
  5
1D4
330
1F
100
AcDbEntity
  8
0
  6
Continuous
 62
     7
370
    25
100
AcDbLine
 10
2234.9597519485
 20
8959.7763725417
 30
0.0
 11
2234.9597519485
 21
9169.7763725418
 31
0.0
  0
LINE
  5
1D5
330
1F
100
AcDbEntity
  8
0
  6
Continuous
 62
     7
370
    25
100
AcDbLine
 10
2237.9597519485
 20
8959.7763725417
 30
0.0
 11
2234.9597519485
 21
8959.7763725417
 31
0.0
  0
LINE
  5
1D6
330
1F
100
AcDbEntity
  8
0
  6
Continuous
 62
     7
370
    25
100
AcDbLine
 10
2237.9597519485
 20
9169.7763725418
 30
0.0
 11
2234.9597519485
 21
9169.7763725418
 31
0.0
  0
LINE
  5
1D7
330
1F
100
AcDbEntity
  8
0
  6
Continuous
 62
     7
370
    25
100
AcDbLine
 10
2234.9597519485
 20
9169.7763725418
 30
0.0
 11
2233.9597519485
 21
9169.7763725418
 31
0.0
  0
LINE
  5
1D8
330
1F
100
AcDbEntity
  8
0
  6
Continuous
 62
     7
370
    25
100
AcDbLine
 10
2233.9597519485
 20
8959.7763725417
 30
0.0
 11
2234.9597519485
 21
8959.7763725417
 31
0.0
  0
LINE
  5
1D9
330
1F
100
AcDbEntity
  8
0
  6
Continuous
 62
     7
370
    25
100
AcDbLine
 10
2233.9597519485
 20
8959.7763725417
 30
0.0
 11
2208.9597519485
 21
8959.7763725417
 31
0.0
  0
LINE
  5
1DA
330
1F
100
AcDbEntity
  8
0
  6
Continuous
 62
     7
370
    25
100
AcDbLine
 10
2208.9597519485
 20
8959.7763725417
 30
0.0
 11
2208.9597519485
 21
9169.7763725418
 31
0.0
  0
LINE
  5
1DB
330
1F
100
AcDbEntity
  8
0
  6
Continuous
 62
     7
370
    25
100
AcDbLine
 10
2208.9597519485
 20
9169.7763725418
 30
0.0
 11
2233.9597519485
 21
9169.7763725418
 31
0.0
  0
LINE
  5
1DC
330
1F
100
AcDbEntity
  8
0
  6
Continuous
 62
     7
370
    25
100
AcDbLine
 10
2204.9597519485
 20
9169.7763725418
 30
0.0
 11
2208.9597519485
 21
9169.7763725418
 31
0.0
  0
LINE
  5
1DD
330
1F
100
AcDbEntity
  8
0
  6
Continuous
 62
     7
370
    25
100
AcDbLine
 10
2204.9597519485
 20
8959.7763725417
 30
0.0
 11
2204.9597519485
 21
9169.7763725418
 31
0.0
  0
LINE
  5
1DE
330
1F
100
AcDbEntity
  8
0
  6
Continuous
 62
     7
370
    25
100
AcDbLine
 10
2208.9597519485
 20
8959.7763725417
 30
0.0
 11
2204.9597519485
 21
8959.7763725417
 31
0.0
  0
LINE
  5
1DF
330
1F
100
AcDbEntity
  8
0
  6
Continuous
 62
     7
370
    25
100
AcDbLine
 10
2187.9597519485
 20
9289.7763725417
 30
0.0
 11
2203.9597519485
 21
9289.7763725417
 31
0.0
  0
LINE
  5
1E0
330
1F
100
AcDbEntity
  8
0
  6
Continuous
 62
     7
370
    25
100
AcDbLine
 10
2187.9597519485
 20
9292.7763725417
 30
0.0
 11
2203.9597519485
 21
9292.7763725417
 31
0.0
  0
LINE
  5
1E1
330
1F
100
AcDbEntity
  8
0
  6
Continuous
 62
     7
370
    25
100
AcDbLine
 10
2203.9597519485
 20
9289.7763725417
 30
0.0
 11
2203.9597519485
 21
9292.7763725417
 31
0.0
  0
LINE
  5
1E2
330
1F
100
AcDbEntity
  8
0
  6
Continuous
 62
     7
370
    25
100
AcDbLine
 10
2187.9597519485
 20
9292.7763725417
 30
0.0
 11
2187.9597519485
 21
9289.7763725417
 31
0.0
  0
LINE
  5
1E3
330
1F
100
AcDbEntity
  8
0
  6
Continuous
 62
     7
370
    25
100
AcDbLine
 10
2187.9597519485
 20
8836.7763725417
 30
0.0
 11
2187.9597519485
 21
8839.7763725418
 31
0.0
  0
LINE
  5
1E4
330
1F
100
AcDbEntity
  8
0
  6
Continuous
 62
     7
370
    25
100
AcDbLine
 10
2203.9597519485
 20
8839.7763725418
 30
0.0
 11
2187.9597519485
 21
8839.7763725418
 31
0.0
  0
LINE
  5
1E5
330
1F
100
AcDbEntity
  8
0
  6
Continuous
 62
     7
370
    25
100
AcDbLine
 10
2203.9597519485
 20
8839.7763725418
 30
0.0
 11
2203.9597519485
 21
8836.7763725417
 31
0.0
  0
LINE
  5
1E6
330
1F
100
AcDbEntity
  8
0
  6
Continuous
 62
     7
370
    25
100
AcDbLine
 10
2203.9597519485
 20
8836.7763725417
 30
0.0
 11
2187.9597519485
 21
8836.7763725417
 31
0.0
  0
ARC
  5
1E7
330
1F
100
AcDbEntity
  8
0
  6
Continuous
 62
     7
370
    25
100
AcDbCircle
 10
2203.9597519485
 20
9288.7763725417
 30
0.0
 40
4.0
100
AcDbArc
 50
0.0
 51
90.0
  0
LINE
  5
1E8
330
1F
100
AcDbEntity
  8
0
  6
Continuous
 62
     7
370
    25
100
AcDbLine
 10
2204.9597519485
 20
9288.7763725417
 30
0.0
 11
2207.9597519485
 21
9288.7763725417
 31
0.0
  0
ARC
  5
1E9
330
1F
100
AcDbEntity
  8
0
  6
Continuous
 62
     7
370
    25
100
AcDbCircle
 10
2203.9597519485
 20
9288.7763725417
 30
0.0
 40
1.0
100
AcDbArc
 50
0.0
 51
90.0
  0
LINE
  5
1EA
330
1F
100
AcDbEntity
  8
0
  6
Continuous
 62
     7
370
    25
100
AcDbLine
 10
2204.9597519485
 20
8840.7763725417
 30
0.0
 11
2207.9597519485
 21
8840.7763725417
 31
0.0
  0
ARC
  5
1EB
330
1F
100
AcDbEntity
  8
0
  6
Continuous
 62
     7
370
    25
100
AcDbCircle
 10
2203.9597519485
 20
8840.7763725417
 30
0.0
 40
4.0
100
AcDbArc
 50
270.0
 51
0.0
  0
ARC
  5
1EC
330
1F
100
AcDbEntity
  8
0
  6
Continuous
 62
     7
370
    25
100
AcDbCircle
 10
2203.9597519485
 20
8840.7763725417
 30
0.0
 40
1.0
100
AcDbArc
 50
270.0
 51
0.0
  0
LINE
  5
1ED
330
1F
100
AcDbEntity
  8
0
  6
Continuous
 62
     7
370
    25
100
AcDbLine
 10
2207.9597519485
 20
8959.7763725417
 30
0.0
 11
2207.9597519485
 21
8840.7763725417
 31
0.0
  0
LINE
  5
1EE
330
1F
100
AcDbEntity
  8
0
  6
Continuous
 62
     7
370
    25
100
AcDbLine
 10
2204.9597519485
 20
8959.7763725417
 30
0.0
 11
2204.9597519485
 21
8840.7763725417
 31
0.0
  0
LINE
  5
1EF
330
1F
100
AcDbEntity
  8
0
  6
Continuous
 62
     7
370
    25
100
AcDbLine
 10
2207.9597519485
 20
9288.7763725417
 30
0.0
 11
2207.9597519485
 21
9169.7763725418
 31
0.0
  0
LINE
  5
1F0
330
1F
100
AcDbEntity
  8
0
  6
Continuous
 62
     7
370
    25
100
AcDbLine
 10
2204.9597519485
 20
9288.7763725417
 30
0.0
 11
2204.9597519485
 21
9169.7763725418
 31
0.0
  0
LINE
  5
1F1
330
1F
100
AcDbEntity
  8
0
  6
Continuous
 62
     7
370
    25
100
AcDbLine
 10
2231.9597519485
 20
8494.8803775351
 30
0.0
 11
2231.9597519485
 21
8434.8803775351
 31
0.0
  0
LINE
  5
1F2
330
1F
100
AcDbEntity
  8
0
  6
Continuous
 62
     7
370
    25
100
AcDbLine
 10
2237.9597519485
 20
8494.8803775351
 30
0.0
 11
2231.9597519485
 21
8494.8803775351
 31
0.0
  0
LINE
  5
1F3
330
1F
100
AcDbEntity
  8
0
  6
Continuous
 62
     7
370
    25
100
AcDbLine
 10
2237.9597519485
 20
8434.8803775351
 30
0.0
 11
2237.9597519485
 21
8494.8803775351
 31
0.0
  0
LINE
  5
1F4
330
1F
100
AcDbEntity
  8
0
  6
Continuous
 62
     7
370
    25
100
AcDbLine
 10
2231.9597519485
 20
8434.8803775351
 30
0.0
 11
2237.9597519485
 21
8434.8803775351
 31
0.0
  0
LINE
  5
1F5
330
1F
100
AcDbEntity
  8
0
  6
Continuous
 62
     7
370
    25
100
AcDbLine
 10
2522.9597519485
 20
8243.7763725417
 30
0.0
 11
2522.9597519485
 21
8263.7763725417
 31
0.0
  0
LINE
  5
1F6
330
1F
100
AcDbEntity
  8
0
  6
Continuous
 62
     7
370
    25
100
AcDbLine
 10
2524.9597519485
 20
8261.7763725418
 30
0.0
 11
2524.9597519485
 21
8245.7763725418
 31
0.0
  0
LINE
  5
1F7
330
1F
100
AcDbEntity
  8
0
  6
Continuous
 62
     7
370
    25
100
AcDbLine
 10
2237.9597519485
 20
8223.7763725418
 30
0.0
 11
2231.9597519485
 21
8223.7763725418
 31
0.0
  0
LINE
  5
1F8
330
1F
100
AcDbEntity
  8
0
  6
Continuous
 62
     7
370
    25
100
AcDbLine
 10
2231.9597519485
 20
8283.7763725418
 30
0.0
 11
2237.9597519485
 21
8283.7763725418
 31
0.0
  0
LINE
  5
1F9
330
1F
100
AcDbEntity
  8
0
  6
Continuous
 62
     7
370
    25
100
AcDbLine
 10
2231.9597519485
 20
8283.7763725418
 30
0.0
 11
2231.9597519485
 21
8223.7763725418
 31
0.0
  0
LINE
  5
1FA
330
1F
100
AcDbEntity
  8
0
  6
Continuous
 62
     7
370
    25
100
AcDbLine
 10
2237.9597519485
 20
8283.7763725418
 30
0.0
 11
2237.9597519485
 21
8223.7763725418
 31
0.0
  0
LINE
  5
1FB
330
1F
100
AcDbEntity
  8
0
  6
Continuous
 62
     7
370
    25
100
AcDbLine
 10
2353.9597519485
 20
7798.7763725418
 30
0.0
 11
2353.9597519485
 21
7668.7763725418
 31
0.0
  0
LINE
  5
1FC
330
1F
100
AcDbEntity
  8
0
  6
Continuous
 62
     7
370
    25
100
AcDbLine
 10
2365.1597519485
 20
7788.7763725418
 30
0.0
 11
2365.1597519485
 21
7678.7763725418
 31
0.0
  0
LINE
  5
1FD
330
1F
100
AcDbEntity
  8
0
  6
Continuous
 62
     7
370
    25
100
AcDbLine
 10
2226.7174756873
 20
7571.3788491689
 30
0.0
 11
2126.8545222119
 21
7576.6124447932
 31
0.0
  0
LINE
  5
1FE
330
1F
100
AcDbEntity
  8
0
  6
Continuous
 62
     7
370
    25
100
AcDbLine
 10
2231.9597519485
 20
7882.7763725418
 30
0.0
 11
2231.9597519485
 21
7822.7763725418
 31
0.0
  0
LINE
  5
1FF
330
1F
100
AcDbEntity
  8
0
  6
Continuous
 62
     7
370
    25
100
AcDbLine
 10
2237.9597519485
 20
7822.7763725418
 30
0.0
 11
2237.9597519485
 21
7882.7763725418
 31
0.0
  0
LINE
  5
200
330
1F
100
AcDbEntity
  8
0
  6
Continuous
 62
     7
370
    25
100
AcDbLine
 10
2231.9597519485
 20
7822.7763725418
 30
0.0
 11
2237.9597519485
 21
7822.7763725418
 31
0.0
  0
LINE
  5
201
330
1F
100
AcDbEntity
  8
0
  6
Continuous
 62
     7
370
    25
100
AcDbLine
 10
2237.9597519485
 20
7882.7763725418
 30
0.0
 11
2231.9597519485
 21
7882.7763725418
 31
0.0
  0
LINE
  5
202
330
1F
100
AcDbEntity
  8
0
  6
Continuous
 62
     7
370
    25
100
AcDbLine
 10
2229.9597519485
 20
7836.7763725418
 30
0.0
 11
2229.9597519485
 21
7868.7763725418
 31
0.0
  0
LINE
  5
203
330
1F
100
AcDbEntity
  8
0
  6
Continuous
 62
     7
370
    25
100
AcDbLine
 10
2229.9597519485
 20
8236.7763725418
 30
0.0
 11
2229.9597519485
 21
8268.7763725418
 31
0.0
  0
LINE
  5
204
330
1F
100
AcDbEntity
  8
0
  6
Continuous
 62
     7
370
    25
100
AcDbLine
 10
2219.9597519485
 20
8241.1409586376
 30
0.0
 11
2229.9597519485
 21
8241.1409586376
 31
0.0
  0
LINE
  5
205
330
1F
100
AcDbEntity
  8
0
  6
Continuous
 62
     7
370
    25
100
AcDbLine
 10
2219.9597519485
 20
8255.1722432181
 30
0.0
 11
2229.9597519485
 21
8255.1722432181
 31
0.0
  0
LINE
  5
206
330
1F
100
AcDbEntity
  8
0
  6
Continuous
 62
     7
370
    25
100
AcDbLine
 10
2219.9597519485
 20
8241.1409586376
 30
0.0
 11
2219.9597519485
 21
8255.1722432181
 31
0.0
  0
LINE
  5
207
330
1F
100
AcDbEntity
  8
0
  6
Continuous
 62
     7
370
    25
100
AcDbLine
 10
2219.9597519485
 20
8266.8076571223
 30
0.0
 11
2229.9597519485
 21
8266.8076571223
 31
0.0
  0
LINE
  5
208
330
1F
100
AcDbEntity
  8
0
  6
Continuous
 62
     7
370
    25
100
AcDbLine
 10
2219.9597519485
 20
8255.1722432181
 30
0.0
 11
2219.9597519485
 21
8266.8076571223
 31
0.0
  0
LINE
  5
209
330
1F
100
AcDbEntity
  8
0
  6
Continuous
 62
     7
370
    25
100
AcDbLine
 10
2219.9597519485
 20
8238.7450879612
 30
0.0
 11
2229.9597519485
 21
8238.7450879612
 31
0.0
  0
LINE
  5
20A
330
1F
100
AcDbEntity
  8
0
  6
Continuous
 62
     7
370
    25
100
AcDbLine
 10
2219.9597519485
 20
8238.7450879612
 30
0.0
 11
2219.9597519485
 21
8241.1409586376
 31
0.0
  0
LINE
  5
20B
330
1F
100
AcDbEntity
  8
0
  6
Continuous
 62
     7
370
    25
100
AcDbLine
 10
2219.9597519485
 20
7841.1409586376
 30
0.0
 11
2229.9597519485
 21
7841.1409586376
 31
0.0
  0
LINE
  5
20C
330
1F
100
AcDbEntity
  8
0
  6
Continuous
 62
     7
370
    25
100
AcDbLine
 10
2219.9597519485
 20
7855.1722432181
 30
0.0
 11
2229.9597519485
 21
7855.1722432181
 31
0.0
  0
LINE
  5
20D
330
1F
100
AcDbEntity
  8
0
  6
Continuous
 62
     7
370
    25
100
AcDbLine
 10
2219.9597519485
 20
7841.1409586376
 30
0.0
 11
2219.9597519485
 21
7855.1722432181
 31
0.0
  0
LINE
  5
20E
330
1F
100
AcDbEntity
  8
0
  6
Continuous
 62
     7
370
    25
100
AcDbLine
 10
2219.9597519485
 20
7866.8076571223
 30
0.0
 11
2229.9597519485
 21
7866.8076571223
 31
0.0
  0
LINE
  5
20F
330
1F
100
AcDbEntity
  8
0
  6
Continuous
 62
     7
370
    25
100
AcDbLine
 10
2219.9597519485
 20
7855.1722432181
 30
0.0
 11
2219.9597519485
 21
7866.8076571223
 31
0.0
  0
LINE
  5
210
330
1F
100
AcDbEntity
  8
0
  6
Continuous
 62
     7
370
    25
100
AcDbLine
 10
2219.9597519485
 20
7838.7450879612
 30
0.0
 11
2229.9597519485
 21
7838.7450879612
 31
0.0
  0
LINE
  5
211
330
1F
100
AcDbEntity
  8
0
  6
Continuous
 62
     7
370
    25
100
AcDbLine
 10
2219.9597519485
 20
7838.7450879612
 30
0.0
 11
2219.9597519485
 21
7841.1409586376
 31
0.0
  0
LINE
  5
212
330
1F
100
AcDbEntity
  8
0
  6
Continuous
 62
     7
370
    25
100
AcDbLine
 10
2232.9597519485
 20
9030.7763725418
 30
0.0
 11
2232.9597519485
 21
8998.7763725418
 31
0.0
  0
LINE
  5
213
330
1F
100
AcDbEntity
  8
0
  6
Continuous
 62
     7
370
    25
100
AcDbLine
 10
2232.9597519485
 20
9130.7763725418
 30
0.0
 11
2232.9597519485
 21
9098.7763725418
 31
0.0
  0
LINE
  5
214
330
1F
100
AcDbEntity
  8
0
  6
Continuous
 62
     7
370
    25
100
AcDbLine
 10
2229.9597519485
 20
8480.8803775351
 30
0.0
 11
2229.9597519485
 21
8448.8803775351
 31
0.0
  0
LINE
  5
215
330
1F
100
AcDbEntity
  8
0
  6
Continuous
 62
     7
370
    25
100
AcDbLine
 10
2222.9597519485
 20
9001.7763725417
 30
0.0
 11
2232.9597519485
 21
9001.7763725417
 31
0.0
  0
LINE
  5
216
330
1F
100
AcDbEntity
  8
0
  6
Continuous
 62
     7
370
    25
100
AcDbLine
 10
2222.9597519485
 20
9001.7763725417
 30
0.0
 11
2222.9597519485
 21
9014.7763725417
 31
0.0
  0
LINE
  5
217
330
1F
100
AcDbEntity
  8
0
  6
Continuous
 62
     7
370
    25
100
AcDbLine
 10
2222.9597519485
 20
9014.7763725417
 30
0.0
 11
2232.9597519485
 21
9014.7763725417
 31
0.0
  0
LINE
  5
218
330
1F
100
AcDbEntity
  8
0
  6
Continuous
 62
     7
370
    25
100
AcDbLine
 10
2222.9597519485
 20
9014.7763725417
 30
0.0
 11
2222.9597519485
 21
9027.7763725418
 31
0.0
  0
LINE
  5
219
330
1F
100
AcDbEntity
  8
0
  6
Continuous
 62
     7
370
    25
100
AcDbLine
 10
2222.9597519485
 20
9027.7763725418
 30
0.0
 11
2232.9597519485
 21
9027.7763725418
 31
0.0
  0
LINE
  5
21A
330
1F
100
AcDbEntity
  8
0
  6
Continuous
 62
     7
370
    25
100
AcDbLine
 10
2219.9597519485
 20
8451.8803775351
 30
0.0
 11
2229.9597519485
 21
8451.8803775351
 31
0.0
  0
LINE
  5
21B
330
1F
100
AcDbEntity
  8
0
  6
Continuous
 62
     7
370
    25
100
AcDbLine
 10
2219.9597519485
 20
8451.8803775351
 30
0.0
 11
2219.9597519485
 21
8464.8803775351
 31
0.0
  0
LINE
  5
21C
330
1F
100
AcDbEntity
  8
0
  6
Continuous
 62
     7
370
    25
100
AcDbLine
 10
2219.9597519485
 20
8464.8803775351
 30
0.0
 11
2229.9597519485
 21
8464.8803775351
 31
0.0
  0
LINE
  5
21D
330
1F
100
AcDbEntity
  8
0
  6
Continuous
 62
     7
370
    25
100
AcDbLine
 10
2219.9597519485
 20
8464.8803775351
 30
0.0
 11
2219.9597519485
 21
8477.8803775351
 31
0.0
  0
LINE
  5
21E
330
1F
100
AcDbEntity
  8
0
  6
Continuous
 62
     7
370
    25
100
AcDbLine
 10
2219.9597519485
 20
8477.8803775351
 30
0.0
 11
2229.9597519485
 21
8477.8803775351
 31
0.0
  0
LINE
  5
21F
330
1F
100
AcDbEntity
  8
0
  6
Continuous
 62
     7
370
    25
100
AcDbLine
 10
2222.9597519485
 20
9114.7763725418
 30
0.0
 11
2232.9597519485
 21
9114.7763725418
 31
0.0
  0
LINE
  5
220
330
1F
100
AcDbEntity
  8
0
  6
Continuous
 62
     7
370
    25
100
AcDbLine
 10
2222.9597519485
 20
9127.7763725418
 30
0.0
 11
2232.9597519485
 21
9127.7763725418
 31
0.0
  0
LINE
  5
221
330
1F
100
AcDbEntity
  8
0
  6
Continuous
 62
     7
370
    25
100
AcDbLine
 10
2222.9597519485
 20
9114.7763725418
 30
0.0
 11
2222.9597519485
 21
9127.7763725418
 31
0.0
  0
LINE
  5
222
330
1F
100
AcDbEntity
  8
0
  6
Continuous
 62
     7
370
    25
100
AcDbLine
 10
2222.9597519485
 20
9101.7763725418
 30
0.0
 11
2232.9597519485
 21
9101.7763725418
 31
0.0
  0
LINE
  5
223
330
1F
100
AcDbEntity
  8
0
  6
Continuous
 62
     7
370
    25
100
AcDbLine
 10
2222.9597519485
 20
9101.7763725418
 30
0.0
 11
2222.9597519485
 21
9114.7763725418
 31
0.0
  0
LINE
  5
224
330
1F
100
AcDbEntity
  8
0
  6
Continuous
 62
     7
370
    25
100
AcDbLine
 10
2359.3597519485
 20
8535.3803775351
 30
0.0
 11
2359.3597519485
 21
8561.3803775351
 31
0.0
  0
LINE
  5
225
330
1F
100
AcDbEntity
  8
0
  6
Continuous
 62
     7
370
    25
100
AcDbLine
 10
2359.3597519485
 20
8509.3803775351
 30
0.0
 11
2359.3597519485
 21
8535.3803775351
 31
0.0
  0
LINE
  5
226
330
1F
100
AcDbEntity
  8
0
  6
Continuous
 62
     7
370
    25
100
AcDbLine
 10
2016.9597519485
 20
9392.7763725418
 30
0.0
 11
2016.9597519485
 21
9346.7763725417
 31
0.0
  0
LINE
  5
227
330
1F
100
AcDbEntity
  8
0
  6
Continuous
 62
     7
370
    25
100
AcDbLine
 10
2024.9597519485
 20
9392.7763725418
 30
0.0
 11
2024.9597519485
 21
9346.7763725417
 31
0.0
  0
LINE
  5
228
330
1F
100
AcDbEntity
  8
0
  6
Continuous
 62
     7
370
    25
100
AcDbLine
 10
2016.9597519485
 20
9346.7763725417
 30
0.0
 11
2024.9597519485
 21
9346.7763725417
 31
0.0
  0
LINE
  5
229
330
1F
100
AcDbEntity
  8
0
  6
Continuous
 62
     7
370
    25
100
AcDbLine
 10
2016.9597519485
 20
9392.7763725418
 30
0.0
 11
2024.9597519485
 21
9392.7763725418
 31
0.0
  0
LINE
  5
22A
330
1F
100
AcDbEntity
  8
0
  6
Continuous
 62
     7
370
    25
100
AcDbLine
 10
2024.9597519485
 20
9346.7763725417
 30
0.0
 11
2042.9597519485
 21
9346.7763725417
 31
0.0
  0
LINE
  5
22B
330
1F
100
AcDbEntity
  8
0
  6
Continuous
 62
     7
370
    25
100
AcDbLine
 10
2024.9597519485
 20
9392.7763725418
 30
0.0
 11
2042.9597519485
 21
9392.7763725418
 31
0.0
  0
LINE
  5
22C
330
1F
100
AcDbEntity
  8
0
  6
Continuous
 62
     7
370
    25
100
AcDbLine
 10
2276.9597519485
 20
7029.7763725418
 30
0.0
 11
2328.9597519485
 21
7029.7763725418
 31
0.0
  0
LINE
  5
22D
330
1F
100
AcDbEntity
  8
0
  6
Continuous
 62
     7
370
    25
100
AcDbLine
 10
2272.9597519485
 20
7059.7763725418
 30
0.0
 11
2272.9597519485
 21
7029.7763725418
 31
0.0
  0
LINE
  5
22E
330
1F
100
AcDbEntity
  8
0
  6
Continuous
 62
     7
370
    25
100
AcDbLine
 10
2332.9597519485
 20
7059.7763725418
 30
0.0
 11
2332.9597519485
 21
7029.7763725418
 31
0.0
  0
LINE
  5
22F
330
1F
100
AcDbEntity
  8
0
  6
Continuous
 62
     7
370
    25
100
AcDbLine
 10
2332.9597519485
 20
7023.7763725418
 30
0.0
 11
2332.9597519485
 21
7029.7763725418
 31
0.0
  0
LINE
  5
230
330
1F
100
AcDbEntity
  8
0
  6
Continuous
 62
     7
370
    25
100
AcDbLine
 10
2232.9597519485
 20
7023.7763725418
 30
0.0
 11
2232.9597519485
 21
7029.7763725418
 31
0.0
  0
LINE
  5
231
330
1F
100
AcDbEntity
  8
0
  6
Continuous
 62
     7
370
    25
100
AcDbLine
 10
2332.9597519485
 20
7029.7763725418
 30
0.0
 11
2232.9597519485
 21
7029.7763725418
 31
0.0
  0
LINE
  5
232
330
1F
100
AcDbEntity
  8
0
  6
Continuous
 62
     7
370
    25
100
AcDbLine
 10
2332.9597519485
 20
7023.7763725418
 30
0.0
 11
2232.9597519485
 21
7023.7763725418
 31
0.0
  0
LINE
  5
233
330
1F
100
AcDbEntity
  8
0
  6
Continuous
 62
     7
370
    25
100
AcDbLine
 10
2272.9597519485
 20
7059.7763725418
 30
0.0
 11
2272.9597519485
 21
9399.7763725418
 31
0.0
  0
LINE
  5
234
330
1F
100
AcDbEntity
  8
0
  6
Continuous
 62
     7
370
    25
100
AcDbLine
 10
2267.9597519485
 20
7059.7763725418
 30
0.0
 11
2267.9597519484
 21
9339.7763725418
 31
0.0
  0
LINE
  5
235
330
1F
100
AcDbEntity
  8
0
  6
Continuous
 62
     7
370
    25
100
AcDbLine
 10
2272.9597519485
 20
9399.7763725418
 30
0.0
 11
2267.9597519485
 21
9399.7763725418
 31
0.0
  0
LINE
  5
236
330
1F
100
AcDbEntity
  8
0
  6
Continuous
 62
     7
370
    25
100
AcDbLine
 10
2272.9597519485
 20
7059.7763725418
 30
0.0
 11
2267.9597519485
 21
7059.7763725418
 31
0.0
  0
LINE
  5
237
330
1F
100
AcDbEntity
  8
0
  6
Continuous
 62
     7
370
    25
100
AcDbLine
 10
2332.9597519485
 20
7059.7763725418
 30
0.0
 11
2332.9597519485
 21
9399.7763725418
 31
0.0
  0
LINE
  5
238
330
1F
100
AcDbEntity
  8
0
  6
Continuous
 62
     7
370
    25
100
AcDbLine
 10
2332.9597519485
 20
9399.7763725418
 30
0.0
 11
2272.9597519485
 21
9399.7763725418
 31
0.0
  0
LINE
  5
239
330
1F
100
AcDbEntity
  8
0
  6
Continuous
 62
     7
370
    25
100
AcDbLine
 10
2332.9597519485
 20
7059.7763725418
 30
0.0
 11
2272.9597519485
 21
7059.7763725418
 31
0.0
  0
LINE
  5
23A
330
1F
100
AcDbEntity
  8
0
  6
Continuous
 62
     7
370
    25
100
AcDbLine
 10
2337.9597519485
 20
7059.7763725418
 30
0.0
 11
2337.9597519485
 21
9399.7763725418
 31
0.0
  0
LINE
  5
23B
330
1F
100
AcDbEntity
  8
0
  6
Continuous
 62
     7
370
    25
100
AcDbLine
 10
2337.9597519485
 20
9399.7763725418
 30
0.0
 11
2332.9597519485
 21
9399.7763725418
 31
0.0
  0
LINE
  5
23C
330
1F
100
AcDbEntity
  8
0
  6
Continuous
 62
     7
370
    25
100
AcDbLine
 10
2337.9597519485
 20
7059.7763725418
 30
0.0
 11
2332.9597519485
 21
7059.7763725418
 31
0.0
  0
LINE
  5
23D
330
1F
100
AcDbEntity
  8
0
  6
Continuous
 62
     7
370
    25
100
AcDbLine
 10
2242.9597519485
 20
7559.7763725418
 30
0.0
 11
2242.9597519485
 21
9179.7763725417
 31
0.0
  0
LINE
  5
23E
330
1F
100
AcDbEntity
  8
0
  6
Continuous
 62
     7
370
    25
100
AcDbLine
 10
2242.9597519485
 20
7559.7763725418
 30
0.0
 11
2237.9597519485
 21
7559.7763725418
 31
0.0
  0
LINE
  5
23F
330
1F
100
AcDbEntity
  8
0
  6
Continuous
 62
     7
370
    25
100
AcDbLine
 10
2237.9597519485
 20
7559.7763725418
 30
0.0
 11
2237.9597519485
 21
7822.7763725418
 31
0.0
  0
LINE
  5
240
330
1F
100
AcDbEntity
  8
0
  6
Continuous
 62
     7
370
    25
100
AcDbLine
 10
2237.9597519485
 20
7882.7763725418
 30
0.0
 11
2237.9597519485
 21
8223.7763725418
 31
0.0
  0
LINE
  5
241
330
1F
100
AcDbEntity
  8
0
  6
Continuous
 62
     7
370
    25
100
AcDbLine
 10
2237.9597519485
 20
8283.7763725418
 30
0.0
 11
2237.9597519485
 21
8434.8803775351
 31
0.0
  0
LINE
  5
242
330
1F
100
AcDbEntity
  8
0
  6
Continuous
 62
     7
370
    25
100
AcDbLine
 10
2237.9597519485
 20
8494.8803775351
 30
0.0
 11
2237.9597519485
 21
9179.7763725417
 31
0.0
  0
LINE
  5
243
330
1F
100
AcDbEntity
  8
0
  6
Continuous
 62
     7
370
    25
100
AcDbLine
 10
2242.9597519485
 20
9179.7763725417
 30
0.0
 11
2237.9597519485
 21
9179.7763725417
 31
0.0
  0
LINE
  5
244
330
1F
100
AcDbEntity
  8
0
  6
Continuous
 62
     7
370
    25
100
AcDbLine
 10
2262.9597519485
 20
7559.7763725418
 30
0.0
 11
2262.9597519485
 21
9179.7763725417
 31
0.0
  0
LINE
  5
245
330
1F
100
AcDbEntity
  8
0
  6
Continuous
 62
     7
370
    25
100
AcDbLine
 10
2262.9597519485
 20
9179.7763725417
 30
0.0
 11
2242.9597519485
 21
9179.7763725417
 31
0.0
  0
LINE
  5
246
330
1F
100
AcDbEntity
  8
0
  6
Continuous
 62
     7
370
    25
100
AcDbLine
 10
2262.9597519485
 20
7559.7763725418
 30
0.0
 11
2242.9597519485
 21
7559.7763725418
 31
0.0
  0
LINE
  5
247
330
1F
100
AcDbEntity
  8
0
  6
Continuous
 62
     7
370
    25
100
AcDbLine
 10
2267.9597519485
 20
9179.7763725417
 30
0.0
 11
2262.9597519485
 21
9179.7763725417
 31
0.0
  0
LINE
  5
248
330
1F
100
AcDbEntity
  8
0
  6
Continuous
 62
     7
370
    25
100
AcDbLine
 10
2267.9597519485
 20
7559.7763725418
 30
0.0
 11
2262.9597519485
 21
7559.7763725418
 31
0.0
  0
LINE
  5
249
330
1F
100
AcDbEntity
  8
0
  6
Continuous
 62
     7
370
    25
100
AcDbLine
 10
2267.9597519485
 20
9343.7763725417
 30
0.0
 11
2267.9597519485
 21
9395.7763725417
 31
0.0
  0
LINE
  5
24A
330
1F
100
AcDbEntity
  8
0
  6
Continuous
 62
     7
370
    25
100
AcDbLine
 10
2042.9597519485
 20
9343.7763725417
 30
0.0
 11
2267.9597519485
 21
9343.7763725417
 31
0.0
  0
LINE
  5
24B
330
1F
100
AcDbEntity
  8
0
  6
Continuous
 62
     7
370
    25
100
AcDbLine
 10
2042.9597519485
 20
9343.7763725417
 30
0.0
 11
2042.9597519485
 21
9395.7763725417
 31
0.0
  0
LINE
  5
24C
330
1F
100
AcDbEntity
  8
0
  6
Continuous
 62
     7
370
    25
100
AcDbLine
 10
2042.9597519485
 20
9395.7763725417
 30
0.0
 11
2267.9597519485
 21
9395.7763725417
 31
0.0
  0
LINE
  5
24D
330
1F
100
AcDbEntity
  8
0
  6
Continuous
 62
     7
370
    25
100
AcDbLine
 10
2267.9597519485
 20
9395.7763725417
 30
0.0
 11
2267.9597519485
 21
9399.7763725418
 31
0.0
  0
LINE
  5
24E
330
1F
100
AcDbEntity
  8
0
  6
Continuous
 62
     7
370
    25
100
AcDbLine
 10
2042.9597519485
 20
9395.7763725417
 30
0.0
 11
2042.9597519485
 21
9399.7763725418
 31
0.0
  0
LINE
  5
24F
330
1F
100
AcDbEntity
  8
0
  6
Continuous
 62
     7
370
    25
100
AcDbLine
 10
2042.9597519485
 20
9399.7763725418
 30
0.0
 11
2267.9597519485
 21
9399.7763725418
 31
0.0
  0
LINE
  5
250
330
1F
100
AcDbEntity
  8
0
  6
Continuous
 62
     7
370
    25
100
AcDbLine
 10
2267.9597519485
 20
9339.7763725418
 30
0.0
 11
2267.9597519485
 21
9343.7763725417
 31
0.0
  0
LINE
  5
251
330
1F
100
AcDbEntity
  8
0
  6
Continuous
 62
     7
370
    25
100
AcDbLine
 10
2042.9597519485
 20
9339.7763725418
 30
0.0
 11
2267.9597519485
 21
9339.7763725418
 31
0.0
  0
LINE
  5
252
330
1F
100
AcDbEntity
  8
0
  6
Continuous
 62
     7
370
    25
100
AcDbLine
 10
2042.9597519485
 20
9339.7763725418
 30
0.0
 11
2042.9597519485
 21
9343.7763725417
 31
0.0
  0
LINE
  5
253
330
1F
100
AcDbEntity
  8
0
  6
Continuous
 62
     8
370
    25
100
AcDbLine
 10
2233.9597519485
 20
9169.7763725418
 30
0.0
 11
2233.9597519485
 21
9130.7763725418
 31
0.0
  0
LINE
  5
254
330
1F
100
AcDbEntity
  8
0
  6
Continuous
 62
     8
370
    25
100
AcDbLine
 10
2233.9597519485
 20
9098.7763725418
 30
0.0
 11
2233.9597519485
 21
9030.7763725418
 31
0.0
  0
LINE
  5
255
330
1F
100
AcDbEntity
  8
0
  6
Continuous
 62
     8
370
    25
100
AcDbLine
 10
2233.9597519485
 20
8998.7763725418
 30
0.0
 11
2233.9597519485
 21
8959.7763725417
 31
0.0
  0
LINE
  5
256
330
1F
100
AcDbEntity
  8
0
  6
Continuous
 62
     8
370
    25
100
AcDbLine
 10
2132.1927897486
 20
7678.4726573381
 30
0.0
 11
2232.0557432241
 21
7673.2390617138
 31
0.0
  0
LINE
  5
257
330
1F
100
AcDbEntity
  8
0
  6
Continuous
 62
     8
370
    25
100
AcDbLine
 10
2276.9597519485
 20
7059.7763725418
 30
0.0
 11
2276.9597519485
 21
7029.7763725418
 31
0.0
  0
LINE
  5
258
330
1F
100
AcDbEntity
  8
0
  6
Continuous
 62
     8
370
    25
100
AcDbLine
 10
2328.9597519485
 20
7059.7763725418
 30
0.0
 11
2328.9597519485
 21
7029.7763725418
 31
0.0
  0
LINE
  5
259
330
1F
100
AcDbEntity
  8
0
  6
Continuous
 62
     7
100
AcDbLine
 10
820.2906104724
 20
6260.005950148
 30
0.0
 11
1480.2906104724
 21
6260.005950148
 31
0.0
  0
LINE
  5
25A
330
1F
100
AcDbEntity
  8
0
  6
Continuous
 62
     7
100
AcDbLine
 10
820.2906104724
 20
6260.005950148
 30
0.0
 11
1480.2906104724
 21
6260.005950148
 31
0.0
  0
LINE
  5
25B
330
1F
100
AcDbEntity
  8
0
  6
Continuous
 62
     7
370
    25
100
AcDbLine
 10
1179.620210111
 20
6253.5889008771
 30
0.0
 11
1181.2218540759
 21
6253.005950148
 31
0.0
  0
LINE
  5
25C
330
1F
100
AcDbEntity
  8
0
  6
Continuous
 62
     7
370
    25
100
AcDbLine
 10
1195.726899237
 20
6253.005950148
 30
0.0
 11
1197.3285432019
 21
6253.5889008771
 31
0.0
  0
LINE
  5
25D
330
1F
100
AcDbEntity
  8
0
  6
Continuous
 62
     7
370
    25
100
AcDbLine
 10
1103.2526777429
 20
6253.5889008771
 30
0.0
 11
1104.8543217078
 21
6253.005950148
 31
0.0
  0
LINE
  5
25E
330
1F
100
AcDbEntity
  8
0
  6
Continuous
 62
     7
370
    25
100
AcDbLine
 10
1119.3593668689
 20
6253.005950148
 30
0.0
 11
1120.9610108338
 21
6253.5889008771
 31
0.0
  0
LINE
  5
25F
330
1F
100
AcDbEntity
  8
0
  6
Continuous
 62
     7
370
    25
100
AcDbLine
 10
900.2906104724
 20
6259.005950148
 30
0.0
 11
900.2906104724
 21
6074.005950148
 31
0.0
  0
LINE
  5
260
330
1F
100
AcDbEntity
  8
0
  6
Continuous
 62
     7
370
    25
100
AcDbLine
 10
920.2906104724
 20
6074.005950148
 30
0.0
 11
920.2906104724
 21
6259.005950148
 31
0.0
  0
LINE
  5
261
330
1F
100
AcDbEntity
  8
0
  6
Continuous
 62
     7
370
    25
100
AcDbLine
 10
900.2906104724
 20
6074.005950148
 30
0.0
 11
902.2906104724
 21
6072.005950148
 31
0.0
  0
LINE
  5
262
330
1F
100
AcDbEntity
  8
0
  6
Continuous
 62
     7
370
    25
100
AcDbLine
 10
918.2906104724
 20
6072.005950148
 30
0.0
 11
920.2906104724
 21
6074.005950148
 31
0.0
  0
LINE
  5
263
330
1F
100
AcDbEntity
  8
0
  6
Continuous
 62
     7
370
    25
100
AcDbLine
 10
1380.2906104724
 20
6259.005950148
 30
0.0
 11
1380.2906104724
 21
6074.005950148
 31
0.0
  0
LINE
  5
264
330
1F
100
AcDbEntity
  8
0
  6
Continuous
 62
     7
370
    25
100
AcDbLine
 10
1400.2906104724
 20
6074.005950148
 30
0.0
 11
1400.2906104724
 21
6259.005950148
 31
0.0
  0
LINE
  5
265
330
1F
100
AcDbEntity
  8
0
  6
Continuous
 62
     7
370
    25
100
AcDbLine
 10
1380.2906104724
 20
6074.005950148
 30
0.0
 11
1382.2906104724
 21
6072.005950148
 31
0.0
  0
LINE
  5
266
330
1F
100
AcDbEntity
  8
0
  6
Continuous
 62
     7
370
    25
100
AcDbLine
 10
1398.2906104724
 20
6072.005950148
 30
0.0
 11
1400.2906104724
 21
6074.005950148
 31
0.0
  0
LINE
  5
267
330
1F
100
AcDbEntity
  8
0
  6
Continuous
 62
     7
370
    25
100
AcDbLine
 10
1215.2906104724
 20
6243.005950148
 30
0.0
 11
1215.2906104724
 21
6259.005950148
 31
0.0
  0
LINE
  5
268
330
1F
100
AcDbEntity
  8
0
  6
Continuous
 62
     7
370
    25
100
AcDbLine
 10
1085.2906104724
 20
6259.005950148
 30
0.0
 11
1085.2906104724
 21
6243.005950148
 31
0.0
  0
LINE
  5
269
330
1F
100
AcDbEntity
  8
0
  6
Continuous
 62
     7
370
    25
100
AcDbLine
 10
1205.2906104724
 20
6331.805950148
 30
0.0
 11
1200.2906104724
 21
6351.805950148
 31
0.0
  0
LINE
  5
26A
330
1F
100
AcDbEntity
  8
0
  6
Continuous
 62
     7
370
    25
100
AcDbLine
 10
1100.2906104724
 20
6351.805950148
 30
0.0
 11
1095.2906104724
 21
6331.805950148
 31
0.0
  0
LINE
  5
26B
330
1F
100
AcDbEntity
  8
0
  6
Continuous
 62
     7
370
    25
100
AcDbLine
 10
1205.2906104724
 20
6320.005950148
 30
0.0
 11
1205.2906104724
 21
6331.805950148
 31
0.0
  0
LINE
  5
26C
330
1F
100
AcDbEntity
  8
0
  6
Continuous
 62
     7
370
    25
100
AcDbLine
 10
1095.2906104724
 20
6331.805950148
 30
0.0
 11
1095.2906104724
 21
6320.005950148
 31
0.0
  0
LINE
  5
26D
330
1F
100
AcDbEntity
  8
0
  6
Continuous
 62
     7
370
    25
100
AcDbLine
 10
1205.2906104724
 20
6231.805950148
 30
0.0
 11
1205.2906104724
 21
6243.005950148
 31
0.0
  0
LINE
  5
26E
330
1F
100
AcDbEntity
  8
0
  6
Continuous
 62
     7
370
    25
100
AcDbLine
 10
1095.2906104724
 20
6243.005950148
 30
0.0
 11
1095.2906104724
 21
6231.805950148
 31
0.0
  0
LINE
  5
26F
330
1F
100
AcDbEntity
  8
0
  6
Continuous
 62
     7
370
    25
100
AcDbLine
 10
1200.2906104724
 20
6353.805950148
 30
0.0
 11
1200.2906104724
 21
6389.005950148
 31
0.0
  0
LINE
  5
270
330
1F
100
AcDbEntity
  8
0
  6
Continuous
 62
     7
370
    25
100
AcDbLine
 10
1200.2906104724
 20
6409.005950148
 30
0.0
 11
1200.2906104724
 21
6414.8414356101
 31
0.0
  0
LINE
  5
271
330
1F
100
AcDbEntity
  8
0
  6
Continuous
 62
     7
370
    25
100
AcDbLine
 10
1100.2906104724
 20
6414.8414356101
 30
0.0
 11
1100.2906104724
 21
6409.005950148
 31
0.0
  0
LINE
  5
272
330
1F
100
AcDbEntity
  8
0
  6
Continuous
 62
     7
370
    25
100
AcDbLine
 10
1100.2906104724
 20
6389.005950148
 30
0.0
 11
1100.2906104724
 21
6353.805950148
 31
0.0
  0
LINE
  5
273
330
1F
100
AcDbEntity
  8
0
  6
Continuous
 62
     7
370
    25
100
AcDbLine
 10
1100.2906104724
 20
6353.805950148
 30
0.0
 11
1100.2906104724
 21
6351.805950148
 31
0.0
  0
LINE
  5
274
330
1F
100
AcDbEntity
  8
0
  6
Continuous
 62
     7
370
    25
100
AcDbLine
 10
1200.2906104724
 20
6351.805950148
 30
0.0
 11
1200.2906104724
 21
6353.805950148
 31
0.0
  0
LINE
  5
275
330
1F
100
AcDbEntity
  8
0
  6
Continuous
 62
     7
370
    25
100
AcDbLine
 10
1100.2906104724
 20
6420.1797031468
 30
0.0
 11
1100.2906104724
 21
6414.8414356101
 31
0.0
  0
LINE
  5
276
330
1F
100
AcDbEntity
  8
0
  6
Continuous
 62
     7
370
    25
100
AcDbLine
 10
1200.2906104724
 20
6414.8414356101
 30
0.0
 11
1200.2906104724
 21
6420.1797031468
 31
0.0
  0
LINE
  5
277
330
1F
100
AcDbEntity
  8
0
  6
Continuous
 62
     7
370
    25
100
AcDbLine
 10
1511.2906104724
 20
6286.005950148
 30
0.0
 11
1512.2906104724
 21
6287.005950148
 31
0.0
  0
LINE
  5
278
330
1F
100
AcDbEntity
  8
0
  6
Continuous
 62
     7
370
    25
100
AcDbLine
 10
1512.2906104724
 20
6301.005950148
 30
0.0
 11
1511.2906104724
 21
6302.005950148
 31
0.0
  0
LINE
  5
279
330
1F
100
AcDbEntity
  8
0
  6
Continuous
 62
     7
370
    25
100
AcDbLine
 10
1493.2906104724
 20
6286.005950148
 30
0.0
 11
1499.2906104724
 21
6286.005950148
 31
0.0
  0
LINE
  5
27A
330
1F
100
AcDbEntity
  8
0
  6
Continuous
 62
     7
370
    25
100
AcDbLine
 10
1507.2906104724
 20
6286.005950148
 30
0.0
 11
1511.2906104724
 21
6286.005950148
 31
0.0
  0
LINE
  5
27B
330
1F
100
AcDbEntity
  8
0
  6
Continuous
 62
     7
370
    25
100
AcDbLine
 10
1511.2906104724
 20
6302.005950148
 30
0.0
 11
1507.2906104724
 21
6302.005950148
 31
0.0
  0
LINE
  5
27C
330
1F
100
AcDbEntity
  8
0
  6
Continuous
 62
     7
370
    25
100
AcDbLine
 10
1499.2906104724
 20
6302.005950148
 30
0.0
 11
1493.2906104724
 21
6302.005950148
 31
0.0
  0
LINE
  5
27D
330
1F
100
AcDbEntity
  8
0
  6
Continuous
 62
     7
370
    25
100
AcDbLine
 10
789.2906104724
 20
6302.005950148
 30
0.0
 11
788.2906104724
 21
6301.005950148
 31
0.0
  0
LINE
  5
27E
330
1F
100
AcDbEntity
  8
0
  6
Continuous
 62
     7
370
    25
100
AcDbLine
 10
788.2906104724
 20
6287.005950148
 30
0.0
 11
789.2906104724
 21
6286.005950148
 31
0.0
  0
LINE
  5
27F
330
1F
100
AcDbEntity
  8
0
  6
Continuous
 62
     7
370
    25
100
AcDbLine
 10
807.2906104724
 20
6302.005950148
 30
0.0
 11
801.2906104724
 21
6302.005950148
 31
0.0
  0
LINE
  5
280
330
1F
100
AcDbEntity
  8
0
  6
Continuous
 62
     7
370
    25
100
AcDbLine
 10
793.2906104724
 20
6302.005950148
 30
0.0
 11
789.2906104724
 21
6302.005950148
 31
0.0
  0
LINE
  5
281
330
1F
100
AcDbEntity
  8
0
  6
Continuous
 62
     7
370
    25
100
AcDbLine
 10
789.2906104724
 20
6286.005950148
 30
0.0
 11
793.2906104724
 21
6286.005950148
 31
0.0
  0
LINE
  5
282
330
1F
100
AcDbEntity
  8
0
  6
Continuous
 62
     7
370
    25
100
AcDbLine
 10
801.2906104724
 20
6286.005950148
 30
0.0
 11
807.2906104724
 21
6286.005950148
 31
0.0
  0
LINE
  5
283
330
1F
100
AcDbEntity
  8
0
  6
Continuous
 62
     7
370
    25
100
AcDbLine
 10
1124.2906104724
 20
6259.005950148
 30
0.0
 11
1124.2906104724
 21
6237.605950148
 31
0.0
  0
LINE
  5
284
330
1F
100
AcDbEntity
  8
0
  6
Continuous
 62
     7
370
    25
100
AcDbLine
 10
1176.2906104724
 20
6237.605950148
 30
0.0
 11
1176.2906104724
 21
6259.005950148
 31
0.0
  0
LINE
  5
285
330
1F
100
AcDbEntity
  8
0
  6
Continuous
 62
     7
370
    25
100
AcDbLine
 10
815.9447357112
 20
6372.0328975469
 30
0.0
 11
817.2906104724
 21
6374.2930712119
 31
0.0
  0
LINE
  5
286
330
1F
100
AcDbEntity
  8
0
  6
Continuous
 62
     7
370
    25
100
AcDbLine
 10
817.2906104724
 20
6395.718829084
 30
0.0
 11
815.9447357112
 21
6397.979002749
 31
0.0
  0
LINE
  5
287
330
1F
100
AcDbEntity
  8
0
  6
Continuous
 62
     7
370
    25
100
AcDbLine
 10
1485.4225655135
 20
6399.2990943343
 30
0.0
 11
1483.2906104724
 21
6395.718829084
 31
0.0
  0
LINE
  5
288
330
1F
100
AcDbEntity
  8
0
  6
Continuous
 62
     7
370
    25
100
AcDbLine
 10
1483.2906104724
 20
6374.2930712119
 30
0.0
 11
1485.4225655135
 21
6370.7128059616
 31
0.0
  0
LINE
  5
289
330
1F
100
AcDbEntity
  8
0
  6
Continuous
 62
     7
370
    25
100
AcDbLine
 10
806.2906104724
 20
6409.005950148
 30
0.0
 11
800.2906104724
 21
6409.005950148
 31
0.0
  0
LINE
  5
28A
330
1F
100
AcDbEntity
  8
0
  6
Continuous
 62
     7
370
    25
100
AcDbLine
 10
800.2906104724
 20
6361.005950148
 30
0.0
 11
806.2906104724
 21
6361.005950148
 31
0.0
  0
LINE
  5
28B
330
1F
100
AcDbEntity
  8
0
  6
Continuous
 62
     7
370
    25
100
AcDbLine
 10
1500.2906104724
 20
6409.005950148
 30
0.0
 11
1494.2906104724
 21
6409.005950148
 31
0.0
  0
LINE
  5
28C
330
1F
100
AcDbEntity
  8
0
  6
Continuous
 62
     7
370
    25
100
AcDbLine
 10
1494.2906104724
 20
6361.005950148
 30
0.0
 11
1500.2906104724
 21
6361.005950148
 31
0.0
  0
LINE
  5
28D
330
1F
100
AcDbEntity
  8
0
  6
Continuous
 62
     7
370
    25
100
AcDbLine
 10
1192.4329307869
 20
6259.005950148
 30
0.0
 11
1192.4329307869
 21
6253.728460809
 31
0.0
  0
SPLINE
  5
28E
330
1F
100
AcDbEntity
  8
0
  6
Continuous
 62
     7
370
    25
100
AcDbSpline
210
0.0
220
0.0
230
1.0
 70
     8
 71
     3
 72
     9
 73
     5
 74
     0
 42
0.00000001
 43
0.00000001
 40
0.0
 40
0.0
 40
0.0
 40
0.0
 40
0.4912124615585006
 40
1.0
 40
1.0
 40
1.0
 40
1.0
 10
1183.22541832861
 20
6253.728460808989
 30
0.0
 10
1184.732653068377
 20
6253.50590407078
 30
0.0
 10
1187.801049857388
 20
6253.052827743067
 30
0.0
 10
1190.870985690944
 20
6253.500626421614
 30
0.0
 10
1192.432930786872
 20
6253.728460808989
 30
0.0
  0
LINE
  5
28F
330
1F
100
AcDbEntity
  8
0
  6
Continuous
 62
     7
370
    25
100
AcDbLine
 10
1183.2254183286
 20
6259.005950148
 30
0.0
 11
1183.2254183286
 21
6253.728460809
 31
0.0
  0
SPLINE
  5
290
330
1F
100
AcDbEntity
  8
0
  6
Continuous
 62
     7
370
    25
100
AcDbSpline
210
0.0
220
0.0
230
1.0
 70
     8
 71
     3
 72
     9
 73
     5
 74
     0
 42
0.00000001
 43
0.00000001
 40
0.0
 40
0.0
 40
0.0
 40
0.0
 40
0.4912124615585001
 40
0.9999999999999999
 40
0.9999999999999999
 40
0.9999999999999999
 40
0.9999999999999999
 10
1192.432930786872
 20
6253.728460808989
 30
0.0
 10
1193.292165284269
 20
6253.50590407078
 30
0.0
 10
1195.041376806042
 20
6253.052827743067
 30
0.0
 10
1196.791465696238
 20
6253.500626421614
 30
0.0
 10
1197.681889114735
 20
6253.728460808989
 30
0.0
  0
SPLINE
  5
291
330
1F
100
AcDbEntity
  8
0
  6
Continuous
 62
     7
370
    25
100
AcDbSpline
210
0.0
220
0.0
230
1.0
 70
     8
 71
     3
 72
     9
 73
     5
 74
     0
 42
0.00000001
 43
0.00000001
 40
0.0
 40
0.0
 40
0.0
 40
0.0
 40
0.1369994068416707
 40
1.0
 40
1.0
 40
1.0
 40
1.0
 10
1197.681889114735
 20
6253.728460808989
 30
0.0
 10
1197.664256692878
 20
6253.720840952511
 30
0.0
 10
1197.535552326459
 20
6253.665221321335
 30
0.0
 10
1197.404860009542
 20
6253.641912872958
 30
0.0
 10
1197.292072462521
 20
6253.621797668183
 30
0.0
  0
SPLINE
  5
292
330
1F
100
AcDbEntity
  8
0
  6
Continuous
 62
     7
370
    25
100
AcDbSpline
210
0.0
220
0.0
230
1.0
 70
     8
 71
     3
 72
    11
 73
     7
 74
     0
 42
0.00000001
 43
0.00000001
 40
0.0
 40
0.0
 40
0.0
 40
0.0
 40
0.1265265638841775
 40
0.550477395473474
 40
0.9864826276262932
 40
1.0
 40
1.0
 40
1.0
 40
1.0
 10
1179.266864198211
 20
6253.728460808989
 30
0.0
 10
1179.4322495178
 20
6253.662191834312
 30
0.0
 10
1180.151789171624
 20
6253.373876310188
 30
0.0
 10
1181.46450398389
 20
6253.160134993573
 30
0.0
 10
1182.62107680042
 20
6253.473474277655
 30
0.0
 10
1183.207775986944
 20
6253.721017071805
 30
0.0
 10
1183.22541832861
 20
6253.728460808989
 30
0.0
  0
LINE
  5
293
330
1F
100
AcDbEntity
  8
0
  6
Continuous
 62
     7
370
    25
100
AcDbLine
 10
1181.9215091058
 20
6253.005950148
 30
0.0
 11
1195.726899237
 21
6253.005950148
 31
0.0
  0
LINE
  5
294
330
1F
100
AcDbEntity
  8
0
  6
Continuous
 62
     7
370
    25
100
AcDbLine
 10
1181.2218540759
 20
6253.005950148
 30
0.0
 11
1181.9215091058
 21
6253.005950148
 31
0.0
  0
LINE
  5
295
330
1F
100
AcDbEntity
  8
0
  6
Continuous
 62
     7
370
    25
100
AcDbLine
 10
1197.6818891147
 20
6259.005950148
 30
0.0
 11
1197.6818891147
 21
6253.728460809
 31
0.0
  0
LINE
  5
296
330
1F
100
AcDbEntity
  8
0
  6
Continuous
 62
     7
370
    25
100
AcDbLine
 10
1179.2668641982
 20
6259.005950148
 30
0.0
 11
1179.2668641982
 21
6253.728460809
 31
0.0
  0
SPLINE
  5
297
330
1F
100
AcDbEntity
  8
0
  6
Continuous
 62
     7
370
    25
100
AcDbSpline
210
0.0
220
0.0
230
1.0
 70
     8
 71
     3
 72
     9
 73
     5
 74
     0
 42
0.00000001
 43
0.00000001
 40
0.0
 40
0.0
 40
0.0
 40
0.0
 40
0.4912124615585006
 40
1.0
 40
1.0
 40
1.0
 40
1.0
 10
1106.857885960462
 20
6253.728460808989
 30
0.0
 10
1108.36512070023
 20
6253.50590407078
 30
0.0
 10
1111.433517489241
 20
6253.052827743068
 30
0.0
 10
1114.503453322797
 20
6253.500626421614
 30
0.0
 10
1116.065398418724
 20
6253.728460808989
 30
0.0
  0
SPLINE
  5
298
330
1F
100
AcDbEntity
  8
0
  6
Continuous
 62
     7
370
    25
100
AcDbSpline
210
0.0
220
0.0
230
1.0
 70
     8
 71
     3
 72
     9
 73
     5
 74
     0
 42
0.00000001
 43
0.00000001
 40
0.0
 40
0.0
 40
0.0
 40
0.0
 40
0.4912124615585001
 40
0.9999999999999999
 40
0.9999999999999999
 40
0.9999999999999999
 40
0.9999999999999999
 10
1116.065398418724
 20
6253.728460808989
 30
0.0
 10
1116.924632916121
 20
6253.50590407078
 30
0.0
 10
1118.673844437895
 20
6253.052827743068
 30
0.0
 10
1120.423933328091
 20
6253.500626421614
 30
0.0
 10
1121.314356746588
 20
6253.728460808989
 30
0.0
  0
SPLINE
  5
299
330
1F
100
AcDbEntity
  8
0
  6
Continuous
 62
     7
370
    25
100
AcDbSpline
210
0.0
220
0.0
230
1.0
 70
     8
 71
     3
 72
     9
 73
     5
 74
     0
 42
0.00000001
 43
0.00000001
 40
0.0
 40
0.0
 40
0.0
 40
0.0
 40
0.1369994068416705
 40
1.0
 40
1.0
 40
1.0
 40
1.0
 10
1121.314356746588
 20
6253.728460808989
 30
0.0
 10
1121.296724324731
 20
6253.720840952511
 30
0.0
 10
1121.168019958312
 20
6253.665221321335
 30
0.0
 10
1121.037327641395
 20
6253.641912872958
 30
0.0
 10
1120.924540094374
 20
6253.621797668183
 30
0.0
  0
SPLINE
  5
29A
330
1F
100
AcDbEntity
  8
0
  6
Continuous
 62
     7
370
    25
100
AcDbSpline
210
0.0
220
0.0
230
1.0
 70
     8
 71
     3
 72
    11
 73
     7
 74
     0
 42
0.00000001
 43
0.00000001
 40
0.0
 40
0.0
 40
0.0
 40
0.0
 40
0.1265265638841777
 40
0.550477395473474
 40
0.9864826276262932
 40
1.0
 40
1.0
 40
1.0
 40
1.0
 10
1102.899331830064
 20
6253.728460808989
 30
0.0
 10
1103.064717149652
 20
6253.662191834312
 30
0.0
 10
1103.784256803477
 20
6253.373876310188
 30
0.0
 10
1105.096971615743
 20
6253.160134993572
 30
0.0
 10
1106.253544432273
 20
6253.473474277655
 30
0.0
 10
1106.840243618796
 20
6253.721017071805
 30
0.0
 10
1106.857885960462
 20
6253.728460808989
 30
0.0
  0
LINE
  5
29B
330
1F
100
AcDbEntity
  8
0
  6
Continuous
 62
     7
370
    25
100
AcDbLine
 10
1105.5539767376
 20
6253.005950148
 30
0.0
 11
1119.3593668689
 21
6253.005950148
 31
0.0
  0
LINE
  5
29C
330
1F
100
AcDbEntity
  8
0
  6
Continuous
 62
     7
370
    25
100
AcDbLine
 10
1104.8543217078
 20
6253.005950148
 30
0.0
 11
1105.5539767376
 21
6253.005950148
 31
0.0
  0
LINE
  5
29D
330
1F
100
AcDbEntity
  8
0
  6
Continuous
 62
     7
370
    25
100
AcDbLine
 10
1116.0653984187
 20
6259.005950148
 30
0.0
 11
1116.0653984187
 21
6253.728460809
 31
0.0
  0
LINE
  5
29E
330
1F
100
AcDbEntity
  8
0
  6
Continuous
 62
     7
370
    25
100
AcDbLine
 10
1106.8578859605
 20
6259.005950148
 30
0.0
 11
1106.8578859605
 21
6253.728460809
 31
0.0
  0
LINE
  5
29F
330
1F
100
AcDbEntity
  8
0
  6
Continuous
 62
     7
370
    25
100
AcDbLine
 10
1121.3143567466
 20
6259.005950148
 30
0.0
 11
1121.3143567466
 21
6253.728460809
 31
0.0
  0
LINE
  5
2A0
330
1F
100
AcDbEntity
  8
0
  6
Continuous
 62
     7
370
    25
100
AcDbLine
 10
1102.8993318301
 20
6259.005950148
 30
0.0
 11
1102.8993318301
 21
6253.728460809
 31
0.0
  0
LINE
  5
2A1
330
1F
100
AcDbEntity
  8
0
  6
Continuous
 62
     7
370
    25
100
AcDbLine
 10
1380.2906104724
 20
6409.005950148
 30
0.0
 11
920.2906104724
 21
6409.005950148
 31
0.0
  0
LINE
  5
2A2
330
1F
100
AcDbEntity
  8
0
  6
Continuous
 62
     7
370
    25
100
AcDbLine
 10
1380.2906104724
 20
6393.005950148
 30
0.0
 11
1380.2906104724
 21
6409.005950148
 31
0.0
  0
LINE
  5
2A3
330
1F
100
AcDbEntity
  8
0
  6
Continuous
 62
     7
370
    25
100
AcDbLine
 10
1380.2906104724
 20
6393.005950148
 30
0.0
 11
920.2906104724
 21
6393.005950148
 31
0.0
  0
LINE
  5
2A4
330
1F
100
AcDbEntity
  8
0
  6
Continuous
 62
     7
370
    25
100
AcDbLine
 10
920.2906104724
 20
6409.005950148
 30
0.0
 11
920.2906104724
 21
6393.005950148
 31
0.0
  0
LINE
  5
2A5
330
1F
100
AcDbEntity
  8
0
  6
Continuous
 62
     7
370
    25
100
AcDbLine
 10
920.2906104724
 20
6389.005950148
 30
0.0
 11
920.2906104724
 21
6393.005950148
 31
0.0
  0
LINE
  5
2A6
330
1F
100
AcDbEntity
  8
0
  6
Continuous
 62
     7
370
    25
100
AcDbLine
 10
1380.2906104724
 20
6393.005950148
 30
0.0
 11
1380.2906104724
 21
6389.005950148
 31
0.0
  0
LINE
  5
2A7
330
1F
100
AcDbEntity
  8
0
  6
Continuous
 62
     7
370
    25
100
AcDbLine
 10
1380.2906104724
 20
6389.005950148
 30
0.0
 11
920.2906104724
 21
6389.005950148
 31
0.0
  0
LINE
  5
2A8
330
1F
100
AcDbEntity
  8
0
  6
Continuous
 62
     7
370
    25
100
AcDbLine
 10
920.2906104724
 20
6392.005950148
 30
0.0
 11
817.2906104724
 21
6392.005950148
 31
0.0
  0
LINE
  5
2A9
330
1F
100
AcDbEntity
  8
0
  6
Continuous
 62
     7
370
    25
100
AcDbLine
 10
920.2906104724
 20
6389.005950148
 30
0.0
 11
817.2906104724
 21
6389.005950148
 31
0.0
  0
LINE
  5
2AA
330
1F
100
AcDbEntity
  8
0
  6
Continuous
 62
     7
370
    25
100
AcDbLine
 10
1483.2906104724
 20
6392.005950148
 30
0.0
 11
1380.2906104724
 21
6392.005950148
 31
0.0
  0
LINE
  5
2AB
330
1F
100
AcDbEntity
  8
0
  6
Continuous
 62
     7
370
    25
100
AcDbLine
 10
1483.2906104724
 20
6389.005950148
 30
0.0
 11
1380.2906104724
 21
6389.005950148
 31
0.0
  0
LINE
  5
2AC
330
1F
100
AcDbEntity
  8
0
  6
Continuous
 62
     7
370
    25
100
AcDbLine
 10
810.2906104724
 20
6371.1736568496
 30
0.0
 11
810.2906104724
 21
6363.005950148
 31
0.0
  0
LINE
  5
2AD
330
1F
100
AcDbEntity
  8
0
  6
Continuous
 62
     7
370
    25
100
AcDbLine
 10
807.2906104724
 20
6363.005950148
 30
0.0
 11
810.2906104724
 21
6363.005950148
 31
0.0
  0
LINE
  5
2AE
330
1F
100
AcDbEntity
  8
0
  6
Continuous
 62
     7
370
    25
100
AcDbLine
 10
807.2906104724
 20
6371.1736568496
 30
0.0
 11
807.2906104724
 21
6363.005950148
 31
0.0
  0
ARC
  5
2AF
330
1F
100
AcDbEntity
  8
0
  6
Continuous
 62
     7
370
    25
100
AcDbCircle
 10
806.2906104724
 20
6363.005950148
 30
0.0
 40
4.000000000000114
100
AcDbArc
 50
270.0
 51
0.0
  0
ARC
  5
2B0
330
1F
100
AcDbEntity
  8
0
  6
Continuous
 62
     7
370
    25
100
AcDbCircle
 10
806.2906104724
 20
6363.005950148
 30
0.0
 40
1.0
100
AcDbArc
 50
270.0
 51
0.0
  0
LINE
  5
2B1
330
1F
100
AcDbEntity
  8
0
  6
Continuous
 62
     7
370
    25
100
AcDbLine
 10
1490.2906104724
 20
6370.2578241411
 30
0.0
 11
1490.2906104724
 21
6363.005950148
 31
0.0
  0
LINE
  5
2B2
330
1F
100
AcDbEntity
  8
0
  6
Continuous
 62
     7
370
    25
100
AcDbLine
 10
1493.2906104724
 20
6370.2578241411
 30
0.0
 11
1493.2906104724
 21
6363.005950148
 31
0.0
  0
LINE
  5
2B3
330
1F
100
AcDbEntity
  8
0
  6
Continuous
 62
     7
370
    25
100
AcDbLine
 10
1493.2906104724
 20
6363.005950148
 30
0.0
 11
1490.2906104724
 21
6363.005950148
 31
0.0
  0
ARC
  5
2B4
330
1F
100
AcDbEntity
  8
0
  6
Continuous
 62
     7
370
    25
100
AcDbCircle
 10
1494.2906104724
 20
6363.005950148
 30
0.0
 40
1.0
100
AcDbArc
 50
180.0
 51
270.0
  0
ARC
  5
2B5
330
1F
100
AcDbEntity
  8
0
  6
Continuous
 62
     7
370
    25
100
AcDbCircle
 10
1494.2906104724
 20
6363.005950148
 30
0.0
 40
4.0
100
AcDbArc
 50
180.0
 51
270.0
  0
LINE
  5
2B6
330
1F
100
AcDbEntity
  8
0
  6
Continuous
 62
     7
370
    25
100
AcDbLine
 10
1480.2906104724
 20
6319.005950148
 30
0.0
 11
1480.2906104724
 21
6357.005950148
 31
0.0
  0
ARC
  5
2B7
330
1F
100
AcDbEntity
  8
0
  6
Continuous
 62
     7
370
    25
100
AcDbCircle
 10
1488.2906104724
 20
6357.005950148
 30
0.0
 40
8.0
100
AcDbArc
 50
90.0
 51
180.0
  0
LINE
  5
2B8
330
1F
100
AcDbEntity
  8
0
  6
Continuous
 62
     7
370
    25
100
AcDbLine
 10
1494.2906104724
 20
6365.005950148
 30
0.0
 11
1493.2906104724
 21
6365.005950148
 31
0.0
  0
LINE
  5
2B9
330
1F
100
AcDbEntity
  8
0
  6
Continuous
 62
     7
370
    25
100
AcDbLine
 10
1490.2906104724
 20
6365.005950148
 30
0.0
 11
1488.2906104724
 21
6365.005950148
 31
0.0
  0
LINE
  5
2BA
330
1F
100
AcDbEntity
  8
0
  6
Continuous
 62
     7
370
    25
100
AcDbLine
 10
1486.2906104724
 20
6319.005950148
 30
0.0
 11
1486.2906104724
 21
6357.005950148
 31
0.0
  0
ARC
  5
2BB
330
1F
100
AcDbEntity
  8
0
  6
Continuous
 62
     7
370
    25
100
AcDbCircle
 10
1488.2906104724
 20
6357.005950148
 30
0.0
 40
2.0
100
AcDbArc
 50
90.0
 51
180.0
  0
LINE
  5
2BC
330
1F
100
AcDbEntity
  8
0
  6
Continuous
 62
     7
370
    25
100
AcDbLine
 10
1494.2906104724
 20
6359.005950148
 30
0.0
 11
1488.2906104724
 21
6359.005950148
 31
0.0
  0
ARC
  5
2BD
330
1F
100
AcDbEntity
  8
0
  6
Continuous
 62
     7
370
    25
100
AcDbCircle
 10
812.2906104724
 20
6357.005950148
 30
0.0
 40
2.0
100
AcDbArc
 50
0.0
 51
90.0
  0
LINE
  5
2BE
330
1F
100
AcDbEntity
  8
0
  6
Continuous
 62
     7
370
    25
100
AcDbLine
 10
806.2906104724
 20
6359.005950148
 30
0.0
 11
812.2906104724
 21
6359.005950148
 31
0.0
  0
ARC
  5
2BF
330
1F
100
AcDbEntity
  8
0
  6
Continuous
 62
     7
370
    25
100
AcDbCircle
 10
812.2906104724
 20
6357.005950148
 30
0.0
 40
8.0
100
AcDbArc
 50
0.0
 51
90.0
  0
LINE
  5
2C0
330
1F
100
AcDbEntity
  8
0
  6
Continuous
 62
     7
370
    25
100
AcDbLine
 10
814.2906104724
 20
6319.005950148
 30
0.0
 11
814.2906104724
 21
6357.005950148
 31
0.0
  0
LINE
  5
2C1
330
1F
100
AcDbEntity
  8
0
  6
Continuous
 62
     7
370
    25
100
AcDbLine
 10
806.2906104724
 20
6365.005950148
 30
0.0
 11
807.2906104724
 21
6365.005950148
 31
0.0
  0
LINE
  5
2C2
330
1F
100
AcDbEntity
  8
0
  6
Continuous
 62
     7
370
    25
100
AcDbLine
 10
810.2906104724
 20
6365.005950148
 30
0.0
 11
812.2906104724
 21
6365.005950148
 31
0.0
  0
LINE
  5
2C3
330
1F
100
AcDbEntity
  8
0
  6
Continuous
 62
     7
370
    25
100
AcDbLine
 10
820.2906104724
 20
6319.005950148
 30
0.0
 11
820.2906104724
 21
6357.005950148
 31
0.0
  0
LINE
  5
2C4
330
1F
100
AcDbEntity
  8
0
  6
Continuous
 62
     7
370
    25
100
AcDbLine
 10
1480.2906104724
 20
6320.005950148
 30
0.0
 11
820.2906104724
 21
6320.005950148
 31
0.0
  0
LINE
  5
2C5
330
1F
100
AcDbEntity
  8
0
  6
Continuous
 62
     7
370
    25
100
AcDbLine
 10
900.2906104724
 20
6074.005950148
 30
0.0
 11
920.2906104724
 21
6074.005950148
 31
0.0
  0
LINE
  5
2C6
330
1F
100
AcDbEntity
  8
0
  6
Continuous
 62
     7
370
    25
100
AcDbLine
 10
918.2906104724
 20
6072.005950148
 30
0.0
 11
902.2906104724
 21
6072.005950148
 31
0.0
  0
LINE
  5
2C7
330
1F
100
AcDbEntity
  8
0
  6
Continuous
 62
     7
370
    25
100
AcDbLine
 10
1380.2906104724
 20
6074.005950148
 30
0.0
 11
1400.2906104724
 21
6074.005950148
 31
0.0
  0
LINE
  5
2C8
330
1F
100
AcDbEntity
  8
0
  6
Continuous
 62
     7
370
    25
100
AcDbLine
 10
1398.2906104724
 20
6072.005950148
 30
0.0
 11
1382.2906104724
 21
6072.005950148
 31
0.0
  0
ARC
  5
2C9
330
1F
100
AcDbEntity
  8
0
  6
Continuous
 62
     7
370
    25
100
AcDbCircle
 10
810.2906104724
 20
6355.005950148
 30
0.0
 40
4.0
100
AcDbArc
 50
0.0
 51
90.0
  0
ARC
  5
2CA
330
1F
100
AcDbEntity
  8
0
  6
Continuous
 62
     7
370
    25
100
AcDbCircle
 10
1490.2906104724
 20
6355.005950148
 30
0.0
 40
4.000000000000227
100
AcDbArc
 50
90.0
 51
180.0
  0
LINE
  5
2CB
330
1F
100
AcDbEntity
  8
0
  6
Continuous
 62
     7
370
    25
100
AcDbLine
 10
1215.2906104724
 20
6243.005950148
 30
0.0
 11
1176.2906104724
 21
6243.005950148
 31
0.0
  0
LINE
  5
2CC
330
1F
100
AcDbEntity
  8
0
  6
Continuous
 62
     7
370
    25
100
AcDbLine
 10
1124.2906104724
 20
6243.005950148
 30
0.0
 11
1085.2906104724
 21
6243.005950148
 31
0.0
  0
LINE
  5
2CD
330
1F
100
AcDbEntity
  8
0
  6
Continuous
 62
     7
370
    25
100
AcDbLine
 10
1200.2906104724
 20
6351.805950148
 30
0.0
 11
1100.2906104724
 21
6351.805950148
 31
0.0
  0
LINE
  5
2CE
330
1F
100
AcDbEntity
  8
0
  6
Continuous
 62
     7
370
    25
100
AcDbLine
 10
1205.2906104724
 20
6331.805950148
 30
0.0
 11
1095.2906104724
 21
6331.805950148
 31
0.0
  0
LINE
  5
2CF
330
1F
100
AcDbEntity
  8
0
  6
Continuous
 62
     7
370
    25
100
AcDbLine
 10
1205.2906104724
 20
6231.805950148
 30
0.0
 11
1095.2906104724
 21
6231.805950148
 31
0.0
  0
ARC
  5
2D0
330
1F
100
AcDbEntity
  8
0
  6
Continuous
 62
     7
370
    25
100
AcDbCircle
 10
1150.3268422075
 20
6420.1474143234
 30
0.0
 40
49.96377869809433
100
AcDbArc
 50
0.0370270922
 51
90.0415486127
  0
ARC
  5
2D1
330
1F
100
AcDbEntity
  8
0
  6
Continuous
 62
     7
370
    25
100
AcDbCircle
 10
1150.2543787373
 20
6420.1474143234
 30
0.0
 40
49.96377869809466
100
AcDbArc
 50
89.9584513873
 51
179.9629729078
  0
LINE
  5
2D2
330
1F
100
AcDbEntity
  8
0
  6
Continuous
 62
     7
370
    25
100
AcDbLine
 10
1497.2906104724
 20
6356.005950148
 30
0.0
 11
1497.2906104724
 21
6348.005950148
 31
0.0
  0
LINE
  5
2D3
330
1F
100
AcDbEntity
  8
0
  6
Continuous
 62
     7
370
    25
100
AcDbLine
 10
1497.2906104724
 20
6348.005950148
 30
0.0
 11
1498.4230924572
 21
6348.005950148
 31
0.0
  0
LINE
  5
2D4
330
1F
100
AcDbEntity
  8
0
  6
Continuous
 62
     7
370
    25
100
AcDbLine
 10
1511.2906104724
 20
6286.005950148
 30
0.0
 11
1511.2906104724
 21
6302.005950148
 31
0.0
  0
LINE
  5
2D5
330
1F
100
AcDbEntity
  8
0
  6
Continuous
 62
     7
370
    25
100
AcDbLine
 10
1512.2906104724
 20
6301.005950148
 30
0.0
 11
1512.2906104724
 21
6287.005950148
 31
0.0
  0
LINE
  5
2D6
330
1F
100
AcDbEntity
  8
0
  6
Continuous
 62
     7
370
    25
100
AcDbLine
 10
789.2906104724
 20
6302.005950148
 30
0.0
 11
789.2906104724
 21
6286.005950148
 31
0.0
  0
LINE
  5
2D7
330
1F
100
AcDbEntity
  8
0
  6
Continuous
 62
     7
370
    25
100
AcDbLine
 10
788.2906104724
 20
6287.005950148
 30
0.0
 11
788.2906104724
 21
6301.005950148
 31
0.0
  0
LINE
  5
2D8
330
1F
100
AcDbEntity
  8
0
  6
Continuous
 62
     7
370
    25
100
AcDbLine
 10
801.2906104724
 20
6315.1384321328
 30
0.0
 11
793.2906104724
 21
6315.1384321328
 31
0.0
  0
LINE
  5
2D9
330
1F
100
AcDbEntity
  8
0
  6
Continuous
 62
     7
370
    25
100
AcDbLine
 10
801.2906104724
 20
6275.1384321328
 30
0.0
 11
793.2906104724
 21
6275.1384321328
 31
0.0
  0
LINE
  5
2DA
330
1F
100
AcDbEntity
  8
0
  6
Continuous
 62
     7
370
    25
100
AcDbLine
 10
793.2906104724
 20
6315.1384321328
 30
0.0
 11
793.2906104724
 21
6275.1384321328
 31
0.0
  0
LINE
  5
2DB
330
1F
100
AcDbEntity
  8
0
  6
Continuous
 62
     7
370
    25
100
AcDbLine
 10
801.2906104724
 20
6315.1384321328
 30
0.0
 11
801.2906104724
 21
6275.1384321328
 31
0.0
  0
LINE
  5
2DC
330
1F
100
AcDbEntity
  8
0
  6
Continuous
 62
     7
370
    25
100
AcDbLine
 10
1498.4230924572
 20
6356.005950148
 30
0.0
 11
1498.4230924572
 21
6353.005950148
 31
0.0
  0
LINE
  5
2DD
330
1F
100
AcDbEntity
  8
0
  6
Continuous
 62
     7
370
    25
100
AcDbLine
 10
1498.4230924572
 20
6353.005950148
 30
0.0
 11
1500.2906104724
 21
6353.005950148
 31
0.0
  0
LINE
  5
2DE
330
1F
100
AcDbEntity
  8
0
  6
Continuous
 62
     7
370
    25
100
AcDbLine
 10
1498.4230924572
 20
6345.005950148
 30
0.0
 11
1500.2906104724
 21
6345.005950148
 31
0.0
  0
LINE
  5
2DF
330
1F
100
AcDbEntity
  8
0
  6
Continuous
 62
     7
370
    25
100
AcDbLine
 10
1498.4230924572
 20
6353.005950148
 30
0.0
 11
1498.4230924572
 21
6345.005950148
 31
0.0
  0
LINE
  5
2E0
330
1F
100
AcDbEntity
  8
0
  6
Continuous
 62
     7
370
    25
100
AcDbLine
 10
804.4230924572
 20
6356.005950148
 30
0.0
 11
804.4230924572
 21
6353.005950148
 31
0.0
  0
LINE
  5
2E1
330
1F
100
AcDbEntity
  8
0
  6
Continuous
 62
     7
370
    25
100
AcDbLine
 10
800.2906104724
 20
6353.005950148
 30
0.0
 11
804.4230924572
 21
6353.005950148
 31
0.0
  0
LINE
  5
2E2
330
1F
100
AcDbEntity
  8
0
  6
Continuous
 62
     7
370
    25
100
AcDbLine
 10
804.4230924572
 20
6353.005950148
 30
0.0
 11
804.4230924572
 21
6345.005950148
 31
0.0
  0
LINE
  5
2E3
330
1F
100
AcDbEntity
  8
0
  6
Continuous
 62
     7
370
    25
100
AcDbLine
 10
800.2906104724
 20
6345.005950148
 30
0.0
 11
804.4230924572
 21
6345.005950148
 31
0.0
  0
LINE
  5
2E4
330
1F
100
AcDbEntity
  8
0
  6
Continuous
 62
     7
370
    25
100
AcDbLine
 10
1499.2906104724
 20
6272.8734681631
 30
0.0
 11
1507.2906104724
 21
6272.8734681631
 31
0.0
  0
LINE
  5
2E5
330
1F
100
AcDbEntity
  8
0
  6
Continuous
 62
     7
370
    25
100
AcDbLine
 10
1499.2906104724
 20
6272.8734681631
 30
0.0
 11
1499.2906104724
 21
6312.8734681631
 31
0.0
  0
LINE
  5
2E6
330
1F
100
AcDbEntity
  8
0
  6
Continuous
 62
     7
370
    25
100
AcDbLine
 10
1499.2906104724
 20
6312.8734681631
 30
0.0
 11
1507.2906104724
 21
6312.8734681631
 31
0.0
  0
LINE
  5
2E7
330
1F
100
AcDbEntity
  8
0
  6
Continuous
 62
     7
370
    25
100
AcDbLine
 10
1507.2906104724
 20
6272.8734681631
 30
0.0
 11
1507.2906104724
 21
6312.8734681631
 31
0.0
  0
LINE
  5
2E8
330
1F
100
AcDbEntity
  8
0
  6
Continuous
 62
     7
370
    25
100
AcDbLine
 10
1124.2906104724
 20
6237.605950148
 30
0.0
 11
1176.2906104724
 21
6237.605950148
 31
0.0
  0
SPLINE
  5
2E9
330
1F
100
AcDbEntity
  8
0
  6
Continuous
 62
     7
370
    25
100
AcDbSpline
210
0.0
220
0.0
230
1.0
 70
     8
 71
     3
 72
    10
 73
     6
 74
     0
 42
0.00000001
 43
0.00000001
 40
0.0
 40
0.0
 40
0.0
 40
0.0
 40
0.2656373379603307
 40
0.5374358411634151
 40
1.0
 40
1.0
 40
1.0
 40
1.0
 10
814.8686460497926
 20
6382.599875181125
 30
0.0
 10
815.2072541176641
 20
6383.801933438017
 30
0.0
 10
815.892323894295
 20
6386.233930368045
 30
0.0
 10
816.2674945055284
 20
6390.948359318056
 30
0.0
 10
815.4092448132103
 20
6394.312896417318
 30
0.0
 10
814.8686460497926
 20
6396.432168479534
 30
0.0
  0
SPLINE
  5
2EA
330
1F
100
AcDbEntity
  8
0
  6
Continuous
 62
     7
370
    25
100
AcDbSpline
210
0.0
220
0.0
230
1.0
 70
     8
 71
     3
 72
    11
 73
     7
 74
     0
 42
0.00000001
 43
0.00000001
 40
0.0
 40
0.0
 40
0.0
 40
0.0
 40
0.3707801040744171
 40
0.6218784424669512
 40
0.8802594157766642
 40
1.0
 40
1.0
 40
1.0
 40
1.0
 10
814.8686460497925
 20
6396.432168479534
 30
0.0
 10
815.3253106298673
 20
6396.726129304578
 30
0.0
 10
816.0912359172981
 20
6397.219165198402
 30
0.0
 10
816.070348227575
 20
6397.941091773389
 30
0.0
 10
815.5451431038554
 20
6398.448109236423
 30
0.0
 10
815.0313500308446
 20
6398.744412455206
 30
0.0
 10
814.8686460497926
 20
6398.838243446372
 30
0.0
  0
LINE
  5
2EB
330
1F
100
AcDbEntity
  8
0
  6
Continuous
 62
     7
370
    25
100
AcDbLine
 10
815.9347431183
 20
6372.0401400886
 30
0.0
 11
814.8686460498
 21
6371.1736568496
 31
0.0
  0
SPLINE
  5
2EC
330
1F
100
AcDbEntity
  8
0
  6
Continuous
 62
     7
370
    25
100
AcDbSpline
210
0.0
220
0.0
230
1.0
 70
     8
 71
     3
 72
    10
 73
     6
 74
     0
 42
0.00000001
 43
0.00000001
 40
0.0
 40
0.0
 40
0.0
 40
0.0
 40
0.2656373379603248
 40
0.5374358411634093
 40
1.0
 40
1.0
 40
1.0
 40
1.0
 10
814.8686460497927
 20
6371.173656849553
 30
0.0
 10
815.2072541176642
 20
6372.166621630895
 30
0.0
 10
815.8923238942953
 20
6374.175581917141
 30
0.0
 10
816.2674945055284
 20
6378.069953828538
 30
0.0
 10
815.4092448132104
 20
6380.849242457796
 30
0.0
 10
814.8686460497926
 20
6382.599875181125
 30
0.0
  0
LINE
  5
2ED
330
1F
100
AcDbEntity
  8
0
  6
Continuous
 62
     7
370
    25
100
AcDbLine
 10
817.2906104724
 20
6374.2930712119
 30
0.0
 11
817.2906104724
 21
6395.718829084
 31
0.0
  0
LINE
  5
2EE
330
1F
100
AcDbEntity
  8
0
  6
Continuous
 62
     7
370
    25
100
AcDbLine
 10
814.8686460498
 20
6396.4321684795
 30
0.0
 11
806.2906104724
 21
6396.4321684795
 31
0.0
  0
LINE
  5
2EF
330
1F
100
AcDbEntity
  8
0
  6
Continuous
 62
     7
370
    25
100
AcDbLine
 10
814.8686460498
 20
6382.5998751811
 30
0.0
 11
806.2906104724
 21
6382.5998751811
 31
0.0
  0
LINE
  5
2F0
330
1F
100
AcDbEntity
  8
0
  6
Continuous
 62
     7
370
    25
100
AcDbLine
 10
814.8686460498
 20
6371.1736568496
 30
0.0
 11
806.2906104724
 21
6371.1736568496
 31
0.0
  0
LINE
  5
2F1
330
1F
100
AcDbEntity
  8
0
  6
Continuous
 62
     7
370
    25
100
AcDbLine
 10
814.8686460498
 20
6398.8382434464
 30
0.0
 11
806.2906104724
 21
6398.8382434464
 31
0.0
  0
LINE
  5
2F2
330
1F
100
AcDbEntity
  8
0
  6
Continuous
 62
     7
370
    25
100
AcDbLine
 10
1485.712574895
 20
6370.2578241411
 30
0.0
 11
1485.462047555
 21
6370.7363164927
 31
0.0
  0
SPLINE
  5
2F3
330
1F
100
AcDbEntity
  8
0
  6
Continuous
 62
     7
370
    25
100
AcDbSpline
210
0.0
220
0.0
230
1.0
 70
     8
 71
     3
 72
    10
 73
     6
 74
     0
 42
0.00000001
 43
0.00000001
 40
0.0
 40
0.0
 40
0.0
 40
0.0
 40
0.2656373379603367
 40
0.537435841163419
 40
0.9999999999999999
 40
0.9999999999999999
 40
0.9999999999999999
 40
0.9999999999999999
 10
1485.712574895007
 20
6399.754076154861
 30
0.0
 10
1485.373966827135
 20
6399.186456794754
 30
0.0
 10
1484.688897050504
 20
6398.03805276917
 30
0.0
 10
1484.313726439271
 20
6395.811870195632
 30
0.0
 10
1485.171976131589
 20
6394.223114921596
 30
0.0
 10
1485.712574895007
 20
6393.222381517081
 30
0.0
  0
SPLINE
  5
2F4
330
1F
100
AcDbEntity
  8
0
  6
Continuous
 62
     7
370
    25
100
AcDbSpline
210
0.0
220
0.0
230
1.0
 70
     8
 71
     3
 72
    11
 73
     7
 74
     0
 42
0.00000001
 43
0.00000001
 40
0.0
 40
0.0
 40
0.0
 40
0.0
 40
0.1197412027804273
 40
0.3712053015244596
 40
0.6292179805454516
 40
1.0
 40
1.0
 40
1.0
 40
1.0
 10
1485.712574895007
 20
6393.222381517081
 30
0.0
 10
1485.549866977189
 20
6392.64723048485
 30
0.0
 10
1485.045462141664
 20
6390.864225910118
 30
0.0
 10
1484.514399351552
 20
6387.758490501005
 30
0.0
 10
1484.481564189732
 20
6383.331765298622
 30
0.0
 10
1485.255944976478
 20
6380.276095485614
 30
0.0
 10
1485.712574895007
 20
6378.474255510183
 30
0.0
  0
SPLINE
  5
2F5
330
1F
100
AcDbEntity
  8
0
  6
Continuous
 62
     7
370
    25
100
AcDbSpline
210
0.0
220
0.0
230
1.0
 70
     8
 71
     3
 72
    10
 73
     6
 74
     0
 42
0.00000001
 43
0.00000001
 40
0.0
 40
0.0
 40
0.0
 40
0.0
 40
0.2656373379603222
 40
0.5374358411634076
 40
1.0
 40
1.0
 40
1.0
 40
1.0
 10
1485.712574895007
 20
6378.474255510183
 30
0.0
 10
1485.373966827135
 20
6377.760228634352
 30
0.0
 10
1484.688897050504
 20
6376.315613816375
 30
0.0
 10
1484.313726439271
 20
6373.515226268431
 30
0.0
 10
1485.171976131589
 20
6371.516679276364
 30
0.0
 10
1485.712574895007
 20
6370.257824141064
 30
0.0
  0
LINE
  5
2F6
330
1F
100
AcDbEntity
  8
0
  6
Continuous
 62
     7
370
    25
100
AcDbLine
 10
1483.2906104724
 20
6385.7109650168
 30
0.0
 11
1483.2906104724
 21
6374.2930712119
 31
0.0
  0
LINE
  5
2F7
330
1F
100
AcDbEntity
  8
0
  6
Continuous
 62
     7
370
    25
100
AcDbLine
 10
1483.2906104724
 20
6395.718829084
 30
0.0
 11
1483.2906104724
 21
6385.7109650168
 31
0.0
  0
LINE
  5
2F8
330
1F
100
AcDbEntity
  8
0
  6
Continuous
 62
     7
370
    25
100
AcDbLine
 10
1485.712574895
 20
6370.2578241411
 30
0.0
 11
1494.2906104724
 21
6370.2578241411
 31
0.0
  0
LINE
  5
2F9
330
1F
100
AcDbEntity
  8
0
  6
Continuous
 62
     7
370
    25
100
AcDbLine
 10
1485.712574895
 20
6378.4742555102
 30
0.0
 11
1494.2906104724
 21
6378.4742555102
 31
0.0
  0
LINE
  5
2FA
330
1F
100
AcDbEntity
  8
0
  6
Continuous
 62
     7
370
    25
100
AcDbLine
 10
1485.712574895
 20
6393.2223815171
 30
0.0
 11
1494.2906104724
 21
6393.2223815171
 31
0.0
  0
LINE
  5
2FB
330
1F
100
AcDbEntity
  8
0
  6
Continuous
 62
     7
370
    25
100
AcDbLine
 10
1485.712574895
 20
6399.7540761549
 30
0.0
 11
1494.2906104724
 21
6399.7540761549
 31
0.0
  0
LINE
  5
2FC
330
1F
100
AcDbEntity
  8
0
  6
Continuous
 62
     7
370
    25
100
AcDbLine
 10
806.2906104724
 20
6361.005950148
 30
0.0
 11
806.2906104724
 21
6409.005950148
 31
0.0
  0
LINE
  5
2FD
330
1F
100
AcDbEntity
  8
0
  6
Continuous
 62
     7
370
    25
100
AcDbLine
 10
1494.2906104724
 20
6361.005950148
 30
0.0
 11
1494.2906104724
 21
6409.005950148
 31
0.0
  0
LINE
  5
2FE
330
1F
100
AcDbEntity
  8
0
  6
Continuous
 62
     7
370
    25
100
AcDbLine
 10
895.2906104724
 20
6580.005950148
 30
0.0
 11
799.2906104724
 21
6580.005950148
 31
0.0
  0
LINE
  5
2FF
330
1F
100
AcDbEntity
  8
0
  6
Continuous
 62
     7
370
    25
100
AcDbLine
 10
895.2906104724
 20
6574.005950148
 30
0.0
 11
799.2906104724
 21
6574.005950148
 31
0.0
  0
ARC
  5
300
330
1F
100
AcDbEntity
  8
0
  6
Continuous
 62
     7
370
    25
100
AcDbCircle
 10
799.2906104724
 20
6572.005950148
 30
0.0
 40
2.000000000000909
100
AcDbArc
 50
90.0
 51
180.0
  0
LINE
  5
301
330
1F
100
AcDbEntity
  8
0
  6
Continuous
 62
     7
370
    25
100
AcDbLine
 10
797.2906104724
 20
6572.005950148
 30
0.0
 11
797.2906104724
 21
6554.005950148
 31
0.0
  0
LINE
  5
302
330
1F
100
AcDbEntity
  8
0
  6
Continuous
 62
     7
370
    25
100
AcDbLine
 10
791.2906104724
 20
6572.005950148
 30
0.0
 11
791.2906104724
 21
6554.005950148
 31
0.0
  0
ARC
  5
303
330
1F
100
AcDbEntity
  8
0
  6
Continuous
 62
     7
370
    25
100
AcDbCircle
 10
799.2906104724
 20
6572.005950148
 30
0.0
 40
8.0
100
AcDbArc
 50
90.0
 51
180.0
  0
LINE
  5
304
330
1F
100
AcDbEntity
  8
0
  6
Continuous
 62
     7
370
    25
100
AcDbLine
 10
895.2906104724
 20
6580.005950148
 30
0.0
 11
895.2906104724
 21
6574.005950148
 31
0.0
  0
LINE
  5
305
330
1F
100
AcDbEntity
  8
0
  6
Continuous
 62
     7
370
    25
100
AcDbLine
 10
1405.2906104724
 20
6574.005950148
 30
0.0
 11
1501.2906104724
 21
6574.005950148
 31
0.0
  0
LINE
  5
306
330
1F
100
AcDbEntity
  8
0
  6
Continuous
 62
     7
370
    25
100
AcDbLine
 10
1405.2906104724
 20
6580.005950148
 30
0.0
 11
1501.2906104724
 21
6580.005950148
 31
0.0
  0
LINE
  5
307
330
1F
100
AcDbEntity
  8
0
  6
Continuous
 62
     7
370
    25
100
AcDbLine
 10
1503.2906104724
 20
6572.005950148
 30
0.0
 11
1503.2906104724
 21
6554.005950148
 31
0.0
  0
ARC
  5
308
330
1F
100
AcDbEntity
  8
0
  6
Continuous
 62
     7
370
    25
100
AcDbCircle
 10
1501.2906104724
 20
6572.005950148
 30
0.0
 40
2.0
100
AcDbArc
 50
0.0
 51
90.0
  0
LINE
  5
309
330
1F
100
AcDbEntity
  8
0
  6
Continuous
 62
     7
370
    25
100
AcDbLine
 10
1509.2906104724
 20
6572.005950148
 30
0.0
 11
1509.2906104724
 21
6554.005950148
 31
0.0
  0
LINE
  5
30A
330
1F
100
AcDbEntity
  8
0
  6
Continuous
 62
     7
370
    25
100
AcDbLine
 10
1405.2906104724
 20
6580.005950148
 30
0.0
 11
1405.2906104724
 21
6574.005950148
 31
0.0
  0
ARC
  5
30B
330
1F
100
AcDbEntity
  8
0
  6
Continuous
 62
     7
370
    25
100
AcDbCircle
 10
1501.2906104724
 20
6572.005950148
 30
0.0
 40
8.0
100
AcDbArc
 50
0.0
 51
90.0
  0
LINE
  5
30C
330
1F
100
AcDbEntity
  8
0
  6
Continuous
 62
     7
370
    25
100
AcDbLine
 10
1551.2906104724
 20
6324.005950148
 30
0.0
 11
1499.2906104724
 21
6324.005950148
 31
0.0
  0
ARC
  5
30D
330
1F
100
AcDbEntity
  8
0
  6
Continuous
 62
     7
370
    25
100
AcDbCircle
 10
1551.2906104724
 20
6320.005950148
 30
0.0
 40
4.0
100
AcDbArc
 50
0.0
 51
90.0
  0
ARC
  5
30E
330
1F
100
AcDbEntity
  8
0
  6
Continuous
 62
     7
370
    25
100
AcDbCircle
 10
1551.2906104724
 20
6268.005950148
 30
0.0
 40
4.0
100
AcDbArc
 50
270.0
 51
0.0
  0
LINE
  5
30F
330
1F
100
AcDbEntity
  8
0
  6
Continuous
 62
     7
370
    25
100
AcDbLine
 10
1499.2906104724
 20
6264.005950148
 30
0.0
 11
1551.2906104724
 21
6264.005950148
 31
0.0
  0
ARC
  5
310
330
1F
100
AcDbEntity
  8
0
  6
Continuous
 62
     7
370
    25
100
AcDbCircle
 10
1499.2906104724
 20
6268.005950148
 30
0.0
 40
4.000000000000909
100
AcDbArc
 50
180.0
 51
270.0
  0
LINE
  5
311
330
1F
100
AcDbEntity
  8
0
  6
Continuous
 62
     7
370
    25
100
AcDbLine
 10
1495.2906104724
 20
6284.705950148
 30
0.0
 11
1495.2906104724
 21
6268.005950148
 31
0.0
  0
LINE
  5
312
330
1F
100
AcDbEntity
  8
0
  6
Continuous
 62
     7
370
    25
100
AcDbLine
 10
1498.2906104724
 20
6284.705950148
 30
0.0
 11
1495.2906104724
 21
6284.705950148
 31
0.0
  0
LINE
  5
313
330
1F
100
AcDbEntity
  8
0
  6
Continuous
 62
     7
370
    25
100
AcDbLine
 10
1498.2906104724
 20
6284.705950148
 30
0.0
 11
1498.2906104724
 21
6268.005950148
 31
0.0
  0
ARC
  5
314
330
1F
100
AcDbEntity
  8
0
  6
Continuous
 62
     7
370
    25
100
AcDbCircle
 10
1499.2906104724
 20
6268.005950148
 30
0.0
 40
1.000000000000909
100
AcDbArc
 50
180.0
 51
270.0
  0
LINE
  5
315
330
1F
100
AcDbEntity
  8
0
  6
Continuous
 62
     7
370
    25
100
AcDbLine
 10
1499.2906104724
 20
6267.005950148
 30
0.0
 11
1551.2906104724
 21
6267.005950148
 31
0.0
  0
ARC
  5
316
330
1F
100
AcDbEntity
  8
0
  6
Continuous
 62
     7
370
    25
100
AcDbCircle
 10
1551.2906104724
 20
6268.005950148
 30
0.0
 40
1.000000000000909
100
AcDbArc
 50
270.0
 51
0.0
  0
LINE
  5
317
330
1F
100
AcDbEntity
  8
0
  6
Continuous
 62
     7
370
    25
100
AcDbLine
 10
1552.2906104724
 20
6268.005950148
 30
0.0
 11
1552.2906104724
 21
6320.005950148
 31
0.0
  0
LINE
  5
318
330
1F
100
AcDbEntity
  8
0
  6
Continuous
 62
     7
370
    25
100
AcDbLine
 10
1495.2906104724
 20
6320.005950148
 30
0.0
 11
1495.2906104724
 21
6303.305950148
 31
0.0
  0
ARC
  5
319
330
1F
100
AcDbEntity
  8
0
  6
Continuous
 62
     7
370
    25
100
AcDbCircle
 10
1499.2906104724
 20
6320.005950148
 30
0.0
 40
4.000000000000909
100
AcDbArc
 50
90.0
 51
180.0
  0
LINE
  5
31A
330
1F
100
AcDbEntity
  8
0
  6
Continuous
 62
     7
370
    25
100
AcDbLine
 10
1498.2906104724
 20
6303.305950148
 30
0.0
 11
1495.2906104724
 21
6303.305950148
 31
0.0
  0
ARC
  5
31B
330
1F
100
AcDbEntity
  8
0
  6
Continuous
 62
     7
370
    25
100
AcDbCircle
 10
1499.2906104724
 20
6320.005950148
 30
0.0
 40
1.000000000000909
100
AcDbArc
 50
90.0
 51
180.0
  0
LINE
  5
31C
330
1F
100
AcDbEntity
  8
0
  6
Continuous
 62
     7
370
    25
100
AcDbLine
 10
1551.2906104724
 20
6321.005950148
 30
0.0
 11
1499.2906104724
 21
6321.005950148
 31
0.0
  0
LINE
  5
31D
330
1F
100
AcDbEntity
  8
0
  6
Continuous
 62
     7
370
    25
100
AcDbLine
 10
1498.2906104724
 20
6320.005950148
 30
0.0
 11
1498.2906104724
 21
6303.305950148
 31
0.0
  0
LINE
  5
31E
330
1F
100
AcDbEntity
  8
0
  6
Continuous
 62
     7
370
    25
100
AcDbLine
 10
1555.2906104724
 20
6268.005950148
 30
0.0
 11
1555.2906104724
 21
6320.005950148
 31
0.0
  0
ARC
  5
31F
330
1F
100
AcDbEntity
  8
0
  6
Continuous
 62
     7
370
    25
100
AcDbCircle
 10
1551.2906104724
 20
6320.005950148
 30
0.0
 40
1.0
100
AcDbArc
 50
0.0
 51
90.0
  0
ARC
  5
320
330
1F
100
AcDbEntity
  8
0
  6
Continuous
 62
     7
370
    25
100
AcDbCircle
 10
1445.2906104724
 20
6338.005950148
 30
0.0
 40
10.0
100
AcDbArc
 50
0.0
 51
180.0
  0
LINE
  5
321
330
1F
100
AcDbEntity
  8
0
  6
Continuous
 62
     7
370
    25
100
AcDbLine
 10
1555.2906104724
 20
6326.005950148
 30
0.0
 11
1555.2906104724
 21
6320.005950148
 31
0.0
  0
LINE
  5
322
330
1F
100
AcDbEntity
  8
0
  6
Continuous
 62
     7
370
    25
100
AcDbLine
 10
1555.2906104724
 20
6268.005950148
 30
0.0
 11
1555.2906104724
 21
6264.005950148
 31
0.0
  0
LINE
  5
323
330
1F
100
AcDbEntity
  8
0
  6
Continuous
 62
     7
370
    25
100
AcDbLine
 10
1555.2906104724
 20
6264.005950148
 30
0.0
 11
1551.2906104724
 21
6264.005950148
 31
0.0
  0
LINE
  5
324
330
1F
100
AcDbEntity
  8
0
  6
Continuous
 62
     7
370
    25
100
AcDbLine
 10
1499.2906104724
 20
6264.005950148
 30
0.0
 11
1493.2906104724
 21
6264.005950148
 31
0.0
  0
LINE
  5
325
330
1F
100
AcDbEntity
  8
0
  6
Continuous
 62
     7
370
    25
100
AcDbLine
 10
1415.2906104724
 20
6329.005950148
 30
0.0
 11
1415.2906104724
 21
6364.005950148
 31
0.0
  0
LINE
  5
326
330
1F
100
AcDbEntity
  8
0
  6
Continuous
 62
     7
370
    25
100
AcDbLine
 10
1455.2906104724
 20
6338.005950148
 30
0.0
 11
1455.2906104724
 21
6329.005950148
 31
0.0
  0
LINE
  5
327
330
1F
100
AcDbEntity
  8
0
  6
Continuous
 62
     7
370
    25
100
AcDbLine
 10
1415.2906104724
 20
6364.005950148
 30
0.0
 11
1484.4176271262
 21
6364.005950148
 31
0.0
  0
LINE
  5
328
330
1F
100
AcDbEntity
  8
0
  6
Continuous
 62
     7
370
    25
100
AcDbLine
 10
1435.2906104724
 20
6329.005950148
 30
0.0
 11
1435.2906104724
 21
6338.005950148
 31
0.0
  0
ARC
  5
329
330
1F
100
AcDbEntity
  8
0
  6
Continuous
 62
     7
370
    25
100
AcDbCircle
 10
801.2906104724
 20
6268.005950148
 30
0.0
 40
4.000000000000909
100
AcDbArc
 50
270.0
 51
0.0
  0
LINE
  5
32A
330
1F
100
AcDbEntity
  8
0
  6
Continuous
 62
     7
370
    25
100
AcDbLine
 10
749.2906104724
 20
6264.005950148
 30
0.0
 11
801.2906104724
 21
6264.005950148
 31
0.0
  0
ARC
  5
32B
330
1F
100
AcDbEntity
  8
0
  6
Continuous
 62
     7
370
    25
100
AcDbCircle
 10
749.2906104724
 20
6268.005950148
 30
0.0
 40
4.000000000000909
100
AcDbArc
 50
180.0
 51
270.0
  0
ARC
  5
32C
330
1F
100
AcDbEntity
  8
0
  6
Continuous
 62
     7
370
    25
100
AcDbCircle
 10
749.2906104724
 20
6320.005950148
 30
0.0
 40
4.000000000000909
100
AcDbArc
 50
90.0
 51
180.0
  0
LINE
  5
32D
330
1F
100
AcDbEntity
  8
0
  6
Continuous
 62
     7
370
    25
100
AcDbLine
 10
801.2906104724
 20
6324.005950148
 30
0.0
 11
749.2906104724
 21
6324.005950148
 31
0.0
  0
ARC
  5
32E
330
1F
100
AcDbEntity
  8
0
  6
Continuous
 62
     7
370
    25
100
AcDbCircle
 10
801.2906104724
 20
6320.005950148
 30
0.0
 40
4.000000000000909
100
AcDbArc
 50
0.0
 51
90.0
  0
LINE
  5
32F
330
1F
100
AcDbEntity
  8
0
  6
Continuous
 62
     7
370
    25
100
AcDbLine
 10
748.2906104724
 20
6320.005950148
 30
0.0
 11
748.2906104724
 21
6268.005950148
 31
0.0
  0
ARC
  5
330
330
1F
100
AcDbEntity
  8
0
  6
Continuous
 62
     7
370
    25
100
AcDbCircle
 10
749.2906104724
 20
6268.005950148
 30
0.0
 40
1.0
100
AcDbArc
 50
180.0
 51
270.0
  0
LINE
  5
331
330
1F
100
AcDbEntity
  8
0
  6
Continuous
 62
     7
370
    25
100
AcDbLine
 10
749.2906104724
 20
6267.005950148
 30
0.0
 11
801.2906104724
 21
6267.005950148
 31
0.0
  0
ARC
  5
332
330
1F
100
AcDbEntity
  8
0
  6
Continuous
 62
     7
370
    25
100
AcDbCircle
 10
801.2906104724
 20
6268.005950148
 30
0.0
 40
1.0
100
AcDbArc
 50
270.0
 51
0.0
  0
LINE
  5
333
330
1F
100
AcDbEntity
  8
0
  6
Continuous
 62
     7
370
    25
100
AcDbLine
 10
802.2906104724
 20
6268.005950148
 30
0.0
 11
802.2906104724
 21
6284.705950148
 31
0.0
  0
LINE
  5
334
330
1F
100
AcDbEntity
  8
0
  6
Continuous
 62
     7
370
    25
100
AcDbLine
 10
802.2906104724
 20
6284.705950148
 30
0.0
 11
805.2906104724
 21
6284.705950148
 31
0.0
  0
LINE
  5
335
330
1F
100
AcDbEntity
  8
0
  6
Continuous
 62
     7
370
    25
100
AcDbLine
 10
805.2906104724
 20
6268.005950148
 30
0.0
 11
805.2906104724
 21
6284.705950148
 31
0.0
  0
LINE
  5
336
330
1F
100
AcDbEntity
  8
0
  6
Continuous
 62
     7
370
    25
100
AcDbLine
 10
802.2906104724
 20
6303.305950148
 30
0.0
 11
805.2906104724
 21
6303.305950148
 31
0.0
  0
LINE
  5
337
330
1F
100
AcDbEntity
  8
0
  6
Continuous
 62
     7
370
    25
100
AcDbLine
 10
745.2906104724
 20
6320.005950148
 30
0.0
 11
745.2906104724
 21
6268.005950148
 31
0.0
  0
LINE
  5
338
330
1F
100
AcDbEntity
  8
0
  6
Continuous
 62
     7
370
    25
100
AcDbLine
 10
801.2906104724
 20
6321.005950148
 30
0.0
 11
749.2906104724
 21
6321.005950148
 31
0.0
  0
ARC
  5
339
330
1F
100
AcDbEntity
  8
0
  6
Continuous
 62
     7
370
    25
100
AcDbCircle
 10
749.2906104724
 20
6320.005950148
 30
0.0
 40
1.000000000000909
100
AcDbArc
 50
90.0
 51
180.0
  0
LINE
  5
33A
330
1F
100
AcDbEntity
  8
0
  6
Continuous
 62
     7
370
    25
100
AcDbLine
 10
805.2906104724
 20
6303.305950148
 30
0.0
 11
805.2906104724
 21
6320.005950148
 31
0.0
  0
ARC
  5
33B
330
1F
100
AcDbEntity
  8
0
  6
Continuous
 62
     7
370
    25
100
AcDbCircle
 10
801.2906104724
 20
6320.005950148
 30
0.0
 40
1.000000000000909
100
AcDbArc
 50
0.0
 51
90.0
  0
LINE
  5
33C
330
1F
100
AcDbEntity
  8
0
  6
Continuous
 62
     7
370
    25
100
AcDbLine
 10
802.2906104724
 20
6303.305950148
 30
0.0
 11
802.2906104724
 21
6320.005950148
 31
0.0
  0
ARC
  5
33D
330
1F
100
AcDbEntity
  8
0
  6
Continuous
 62
     7
370
    25
100
AcDbCircle
 10
838.6906104724
 20
6334.005950148
 30
0.0
 40
10.0
100
AcDbArc
 50
90.0
 51
210.0
  0
LINE
  5
33E
330
1F
100
AcDbEntity
  8
0
  6
Continuous
 62
     7
370
    25
100
AcDbLine
 10
816.1635938186
 20
6364.005950148
 30
0.0
 11
885.2906104724
 21
6364.005950148
 31
0.0
  0
LINE
  5
33F
330
1F
100
AcDbEntity
  8
0
  6
Continuous
 62
     7
370
    25
100
AcDbLine
 10
885.2906104724
 20
6364.005950148
 30
0.0
 11
885.2906104724
 21
6329.005950148
 31
0.0
  0
LINE
  5
340
330
1F
100
AcDbEntity
  8
0
  6
Continuous
 62
     7
370
    25
100
AcDbLine
 10
807.2906104724
 20
6264.005950148
 30
0.0
 11
801.2906104724
 21
6264.005950148
 31
0.0
  0
LINE
  5
341
330
1F
100
AcDbEntity
  8
0
  6
Continuous
 62
     7
370
    25
100
AcDbLine
 10
749.2906104724
 20
6264.005950148
 30
0.0
 11
745.2906104724
 21
6264.005950148
 31
0.0
  0
LINE
  5
342
330
1F
100
AcDbEntity
  8
0
  6
Continuous
 62
     7
370
    25
100
AcDbLine
 10
838.6906104724
 20
6344.005950148
 30
0.0
 11
858.6906104724
 21
6344.005950148
 31
0.0
  0
ARC
  5
343
330
1F
100
AcDbEntity
  8
0
  6
Continuous
 62
     7
370
    25
100
AcDbCircle
 10
858.6906104724
 20
6334.005950148
 30
0.0
 40
10.00000000000007
100
AcDbArc
 50
330.0
 51
90.0
  0
LINE
  5
344
330
1F
100
AcDbEntity
  8
0
  6
Continuous
 62
     7
370
    25
100
AcDbLine
 10
745.2906104724
 20
6264.005950148
 30
0.0
 11
745.2906104724
 21
6268.005950148
 31
0.0
  0
LINE
  5
345
330
1F
100
AcDbEntity
  8
0
  6
Continuous
 62
     7
370
    25
100
AcDbLine
 10
745.2906104724
 20
6320.005950148
 30
0.0
 11
745.2906104724
 21
6326.005950148
 31
0.0
  0
ARC
  5
346
330
1F
100
AcDbEntity
  8
0
  6
Continuous
 62
     7
370
    25
100
AcDbCircle
 10
1495.2906104724
 20
6264.005950148
 30
0.0
 40
2.0
100
AcDbArc
 50
180.0
 51
270.0
  0
LINE
  5
347
330
1F
100
AcDbEntity
  8
0
  6
Continuous
 62
     7
370
    25
100
AcDbLine
 10
1555.2906104724
 20
6262.005950148
 30
0.0
 11
1495.2906104724
 21
6262.005950148
 31
0.0
  0
ARC
  5
348
330
1F
100
AcDbEntity
  8
0
  6
Continuous
 62
     7
370
    25
100
AcDbCircle
 10
1555.2906104724
 20
6264.005950148
 30
0.0
 40
2.000000000000227
100
AcDbArc
 50
270.0
 51
0.0
  0
LINE
  5
349
330
1F
100
AcDbEntity
  8
0
  6
Continuous
 62
     7
370
    25
100
AcDbLine
 10
1557.2906104724
 20
6324.005950148
 30
0.0
 11
1557.2906104724
 21
6264.005950148
 31
0.0
  0
ARC
  5
34A
330
1F
100
AcDbEntity
  8
0
  6
Continuous
 62
     7
370
    25
100
AcDbCircle
 10
1555.2906104724
 20
6324.005950148
 30
0.0
 40
2.000000000000227
100
AcDbArc
 50
0.0
 51
90.0
  0
LINE
  5
34B
330
1F
100
AcDbEntity
  8
0
  6
Continuous
 62
     7
370
    25
100
AcDbLine
 10
1495.2906104724
 20
6326.005950148
 30
0.0
 11
1555.2906104724
 21
6326.005950148
 31
0.0
  0
LINE
  5
34C
330
1F
100
AcDbEntity
  8
0
  6
Continuous
 62
     7
370
    25
100
AcDbLine
 10
1555.2906104724
 20
6259.005950148
 30
0.0
 11
1495.2906104724
 21
6259.005950148
 31
0.0
  0
ARC
  5
34D
330
1F
100
AcDbEntity
  8
0
  6
Continuous
 62
     7
370
    25
100
AcDbCircle
 10
1495.2906104724
 20
6264.005950148
 30
0.0
 40
5.0
100
AcDbArc
 50
180.0
 51
270.0
  0
ARC
  5
34E
330
1F
100
AcDbEntity
  8
0
  6
Continuous
 62
     7
370
    25
100
AcDbCircle
 10
1555.2906104724
 20
6324.005950148
 30
0.0
 40
5.000000000000227
100
AcDbArc
 50
0.0
 51
90.0
  0
LINE
  5
34F
330
1F
100
AcDbEntity
  8
0
  6
Continuous
 62
     7
370
    25
100
AcDbLine
 10
1560.2906104724
 20
6324.005950148
 30
0.0
 11
1560.2906104724
 21
6264.005950148
 31
0.0
  0
ARC
  5
350
330
1F
100
AcDbEntity
  8
0
  6
Continuous
 62
     7
370
    25
100
AcDbCircle
 10
1555.2906104724
 20
6264.005950148
 30
0.0
 40
5.000000000000455
100
AcDbArc
 50
270.0
 51
0.0
  0
ARC
  5
351
330
1F
100
AcDbEntity
  8
0
  6
Continuous
 62
     7
370
    25
100
AcDbCircle
 10
1495.2906104724
 20
6324.005950148
 30
0.0
 40
2.0
100
AcDbArc
 50
90.0
 51
180.0
  0
ARC
  5
352
330
1F
100
AcDbEntity
  8
0
  6
Continuous
 62
     7
370
    25
100
AcDbCircle
 10
1495.2906104724
 20
6324.005950148
 30
0.0
 40
5.0
100
AcDbArc
 50
90.0
 51
180.0
  0
LINE
  5
353
330
1F
100
AcDbEntity
  8
0
  6
Continuous
 62
     7
370
    25
100
AcDbLine
 10
1490.2906104724
 20
6264.005950148
 30
0.0
 11
1490.2906104724
 21
6324.005950148
 31
0.0
  0
LINE
  5
354
330
1F
100
AcDbEntity
  8
0
  6
Continuous
 62
     7
370
    25
100
AcDbLine
 10
1495.2906104724
 20
6329.005950148
 30
0.0
 11
1555.2906104724
 21
6329.005950148
 31
0.0
  0
LINE
  5
355
330
1F
100
AcDbEntity
  8
0
  6
Continuous
 62
     7
370
    25
100
AcDbLine
 10
1493.2906104724
 20
6264.005950148
 30
0.0
 11
1493.2906104724
 21
6324.005950148
 31
0.0
  0
ARC
  5
356
330
1F
100
AcDbEntity
  8
0
  6
Continuous
 62
     7
370
    25
100
AcDbCircle
 10
745.2906104724
 20
6264.005950148
 30
0.0
 40
2.0
100
AcDbArc
 50
180.0
 51
270.0
  0
LINE
  5
357
330
1F
100
AcDbEntity
  8
0
  6
Continuous
 62
     7
370
    25
100
AcDbLine
 10
805.2906104724
 20
6262.005950148
 30
0.0
 11
745.2906104724
 21
6262.005950148
 31
0.0
  0
ARC
  5
358
330
1F
100
AcDbEntity
  8
0
  6
Continuous
 62
     7
370
    25
100
AcDbCircle
 10
805.2906104724
 20
6264.005950148
 30
0.0
 40
2.0
100
AcDbArc
 50
270.0
 51
0.0
  0
LINE
  5
359
330
1F
100
AcDbEntity
  8
0
  6
Continuous
 62
     7
370
    25
100
AcDbLine
 10
745.2906104724
 20
6326.005950148
 30
0.0
 11
805.2906104724
 21
6326.005950148
 31
0.0
  0
ARC
  5
35A
330
1F
100
AcDbEntity
  8
0
  6
Continuous
 62
     7
370
    25
100
AcDbCircle
 10
745.2906104724
 20
6324.005950148
 30
0.0
 40
2.0
100
AcDbArc
 50
90.0
 51
180.0
  0
LINE
  5
35B
330
1F
100
AcDbEntity
  8
0
  6
Continuous
 62
     7
370
    25
100
AcDbLine
 10
805.2906104724
 20
6259.005950148
 30
0.0
 11
745.2906104724
 21
6259.005950148
 31
0.0
  0
ARC
  5
35C
330
1F
100
AcDbEntity
  8
0
  6
Continuous
 62
     7
370
    25
100
AcDbCircle
 10
745.2906104724
 20
6264.005950148
 30
0.0
 40
5.0
100
AcDbArc
 50
180.0
 51
270.0
  0
ARC
  5
35D
330
1F
100
AcDbEntity
  8
0
  6
Continuous
 62
     7
370
    25
100
AcDbCircle
 10
805.2906104724
 20
6264.005950148
 30
0.0
 40
5.000000000000114
100
AcDbArc
 50
270.0
 51
0.0
  0
LINE
  5
35E
330
1F
100
AcDbEntity
  8
0
  6
Continuous
 62
     7
370
    25
100
AcDbLine
 10
743.2906104724
 20
6264.005950148
 30
0.0
 11
743.2906104724
 21
6324.005950148
 31
0.0
  0
LINE
  5
35F
330
1F
100
AcDbEntity
  8
0
  6
Continuous
 62
     7
370
    25
100
AcDbLine
 10
810.2906104724
 20
6324.005950148
 30
0.0
 11
810.2906104724
 21
6264.005950148
 31
0.0
  0
LINE
  5
360
330
1F
100
AcDbEntity
  8
0
  6
Continuous
 62
     7
370
    25
100
AcDbLine
 10
740.2906104724
 20
6264.005950148
 30
0.0
 11
740.2906104724
 21
6324.005950148
 31
0.0
  0
ARC
  5
361
330
1F
100
AcDbEntity
  8
0
  6
Continuous
 62
     7
370
    25
100
AcDbCircle
 10
745.2906104724
 20
6324.005950148
 30
0.0
 40
5.0
100
AcDbArc
 50
90.0
 51
180.0
  0
LINE
  5
362
330
1F
100
AcDbEntity
  8
0
  6
Continuous
 62
     7
370
    25
100
AcDbLine
 10
745.2906104724
 20
6329.005950148
 30
0.0
 11
805.2906104724
 21
6329.005950148
 31
0.0
  0
LINE
  5
363
330
1F
100
AcDbEntity
  8
0
  6
Continuous
 62
     7
370
    25
100
AcDbLine
 10
807.2906104724
 20
6324.005950148
 30
0.0
 11
807.2906104724
 21
6264.005950148
 31
0.0
  0
ARC
  5
364
330
1F
100
AcDbEntity
  8
0
  6
Continuous
 62
     7
370
    25
100
AcDbCircle
 10
805.2906104724
 20
6324.005950148
 30
0.0
 40
5.0
100
AcDbArc
 50
0.0
 51
90.0
  0
ARC
  5
365
330
1F
100
AcDbEntity
  8
0
  6
Continuous
 62
     7
370
    25
100
AcDbCircle
 10
805.2906104724
 20
6324.005950148
 30
0.0
 40
2.0
100
AcDbArc
 50
0.0
 51
90.0
  0
LINE
  5
366
330
1F
100
AcDbEntity
  8
0
  6
Continuous
 62
     7
370
    25
100
AcDbLine
 10
1490.2906104724
 20
6329.005950148
 30
0.0
 11
1486.2906104724
 21
6329.005950148
 31
0.0
  0
LINE
  5
367
330
1F
100
AcDbEntity
  8
0
  6
Continuous
 62
     7
370
    25
100
AcDbLine
 10
1480.2906104724
 20
6329.005950148
 30
0.0
 11
1205.2906104724
 21
6329.005950148
 31
0.0
  0
LINE
  5
368
330
1F
100
AcDbEntity
  8
0
  6
Continuous
 62
     7
370
    25
100
AcDbLine
 10
1095.2906104724
 20
6329.005950148
 30
0.0
 11
820.2906104724
 21
6329.005950148
 31
0.0
  0
LINE
  5
369
330
1F
100
AcDbEntity
  8
0
  6
Continuous
 62
     7
370
    25
100
AcDbLine
 10
814.2906104724
 20
6329.005950148
 30
0.0
 11
810.2906104724
 21
6329.005950148
 31
0.0
  0
LINE
  5
36A
330
1F
100
AcDbEntity
  8
0
  6
Continuous
 62
     7
370
    25
100
AcDbLine
 10
1490.2906104724
 20
6329.005950148
 30
0.0
 11
1490.2906104724
 21
6324.005950148
 31
0.0
  0
LINE
  5
36B
330
1F
100
AcDbEntity
  8
0
  6
Continuous
 62
     7
370
    25
100
AcDbLine
 10
810.2906104724
 20
6324.005950148
 30
0.0
 11
810.2906104724
 21
6329.005950148
 31
0.0
  0
LINE
  5
36C
330
1F
100
AcDbEntity
  8
0
  6
Continuous
 62
     7
370
    25
100
AcDbLine
 10
1490.2906104724
 20
6262.005950148
 30
0.0
 11
810.2906104724
 21
6262.005950148
 31
0.0
  0
LINE
  5
36D
330
1F
100
AcDbEntity
  8
0
  6
Continuous
 62
     7
370
    25
100
AcDbLine
 10
1490.2906104724
 20
6316.005950148
 30
0.0
 11
810.2906104724
 21
6316.005950148
 31
0.0
  0
LINE
  5
36E
330
1F
100
AcDbEntity
  8
0
  6
Continuous
 62
     7
370
    25
100
AcDbLine
 10
810.2906104724
 20
6316.005950148
 30
0.0
 11
810.2906104724
 21
6262.005950148
 31
0.0
  0
LINE
  5
36F
330
1F
100
AcDbEntity
  8
0
  6
Continuous
 62
     7
370
    25
100
AcDbLine
 10
1490.2906104724
 20
6262.005950148
 30
0.0
 11
1490.2906104724
 21
6316.005950148
 31
0.0
  0
LINE
  5
370
330
1F
100
AcDbEntity
  8
0
  6
Continuous
 62
     7
370
    25
100
AcDbLine
 10
1490.2906104724
 20
6319.005950148
 30
0.0
 11
810.2906104724
 21
6319.005950148
 31
0.0
  0
LINE
  5
371
330
1F
100
AcDbEntity
  8
0
  6
Continuous
 62
     7
370
    25
100
AcDbLine
 10
1490.2906104724
 20
6259.005950148
 30
0.0
 11
810.2906104724
 21
6259.005950148
 31
0.0
  0
LINE
  5
372
330
1F
100
AcDbEntity
  8
0
  6
Continuous
 62
     7
370
    25
100
AcDbLine
 10
810.2906104724
 20
6262.005950148
 30
0.0
 11
810.2906104724
 21
6259.005950148
 31
0.0
  0
LINE
  5
373
330
1F
100
AcDbEntity
  8
0
  6
Continuous
 62
     7
370
    25
100
AcDbLine
 10
1490.2906104724
 20
6259.005950148
 30
0.0
 11
1490.2906104724
 21
6262.005950148
 31
0.0
  0
ARC
  5
374
330
1F
100
AcDbEntity
  8
0
  6
Continuous
 62
     7
370
    25
100
AcDbCircle
 10
1495.2906104724
 20
6334.005950148
 30
0.0
 40
5.0
100
AcDbArc
 50
180.0
 51
270.0
  0
LINE
  5
375
330
1F
100
AcDbEntity
  8
0
  6
Continuous
 62
     7
370
    25
100
AcDbLine
 10
1490.2906104724
 20
6334.005950148
 30
0.0
 11
1490.2906104724
 21
6354.005950148
 31
0.0
  0
LINE
  5
376
330
1F
100
AcDbEntity
  8
0
  6
Continuous
 62
     7
370
    25
100
AcDbLine
 10
1495.2906104724
 20
6356.005950148
 30
0.0
 11
1500.2906104724
 21
6356.005950148
 31
0.0
  0
ARC
  5
377
330
1F
100
AcDbEntity
  8
0
  6
Continuous
 62
     7
370
    25
100
AcDbCircle
 10
1495.2906104724
 20
6354.005950148
 30
0.0
 40
2.000000000000909
100
AcDbArc
 50
90.0
 51
180.0
  0
LINE
  5
378
330
1F
100
AcDbEntity
  8
0
  6
Continuous
 62
     7
370
    25
100
AcDbLine
 10
1493.2906104724
 20
6334.005950148
 30
0.0
 11
1493.2906104724
 21
6354.005950148
 31
0.0
  0
ARC
  5
379
330
1F
100
AcDbEntity
  8
0
  6
Continuous
 62
     7
370
    25
100
AcDbCircle
 10
1495.2906104724
 20
6334.005950148
 30
0.0
 40
2.0
100
AcDbArc
 50
180.0
 51
270.0
  0
LINE
  5
37A
330
1F
100
AcDbEntity
  8
0
  6
Continuous
 62
     7
370
    25
100
AcDbLine
 10
1500.2906104724
 20
6332.005950148
 30
0.0
 11
1495.2906104724
 21
6332.005950148
 31
0.0
  0
ARC
  5
37B
330
1F
100
AcDbEntity
  8
0
  6
Continuous
 62
     7
370
    25
100
AcDbCircle
 10
1495.2906104724
 20
6354.005950148
 30
0.0
 40
5.0
100
AcDbArc
 50
90.0
 51
180.0
  0
LINE
  5
37C
330
1F
100
AcDbEntity
  8
0
  6
Continuous
 62
     7
370
    25
100
AcDbLine
 10
1495.2906104724
 20
6359.005950148
 30
0.0
 11
1500.2906104724
 21
6359.005950148
 31
0.0
  0
LINE
  5
37D
330
1F
100
AcDbEntity
  8
0
  6
Continuous
 62
     7
370
    25
100
AcDbLine
 10
800.2906104724
 20
6359.005950148
 30
0.0
 11
805.2906104724
 21
6359.005950148
 31
0.0
  0
LINE
  5
37E
330
1F
100
AcDbEntity
  8
0
  6
Continuous
 62
     7
370
    25
100
AcDbLine
 10
810.2906104724
 20
6354.005950148
 30
0.0
 11
810.2906104724
 21
6334.005950148
 31
0.0
  0
ARC
  5
37F
330
1F
100
AcDbEntity
  8
0
  6
Continuous
 62
     7
370
    25
100
AcDbCircle
 10
805.2906104724
 20
6334.005950148
 30
0.0
 40
5.0
100
AcDbArc
 50
270.0
 51
0.0
  0
LINE
  5
380
330
1F
100
AcDbEntity
  8
0
  6
Continuous
 62
     7
370
    25
100
AcDbLine
 10
805.2906104724
 20
6332.005950148
 30
0.0
 11
800.2906104724
 21
6332.005950148
 31
0.0
  0
ARC
  5
381
330
1F
100
AcDbEntity
  8
0
  6
Continuous
 62
     7
370
    25
100
AcDbCircle
 10
805.2906104724
 20
6334.005950148
 30
0.0
 40
2.0
100
AcDbArc
 50
270.0
 51
0.0
  0
LINE
  5
382
330
1F
100
AcDbEntity
  8
0
  6
Continuous
 62
     7
370
    25
100
AcDbLine
 10
807.2906104724
 20
6354.005950148
 30
0.0
 11
807.2906104724
 21
6334.005950148
 31
0.0
  0
ARC
  5
383
330
1F
100
AcDbEntity
  8
0
  6
Continuous
 62
     7
370
    25
100
AcDbCircle
 10
805.2906104724
 20
6354.005950148
 30
0.0
 40
2.000000000000909
100
AcDbArc
 50
0.0
 51
90.0
  0
LINE
  5
384
330
1F
100
AcDbEntity
  8
0
  6
Continuous
 62
     7
370
    25
100
AcDbLine
 10
800.2906104724
 20
6356.005950148
 30
0.0
 11
805.2906104724
 21
6356.005950148
 31
0.0
  0
ARC
  5
385
330
1F
100
AcDbEntity
  8
0
  6
Continuous
 62
     7
370
    25
100
AcDbCircle
 10
805.2906104724
 20
6354.005950148
 30
0.0
 40
5.0
100
AcDbArc
 50
0.0
 51
90.0
  0
LINE
  5
386
330
1F
100
AcDbEntity
  8
0
  6
Continuous
 62
     7
370
    25
100
AcDbLine
 10
796.2906104724
 20
6554.005950148
 30
0.0
 11
796.2906104724
 21
6329.005950148
 31
0.0
  0
LINE
  5
387
330
1F
100
AcDbEntity
  8
0
  6
Continuous
 62
     7
370
    25
100
AcDbLine
 10
796.2906104724
 20
6554.005950148
 30
0.0
 11
800.2906104724
 21
6554.005950148
 31
0.0
  0
LINE
  5
388
330
1F
100
AcDbEntity
  8
0
  6
Continuous
 62
     7
370
    25
100
AcDbLine
 10
800.2906104724
 20
6554.005950148
 30
0.0
 11
800.2906104724
 21
6329.005950148
 31
0.0
  0
LINE
  5
389
330
1F
100
AcDbEntity
  8
0
  6
Continuous
 62
     7
370
    25
100
AcDbLine
 10
744.2906104724
 20
6329.005950148
 30
0.0
 11
796.2906104724
 21
6329.005950148
 31
0.0
  0
LINE
  5
38A
330
1F
100
AcDbEntity
  8
0
  6
Continuous
 62
     7
370
    25
100
AcDbLine
 10
744.2906104724
 20
6554.005950148
 30
0.0
 11
744.2906104724
 21
6329.005950148
 31
0.0
  0
LINE
  5
38B
330
1F
100
AcDbEntity
  8
0
  6
Continuous
 62
     7
370
    25
100
AcDbLine
 10
744.2906104724
 20
6554.005950148
 30
0.0
 11
796.2906104724
 21
6554.005950148
 31
0.0
  0
LINE
  5
38C
330
1F
100
AcDbEntity
  8
0
  6
Continuous
 62
     7
370
    25
100
AcDbLine
 10
740.2906104724
 20
6329.005950148
 30
0.0
 11
744.2906104724
 21
6329.005950148
 31
0.0
  0
LINE
  5
38D
330
1F
100
AcDbEntity
  8
0
  6
Continuous
 62
     7
370
    25
100
AcDbLine
 10
740.2906104724
 20
6554.005950148
 30
0.0
 11
740.2906104724
 21
6329.005950148
 31
0.0
  0
LINE
  5
38E
330
1F
100
AcDbEntity
  8
0
  6
Continuous
 62
     7
370
    25
100
AcDbLine
 10
740.2906104724
 20
6554.005950148
 30
0.0
 11
744.2906104724
 21
6554.005950148
 31
0.0
  0
LINE
  5
38F
330
1F
100
AcDbEntity
  8
0
  6
Continuous
 62
     7
370
    25
100
AcDbLine
 10
1500.2906104724
 20
6554.005950148
 30
0.0
 11
1500.2906104724
 21
6329.005950148
 31
0.0
  0
LINE
  5
390
330
1F
100
AcDbEntity
  8
0
  6
Continuous
 62
     7
370
    25
100
AcDbLine
 10
1500.2906104724
 20
6554.005950148
 30
0.0
 11
1504.2906104724
 21
6554.005950148
 31
0.0
  0
LINE
  5
391
330
1F
100
AcDbEntity
  8
0
  6
Continuous
 62
     7
370
    25
100
AcDbLine
 10
1504.2906104724
 20
6554.005950148
 30
0.0
 11
1504.2906104724
 21
6329.005950148
 31
0.0
  0
LINE
  5
392
330
1F
100
AcDbEntity
  8
0
  6
Continuous
 62
     7
370
    25
100
AcDbLine
 10
1504.2906104724
 20
6329.005950148
 30
0.0
 11
1556.2906104724
 21
6329.005950148
 31
0.0
  0
LINE
  5
393
330
1F
100
AcDbEntity
  8
0
  6
Continuous
 62
     7
370
    25
100
AcDbLine
 10
1504.2906104724
 20
6554.005950148
 30
0.0
 11
1556.2906104724
 21
6554.005950148
 31
0.0
  0
LINE
  5
394
330
1F
100
AcDbEntity
  8
0
  6
Continuous
 62
     7
370
    25
100
AcDbLine
 10
1556.2906104724
 20
6554.005950148
 30
0.0
 11
1556.2906104724
 21
6329.005950148
 31
0.0
  0
LINE
  5
395
330
1F
100
AcDbEntity
  8
0
  6
Continuous
 62
     7
370
    25
100
AcDbLine
 10
1556.2906104724
 20
6329.005950148
 30
0.0
 11
1560.2906104724
 21
6329.005950148
 31
0.0
  0
LINE
  5
396
330
1F
100
AcDbEntity
  8
0
  6
Continuous
 62
     7
370
    25
100
AcDbLine
 10
1560.2906104724
 20
6554.005950148
 30
0.0
 11
1560.2906104724
 21
6329.005950148
 31
0.0
  0
LINE
  5
397
330
1F
100
AcDbEntity
  8
0
  6
Continuous
 62
     7
370
    25
100
AcDbLine
 10
1556.2906104724
 20
6554.005950148
 30
0.0
 11
1560.2906104724
 21
6554.005950148
 31
0.0
  0
LINE
  5
398
330
1F
100
AcDbEntity
  8
0
  6
Continuous
 62
     8
370
    25
100
AcDbLine
 10
1494.2906104724
 20
6361.005950148
 30
0.0
 11
1494.2906104724
 21
6359.005950148
 31
0.0
  0
LINE
  5
399
330
1F
100
AcDbEntity
  8
0
  6
Continuous
 62
     8
370
    25
100
AcDbLine
 10
806.2906104724
 20
6361.005950148
 30
0.0
 11
806.2906104724
 21
6359.005950148
 31
0.0
  0
LINE
  5
39A
330
1F
100
AcDbEntity
  8
0
  6
Continuous
 62
     8
370
    25
100
AcDbLine
 10
1200.2906104724
 20
6353.805950148
 30
0.0
 11
1100.2906104724
 21
6353.805950148
 31
0.0
  0
ARC
  5
39B
330
1F
100
AcDbEntity
  8
0
  6
Continuous
 62
     8
370
    25
100
AcDbCircle
 10
1150.2906104724
 20
6414.787817334
 30
0.0
 40
50.00002874918699
100
AcDbArc
 50
0.0614419949
 51
179.9385580051
  0
LINE
  5
39C
330
1F
100
AcDbEntity
  8
0
  6
Continuous
 62
     8
370
    25
100
AcDbLine
 10
1490.2906104724
 20
6324.005950148
 30
0.0
 11
1486.2906104724
 21
6324.005950148
 31
0.0
  0
LINE
  5
39D
330
1F
100
AcDbEntity
  8
0
  6
Continuous
 62
     8
370
    25
100
AcDbLine
 10
1480.2906104724
 20
6324.005950148
 30
0.0
 11
1205.2906104724
 21
6324.005950148
 31
0.0
  0
LINE
  5
39E
330
1F
100
AcDbEntity
  8
0
  6
Continuous
 62
     8
370
    25
100
AcDbLine
 10
1095.2906104724
 20
6324.005950148
 30
0.0
 11
820.2906104724
 21
6324.005950148
 31
0.0
  0
LINE
  5
39F
330
1F
100
AcDbEntity
  8
0
  6
Continuous
 62
     8
370
    25
100
AcDbLine
 10
814.2906104724
 20
6324.005950148
 30
0.0
 11
810.2906104724
 21
6324.005950148
 31
0.0
  0
ENDSEC
  0
SECTION
  2
OBJECTS
  0
DICTIONARY
  5
C
330
0
100
AcDbDictionary
281
     1
  3
ACAD_GROUP
350
D
  3
ACAD_LAYOUT
350
1A
  3
ACAD_MLINESTYLE
350
17
  3
ACAD_PLOTSETTINGS
350
19
  3
ACAD_PLOTSTYLENAME
350
E
  3
ACAD_SCALELIST
350
47
  3
DWGPROPS
350
3A0
  0
DICTIONARY
  5
D
102
{ACAD_REACTORS
330
C
102
}
330
C
100
AcDbDictionary
281
     1
  0
DICTIONARY
  5
1A
102
{ACAD_REACTORS
330
C
102
}
330
C
100
AcDbDictionary
281
     1
  3
Layout1
350
1E
  3
Layout2
350
26
  3
Model
350
22
  0
DICTIONARY
  5
17
102
{ACAD_REACTORS
330
C
102
}
330
C
100
AcDbDictionary
281
     1
  3
Standard
350
18
  0
DICTIONARY
  5
19
102
{ACAD_REACTORS
330
C
102
}
330
C
100
AcDbDictionary
281
     1
  0
ACDBDICTIONARYWDFLT
  5
E
102
{ACAD_REACTORS
330
C
102
}
330
C
100
AcDbDictionary
281
     1
  3
Normal
350
F
100
AcDbDictionaryWithDefault
340
F
  0
DICTIONARY
  5
47
102
{ACAD_REACTORS
330
C
102
}
330
C
100
AcDbDictionary
281
     1
  3
A0
350
48
  3
A1
350
49
  3
A2
350
4A
  3
A3
350
4B
  3
A4
350
4C
  3
A5
350
4D
  3
A6
350
4E
  3
A7
350
4F
  3
A8
350
50
  3
A9
350
51
  3
B0
350
52
  3
B1
350
53
  3
B2
350
54
  3
B3
350
55
  3
B4
350
56
  3
B5
350
57
  3
B6
350
58
  3
B7
350
59
  3
B8
350
5A
  3
B9
350
5B
  3
C0
350
5C
  3
C1
350
5D
  3
C2
350
5E
  3
C3
350
5F
  3
C4
350
60
  3
C5
350
61
  3
C6
350
62
  3
C7
350
63
  3
C8
350
64
  3
C9
350
65
  3
D0
350
66
  3
D1
350
67
  3
D2
350
68
  0
XRECORD
  5
3A0
102
{ACAD_REACTORS
330
C
102
}
330
C
100
AcDbXrecord
280
     1
  1
DWGPROPS COOKIE
  2

  3

  4

  6

  7

  8
radek.stransky
  9

300
=
301
=
302
=
303
=
304
=
305
=
306
=
307
=
308
=
309
=
 40
0.0
 41
2459095.358557685
 42
2459095.358558032
  1

 90
        0
  0
LAYOUT
  5
1E
102
{ACAD_REACTORS
330
1A
102
}
330
1A
100
AcDbPlotSettings
  1

  2
none_device
  4

  6

 40
0.0
 41
0.0
 42
0.0
 43
0.0
 44
0.0
 45
0.0
 46
0.0
 47
0.0
 48
0.0
 49
0.0
140
0.0
141
0.0
142
1.0
143
1.0
 70
   688
 72
     1
 73
     0
 74
     5
  7

 75
    16
147
1.0
148
0.0
149
0.0
100
AcDbLayout
  1
Layout1
 70
     1
 71
     1
 10
0.0
 20
0.0
 11
420.0
 21
297.0
 12
0.0
 22
0.0
 32
0.0
 14
1.0000000000E+20
 24
1.0000000000E+20
 34
1.0000000000E+20
 15
-1.0000000000E+20
 25
-1.0000000000E+20
 35
-1.0000000000E+20
146
0.0
 13
0.0
 23
0.0
 33
0.0
 16
1.0
 26
0.0
 36
0.0
 17
0.0
 27
1.0
 37
0.0
 76
     0
330
1B
  0
LAYOUT
  5
26
102
{ACAD_REACTORS
330
1A
102
}
330
1A
100
AcDbPlotSettings
  1

  2
none_device
  4

  6

 40
0.0
 41
0.0
 42
0.0
 43
0.0
 44
0.0
 45
0.0
 46
0.0
 47
0.0
 48
0.0
 49
0.0
140
0.0
141
0.0
142
1.0
143
1.0
 70
   688
 72
     1
 73
     0
 74
     5
  7

 75
    16
147
1.0
148
0.0
149
0.0
100
AcDbLayout
  1
Layout2
 70
     1
 71
     2
 10
0.0
 20
0.0
 11
0.0
 21
0.0
 12
0.0
 22
0.0
 32
0.0
 14
0.0
 24
0.0
 34
0.0
 15
0.0
 25
0.0
 35
0.0
146
0.0
 13
0.0
 23
0.0
 33
0.0
 16
1.0
 26
0.0
 36
0.0
 17
0.0
 27
1.0
 37
0.0
 76
     0
330
23
  0
LAYOUT
  5
22
102
{ACAD_REACTORS
330
1A
102
}
330
1A
100
AcDbPlotSettings
  1

  2
none_device
  4
Letter_(8.50_x_11.00_Inches)
  6

 40
6.35
 41
6.35
 42
6.35000508
 43
6.35000508
 44
215.9
 45
279.4
 46
0.0
 47
0.0
 48
0.0
 49
0.0
140
0.0
141
0.0
142
1.0
143
1.0
 70
  1712
 72
     1
 73
     0
 74
     0
  7

 75
     0
147
1.0
148
0.0
149
0.0
100
AcDbLayout
  1
Model
 70
     1
 71
     0
 10
0.0
 20
0.0
 11
20000.0
 21
10000.0
 12
0.0
 22
0.0
 32
0.0
 14
0.0
 24
0.0
 34
0.0
 15
20000.0
 25
10000.0
 35
0.0
146
0.0
 13
0.0
 23
0.0
 33
0.0
 16
1.0
 26
0.0
 36
0.0
 17
0.0
 27
1.0
 37
0.0
 76
     0
330
1F
331
29
  0
MLINESTYLE
  5
18
102
{ACAD_REACTORS
330
17
102
}
330
17
100
AcDbMlineStyle
  2
Standard
 70
     0
  3

 62
   256
 51
90.0
 52
90.0
 71
     2
 49
0.5
 62
   256
  6
BYLAYER
 49
-0.5
 62
   256
  6
BYLAYER
  0
ACDBPLACEHOLDER
  5
F
102
{ACAD_REACTORS
330
E
102
}
330
E
  0
SCALE
  5
48
102
{ACAD_REACTORS
330
47
102
}
330
47
100
AcDbScale
 70
     0
300
1:1
140
1.0
141
1.0
290
     1
  0
SCALE
  5
49
102
{ACAD_REACTORS
330
47
102
}
330
47
100
AcDbScale
 70
     0
300
1:2
140
1.0
141
2.0
290
     0
  0
SCALE
  5
4A
102
{ACAD_REACTORS
330
47
102
}
330
47
100
AcDbScale
 70
     0
300
1:4
140
1.0
141
4.0
290
     0
  0
SCALE
  5
4B
102
{ACAD_REACTORS
330
47
102
}
330
47
100
AcDbScale
 70
     0
300
1:5
140
1.0
141
5.0
290
     0
  0
SCALE
  5
4C
102
{ACAD_REACTORS
330
47
102
}
330
47
100
AcDbScale
 70
     0
300
1:8
140
1.0
141
8.0
290
     0
  0
SCALE
  5
4D
102
{ACAD_REACTORS
330
47
102
}
330
47
100
AcDbScale
 70
     0
300
1:10
140
1.0
141
10.0
290
     0
  0
SCALE
  5
4E
102
{ACAD_REACTORS
330
47
102
}
330
47
100
AcDbScale
 70
     0
300
1:16
140
1.0
141
16.0
290
     0
  0
SCALE
  5
4F
102
{ACAD_REACTORS
330
47
102
}
330
47
100
AcDbScale
 70
     0
300
1:20
140
1.0
141
20.0
290
     0
  0
SCALE
  5
50
102
{ACAD_REACTORS
330
47
102
}
330
47
100
AcDbScale
 70
     0
300
1:30
140
1.0
141
30.0
290
     0
  0
SCALE
  5
51
102
{ACAD_REACTORS
330
47
102
}
330
47
100
AcDbScale
 70
     0
300
1:40
140
1.0
141
40.0
290
     0
  0
SCALE
  5
52
102
{ACAD_REACTORS
330
47
102
}
330
47
100
AcDbScale
 70
     0
300
1:50
140
1.0
141
50.0
290
     0
  0
SCALE
  5
53
102
{ACAD_REACTORS
330
47
102
}
330
47
100
AcDbScale
 70
     0
300
1:100
140
1.0
141
100.0
290
     0
  0
SCALE
  5
54
102
{ACAD_REACTORS
330
47
102
}
330
47
100
AcDbScale
 70
     0
300
2:1
140
2.0
141
1.0
290
     0
  0
SCALE
  5
55
102
{ACAD_REACTORS
330
47
102
}
330
47
100
AcDbScale
 70
     0
300
4:1
140
4.0
141
1.0
290
     0
  0
SCALE
  5
56
102
{ACAD_REACTORS
330
47
102
}
330
47
100
AcDbScale
 70
     0
300
8:1
140
8.0
141
1.0
290
     0
  0
SCALE
  5
57
102
{ACAD_REACTORS
330
47
102
}
330
47
100
AcDbScale
 70
     0
300
10:1
140
10.0
141
1.0
290
     0
  0
SCALE
  5
58
102
{ACAD_REACTORS
330
47
102
}
330
47
100
AcDbScale
 70
     0
300
100:1
140
100.0
141
1.0
290
     0
  0
SCALE
  5
59
102
{ACAD_REACTORS
330
47
102
}
330
47
100
AcDbScale
 70
     0
300
1/128" = 1'-0"
140
0.0078125
141
12.0
290
     0
  0
SCALE
  5
5A
102
{ACAD_REACTORS
330
47
102
}
330
47
100
AcDbScale
 70
     0
300
1/64" = 1'-0"
140
0.015625
141
12.0
290
     0
  0
SCALE
  5
5B
102
{ACAD_REACTORS
330
47
102
}
330
47
100
AcDbScale
 70
     0
300
1/32" = 1'-0"
140
0.03125
141
12.0
290
     0
  0
SCALE
  5
5C
102
{ACAD_REACTORS
330
47
102
}
330
47
100
AcDbScale
 70
     0
300
1/16" = 1'-0"
140
0.0625
141
12.0
290
     0
  0
SCALE
  5
5D
102
{ACAD_REACTORS
330
47
102
}
330
47
100
AcDbScale
 70
     0
300
3/32" = 1'-0"
140
0.09375
141
12.0
290
     0
  0
SCALE
  5
5E
102
{ACAD_REACTORS
330
47
102
}
330
47
100
AcDbScale
 70
     0
300
1/8" = 1'-0"
140
0.125
141
12.0
290
     0
  0
SCALE
  5
5F
102
{ACAD_REACTORS
330
47
102
}
330
47
100
AcDbScale
 70
     0
300
3/16" = 1'-0"
140
0.1875
141
12.0
290
     0
  0
SCALE
  5
60
102
{ACAD_REACTORS
330
47
102
}
330
47
100
AcDbScale
 70
     0
300
1/4" = 1'-0"
140
0.25
141
12.0
290
     0
  0
SCALE
  5
61
102
{ACAD_REACTORS
330
47
102
}
330
47
100
AcDbScale
 70
     0
300
3/8" = 1'-0"
140
0.375
141
12.0
290
     0
  0
SCALE
  5
62
102
{ACAD_REACTORS
330
47
102
}
330
47
100
AcDbScale
 70
     0
300
1/2" = 1'-0"
140
0.5
141
12.0
290
     0
  0
SCALE
  5
63
102
{ACAD_REACTORS
330
47
102
}
330
47
100
AcDbScale
 70
     0
300
3/4" = 1'-0"
140
0.75
141
12.0
290
     0
  0
SCALE
  5
64
102
{ACAD_REACTORS
330
47
102
}
330
47
100
AcDbScale
 70
     0
300
1" = 1'-0"
140
1.0
141
12.0
290
     0
  0
SCALE
  5
65
102
{ACAD_REACTORS
330
47
102
}
330
47
100
AcDbScale
 70
     0
300
1-1/2" = 1'-0"
140
1.5
141
12.0
290
     0
  0
SCALE
  5
66
102
{ACAD_REACTORS
330
47
102
}
330
47
100
AcDbScale
 70
     0
300
3" = 1'-0"
140
3.0
141
12.0
290
     0
  0
SCALE
  5
67
102
{ACAD_REACTORS
330
47
102
}
330
47
100
AcDbScale
 70
     0
300
6" = 1'-0"
140
6.0
141
12.0
290
     0
  0
SCALE
  5
68
102
{ACAD_REACTORS
330
47
102
}
330
47
100
AcDbScale
 70
     0
300
1'-0" = 1'-0"
140
12.0
141
12.0
290
     0
  0
ENDSEC
  0
EOF
