  0
SECTION
  2
HEADER
  9
$ACADVER
  1
AC1015
  9
$ACADMAINTVER
 70
     6
  9
$DWGCODEPAGE
  3
ANSI_1250
  9
$INSBASE
 10
0.0
 20
0.0
 30
0.0
  9
$EXTMIN
 10
0.0
 20
0.0
 30
0.0
  9
$EXTMAX
 10
20000.0
 20
10000.0
 30
0.0
  9
$LIMMIN
 10
0.0
 20
0.0
  9
$LIMMAX
 10
20000.0
 20
10000.0
  9
$ORTHOMODE
 70
     0
  9
$REGENMODE
 70
     1
  9
$FILLMODE
 70
     1
  9
$QTEXTMODE
 70
     0
  9
$MIRRTEXT
 70
     1
  9
$LTSCALE
 40
1.0
  9
$ATTMODE
 70
     1
  9
$TEXTSIZE
 40
2.0
  9
$TRACEWID
 40
1.0
  9
$TEXTSTYLE
  7
Standard
  9
$CLAYER
  8
0
  9
$CELTYPE
  6
ByLayer
  9
$CECOLOR
 62
   256
  9
$CELTSCALE
 40
1.0
  9
$DISPSILH
 70
     0
  9
$DIMSCALE
 40
1.0
  9
$DIMASZ
 40
2.0
  9
$DIMEXO
 40
1.0
  9
$DIMDLI
 40
3.75
  9
$DIMRND
 40
0.0
  9
$DIMDLE
 40
0.0
  9
$DIMEXE
 40
1.0
  9
$DIMTP
 40
0.0
  9
$DIMTM
 40
0.0
  9
$DIMTXT
 40
2.0
  9
$DIMCEN
 40
2.5
  9
$DIMTSZ
 40
0.0
  9
$DIMTOL
 70
     0
  9
$DIMLIM
 70
     0
  9
$DIMTIH
 70
     1
  9
$DIMTOH
 70
     1
  9
$DIMSE1
 70
     0
  9
$DIMSE2
 70
     0
  9
$DIMTAD
 70
     1
  9
$DIMZIN
 70
     0
  9
$DIMBLK
  1

  9
$DIMASO
 70
     1
  9
$DIMSHO
 70
     1
  9
$DIMPOST
  1

  9
$DIMAPOST
  1

  9
$DIMALT
 70
     0
  9
$DIMALTD
 70
     3
  9
$DIMALTF
 40
0.0393700787
  9
$DIMLFAC
 40
1.0
  9
$DIMTOFL
 70
     1
  9
$DIMTVP
 40
0.0
  9
$DIMTIX
 70
     0
  9
$DIMSOXD
 70
     0
  9
$DIMSAH
 70
     0
  9
$DIMBLK1
  1

  9
$DIMBLK2
  1

  9
$DIMSTYLE
  2
ISO-25
  9
$DIMCLRD
 70
     0
  9
$DIMCLRE
 70
     0
  9
$DIMCLRT
 70
     0
  9
$DIMTFAC
 40
1.0
  9
$DIMGAP
 40
1.524
  9
$DIMJUST
 70
     0
  9
$DIMSD1
 70
     0
  9
$DIMSD2
 70
     0
  9
$DIMTOLJ
 70
     0
  9
$DIMTZIN
 70
     0
  9
$DIMALTZ
 70
     0
  9
$DIMALTTZ
 70
     0
  9
$DIMUPT
 70
     0
  9
$DIMDEC
 70
     2
  9
$DIMTDEC
 70
     0
  9
$DIMALTU
 70
     2
  9
$DIMALTTD
 70
     3
  9
$DIMTXSTY
  7
Standard
  9
$DIMAUNIT
 70
     0
  9
$DIMADEC
 70
     2
  9
$DIMALTRND
 40
0.0
  9
$DIMAZIN
 70
     0
  9
$DIMDSEP
 70
    44
  9
$DIMATFIT
 70
     3
  9
$DIMFRAC
 70
     0
  9
$DIMLDRBLK
  1

  9
$DIMLUNIT
 70
     2
  9
$DIMLWD
 70
    -2
  9
$DIMLWE
 70
    -2
  9
$DIMTMOVE
 70
     0
  9
$LUNITS
 70
     2
  9
$LUPREC
 70
     3
  9
$SKETCHINC
 40
1.0
  9
$FILLETRAD
 40
10.0
  9
$AUNITS
 70
     0
  9
$AUPREC
 70
     2
  9
$MENU
  1
.
  9
$ELEVATION
 40
0.0
  9
$PELEVATION
 40
0.0
  9
$THICKNESS
 40
0.0
  9
$LIMCHECK
 70
     0
  9
$CHAMFERA
 40
0.0
  9
$CHAMFERB
 40
0.0
  9
$CHAMFERC
 40
0.0
  9
$CHAMFERD
 40
0.0
  9
$SKPOLY
 70
     0
  9
$TDCREATE
 40
2458695.633749051
  9
$TDUCREATE
 40
2458695.550415718
  9
$TDUPDATE
 40
2458695.633751018
  9
$TDUUPDATE
 40
2458695.550417685
  9
$TDINDWG
 40
0.0000000116
  9
$TDUSRTIMER
 40
0.0000000116
  9
$USRTIMER
 70
     1
  9
$ANGBASE
 50
0.0
  9
$ANGDIR
 70
     0
  9
$PDMODE
 70
     0
  9
$PDSIZE
 40
-1.0
  9
$PLINEWID
 40
0.0
  9
$SPLFRAME
 70
     0
  9
$SPLINETYPE
 70
     6
  9
$SPLINESEGS
 70
     8
  9
$HANDSEED
  5
250
  9
$SURFTAB1
 70
     6
  9
$SURFTAB2
 70
     6
  9
$SURFTYPE
 70
     6
  9
$SURFU
 70
     6
  9
$SURFV
 70
     6
  9
$UCSBASE
  2

  9
$UCSNAME
  2

  9
$UCSORG
 10
0.0
 20
0.0
 30
0.0
  9
$UCSXDIR
 10
1.0
 20
0.0
 30
0.0
  9
$UCSYDIR
 10
0.0
 20
1.0
 30
0.0
  9
$UCSORTHOREF
  2

  9
$UCSORTHOVIEW
 70
     0
  9
$UCSORGTOP
 10
0.0
 20
0.0
 30
0.0
  9
$UCSORGBOTTOM
 10
0.0
 20
0.0
 30
0.0
  9
$UCSORGLEFT
 10
0.0
 20
0.0
 30
0.0
  9
$UCSORGRIGHT
 10
0.0
 20
0.0
 30
0.0
  9
$UCSORGFRONT
 10
0.0
 20
0.0
 30
0.0
  9
$UCSORGBACK
 10
0.0
 20
0.0
 30
0.0
  9
$PUCSBASE
  2

  9
$PUCSNAME
  2

  9
$PUCSORG
 10
0.0
 20
0.0
 30
0.0
  9
$PUCSXDIR
 10
1.0
 20
0.0
 30
0.0
  9
$PUCSYDIR
 10
0.0
 20
1.0
 30
0.0
  9
$PUCSORTHOREF
  2

  9
$PUCSORTHOVIEW
 70
     0
  9
$PUCSORGTOP
 10
0.0
 20
0.0
 30
0.0
  9
$PUCSORGBOTTOM
 10
0.0
 20
0.0
 30
0.0
  9
$PUCSORGLEFT
 10
0.0
 20
0.0
 30
0.0
  9
$PUCSORGRIGHT
 10
0.0
 20
0.0
 30
0.0
  9
$PUCSORGFRONT
 10
0.0
 20
0.0
 30
0.0
  9
$PUCSORGBACK
 10
0.0
 20
0.0
 30
0.0
  9
$USERI1
 70
     0
  9
$USERI2
 70
     0
  9
$USERI3
 70
     0
  9
$USERI4
 70
     0
  9
$USERI5
 70
     0
  9
$USERR1
 40
0.0
  9
$USERR2
 40
0.0
  9
$USERR3
 40
0.0
  9
$USERR4
 40
0.0
  9
$USERR5
 40
0.0
  9
$WORLDVIEW
 70
     1
  9
$SHADEDGE
 70
     3
  9
$SHADEDIF
 70
    70
  9
$TILEMODE
 70
     1
  9
$MAXACTVP
 70
    64
  9
$PINSBASE
 10
0.0
 20
0.0
 30
0.0
  9
$PLIMCHECK
 70
     0
  9
$PEXTMIN
 10
1.0000000000E+20
 20
1.0000000000E+20
 30
1.0000000000E+20
  9
$PEXTMAX
 10
-1.0000000000E+20
 20
-1.0000000000E+20
 30
-1.0000000000E+20
  9
$PLIMMIN
 10
0.0
 20
0.0
  9
$PLIMMAX
 10
420.0
 20
297.0
  9
$UNITMODE
 70
     0
  9
$VISRETAIN
 70
     1
  9
$PLINEGEN
 70
     0
  9
$PSLTSCALE
 70
     1
  9
$TREEDEPTH
 70
  3020
  9
$CMLSTYLE
  2
Standard
  9
$CMLJUST
 70
     0
  9
$CMLSCALE
 40
20.0
  9
$PROXYGRAPHICS
 70
     1
  9
$MEASUREMENT
 70
     1
  9
$CELWEIGHT
370
    -1
  9
$ENDCAPS
280
     0
  9
$JOINSTYLE
280
     0
  9
$LWDISPLAY
290
     1
  9
$INSUNITS
 70
     4
  9
$HYPERLINKBASE
  1

  9
$STYLESHEET
  1

  9
$XEDIT
290
     1
  9
$CEPSNTYPE
380
     0
  9
$PSTYLEMODE
290
     1
  9
$FINGERPRINTGUID
  2
{B6BDFE29-2B95-406F-A4D1-51C6E675F421}
  9
$VERSIONGUID
  2
{FAEB1C32-E019-11D5-929B-00C0DF256EC4}
  9
$EXTNAMES
290
     1
  9
$PSVPSCALE
 40
0.0
  9
$OLESTARTUP
290
     0
  0
ENDSEC
  0
SECTION
  2
CLASSES
  0
CLASS
  1
ACDBDICTIONARYWDFLT
  2
AcDbDictionaryWithDefault
  3
ObjectDBX Classes
 90
        0
280
     0
281
     0
  0
CLASS
  1
VISUALSTYLE
  2
AcDbVisualStyle
  3
ObjectDBX Classes
 90
     4095
280
     0
281
     0
  0
CLASS
  1
MATERIAL
  2
AcDbMaterial
  3
ObjectDBX Classes
 90
     1153
280
     0
281
     0
  0
CLASS
  1
SCALE
  2
AcDbScale
  3
ObjectDBX Classes
 90
     1153
280
     0
281
     0
  0
CLASS
  1
TABLESTYLE
  2
AcDbTableStyle
  3
ObjectDBX Classes
 90
     4095
280
     0
281
     0
  0
CLASS
  1
MLEADERSTYLE
  2
AcDbMLeaderStyle
  3
ACDB_MLEADERSTYLE_CLASS
 90
     4095
280
     0
281
     0
  0
CLASS
  1
SUN
  2
AcDbSun
  3
SCENEOE
 90
     1153
280
     0
281
     0
  0
CLASS
  1
ACDBPLACEHOLDER
  2
AcDbPlaceHolder
  3
ObjectDBX Classes
 90
        0
280
     0
281
     0
  0
CLASS
  1
LAYOUT
  2
AcDbLayout
  3
ObjectDBX Classes
 90
        0
280
     0
281
     0
  0
ENDSEC
  0
SECTION
  2
TABLES
  0
TABLE
  2
VPORT
  5
8
330
0
100
AcDbSymbolTable
 70
     1
  0
VPORT
  5
29
330
8
100
AcDbSymbolTableRecord
100
AcDbViewportTableRecord
  2
*Active
 70
     0
 10
0.0
 20
0.0
 11
1.0
 21
1.0
 12
10000.0
 22
5000.0
 13
0.0
 23
0.0
 14
10.0
 24
10.0
 15
10.0
 25
10.0
 16
0.0
 26
0.0
 36
1.0
 17
0.0
 27
0.0
 37
0.0
 40
10000.0
 41
2.0
 42
50.0
 43
0.0
 44
0.0
 50
0.0
 51
0.0
 71
     0
 72
  2000
 73
     1
 74
     3
 75
     0
 76
     0
 77
     0
 78
     0
281
     0
 65
     1
110
0.0
120
0.0
130
0.0
111
1.0
121
0.0
131
0.0
112
0.0
122
1.0
132
0.0
 79
     0
146
0.0
  0
ENDTAB
  0
TABLE
  2
LTYPE
  5
5
330
0
100
AcDbSymbolTable
 70
     6
  0
LTYPE
  5
14
330
5
100
AcDbSymbolTableRecord
100
AcDbLinetypeTableRecord
  2
ByBlock
 70
     0
  3

 72
    65
 73
     0
 40
0.0
  0
LTYPE
  5
15
330
5
100
AcDbSymbolTableRecord
100
AcDbLinetypeTableRecord
  2
ByLayer
 70
     0
  3

 72
    65
 73
     0
 40
0.0
  0
LTYPE
  5
16
330
5
100
AcDbSymbolTableRecord
100
AcDbLinetypeTableRecord
  2
Continuous
 70
     0
  3
Solid line
 72
    65
 73
     0
 40
0.0
  0
LTYPE
  5
6E
330
5
100
AcDbSymbolTableRecord
100
AcDbLinetypeTableRecord
  2
HIDDEN
 70
     0
  3
Hidden __ __ __ __ __ __ __ __ __ __ __ __ __ __
 72
    65
 73
     2
 40
1.905
 49
1.27
 74
     0
 49
-0.635
 74
     0
  0
LTYPE
  5
6F
330
5
100
AcDbSymbolTableRecord
100
AcDbLinetypeTableRecord
  2
PHANTOM
 70
     0
  3
Phantom ______  __  __  ______  __  __  ______
 72
    65
 73
     6
 40
12.7
 49
6.35
 74
     0
 49
-1.27
 74
     0
 49
1.27
 74
     0
 49
-1.27
 74
     0
 49
1.27
 74
     0
 49
-1.27
 74
     0
  0
LTYPE
  5
70
330
5
100
AcDbSymbolTableRecord
100
AcDbLinetypeTableRecord
  2
CENTER
 70
     0
  3
Center ____ _ ____ _ ____ _ ____ _ ____ _ ____
 72
    65
 73
     4
 40
10.16
 49
6.35
 74
     0
 49
-1.27
 74
     0
 49
1.27
 74
     0
 49
-1.27
 74
     0
  0
LTYPE
  5
71
330
5
100
AcDbSymbolTableRecord
100
AcDbLinetypeTableRecord
  2
CENTERX2
 70
     0
  3
Center (2x) ________  __  ________  __  _____
 72
    65
 73
     4
 40
20.32
 49
12.7
 74
     0
 49
-2.54
 74
     0
 49
2.54
 74
     0
 49
-2.54
 74
     0
  0
LTYPE
  5
72
330
5
100
AcDbSymbolTableRecord
100
AcDbLinetypeTableRecord
  2
DOT2
 70
     0
  3
Dot (.5x) ........................................
 72
    65
 73
     2
 40
0.635
 49
0.0
 74
     0
 49
-0.635
 74
     0
  0
ENDTAB
  0
TABLE
  2
LAYER
  5
2
330
0
100
AcDbSymbolTable
 70
    13
  0
LAYER
  5
10
330
2
100
AcDbSymbolTableRecord
100
AcDbLayerTableRecord
  2
0
 70
     0
 62
     7
  6
Continuous
370
    -3
390
F
  0
LAYER
  5
73
330
2
100
AcDbSymbolTableRecord
100
AcDbLayerTableRecord
  2
FORMAT
 70
     0
 62
     7
  6
Continuous
370
    -3
390
F
  0
LAYER
  5
74
330
2
100
AcDbSymbolTableRecord
100
AcDbLayerTableRecord
  2
OSA
 70
     0
 62
     7
  6
CENTER
370
    -3
390
F
  0
LAYER
  5
75
330
2
100
AcDbSymbolTableRecord
100
AcDbLayerTableRecord
  2
0_35
 70
     0
 62
     7
  6
Continuous
370
    35
390
F
  0
LAYER
  5
76
330
2
100
AcDbSymbolTableRecord
100
AcDbLayerTableRecord
  2
0_5
 70
     0
 62
     7
  6
Continuous
370
    50
390
F
  0
LAYER
  5
77
330
2
100
AcDbSymbolTableRecord
100
AcDbLayerTableRecord
  2
0_25
 70
     0
 62
     7
  6
Continuous
370
    25
390
F
  0
LAYER
  5
78
330
2
100
AcDbSymbolTableRecord
100
AcDbLayerTableRecord
  2
0_18
 70
     0
 62
     7
  6
Continuous
370
    -3
390
F
  0
LAYER
  5
79
330
2
100
AcDbSymbolTableRecord
100
AcDbLayerTableRecord
  2
SLD-0
 70
     0
 62
   179
  6
Continuous
370
    -3
390
F
  0
LAYER
  5
7A
330
2
100
AcDbSymbolTableRecord
100
AcDbLayerTableRecord
  2
KOTY
 70
     0
 62
     7
  6
Continuous
370
    -3
390
F
  0
LAYER
  5
7B
330
2
100
AcDbSymbolTableRecord
100
AcDbLayerTableRecord
  2
SILNA
 70
     0
 62
   179
  6
Continuous
370
    -3
390
F
  0
LAYER
  5
7C
330
2
100
AcDbSymbolTableRecord
100
AcDbLayerTableRecord
  2
0_18_1
 70
     0
 62
   179
  6
Continuous
370
    -3
390
F
  0
LAYER
  5
7D
330
2
100
AcDbSymbolTableRecord
100
AcDbLayerTableRecord
  2
0_35_1
 70
     0
 62
   179
  6
Continuous
370
    35
390
F
  0
LAYER
  5
7E
330
2
100
AcDbSymbolTableRecord
100
AcDbLayerTableRecord
  2
0_5_1
 70
     0
 62
   179
  6
Continuous
370
    50
390
F
  0
ENDTAB
  0
TABLE
  2
STYLE
  5
3
330
0
100
AcDbSymbolTable
 70
     1
  0
STYLE
  5
11
330
3
100
AcDbSymbolTableRecord
100
AcDbTextStyleTableRecord
  2
Standard
 70
     0
 40
0.0
 41
1.0
 50
0.0
 71
     0
 42
2.0
  3
txt
  4

  0
ENDTAB
  0
TABLE
  2
VIEW
  5
6
330
0
100
AcDbSymbolTable
 70
     0
  0
ENDTAB
  0
TABLE
  2
UCS
  5
7
330
0
100
AcDbSymbolTable
 70
     0
  0
ENDTAB
  0
TABLE
  2
APPID
  5
9
330
0
100
AcDbSymbolTable
 70
     1
  0
APPID
  5
12
330
9
100
AcDbSymbolTableRecord
100
AcDbRegAppTableRecord
  2
ACAD
 70
     0
  0
ENDTAB
  0
TABLE
  2
DIMSTYLE
  5
A
330
0
100
AcDbSymbolTable
 70
     1
100
AcDbDimStyleTable
  0
DIMSTYLE
105
27
330
A
100
AcDbSymbolTableRecord
100
AcDbDimStyleTableRecord
  2
ISO-25
 70
     0
 41
2.5
 42
0.625
 43
3.75
 44
1.25
 73
     0
 74
     0
 77
     1
 78
     8
140
2.5
141
2.5
143
0.0393700787
147
0.625
171
     3
172
     1
178
     0
271
     2
272
     2
274
     3
278
    44
283
     0
284
     8
340
11
  0
ENDTAB
  0
TABLE
  2
BLOCK_RECORD
  5
1
330
0
100
AcDbSymbolTable
 70
     1
  0
BLOCK_RECORD
  5
1F
330
1
100
AcDbSymbolTableRecord
100
AcDbBlockTableRecord
  2
*Model_Space
340
22
  0
BLOCK_RECORD
  5
1B
330
1
100
AcDbSymbolTableRecord
100
AcDbBlockTableRecord
  2
*Paper_Space
340
1E
  0
BLOCK_RECORD
  5
23
330
1
100
AcDbSymbolTableRecord
100
AcDbBlockTableRecord
  2
*Paper_Space0
340
26
  0
ENDTAB
  0
ENDSEC
  0
SECTION
  2
BLOCKS
  0
BLOCK
  5
20
330
1F
100
AcDbEntity
  8
0
100
AcDbBlockBegin
  2
*Model_Space
 70
     0
 10
0.0
 20
0.0
 30
0.0
  3
*Model_Space
  1

  0
ENDBLK
  5
21
330
1F
100
AcDbEntity
  8
0
100
AcDbBlockEnd
  0
BLOCK
  5
1C
330
1B
100
AcDbEntity
 67
     1
  8
0
100
AcDbBlockBegin
  2
*Paper_Space
 70
     0
 10
0.0
 20
0.0
 30
0.0
  3
*Paper_Space
  1

  0
ENDBLK
  5
1D
330
1B
100
AcDbEntity
 67
     1
  8
0
100
AcDbBlockEnd
  0
BLOCK
  5
24
330
23
100
AcDbEntity
  8
0
100
AcDbBlockBegin
  2
*Paper_Space0
 70
     0
 10
0.0
 20
0.0
 30
0.0
  3
*Paper_Space0
  1

  0
ENDBLK
  5
25
330
23
100
AcDbEntity
  8
0
100
AcDbBlockEnd
  0
ENDSEC
  0
SECTION
  2
ENTITIES
  0
LINE
  5
7F
330
1F
100
AcDbEntity
  8
0
  6
Continuous
 62
     7
370
    25
100
AcDbLine
 10
6215.5187517608
 20
5237.6773978705
 30
0.0
 11
6215.5187517608
 21
5232.177394175
 31
0.0
  0
LINE
  5
80
330
1F
100
AcDbEntity
  8
0
  6
Continuous
 62
     7
370
    25
100
AcDbLine
 10
6332.5187579
 20
5232.177394175
 30
0.0
 11
6332.5187579
 21
5237.6773978705
 31
0.0
  0
SPLINE
  5
81
330
1F
100
AcDbEntity
  8
0
  6
Continuous
 62
     7
370
    25
100
AcDbSpline
210
0.0
220
0.0
230
1.0
 70
     8
 71
     3
 72
    31
 73
    27
 74
     0
 42
0.000000001
 43
0.00000001
 40
0.0
 40
0.0
 40
0.0
 40
0.0
 40
0.0179249427252663
 40
0.0396314610075361
 40
0.0653130434220596
 40
0.095070483083193
 40
0.1289228396220017
 40
0.1670566911379922
 40
0.2095255861403783
 40
0.2545368368940761
 40
0.3211385051513548
 40
0.3800790334238672
 40
0.4314124798022539
 40
0.4750273535872626
 40
0.5122087418668273
 40
0.5624106591744706
 40
0.6188477597518687
 40
0.6755153936293761
 40
0.7317866171500458
 40
0.7862183220492461
 40
0.8146873347892192
 40
0.8464806209488785
 40
0.881375676997484
 40
0.9189838612800515
 40
0.9587544608508601
 40
1.0
 40
1.0
 40
1.0
 40
1.0
 10
6274.016515930933
 20
5178.17703142116
 30
0.0
 10
6274.460121052136
 20
5178.250265333721
 30
0.0
 10
6275.440917439224
 20
5178.412183114692
 30
0.0
 10
6277.151094080467
 20
5178.701361548187
 30
0.0
 10
6279.195375876024
 20
5179.045693634005
 30
0.0
 10
6281.576918843502
 20
5179.445123872137
 30
0.0
 10
6284.27331526171
 20
5179.892748275942
 30
0.0
 10
6287.254043062566
 20
5180.391828784831
 30
0.0
 10
6290.426915790465
 20
5180.933759491482
 30
0.0
 10
6294.149165544428
 20
5181.582380698372
 30
0.0
 10
6298.055668976064
 20
5182.315767957837
 30
0.0
 10
6301.804773237031
 20
5183.08330132216
 30
0.0
 10
6304.832103810335
 20
5183.772233430564
 30
0.0
 10
6307.272261086477
 20
5184.39138084049
 30
0.0
 10
6309.620162433836
 20
5185.046097251976
 30
0.0
 10
6312.260443037926
 20
5185.891409942034
 30
0.0
 10
6315.129563213858
 20
5187.003872665647
 30
0.0
 10
6318.207835758089
 20
5188.521920214102
 30
0.0
 10
6321.254069142656
 20
5190.525637704061
 30
0.0
 10
6323.745285022581
 20
5192.777390747807
 30
0.0
 10
6325.607471292828
 20
5194.997216960044
 30
0.0
 10
6326.963810570881
 20
5196.994346843457
 30
0.0
 10
6328.20148268891
 20
5199.35493405898
 30
0.0
 10
6329.197327457486
 20
5202.053467284076
 30
0.0
 10
6329.884396125083
 20
5205.030879942578
 30
0.0
 10
6329.973431917377
 20
5207.11536731922
 30
0.0
 10
6330.018760284227
 20
5208.176585578417
 30
0.0
  0
LINE
  5
82
330
1F
100
AcDbEntity
  8
0
  6
Continuous
 62
     7
370
    25
100
AcDbLine
 10
6218.0187568272
 20
5232.177394175
 30
0.0
 11
6218.0187568272
 21
5218.1774105067
 31
0.0
  0
LINE
  5
83
330
1F
100
AcDbEntity
  8
0
  6
Continuous
 62
     7
370
    25
100
AcDbLine
 10
6330.0187602842
 20
5208.177658462
 30
0.0
 11
6330.0187602842
 21
5232.177394175
 31
0.0
  0
ARC
  5
84
330
1F
100
AcDbEntity
  8
0
  6
Continuous
 62
     7
370
    25
100
AcDbCircle
 10
6219.5187553361
 20
5237.6773974624
 30
0.0
 40
1.000000000000909
100
AcDbArc
 50
90.0
 51
180.0
  0
ARC
  5
85
330
1F
100
AcDbEntity
  8
0
  6
Continuous
 62
     7
370
    25
100
AcDbCircle
 10
6328.5187553361
 20
5237.6773974624
 30
0.0
 40
1.000000000000909
100
AcDbArc
 50
0.0
 51
90.0
  0
LINE
  5
86
330
1F
100
AcDbEntity
  8
0
  6
Continuous
 62
     7
370
    25
100
AcDbLine
 10
6328.5187497938
 20
5238.6773998971
 30
0.0
 11
6219.5187524164
 21
5238.6773998971
 31
0.0
  0
LINE
  5
87
330
1F
100
AcDbEntity
  8
0
  6
Continuous
 62
     7
370
    25
100
AcDbLine
 10
6221.4819953049
 20
5245.9179337258
 30
0.0
 11
6222.5187584961
 21
5245.177390718
 31
0.0
  0
LINE
  5
88
330
1F
100
AcDbEntity
  8
0
  6
Continuous
 62
     7
370
    25
100
AcDbLine
 10
6325.5187586153
 20
5245.177390718
 30
0.0
 11
6326.5555069054
 21
5245.9179337258
 31
0.0
  0
LINE
  5
89
330
1F
100
AcDbEntity
  8
0
  6
Continuous
 62
     7
370
    25
100
AcDbLine
 10
6223.8187581504
 20
5241.4273942942
 30
0.0
 11
6223.8187581504
 21
5238.6773998971
 31
0.0
  0
LINE
  5
8A
330
1F
100
AcDbEntity
  8
0
  6
Continuous
 62
     7
370
    25
100
AcDbLine
 10
6324.2187515104
 20
5238.6773998971
 30
0.0
 11
6324.2187515104
 21
5241.4273942942
 31
0.0
  0
LINE
  5
8B
330
1F
100
AcDbEntity
  8
0
  6
Continuous
 62
     7
370
    25
100
AcDbLine
 10
6225.8187547529
 20
5244.654076838
 30
0.0
 11
6225.8187547529
 21
5241.4273942942
 31
0.0
  0
LINE
  5
8C
330
1F
100
AcDbEntity
  8
0
  6
Continuous
 62
     7
370
    25
100
AcDbLine
 10
6322.2187623585
 20
5241.4273942942
 30
0.0
 11
6322.2187623585
 21
5244.654076838
 31
0.0
  0
LINE
  5
8D
330
1F
100
AcDbEntity
  8
0
  6
Continuous
 62
     7
370
    25
100
AcDbLine
 10
6309.01876243
 20
5169.1773857112
 30
0.0
 11
6309.01876243
 21
5184.8896171088
 31
0.0
  0
ARC
  5
8E
330
1F
100
AcDbEntity
  8
0
  6
Continuous
 62
     7
370
    25
100
AcDbCircle
 10
6249.5187553361
 20
5169.1773974624
 30
0.0
 40
10.5
100
AcDbArc
 50
180.0
 51
270.0
  0
ARC
  5
8F
330
1F
100
AcDbEntity
  8
0
  6
Continuous
 62
     7
370
    25
100
AcDbCircle
 10
6298.5187553361
 20
5169.1773974624
 30
0.0
 40
10.49999999999909
100
AcDbArc
 50
270.0
 51
0.0
  0
LINE
  5
90
330
1F
100
AcDbEntity
  8
0
  6
Continuous
 62
     7
370
    25
100
AcDbLine
 10
6309.01876243
 20
5169.1773857112
 30
0.0
 11
6309.01876243
 21
5184.8896171088
 31
0.0
  0
ARC
  5
91
330
1F
100
AcDbEntity
  8
0
  6
Continuous
 62
     7
370
    25
100
AcDbCircle
 10
6213.5187553361
 20
5250.3218546303
 30
0.0
 40
2.0
100
AcDbArc
 50
180.0
 51
253.7523684272
  0
ARC
  5
92
330
1F
100
AcDbEntity
  8
0
  6
Continuous
 62
     7
370
    25
100
AcDbCircle
 10
6334.5187553361
 20
5250.3218546303
 30
0.0
 40
2.0
100
AcDbArc
 50
286.2476315728
 51
0.0
  0
LINE
  5
93
330
1F
100
AcDbEntity
  8
0
  6
Continuous
 62
     7
370
    25
100
AcDbLine
 10
6211.5187585557
 20
5251.7215187783
 30
0.0
 11
6211.5187585557
 21
5250.3218527074
 31
0.0
  0
LINE
  5
94
330
1F
100
AcDbEntity
  8
0
  6
Continuous
 62
     7
370
    25
100
AcDbLine
 10
6336.5187511051
 20
5250.3218527074
 30
0.0
 11
6336.5187511051
 21
5251.7215187783
 31
0.0
  0
LINE
  5
95
330
1F
100
AcDbEntity
  8
0
  6
Continuous
 62
     7
370
    25
100
AcDbLine
 10
6212.9591793025
 20
5248.4017337794
 30
0.0
 11
6221.4819953049
 21
5245.9179337258
 31
0.0
  0
LINE
  5
96
330
1F
100
AcDbEntity
  8
0
  6
Continuous
 62
     7
370
    25
100
AcDbLine
 10
6224.0230679715
 20
5245.177390718
 30
0.0
 11
6225.8187547529
 21
5244.654076838
 31
0.0
  0
LINE
  5
97
330
1F
100
AcDbEntity
  8
0
  6
Continuous
 62
     7
370
    25
100
AcDbLine
 10
6322.2187623585
 20
5244.654076838
 30
0.0
 11
6324.0144416893
 21
5245.177390718
 31
0.0
  0
LINE
  5
98
330
1F
100
AcDbEntity
  8
0
  6
Continuous
 62
     7
370
    25
100
AcDbLine
 10
6326.5555069054
 20
5245.9179337258
 30
0.0
 11
6335.0783303583
 21
5248.4017337794
 31
0.0
  0
LINE
  5
99
330
1F
100
AcDbEntity
  8
0
  6
Continuous
 62
     7
370
    25
100
AcDbLine
 10
6215.5187517608
 20
5232.177394175
 30
0.0
 11
6332.5187579
 21
5232.177394175
 31
0.0
  0
LINE
  5
9A
330
1F
100
AcDbEntity
  8
0
  6
Continuous
 62
     7
370
    25
100
AcDbLine
 10
6215.5187517608
 20
5237.6773978705
 30
0.0
 11
6332.5187579
 21
5237.6773978705
 31
0.0
  0
SPLINE
  5
9B
330
1F
100
AcDbEntity
  8
0
  6
Continuous
 62
     7
370
    25
100
AcDbSpline
210
0.0
220
0.0
230
1.0
 70
     8
 71
     3
 72
    15
 73
    11
 74
     0
 42
0.000000001
 43
0.00000001
 40
0.0
 40
0.0
 40
0.0
 40
0.0
 40
0.1250292343974269
 40
0.24998464190914
 40
0.3749404679732465
 40
0.4999897559538463
 40
0.6250393292485463
 40
0.7499948598382916
 40
0.8749504819643158
 40
1.0
 40
1.0
 40
1.0
 40
1.0
 10
6274.017648419183
 20
5178.177210235094
 30
0.0
 10
6271.726486356978
 20
5177.801739231024
 30
0.0
 10
6267.14551511104
 20
5177.051018929871
 30
0.0
 10
6260.538640147965
 20
5175.927397650495
 30
0.0
 10
6254.44871183644
 20
5174.80374154643
 30
0.0
 10
6249.111544810882
 20
5173.677374231147
 30
0.0
 10
6244.72499348989
 20
5172.551081537506
 30
0.0
 10
6241.490858569603
 20
5171.427397839738
 30
0.0
 10
6239.409680939232
 20
5170.303734309037
 30
0.0
 10
6239.149096057139
 20
5169.552929238558
 30
0.0
 10
6239.01875468139
 20
5169.177385711168
 30
0.0
  0
ARC
  5
9C
330
1F
100
AcDbEntity
  8
0
  6
Continuous
 62
     7
370
    25
100
AcDbCircle
 10
6239.0187553361
 20
5190.1773974624
 30
0.0
 40
21.00000000000091
100
AcDbArc
 50
180.0
 51
270.0
  0
LINE
  5
9D
330
1F
100
AcDbEntity
  8
0
  6
Continuous
 62
     7
370
    25
100
AcDbLine
 10
6218.0187568272
 20
5190.1773835654
 30
0.0
 11
6218.0187568272
 21
5218.1774105067
 31
0.0
  0
LINE
  5
9E
330
1F
100
AcDbEntity
  8
0
  6
Continuous
 62
     7
370
    25
100
AcDbLine
 10
6222.5187584961
 20
5245.177390718
 30
0.0
 11
6325.5187586153
 21
5245.177390718
 31
0.0
  0
LINE
  5
9F
330
1F
100
AcDbEntity
  8
0
  6
Continuous
 62
     7
370
    25
100
AcDbLine
 10
6223.8187581504
 20
5241.4273942942
 30
0.0
 11
6324.2187515104
 21
5241.4273942942
 31
0.0
  0
LINE
  5
A0
330
1F
100
AcDbEntity
  8
0
  6
Continuous
 62
     7
370
    25
100
AcDbLine
 10
6298.5187486017
 20
5158.6774016852
 30
0.0
 11
6249.5187536085
 21
5158.6774016852
 31
0.0
  0
ARC
  5
A1
330
1F
100
AcDbEntity
  8
0
  6
Continuous
 62
     7
370
    25
100
AcDbCircle
 10
6239.0187553361
 20
5190.1773974624
 30
0.0
 40
26.00000000000063
100
AcDbArc
 50
143.8710725281
 51
180.0
  0
ARC
  5
A2
330
1F
100
AcDbEntity
  8
0
  6
Continuous
 62
     7
370
    25
100
AcDbCircle
 10
6239.0187553361
 20
5190.1773974624
 30
0.0
 40
26.0
100
AcDbArc
 50
180.0
 51
272.7571491987
  0
ARC
  5
A3
330
1F
100
AcDbEntity
  8
0
  6
Continuous
 62
     7
370
    25
100
AcDbCircle
 10
6239.0187553361
 20
5190.1773974624
 30
0.0
 40
27.50000000000055
100
AcDbArc
 50
139.7858289826
 51
180.0
  0
ARC
  5
A4
330
1F
100
AcDbEntity
  8
0
  6
Continuous
 62
     7
370
    25
100
AcDbCircle
 10
6239.0187553361
 20
5190.1773974624
 30
0.0
 40
27.5
100
AcDbArc
 50
180.0
 51
274.5591726356
  0
ARC
  5
A5
330
1F
100
AcDbEntity
  8
0
  6
Continuous
 62
     7
370
    25
100
AcDbCircle
 10
6239.0187553361
 20
5190.1773974624
 30
0.0
 40
25.73343695638539
100
AcDbArc
 50
144.6921974802
 51
180.0
  0
ARC
  5
A6
330
1F
100
AcDbEntity
  8
0
  6
Continuous
 62
     7
370
    25
100
AcDbCircle
 10
6239.0187553361
 20
5190.1773974624
 30
0.0
 40
25.73343695638533
100
AcDbArc
 50
180.0
 51
272.4839701203
  0
ARC
  5
A7
330
1F
100
AcDbEntity
  8
0
  6
Continuous
 62
     7
370
    25
100
AcDbCircle
 10
6239.0187553361
 20
5190.1773974624
 30
0.0
 40
28.00000000000012
100
AcDbArc
 50
138.5903778907
 51
180.0
  0
ARC
  5
A8
330
1F
100
AcDbEntity
  8
0
  6
Continuous
 62
     7
370
    25
100
AcDbCircle
 10
6239.0187553361
 20
5190.1773974624
 30
0.0
 40
28.0
100
AcDbArc
 50
180.0
 51
275.2656447308
  0
LINE
  5
A9
330
1F
100
AcDbEntity
  8
0
  6
Continuous
 62
     7
370
    25
100
AcDbLine
 10
6309.01876243
 20
5169.1773857112
 30
0.0
 11
6239.0187546814
 21
5169.1773857112
 31
0.0
  0
LINE
  5
AA
330
1F
100
AcDbEntity
  8
0
  6
Continuous
 62
     7
370
    25
100
AcDbLine
 10
5827.0187691057
 20
5265.7215173478
 30
0.0
 11
5824.0187481249
 21
5265.7215173478
 31
0.0
  0
LINE
  5
AB
330
1F
100
AcDbEntity
  8
0
  6
Continuous
 62
     7
370
    25
100
AcDbLine
 10
5827.0187691057
 20
5265.7215173478
 30
0.0
 11
5827.0187691057
 21
5258.721518063
 31
0.0
  0
LINE
  5
AC
330
1F
100
AcDbEntity
  8
0
  6
Continuous
 62
     7
370
    25
100
AcDbLine
 10
5824.0187481249
 20
5258.721518063
 30
0.0
 11
5827.0187691057
 21
5258.721518063
 31
0.0
  0
LINE
  5
AD
330
1F
100
AcDbEntity
  8
0
  6
Continuous
 62
     7
370
    25
100
AcDbLine
 10
5824.0187481249
 20
5258.721518063
 30
0.0
 11
5824.0187481249
 21
5265.7215173478
 31
0.0
  0
LINE
  5
AE
330
1F
100
AcDbEntity
  8
0
  6
Continuous
 62
     7
370
    25
100
AcDbLine
 10
5827.0187691057
 20
5268.7215085263
 30
0.0
 11
6721.0187331045
 21
5268.7215085263
 31
0.0
  0
LINE
  5
AF
330
1F
100
AcDbEntity
  8
0
  6
Continuous
 62
     7
370
    25
100
AcDbLine
 10
6721.0187331045
 20
5268.7215085263
 30
0.0
 11
6721.0187331045
 21
5265.7215173478
 31
0.0
  0
LINE
  5
B0
330
1F
100
AcDbEntity
  8
0
  6
Continuous
 62
     7
370
    25
100
AcDbLine
 10
6721.0187331045
 20
5265.7215173478
 30
0.0
 11
5827.0187691057
 21
5265.7215173478
 31
0.0
  0
LINE
  5
B1
330
1F
100
AcDbEntity
  8
0
  6
Continuous
 62
     7
370
    25
100
AcDbLine
 10
5827.0187691057
 20
5265.7215173478
 30
0.0
 11
5827.0187691057
 21
5268.7215085263
 31
0.0
  0
ARC
  5
B2
330
1F
100
AcDbEntity
  8
0
  6
Continuous
 62
     7
370
    25
100
AcDbCircle
 10
5827.0187553361
 20
5265.721511723
 30
0.0
 40
3.0
100
AcDbArc
 50
90.0
 51
180.0
  0
LINE
  5
B3
330
1F
100
AcDbEntity
  8
0
  6
Continuous
 62
     7
370
    25
100
AcDbLine
 10
6721.0187331045
 20
5258.721518063
 30
0.0
 11
6721.0187331045
 21
5265.7215173478
 31
0.0
  0
LINE
  5
B4
330
1F
100
AcDbEntity
  8
0
  6
Continuous
 62
     7
370
    25
100
AcDbLine
 10
6721.0187331045
 20
5258.721518063
 30
0.0
 11
5827.0187691057
 21
5258.721518063
 31
0.0
  0
LINE
  5
B5
330
1F
100
AcDbEntity
  8
0
  6
Continuous
 62
     7
370
    25
100
AcDbLine
 10
6724.0187540853
 20
5265.7215173478
 30
0.0
 11
6721.0187331045
 21
5265.7215173478
 31
0.0
  0
ARC
  5
B6
330
1F
100
AcDbEntity
  8
0
  6
Continuous
 62
     7
370
    25
100
AcDbCircle
 10
6721.0187553361
 20
5265.721511723
 30
0.0
 40
3.0
100
AcDbArc
 50
0.0
 51
90.0
  0
LINE
  5
B7
330
1F
100
AcDbEntity
  8
0
  6
Continuous
 62
     7
370
    25
100
AcDbLine
 10
6724.0187540853
 20
5265.7215173478
 30
0.0
 11
6724.0187540853
 21
5258.721518063
 31
0.0
  0
LINE
  5
B8
330
1F
100
AcDbEntity
  8
0
  6
Continuous
 62
     7
370
    25
100
AcDbLine
 10
6721.0187331045
 20
5258.721518063
 30
0.0
 11
6724.0187540853
 21
5258.721518063
 31
0.0
  0
LINE
  5
B9
330
1F
100
AcDbEntity
  8
0
  6
Continuous
 62
     7
370
    25
100
AcDbLine
 10
5851.2814656103
 20
5251.7215187783
 30
0.0
 11
6697.2814813459
 21
5251.7215187783
 31
0.0
  0
LINE
  5
BA
330
1F
100
AcDbEntity
  8
0
  6
Continuous
 62
     7
370
    25
100
AcDbLine
 10
6700.2814427221
 20
5254.7215099568
 30
0.0
 11
5848.2814744318
 21
5254.7215099568
 31
0.0
  0
ARC
  5
BB
330
1F
100
AcDbEntity
  8
0
  6
Continuous
 62
     7
370
    25
100
AcDbCircle
 10
6697.2814711274
 20
5254.721511723
 30
0.0
 40
3.000000000000909
100
AcDbArc
 50
270.0
 51
0.0
  0
ARC
  5
BC
330
1F
100
AcDbEntity
  8
0
  6
Continuous
 62
     7
370
    25
100
AcDbCircle
 10
5851.2814711274
 20
5254.721511723
 30
0.0
 40
3.0
100
AcDbArc
 50
180.0
 51
270.0
  0
LINE
  5
BD
330
1F
100
AcDbEntity
  8
0
  6
Continuous
 62
     7
370
    25
100
AcDbLine
 10
6700.2814427221
 20
5254.7215099568
 30
0.0
 11
6700.2814427221
 21
5258.721518063
 31
0.0
  0
LINE
  5
BE
330
1F
100
AcDbEntity
  8
0
  6
Continuous
 62
     7
370
    25
100
AcDbLine
 10
5848.2814744318
 20
5254.7215099568
 30
0.0
 11
5848.2814744318
 21
5258.721518063
 31
0.0
  0
SPLINE
  5
BF
330
1F
100
AcDbEntity
  8
0
  6
Continuous
 62
     8
370
    25
100
AcDbSpline
210
0.0
220
0.0
230
1.0
 70
     8
 71
     3
 72
    29
 73
    25
 74
     0
 42
0.000000001
 43
0.00000001
 40
0.0
 40
0.0
 40
0.0
 40
0.0
 40
0.0155241340749178
 40
0.0624486896075438
 40
0.1092850305265469
 40
0.1562032243442929
 40
0.2030545648539225
 40
0.2499407437795984
 40
0.2968269227052742
 40
0.3436782460502177
 40
0.3905964398679638
 40
0.4374327807869669
 40
0.4843573535369272
 40
0.5311986769975441
 40
0.5781040622373804
 40
0.6249703419565297
 40
0.6718366475532955
 40
0.7187419862097141
 40
0.7655833488339031
 40
0.8125078902118976
 40
0.8593443286647304
 40
0.9062624236757598
 40
0.9531138147132995
 40
1.0
 40
1.0
 40
1.0
 40
1.0
 10
6329.88450082187
 20
5208.176347159838
 30
0.0
 10
6329.921440450335
 20
5208.08341491226
 30
0.0
 10
6330.070036911885
 20
5207.709577823797
 30
0.0
 10
6329.089074058966
 20
5207.050187445502
 30
0.0
 10
6326.949779445115
 20
5206.210571227251
 30
0.0
 10
6323.581698810407
 20
5205.363172074503
 30
0.0
 10
6319.161713386544
 20
5204.521902810528
 30
0.0
 10
6313.75989078511
 20
5203.677391089537
 30
0.0
 10
6307.499372375153
 20
5202.832864371292
 30
0.0
 10
6300.512057255758
 20
5201.99164049822
 30
0.0
 10
6292.95433910925
 20
5201.144252437584
 30
0.0
 10
6284.98203161625
 20
5200.304546905089
 30
0.0
 10
6276.777501021106
 20
5199.456544831988
 30
0.0
 10
6268.508549091531
 20
5198.616313821117
 30
0.0
 10
6260.362779854941
 20
5197.770101460277
 30
0.0
 10
6252.51092206314
 20
5196.92741165594
 30
0.0
 10
6245.124548644116
 20
5196.084657066391
 30
0.0
 10
6238.365255966844
 20
5195.238463752291
 30
0.0
 10
6232.374281633657
 20
5194.398216423356
 30
0.0
 10
6227.289644533515
 20
5193.550265046923
 30
0.0
 10
6223.207519383537
 20
5192.710546261298
 30
0.0
 10
6220.250745035546
 20
5191.863170865568
 30
0.0
 10
6218.36995842054
 20
5191.021897722698
 30
0.0
 10
6218.135852990648
 20
5190.458957936636
 30
0.0
 10
6218.018756827158
 20
5190.177383565401
 30
0.0
  0
LINE
  5
C0
330
1F
100
AcDbEntity
  8
0
  6
Continuous
 62
     8
370
    25
100
AcDbLine
 10
6239.0187546814
 20
5169.1773857112
 30
0.0
 11
6309.01876243
 21
5169.1773857112
 31
0.0
  0
LINE
  5
C1
330
1F
100
AcDbEntity
  8
0
  6
Continuous
 62
     8
370
    25
100
AcDbLine
 10
6211.5187585557
 20
5250.3218527074
 30
0.0
 11
6336.5187511051
 21
5250.3218527074
 31
0.0
  0
LINE
  5
C2
330
1F
100
AcDbEntity
  8
0
  6
Continuous
 62
     8
370
    25
100
AcDbLine
 10
6212.9591793025
 20
5248.4017337794
 30
0.0
 11
6335.0783303583
 21
5248.4017337794
 31
0.0
  0
LINE
  5
C3
330
1F
100
AcDbEntity
  8
0
  6
Continuous
 62
     7
370
    25
100
AcDbLine
 10
7448.5822027616
 20
5218.1774105067
 30
0.0
 11
7443.5822038047
 21
5216.1774064536
 31
0.0
  0
LINE
  5
C4
330
1F
100
AcDbEntity
  8
0
  6
Continuous
 62
     7
370
    25
100
AcDbLine
 10
7443.5822038047
 20
5164.1773904795
 30
0.0
 11
7448.5822027616
 21
5162.1773864264
 31
0.0
  0
ARC
  5
C5
330
1F
100
AcDbEntity
  8
0
  6
Continuous
 62
     7
370
    25
100
AcDbCircle
 10
7493.582203692
 20
5120.3819429169
 30
0.0
 40
97.54693985567502
100
AcDbArc
 50
94.1151006784
 51
109.7732536985
  0
ARC
  5
C6
330
1F
100
AcDbEntity
  8
0
  6
Continuous
 62
     7
370
    25
100
AcDbCircle
 10
7493.582203692
 20
5259.9728520079
 30
0.0
 40
97.54693985567502
100
AcDbArc
 50
250.2267463015
 51
265.8848993216
  0
ARC
  5
C7
330
1F
100
AcDbEntity
  8
0
  6
Continuous
 62
     7
370
    25
100
AcDbCircle
 10
7436.082203692
 20
5188.5523974624
 30
0.0
 40
28.62500000000088
100
AcDbArc
 50
74.8107132628
 51
105.1892867372
  0
ARC
  5
C8
330
1F
100
AcDbEntity
  8
0
  6
Continuous
 62
     7
370
    25
100
AcDbCircle
 10
7436.082203692
 20
5191.8023974624
 30
0.0
 40
28.62500000000088
100
AcDbArc
 50
254.8107132628
 51
285.1892867372
  0
LINE
  5
C9
330
1F
100
AcDbEntity
  8
0
  6
Continuous
 62
     7
370
    25
100
AcDbLine
 10
7491.0822069339
 20
5237.6773978705
 30
0.0
 11
7491.0822069339
 21
5232.177394175
 31
0.0
  0
LINE
  5
CA
330
1F
100
AcDbEntity
  8
0
  6
Continuous
 62
     7
370
    25
100
AcDbLine
 10
7608.0822056226
 20
5232.177394175
 30
0.0
 11
7608.0822056226
 21
5237.6773978705
 31
0.0
  0
LINE
  5
CB
330
1F
100
AcDbEntity
  8
0
  6
Continuous
 62
     7
370
    25
100
AcDbLine
 10
7448.5822027616
 20
5168.1773985858
 30
0.0
 11
7460.5822047285
 21
5168.1773985858
 31
0.0
  0
LINE
  5
CC
330
1F
100
AcDbEntity
  8
0
  6
Continuous
 62
     7
370
    25
100
AcDbLine
 10
7460.5822047285
 20
5212.1773983474
 30
0.0
 11
7448.5822027616
 21
5212.1773983474
 31
0.0
  0
LINE
  5
CD
330
1F
100
AcDbEntity
  8
0
  6
Continuous
 62
     7
370
    25
100
AcDbLine
 10
7493.5822045497
 20
5169.1773857112
 30
0.0
 11
7549.5821988277
 21
5169.1773857112
 31
0.0
  0
LINE
  5
CE
330
1F
100
AcDbEntity
  8
0
  6
Continuous
 62
     7
370
    25
100
AcDbLine
 10
7493.5822045497
 20
5232.177394175
 30
0.0
 11
7493.5822045497
 21
5222.1773888106
 31
0.0
  0
LINE
  5
CF
330
1F
100
AcDbEntity
  8
0
  6
Continuous
 62
     7
370
    25
100
AcDbLine
 10
7605.5822080068
 20
5199.1771186824
 30
0.0
 11
7605.5822080068
 21
5232.177394175
 31
0.0
  0
SPLINE
  5
D0
330
1F
100
AcDbEntity
  8
0
  6
Continuous
 62
     7
370
    25
100
AcDbSpline
210
0.0
220
0.0
230
1.0
 70
     8
 71
     3
 72
    24
 73
    20
 74
     0
 42
0.000000001
 43
0.00000001
 40
0.0
 40
0.0
 40
0.0
 40
0.0
 40
0.0649278846302443
 40
0.1314941789218216
 40
0.1998679082910649
 40
0.2681559302450395
 40
0.3540900426014051
 40
0.4341299430831924
 40
0.5092277172623985
 40
0.581799506695589
 40
0.6503053700253147
 40
0.7068005109496738
 40
0.7354707396701496
 40
0.7690730506414525
 40
0.8078944009810769
 40
0.8441187879230385
 40
0.8890277881117633
 40
0.9416023594383526
 40
1.0
 40
1.0
 40
1.0
 40
1.0
 10
7549.582198827666
 20
5169.262352132296
 30
0.0
 10
7551.313112044793
 20
5169.537334362705
 30
0.0
 10
7554.818616860905
 20
5170.094237807378
 30
0.0
 10
7560.085876698629
 20
5170.937444009665
 30
0.0
 10
7565.259704625354
 20
5171.798349655735
 30
0.0
 10
7570.621651488218
 20
5172.736231356463
 30
0.0
 10
7575.869878748724
 20
5173.754834532961
 30
0.0
 10
7580.738846618453
 20
5174.837335659573
 30
0.0
 10
7584.88774508217
 20
5175.932629011668
 30
0.0
 10
7588.774306466455
 20
5177.209785020512
 30
0.0
 10
7592.221647783466
 20
5178.697278765701
 30
0.0
 10
7594.933720701183
 20
5180.249370414717
 30
0.0
 10
7597.15686610206
 20
5181.874598761666
 30
0.0
 10
7598.989461267622
 20
5183.489388451592
 30
0.0
 10
7600.784727957532
 20
5185.469734474081
 30
0.0
 10
7602.530305572082
 20
5187.949745741853
 30
0.0
 10
7604.08166485477
 20
5190.998381140428
 30
0.0
 10
7605.321112867919
 20
5194.829123978669
 30
0.0
 10
7605.492184074829
 20
5197.678680437875
 30
0.0
 10
7605.582208006781
 20
5199.178221368288
 30
0.0
  0
ARC
  5
D1
330
1F
100
AcDbEntity
  8
0
  6
Continuous
 62
     7
370
    25
100
AcDbCircle
 10
7493.582203692
 20
5120.3819429169
 30
0.0
 40
90.79545454545496
100
AcDbArc
 50
90.0
 51
94.4216843478
  0
ARC
  5
D2
330
1F
100
AcDbEntity
  8
0
  6
Continuous
 62
     7
370
    25
100
AcDbCircle
 10
7493.582203692
 20
5259.9728520079
 30
0.0
 40
90.79545454545405
100
AcDbArc
 50
265.5783156522
 51
270.0
  0
ARC
  5
D3
330
1F
100
AcDbEntity
  8
0
  6
Continuous
 62
     7
370
    25
100
AcDbCircle
 10
7495.082203692
 20
5237.6773974624
 30
0.0
 40
1.000000000000909
100
AcDbArc
 50
90.0
 51
180.0
  0
ARC
  5
D4
330
1F
100
AcDbEntity
  8
0
  6
Continuous
 62
     7
370
    25
100
AcDbCircle
 10
7604.082203692
 20
5237.6773974624
 30
0.0
 40
1.000000000000909
100
AcDbArc
 50
0.0
 51
90.0
  0
LINE
  5
D5
330
1F
100
AcDbEntity
  8
0
  6
Continuous
 62
     7
370
    25
100
AcDbLine
 10
7604.0821975164
 20
5238.6773998971
 30
0.0
 11
7495.082200139
 21
5238.6773998971
 31
0.0
  0
LINE
  5
D6
330
1F
100
AcDbEntity
  8
0
  6
Continuous
 62
     7
370
    25
100
AcDbLine
 10
7497.045450478
 20
5245.9179337258
 30
0.0
 11
7498.0822062186
 21
5245.177390718
 31
0.0
  0
LINE
  5
D7
330
1F
100
AcDbEntity
  8
0
  6
Continuous
 62
     7
370
    25
100
AcDbLine
 10
7601.0822063379
 20
5245.177390718
 30
0.0
 11
7602.1189546279
 21
5245.9179337258
 31
0.0
  0
LINE
  5
D8
330
1F
100
AcDbEntity
  8
0
  6
Continuous
 62
     7
370
    25
100
AcDbLine
 10
7499.3822058729
 20
5241.4273942942
 30
0.0
 11
7499.3822058729
 21
5238.6773998971
 31
0.0
  0
LINE
  5
D9
330
1F
100
AcDbEntity
  8
0
  6
Continuous
 62
     7
370
    25
100
AcDbLine
 10
7599.782199233
 20
5238.6773998971
 30
0.0
 11
7599.782199233
 21
5241.4273942942
 31
0.0
  0
LINE
  5
DA
330
1F
100
AcDbEntity
  8
0
  6
Continuous
 62
     7
370
    25
100
AcDbLine
 10
7501.3822024755
 20
5244.654076838
 30
0.0
 11
7501.3822024755
 21
5241.4273942942
 31
0.0
  0
LINE
  5
DB
330
1F
100
AcDbEntity
  8
0
  6
Continuous
 62
     7
370
    25
100
AcDbLine
 10
7597.782210081
 20
5241.4273942942
 30
0.0
 11
7597.782210081
 21
5244.654076838
 31
0.0
  0
LINE
  5
DC
330
1F
100
AcDbEntity
  8
0
  6
Continuous
 62
     7
370
    25
100
AcDbLine
 10
7584.5822101525
 20
5169.1773857112
 30
0.0
 11
7584.5822101525
 21
5175.8951868052
 31
0.0
  0
ARC
  5
DD
330
1F
100
AcDbEntity
  8
0
  6
Continuous
 62
     7
370
    25
100
AcDbCircle
 10
7525.082203692
 20
5169.1773974624
 30
0.0
 40
10.50000000000091
100
AcDbArc
 50
180.0
 51
270.0
  0
ARC
  5
DE
330
1F
100
AcDbEntity
  8
0
  6
Continuous
 62
     7
370
    25
100
AcDbCircle
 10
7574.082203692
 20
5169.1773974624
 30
0.0
 40
10.5
100
AcDbArc
 50
270.0
 51
0.0
  0
LINE
  5
DF
330
1F
100
AcDbEntity
  8
0
  6
Continuous
 62
     7
370
    25
100
AcDbLine
 10
7584.5822101525
 20
5169.1773857112
 30
0.0
 11
7584.5822101525
 21
5175.8951868052
 31
0.0
  0
LINE
  5
E0
330
1F
100
AcDbEntity
  8
0
  6
Continuous
 62
     7
370
    25
100
AcDbLine
 10
7487.0822062782
 20
5251.7215187783
 30
0.0
 11
7487.0822062782
 21
5250.3218527074
 31
0.0
  0
LINE
  5
E1
330
1F
100
AcDbEntity
  8
0
  6
Continuous
 62
     7
370
    25
100
AcDbLine
 10
7612.0821988277
 20
5250.3218527074
 30
0.0
 11
7612.0821988277
 21
5251.7215187783
 31
0.0
  0
ARC
  5
E2
330
1F
100
AcDbEntity
  8
0
  6
Continuous
 62
     7
370
    25
100
AcDbCircle
 10
7489.082203692
 20
5250.3218546303
 30
0.0
 40
2.000000000000226
100
AcDbArc
 50
180.0
 51
253.7523684272
  0
ARC
  5
E3
330
1F
100
AcDbEntity
  8
0
  6
Continuous
 62
     7
370
    25
100
AcDbCircle
 10
7610.082203692
 20
5250.3218546303
 30
0.0
 40
1.999999999999971
100
AcDbArc
 50
286.2476315728
 51
0.0
  0
LINE
  5
E4
330
1F
100
AcDbEntity
  8
0
  6
Continuous
 62
     7
370
    25
100
AcDbLine
 10
7488.522627025
 20
5248.4017337794
 30
0.0
 11
7497.045450478
 21
5245.9179337258
 31
0.0
  0
LINE
  5
E5
330
1F
100
AcDbEntity
  8
0
  6
Continuous
 62
     7
370
    25
100
AcDbLine
 10
7499.5865156941
 20
5245.177390718
 30
0.0
 11
7501.3822024755
 21
5244.654076838
 31
0.0
  0
LINE
  5
E6
330
1F
100
AcDbEntity
  8
0
  6
Continuous
 62
     7
370
    25
100
AcDbLine
 10
7597.782210081
 20
5244.654076838
 30
0.0
 11
7599.5778894118
 21
5245.177390718
 31
0.0
  0
LINE
  5
E7
330
1F
100
AcDbEntity
  8
0
  6
Continuous
 62
     7
370
    25
100
AcDbLine
 10
7602.1189546279
 20
5245.9179337258
 30
0.0
 11
7610.6417780809
 21
5248.4017337794
 31
0.0
  0
LINE
  5
E8
330
1F
100
AcDbEntity
  8
0
  6
Continuous
 62
     7
370
    25
100
AcDbLine
 10
7443.5822038047
 20
5190.1773835654
 30
0.0
 11
7443.5822038047
 21
5216.1774064536
 31
0.0
  0
LINE
  5
E9
330
1F
100
AcDbEntity
  8
0
  6
Continuous
 62
     7
370
    25
100
AcDbLine
 10
7443.5822038047
 20
5164.1773904795
 30
0.0
 11
7443.5822038047
 21
5190.1773835654
 31
0.0
  0
LINE
  5
EA
330
1F
100
AcDbEntity
  8
0
  6
Continuous
 62
     7
370
    25
100
AcDbLine
 10
7448.5822027616
 20
5190.1773835654
 30
0.0
 11
7448.5822027616
 21
5218.1774105067
 31
0.0
  0
LINE
  5
EB
330
1F
100
AcDbEntity
  8
0
  6
Continuous
 62
     7
370
    25
100
AcDbLine
 10
7448.5822027616
 20
5162.1773864264
 30
0.0
 11
7448.5822027616
 21
5190.1773835654
 31
0.0
  0
LINE
  5
EC
330
1F
100
AcDbEntity
  8
0
  6
Continuous
 62
     7
370
    25
100
AcDbLine
 10
7460.5822047285
 20
5190.1773835654
 30
0.0
 11
7460.5822047285
 21
5212.1773983474
 31
0.0
  0
LINE
  5
ED
330
1F
100
AcDbEntity
  8
0
  6
Continuous
 62
     7
370
    25
100
AcDbLine
 10
7460.5822047285
 20
5168.1773985858
 30
0.0
 11
7460.5822047285
 21
5190.1773835654
 31
0.0
  0
LINE
  5
EE
330
1F
100
AcDbEntity
  8
0
  6
Continuous
 62
     7
370
    25
100
AcDbLine
 10
7486.582205265
 20
5190.1773835654
 30
0.0
 11
7486.582205265
 21
5217.6773871417
 31
0.0
  0
LINE
  5
EF
330
1F
100
AcDbEntity
  8
0
  6
Continuous
 62
     7
370
    25
100
AcDbLine
 10
7486.582205265
 20
5162.6774097914
 30
0.0
 11
7486.582205265
 21
5190.1773835654
 31
0.0
  0
LINE
  5
F0
330
1F
100
AcDbEntity
  8
0
  6
Continuous
 62
     7
370
    25
100
AcDbLine
 10
7428.5822032086
 20
5190.1773835654
 30
0.0
 11
7428.5822032086
 21
5216.1774064536
 31
0.0
  0
LINE
  5
F1
330
1F
100
AcDbEntity
  8
0
  6
Continuous
 62
     7
370
    25
100
AcDbLine
 10
7428.5822032086
 20
5164.1773904795
 30
0.0
 11
7428.5822032086
 21
5190.1773835654
 31
0.0
  0
LINE
  5
F2
330
1F
100
AcDbEntity
  8
0
  6
Continuous
 62
     7
370
    25
100
AcDbLine
 10
7491.0822069339
 20
5232.177394175
 30
0.0
 11
7608.0822056226
 21
5232.177394175
 31
0.0
  0
LINE
  5
F3
330
1F
100
AcDbEntity
  8
0
  6
Continuous
 62
     7
370
    25
100
AcDbLine
 10
7491.0822069339
 20
5237.6773978705
 30
0.0
 11
7608.0822056226
 21
5237.6773978705
 31
0.0
  0
SPLINE
  5
F4
330
1F
100
AcDbEntity
  8
0
  6
Continuous
 62
     7
370
    25
100
AcDbSpline
210
0.0
220
0.0
230
1.0
 70
     8
 71
     3
 72
    10
 73
     6
 74
     0
 42
0.000000001
 43
0.00000001
 40
0.0
 40
0.0
 40
0.0
 40
0.0
 40
0.0044019797405969
 40
0.6950572536661602
 40
0.9999999999999999
 40
0.9999999999999999
 40
0.9999999999999999
 40
0.9999999999999999
 10
7494.58220657627
 20
5190.177383565401
 30
0.0
 10
7494.580145726171
 20
5190.167946325824
 30
0.0
 10
7494.254744680886
 20
5188.677839099402
 30
0.0
 10
7493.73522950995
 20
5186.516488761326
 30
0.0
 10
7493.618084894896
 20
5184.417244796487
 30
0.0
 10
7493.582204549712
 20
5183.774265193438
 30
0.0
  0
LINE
  5
F5
330
1F
100
AcDbEntity
  8
0
  6
Continuous
 62
     7
370
    25
100
AcDbLine
 10
7494.5822065763
 20
5190.1773835654
 30
0.0
 11
7549.5821988277
 21
5190.1773835654
 31
0.0
  0
LINE
  5
F6
330
1F
100
AcDbEntity
  8
0
  6
Continuous
 62
     7
370
    25
100
AcDbLine
 10
7549.5821988277
 20
5169.1773857112
 30
0.0
 11
7549.5821988277
 21
5190.1773835654
 31
0.0
  0
LINE
  5
F7
330
1F
100
AcDbEntity
  8
0
  6
Continuous
 62
     7
370
    25
100
AcDbLine
 10
7549.5821988277
 20
5190.1773835654
 30
0.0
 11
7549.5821988277
 21
5218.1774105067
 31
0.0
  0
SPLINE
  5
F8
330
1F
100
AcDbEntity
  8
0
  6
Continuous
 62
     7
370
    25
100
AcDbSpline
210
0.0
220
0.0
230
1.0
 70
     8
 71
     3
 72
    12
 73
     8
 74
     0
 42
0.000000001
 43
0.00000001
 40
0.0
 40
0.0
 40
0.0
 40
0.0
 40
0.2054291992759267
 40
0.4152060446727246
 40
0.7042667606616547
 40
0.9980627528899615
 40
1.0
 40
1.0
 40
1.0
 40
1.0
 10
7526.452139585417
 20
5223.177405738329
 30
0.0
 10
7527.994073899185
 20
5223.096735648844
 30
0.0
 10
7531.110575593301
 20
5222.933688190663
 30
0.0
 10
7536.536299565647
 20
5221.843407323721
 30
0.0
 10
7542.69277034172
 20
5220.240663553065
 30
0.0
 10
7547.259725835345
 20
5218.870404251323
 30
0.0
 10
7549.567084114258
 20
5218.181920527646
 30
0.0
 10
7549.582198827666
 20
5218.177410506701
 30
0.0
  0
LINE
  5
F9
330
1F
100
AcDbEntity
  8
0
  6
Continuous
 62
     7
370
    25
100
AcDbLine
 10
7494.5822065763
 20
5218.1774105067
 30
0.0
 11
7494.5822065763
 21
5190.1773835654
 31
0.0
  0
LINE
  5
FA
330
1F
100
AcDbEntity
  8
0
  6
Continuous
 62
     7
370
    25
100
AcDbLine
 10
7549.5821988277
 20
5218.1774105067
 30
0.0
 11
7494.5822065763
 21
5218.1774105067
 31
0.0
  0
LINE
  5
FB
330
1F
100
AcDbEntity
  8
0
  6
Continuous
 62
     7
370
    25
100
AcDbLine
 10
7494.5822065763
 20
5223.1774057383
 30
0.0
 11
7494.5822065763
 21
5218.1774105067
 31
0.0
  0
LINE
  5
FC
330
1F
100
AcDbEntity
  8
0
  6
Continuous
 62
     7
370
    25
100
AcDbLine
 10
7494.5822065763
 20
5223.1774057383
 30
0.0
 11
7526.4521395854
 21
5223.1774057383
 31
0.0
  0
SPLINE
  5
FD
330
1F
100
AcDbEntity
  8
0
  6
Continuous
 62
     7
370
    25
100
AcDbSpline
210
0.0
220
0.0
230
1.0
 70
     8
 71
     3
 72
    13
 73
     9
 74
     0
 42
0.000000001
 43
0.00000001
 40
0.0
 40
0.0
 40
0.0
 40
0.0
 40
0.15271659044851
 40
0.3856869585768143
 40
0.5032393349431532
 40
0.6857814015736277
 40
0.8691687843535342
 40
0.9999999999999999
 40
0.9999999999999999
 40
0.9999999999999999
 40
0.9999999999999999
 10
7493.582204549712
 20
5183.774265193438
 30
0.0
 10
7493.617540285803
 20
5184.417760060651
 30
0.0
 10
7493.706780967135
 20
5186.042911443788
 30
0.0
 10
7494.148620771723
 20
5188.191832245824
 30
0.0
 10
7494.635264099441
 20
5190.502029433452
 30
0.0
 10
7494.141646132559
 20
5192.609666241364
 30
0.0
 10
7493.657117878787
 20
5194.704431603953
 30
0.0
 10
7493.604226807897
 20
5196.029014912422
 30
0.0
 10
7493.582204549712
 20
5196.580531739687
 30
0.0
  0
LINE
  5
FE
330
1F
100
AcDbEntity
  8
0
  6
Continuous
 62
     7
370
    25
100
AcDbLine
 10
7493.5822045497
 20
5196.5805317397
 30
0.0
 11
7493.5822045497
 21
5218.1774105067
 31
0.0
  0
LINE
  5
FF
330
1F
100
AcDbEntity
  8
0
  6
Continuous
 62
     7
370
    25
100
AcDbLine
 10
7493.5822045497
 20
5218.1774105067
 30
0.0
 11
7494.5822065763
 21
5218.1774105067
 31
0.0
  0
LINE
  5
100
330
1F
100
AcDbEntity
  8
0
  6
Continuous
 62
     7
370
    25
100
AcDbLine
 10
7493.5822045497
 20
5218.1774105067
 30
0.0
 11
7493.5822045497
 21
5222.1773888106
 31
0.0
  0
ARC
  5
101
330
1F
100
AcDbEntity
  8
0
  6
Continuous
 62
     7
370
    25
100
AcDbCircle
 10
7494.582203692
 20
5222.1773974624
 30
0.0
 40
1.000000000000909
100
AcDbArc
 50
90.0
 51
180.0
  0
LINE
  5
102
330
1F
100
AcDbEntity
  8
0
  6
Continuous
 62
     7
370
    25
100
AcDbLine
 10
7498.0822062186
 20
5245.177390718
 30
0.0
 11
7601.0822063379
 21
5245.177390718
 31
0.0
  0
LINE
  5
103
330
1F
100
AcDbEntity
  8
0
  6
Continuous
 62
     7
370
    25
100
AcDbLine
 10
7499.3822058729
 20
5241.4273942942
 30
0.0
 11
7599.782199233
 21
5241.4273942942
 31
0.0
  0
LINE
  5
104
330
1F
100
AcDbEntity
  8
0
  6
Continuous
 62
     7
370
    25
100
AcDbLine
 10
7525.0822013311
 20
5158.6774016852
 30
0.0
 11
7574.0821963243
 21
5158.6774016852
 31
0.0
  0
LINE
  5
105
330
1F
100
AcDbEntity
  8
0
  6
Continuous
 62
     7
370
    25
100
AcDbLine
 10
7584.5822101525
 20
5169.1773857112
 30
0.0
 11
7549.5821988277
 21
5169.1773857112
 31
0.0
  0
LINE
  5
106
330
1F
100
AcDbEntity
  8
0
  6
Continuous
 62
     7
370
    25
100
AcDbLine
 10
7996.5821808271
 20
5265.7215173478
 30
0.0
 11
7102.5822168283
 21
5265.7215173478
 31
0.0
  0
LINE
  5
107
330
1F
100
AcDbEntity
  8
0
  6
Continuous
 62
     7
370
    25
100
AcDbLine
 10
7102.5822168283
 20
5265.7215173478
 30
0.0
 11
7102.5822168283
 21
5268.7215085263
 31
0.0
  0
LINE
  5
108
330
1F
100
AcDbEntity
  8
0
  6
Continuous
 62
     7
370
    25
100
AcDbLine
 10
7102.5822168283
 20
5268.7215085263
 30
0.0
 11
7996.5821808271
 21
5268.7215085263
 31
0.0
  0
LINE
  5
109
330
1F
100
AcDbEntity
  8
0
  6
Continuous
 62
     7
370
    25
100
AcDbLine
 10
7996.5821808271
 20
5265.7215173478
 30
0.0
 11
7996.5821808271
 21
5268.7215085263
 31
0.0
  0
LINE
  5
10A
330
1F
100
AcDbEntity
  8
0
  6
Continuous
 62
     7
370
    25
100
AcDbLine
 10
7102.5822168283
 20
5265.7215173478
 30
0.0
 11
7099.5821958474
 21
5265.7215173478
 31
0.0
  0
LINE
  5
10B
330
1F
100
AcDbEntity
  8
0
  6
Continuous
 62
     7
370
    25
100
AcDbLine
 10
7102.5822168283
 20
5265.7215173478
 30
0.0
 11
7102.5822168283
 21
5258.721518063
 31
0.0
  0
LINE
  5
10C
330
1F
100
AcDbEntity
  8
0
  6
Continuous
 62
     7
370
    25
100
AcDbLine
 10
7099.5821958474
 20
5258.721518063
 30
0.0
 11
7099.5821958474
 21
5265.7215173478
 31
0.0
  0
LINE
  5
10D
330
1F
100
AcDbEntity
  8
0
  6
Continuous
 62
     7
370
    25
100
AcDbLine
 10
7099.5821958474
 20
5258.721518063
 30
0.0
 11
7102.5822168283
 21
5258.721518063
 31
0.0
  0
LINE
  5
10E
330
1F
100
AcDbEntity
  8
0
  6
Continuous
 62
     7
370
    25
100
AcDbLine
 10
7996.5821808271
 20
5258.721518063
 30
0.0
 11
7996.5821808271
 21
5265.7215173478
 31
0.0
  0
LINE
  5
10F
330
1F
100
AcDbEntity
  8
0
  6
Continuous
 62
     7
370
    25
100
AcDbLine
 10
7996.5821808271
 20
5258.721518063
 30
0.0
 11
7102.5822168283
 21
5258.721518063
 31
0.0
  0
ARC
  5
110
330
1F
100
AcDbEntity
  8
0
  6
Continuous
 62
     7
370
    25
100
AcDbCircle
 10
7102.582203692
 20
5265.721511723
 30
0.0
 40
3.0
100
AcDbArc
 50
90.0
 51
180.0
  0
ARC
  5
111
330
1F
100
AcDbEntity
  8
0
  6
Continuous
 62
     7
370
    25
100
AcDbCircle
 10
7996.582203692
 20
5265.721511723
 30
0.0
 40
3.0
100
AcDbArc
 50
0.0
 51
90.0
  0
LINE
  5
112
330
1F
100
AcDbEntity
  8
0
  6
Continuous
 62
     7
370
    25
100
AcDbLine
 10
7999.5822018079
 20
5265.7215173478
 30
0.0
 11
7996.5821808271
 21
5265.7215173478
 31
0.0
  0
LINE
  5
113
330
1F
100
AcDbEntity
  8
0
  6
Continuous
 62
     7
370
    25
100
AcDbLine
 10
7999.5822018079
 20
5265.7215173478
 30
0.0
 11
7999.5822018079
 21
5258.721518063
 31
0.0
  0
LINE
  5
114
330
1F
100
AcDbEntity
  8
0
  6
Continuous
 62
     7
370
    25
100
AcDbLine
 10
7996.5821808271
 20
5258.721518063
 30
0.0
 11
7999.5822018079
 21
5258.721518063
 31
0.0
  0
LINE
  5
115
330
1F
100
AcDbEntity
  8
0
  6
Continuous
 62
     7
370
    25
100
AcDbLine
 10
7978.5616701535
 20
5254.7215099568
 30
0.0
 11
7126.5616422586
 21
5254.7215099568
 31
0.0
  0
ARC
  5
116
330
1F
100
AcDbEntity
  8
0
  6
Continuous
 62
     7
370
    25
100
AcDbCircle
 10
7975.5616432943
 20
5254.721511723
 30
0.0
 40
3.0
100
AcDbArc
 50
270.0
 51
0.0
  0
LINE
  5
117
330
1F
100
AcDbEntity
  8
0
  6
Continuous
 62
     7
370
    25
100
AcDbLine
 10
7129.5616334371
 20
5251.7215187783
 30
0.0
 11
7975.5616491727
 21
5251.7215187783
 31
0.0
  0
ARC
  5
118
330
1F
100
AcDbEntity
  8
0
  6
Continuous
 62
     7
370
    25
100
AcDbCircle
 10
7129.5616432943
 20
5254.721511723
 30
0.0
 40
2.999999999999091
100
AcDbArc
 50
180.0
 51
270.0
  0
LINE
  5
119
330
1F
100
AcDbEntity
  8
0
  6
Continuous
 62
     7
370
    25
100
AcDbLine
 10
7978.5616701535
 20
5254.7215099568
 30
0.0
 11
7978.5616701535
 21
5258.721518063
 31
0.0
  0
LINE
  5
11A
330
1F
100
AcDbEntity
  8
0
  6
Continuous
 62
     7
370
    25
100
AcDbLine
 10
7126.5616422586
 20
5254.7215099568
 30
0.0
 11
7126.5616422586
 21
5258.721518063
 31
0.0
  0
LINE
  5
11B
330
1F
100
AcDbEntity
  8
0
  6
Continuous
 62
     8
370
    25
100
AcDbLine
 10
7493.5822045497
 20
5169.1773857112
 30
0.0
 11
7493.5822045497
 21
5183.7742651934
 31
0.0
  0
SPLINE
  5
11C
330
1F
100
AcDbEntity
  8
0
  6
Continuous
 62
     8
370
    25
100
AcDbSpline
210
0.0
220
0.0
230
1.0
 70
     8
 71
     3
 72
    18
 73
    14
 74
     0
 42
0.000000001
 43
0.00000001
 40
0.0
 40
0.0
 40
0.0
 40
0.0
 40
0.0624828144235789
 40
0.156285034256902
 40
0.2500090501776163
 40
0.3437331178488465
 40
0.437535244523826
 40
0.5312094307968972
 40
0.6250499594144568
 40
0.7187142982424704
 40
0.8125419353012442
 40
0.9062361765728807
 40
1.0
 40
1.0
 40
1.0
 40
1.0
 10
7605.447635620039
 20
5199.17711868236
 30
0.0
 10
7605.44882690983
 20
5198.990084586202
 30
0.0
 10
7605.451806621413
 20
5198.522265868452
 30
0.0
 10
7604.07130631662
 20
5197.770158941292
 30
0.0
 10
7601.514597584796
 20
5196.92739625975
 30
0.0
 10
7597.786751331315
 20
5196.084661195784
 30
0.0
 10
7593.028958533353
 20
5195.238462647176
 30
0.0
 10
7587.324803313315
 20
5194.398216719901
 30
0.0
 10
7580.807976832029
 20
5193.550264967576
 30
0.0
 10
7573.61058282712
 20
5192.710546282577
 30
0.0
 10
7565.897569686739
 20
5191.863170859899
 30
0.0
 10
7557.828057129902
 20
5191.021897724116
 30
0.0
 10
7552.331498347018
 20
5190.458957937109
 30
0.0
 10
7549.582198827666
 20
5190.177383565401
 30
0.0
  0
LINE
  5
11D
330
1F
100
AcDbEntity
  8
0
  6
Continuous
 62
     8
370
    25
100
AcDbLine
 10
7549.5821988277
 20
5169.1773857112
 30
0.0
 11
7584.5822101525
 21
5169.1773857112
 31
0.0
  0
LINE
  5
11E
330
1F
100
AcDbEntity
  8
0
  6
Continuous
 62
     8
370
    25
100
AcDbLine
 10
7549.5821988277
 20
5250.3218527074
 30
0.0
 11
7612.0821988277
 21
5250.3218527074
 31
0.0
  0
LINE
  5
11F
330
1F
100
AcDbEntity
  8
0
  6
Continuous
 62
     8
370
    25
100
AcDbLine
 10
7487.0822062782
 20
5250.3218527074
 30
0.0
 11
7549.5821988277
 21
5250.3218527074
 31
0.0
  0
LINE
  5
120
330
1F
100
AcDbEntity
  8
0
  6
Continuous
 62
     8
370
    25
100
AcDbLine
 10
7549.5821988277
 20
5248.4017337794
 30
0.0
 11
7610.6417780809
 21
5248.4017337794
 31
0.0
  0
LINE
  5
121
330
1F
100
AcDbEntity
  8
0
  6
Continuous
 62
     8
370
    25
100
AcDbLine
 10
7488.522627025
 20
5248.4017337794
 30
0.0
 11
7549.5821988277
 21
5248.4017337794
 31
0.0
  0
CIRCLE
  5
122
330
1F
100
AcDbEntity
  8
0
  6
Continuous
 62
     7
370
    25
100
AcDbCircle
 10
6274.0187553361
 20
4339.3470659812
 30
0.0
 40
55.82842712474667
  0
SPLINE
  5
123
330
1F
100
AcDbEntity
  8
0
  6
Continuous
 62
     7
370
    25
100
AcDbSpline
210
0.0
220
0.0
230
1.0
 70
     8
 71
     3
 72
    14
 73
    10
 74
     0
 42
0.000000001
 43
0.00000001
 40
0.0
 40
0.0
 40
0.0
 40
0.0
 40
0.0012458349822812
 40
0.006988601706626
 40
0.0299457761301846
 40
0.1462920640988646
 40
0.3801848185761883
 40
0.616042255937376
 40
0.9999999999999999
 40
0.9999999999999999
 40
0.9999999999999999
 40
0.9999999999999999
 10
6221.629837175649
 20
4338.141209277024
 30
0.0
 10
6221.634287964095
 20
4338.130957722073
 30
0.0
 10
6221.659254984742
 20
4338.073450880923
 30
0.0
 10
6221.828398045418
 20
4337.861014169094
 30
0.0
 10
6222.796174042554
 20
4336.994285263006
 30
0.0
 10
6225.570126421357
 20
4335.106232334612
 30
0.0
 10
6230.128324586396
 20
4332.500436740762
 30
0.0
 10
6237.061208235367
 20
4329.234150515371
 30
0.0
 10
6242.34655103326
 20
4327.50432093497
 30
0.0
 10
6245.620669444841
 20
4326.432741078248
 30
0.0
  0
SPLINE
  5
124
330
1F
100
AcDbEntity
  8
0
  6
Continuous
 62
     7
370
    25
100
AcDbSpline
210
0.0
220
0.0
230
1.0
 70
     8
 71
     3
 72
    20
 73
    16
 74
     0
 42
0.000000001
 43
0.00000001
 40
0.0
 40
0.0
 40
0.0
 40
0.0
 40
0.0918572234294912
 40
0.1659180536891012
 40
0.2399783350628427
 40
0.316176910119239
 40
0.3923750638492586
 40
0.466456828547168
 40
0.5405385284488362
 40
0.6167798785184514
 40
0.6930214035408695
 40
0.7686297588588838
 40
0.8442385573116846
 40
0.9221188998140613
 40
1.0
 40
1.0
 40
1.0
 40
1.0
 10
6221.629837175649
 20
4338.141209277024
 30
0.0
 10
6224.551248884981
 20
4336.456983219299
 30
0.0
 10
6229.828078803633
 20
4333.414832596438
 30
0.0
 10
6237.947403638209
 20
4329.938554037719
 30
0.0
 10
6245.758175423758
 20
4327.267569101514
 30
0.0
 10
6253.854205709588
 20
4325.248281537026
 30
0.0
 10
6262.094388394209
 20
4323.90908518497
 30
0.0
 10
6270.342428962206
 20
4323.268828673912
 30
0.0
 10
6278.617483025362
 20
4323.301867522926
 30
0.0
 10
6286.939976792382
 20
4324.032352485743
 30
0.0
 10
6295.223920546212
 20
4325.466984780581
 30
0.0
 10
6303.331972442682
 20
4327.584337612571
 30
0.0
 10
6311.279464262133
 20
4330.396108971356
 30
0.0
 10
6319.057078148096
 20
4333.861054691025
 30
0.0
 10
6323.996159712838
 20
4336.738318340122
 30
0.0
 10
6326.465712508005
 20
4338.176957162728
 30
0.0
  0
SPLINE
  5
125
330
1F
100
AcDbEntity
  8
0
  6
Continuous
 62
     7
370
    25
100
AcDbSpline
210
0.0
220
0.0
230
1.0
 70
     8
 71
     3
 72
     9
 73
     5
 74
     0
 42
0.000000001
 43
0.00000001
 40
0.0
 40
0.0
 40
0.0
 40
0.0
 40
0.9250807100145619
 40
1.0
 40
1.0
 40
1.0
 40
1.0
 10
6326.3398423994
 20
4338.027930649629
 30
0.0
 10
6326.378721415939
 20
4338.073858410758
 30
0.0
 10
6326.420749118084
 20
4338.12350571248
 30
0.0
 10
6326.462578667836
 20
4338.173231725164
 30
0.0
 10
6326.465712508005
 20
4338.176957162728
 30
0.0
  0
LINE
  5
126
330
1F
100
AcDbEntity
  8
0
  6
Continuous
 62
     7
370
    25
100
AcDbLine
 10
6302.4168476665
 20
4326.4327410782
 30
0.0
 11
6302.8268382156
 21
4326.5626792039
 31
0.0
  0
SPLINE
  5
127
330
1F
100
AcDbEntity
  8
0
  6
Continuous
 62
     7
370
    25
100
AcDbSpline
210
0.0
220
0.0
230
1.0
 70
     8
 71
     3
 72
    14
 73
    10
 74
     0
 42
0.000000001
 43
0.00000001
 40
0.0
 40
0.0
 40
0.0
 40
0.0
 40
0.1261168921016201
 40
0.2693848102957721
 40
0.4126521170043125
 40
0.5600917906394893
 40
0.7075316969098698
 40
0.8532389127807015
 40
1.0
 40
1.0
 40
1.0
 40
1.0
 10
6302.416847666544
 20
4326.432741078248
 30
0.0
 10
6300.082051041029
 20
4325.799550912906
 30
0.0
 10
6295.094941578033
 20
4324.447061093904
 30
0.0
 10
6287.276367656212
 20
4323.118129773156
 30
0.0
 10
6278.975356974293
 20
4322.350819207353
 30
0.0
 10
6270.553299439921
 20
4322.286770713762
 30
0.0
 10
6262.114641312824
 20
4322.942066328448
 30
0.0
 10
6253.760794125858
 20
4324.253520356103
 30
0.0
 10
6248.340554713551
 20
4325.704591256016
 30
0.0
 10
6245.620669444841
 20
4326.432741078248
 30
0.0
  0
SPLINE
  5
128
330
1F
100
AcDbEntity
  8
0
  6
Continuous
 62
     7
370
    25
100
AcDbSpline
210
0.0
220
0.0
230
1.0
 70
     8
 71
     3
 72
    11
 73
     7
 74
     0
 42
0.000000001
 43
0.00000001
 40
0.0
 40
0.0
 40
0.0
 40
0.0
 40
0.0355320653536035
 40
0.339492710854768
 40
0.9578964036925272
 40
0.9999999999999999
 40
0.9999999999999999
 40
0.9999999999999999
 40
0.9999999999999999
 10
6221.629837175649
 20
4338.141209277024
 30
0.0
 10
6221.628244535406
 20
4338.138851425666
 30
0.0
 10
6221.613027582827
 20
4338.116323229196
 30
0.0
 10
6221.584066419263
 20
4338.04392388266
 30
0.0
 10
6221.57716316332
 20
4337.965546489294
 30
0.0
 10
6221.578380381117
 20
4337.912574839685
 30
0.0
 10
6221.578457971853
 20
4337.909198197236
 30
0.0
  0
ARC
  5
129
330
1F
100
AcDbEntity
  8
0
  6
Continuous
 62
     7
370
    25
100
AcDbCircle
 10
6274.0187553361
 20
4339.3470659812
 30
0.0
 40
52.46000737191269
100
AcDbArc
 50
358.7219206218
 51
181.5706020203
  0
SPLINE
  5
12A
330
1F
100
AcDbEntity
  8
0
  6
Continuous
 62
     7
370
    25
100
AcDbSpline
210
0.0
220
0.0
230
1.0
 70
     8
 71
     3
 72
    17
 73
    13
 74
     0
 42
0.000000001
 43
0.00000001
 40
0.0
 40
0.0
 40
0.0
 40
0.0
 40
0.3831901362112027
 40
0.5458265446855296
 40
0.5882284165715405
 40
0.6309665647559412
 40
0.6461114976407152
 40
0.6614392452037919
 40
0.6781574903139159
 40
0.7167639125666624
 40
0.8850582325051075
 40
0.9999999999999999
 40
0.9999999999999999
 40
0.9999999999999999
 40
0.9999999999999999
 10
6326.459051688951
 20
4337.909198197236
 30
0.0
 10
6326.458479279543
 20
4337.948843101487
 30
0.0
 10
6326.457663923876
 20
4338.005314390953
 30
0.0
 10
6326.442326201335
 20
4338.06481799248
 30
0.0
 10
6326.431195194757
 20
4338.087716204034
 30
0.0
 10
6326.424949486292
 20
4338.096343232918
 30
0.0
 10
6326.418311736019
 20
4338.100138666677
 30
0.0
 10
6326.413369772783
 20
4338.100794991621
 30
0.0
 10
6326.406242171399
 20
4338.098827228893
 30
0.0
 10
6326.38750922797
 20
4338.084882454818
 30
0.0
 10
6326.366573417271
 20
4338.059021316293
 30
0.0
 10
6326.347558826627
 20
4338.036905574111
 30
0.0
 10
6326.3398423994
 20
4338.027930649628
 30
0.0
  0
SPLINE
  5
12B
330
1F
100
AcDbEntity
  8
0
  6
Continuous
 62
     7
370
    25
100
AcDbSpline
210
0.0
220
0.0
230
1.0
 70
     8
 71
     3
 72
    13
 73
     9
 74
     0
 42
0.000000001
 43
0.00000001
 40
0.0
 40
0.0
 40
0.0
 40
0.0
 40
0.0362914800144366
 40
0.1101889593743349
 40
0.2579244732763907
 40
0.553067329788107
 40
0.8524016869279489
 40
1.0
 40
1.0
 40
1.0
 40
1.0
 10
6326.459051688951
 20
4337.909198197236
 30
0.0
 10
6326.268641050474
 20
4337.640998762106
 30
0.0
 10
6325.690512241747
 20
4336.826685963345
 30
0.0
 10
6323.849387187408
 20
4335.35810465541
 30
0.0
 10
6320.033738703862
 20
4332.684424321746
 30
0.0
 10
6314.05932406985
 20
4329.568800427606
 30
0.0
 10
6307.833543985453
 20
4327.05669702442
 30
0.0
 10
6303.973512768437
 20
4325.866394290907
 30
0.0
 10
6302.698747834009
 20
4325.47330001246
 30
0.0
  0
LWPOLYLINE
  5
12C
330
1F
100
AcDbEntity
  8
0
  6
Continuous
 62
     7
370
    25
100
AcDbPolyline
 90
        9
 70
   128
 43
0.0
 10
6302.698747834
 20
4325.4733000125
 10
6302.6437625492
 20
4325.6604883994
 10
6302.5908783281
 20
4325.8404646243
 10
6302.5421366299
 20
4326.0063443507
 10
6302.4994150007
 20
4326.1517349805
 10
6302.4643525684
 20
4326.2710485781
 10
6302.4383053387
 20
4326.3597104872
 10
6302.4222567881
 20
4326.4143083419
 10
6302.4168476665
 20
4326.4327410782
  0
LWPOLYLINE
  5
12D
330
1F
100
AcDbEntity
  8
0
  6
Continuous
 62
     7
370
    25
100
AcDbPolyline
 90
        9
 70
   128
 43
0.0
 10
6245.3387543762
 20
4325.4733000125
 10
6245.3937545622
 20
4325.6604883994
 10
6245.4466387833
 20
4325.8404646243
 10
6245.4953804815
 20
4326.0063443507
 10
6245.5381021107
 20
4326.1517349805
 10
6245.5731496418
 20
4326.2710485781
 10
6245.5992117727
 20
4326.3597104872
 10
6245.6152454222
 20
4326.4143083419
 10
6245.6206694448
 20
4326.4327410782
  0
SPLINE
  5
12E
330
1F
100
AcDbEntity
  8
0
  6
Continuous
 62
     7
370
    25
100
AcDbSpline
210
0.0
220
0.0
230
1.0
 70
     8
 71
     3
 72
    13
 73
     9
 74
     0
 42
0.000000001
 43
0.00000001
 40
0.0
 40
0.0
 40
0.0
 40
0.0
 40
0.1927465368798742
 40
0.3854728881112814
 40
0.6217421240147091
 40
0.8575848662283312
 40
0.9756447084622643
 40
1.0
 40
1.0
 40
1.0
 40
1.0
 10
6245.338754376215
 20
4325.47330001246
 30
0.0
 10
6243.67491012113
 20
4325.991594436253
 30
0.0
 10
6240.347395859359
 20
4327.028129004739
 30
0.0
 10
6235.135352530695
 20
4329.126756517256
 30
0.0
 10
6229.67653965816
 20
4331.698665831316
 30
0.0
 10
6225.240932577716
 20
4334.598677344601
 30
0.0
 10
6222.412384457819
 20
4336.649635865409
 30
0.0
 10
6221.700245289053
 20
4337.725250667303
 30
0.0
 10
6221.578457971853
 20
4337.909198197236
 30
0.0
  0
ARC
  5
12F
330
1F
100
AcDbEntity
  8
0
  6
Continuous
 62
     7
370
    25
100
AcDbCircle
 10
6274.0187553361
 20
4423.0823600988
 30
0.0
 40
101.7352941176473
100
AcDbArc
 50
253.6258844256
 51
286.3741155744
  0
ARC
  5
130
330
1F
100
AcDbEntity
  8
0
  6
Continuous
 62
     7
370
    25
100
AcDbCircle
 10
6274.0187553361
 20
4339.3470659812
 30
0.0
 40
52.46000737191313
100
AcDbArc
 50
181.5706020203
 51
358.4293979797
  0
CIRCLE
  5
131
330
1F
100
AcDbEntity
  8
0
  6
Continuous
 62
     7
370
    25
100
AcDbCircle
 10
6274.0187553361
 20
4339.3470659812
 30
0.0
 40
55.77123616632798
  0
LINE
  5
132
330
1F
100
AcDbEntity
  8
0
  6
Continuous
 62
     7
370
    25
100
AcDbLine
 10
5827.0187691057
 20
4789.3470738257
 30
0.0
 11
6721.0187331045
 21
4789.3470738257
 31
0.0
  0
LINE
  5
133
330
1F
100
AcDbEntity
  8
0
  6
Continuous
 62
     7
370
    25
100
AcDbLine
 10
6721.0187331045
 20
4789.3470738257
 30
0.0
 11
6721.0187331045
 21
4786.3470528449
 31
0.0
  0
LINE
  5
134
330
1F
100
AcDbEntity
  8
0
  6
Continuous
 62
     7
370
    25
100
AcDbLine
 10
6721.0187331045
 20
4786.3470528449
 30
0.0
 11
5827.0187691057
 21
4786.3470528449
 31
0.0
  0
LINE
  5
135
330
1F
100
AcDbEntity
  8
0
  6
Continuous
 62
     7
370
    25
100
AcDbLine
 10
5827.0187691057
 20
4786.3470528449
 30
0.0
 11
5827.0187691057
 21
4789.3470738257
 31
0.0
  0
LINE
  5
136
330
1F
100
AcDbEntity
  8
0
  6
Continuous
 62
     7
370
    25
100
AcDbLine
 10
5824.0187481249
 20
3892.3470888461
 30
0.0
 11
5824.0187481249
 21
4786.3470528449
 31
0.0
  0
LINE
  5
137
330
1F
100
AcDbEntity
  8
0
  6
Continuous
 62
     7
370
    25
100
AcDbLine
 10
5824.0187481249
 20
4786.3470528449
 30
0.0
 11
5827.0187691057
 21
4786.3470528449
 31
0.0
  0
LINE
  5
138
330
1F
100
AcDbEntity
  8
0
  6
Continuous
 62
     7
370
    25
100
AcDbLine
 10
5827.0187691057
 20
4786.3470528449
 30
0.0
 11
5827.0187691057
 21
3892.3470888461
 31
0.0
  0
LINE
  5
139
330
1F
100
AcDbEntity
  8
0
  6
Continuous
 62
     7
370
    25
100
AcDbLine
 10
5824.0187481249
 20
3892.3470888461
 30
0.0
 11
5827.0187691057
 21
3892.3470888461
 31
0.0
  0
ARC
  5
13A
330
1F
100
AcDbEntity
  8
0
  6
Continuous
 62
     7
370
    25
100
AcDbCircle
 10
5827.0187553361
 20
4786.3470659812
 30
0.0
 40
3.0
100
AcDbArc
 50
90.0
 51
180.0
  0
LINE
  5
13B
330
1F
100
AcDbEntity
  8
0
  6
Continuous
 62
     7
370
    25
100
AcDbLine
 10
6702.2814765776
 20
3908.3676252688
 30
0.0
 11
5846.2814703787
 21
3908.3676252688
 31
0.0
  0
LINE
  5
13C
330
1F
100
AcDbEntity
  8
0
  6
Continuous
 62
     7
370
    25
100
AcDbLine
 10
6702.2814765776
 20
4764.3676314677
 30
0.0
 11
6702.2814765776
 21
3908.3676252688
 31
0.0
  0
LINE
  5
13D
330
1F
100
AcDbEntity
  8
0
  6
Continuous
 62
     7
370
    25
100
AcDbLine
 10
5846.2814703787
 20
4764.3676314677
 30
0.0
 11
6702.2814765776
 21
4764.3676314677
 31
0.0
  0
LINE
  5
13E
330
1F
100
AcDbEntity
  8
0
  6
Continuous
 62
     7
370
    25
100
AcDbLine
 10
5846.2814703787
 20
3908.3676252688
 30
0.0
 11
5846.2814703787
 21
4764.3676314677
 31
0.0
  0
LINE
  5
13F
330
1F
100
AcDbEntity
  8
0
  6
Continuous
 62
     7
370
    25
100
AcDbLine
 10
6721.0187331045
 20
3892.3470888461
 30
0.0
 11
6721.0187331045
 21
4786.3470528449
 31
0.0
  0
LINE
  5
140
330
1F
100
AcDbEntity
  8
0
  6
Continuous
 62
     7
370
    25
100
AcDbLine
 10
5827.0187691057
 20
3892.3470888461
 30
0.0
 11
6721.0187331045
 21
3892.3470888461
 31
0.0
  0
LINE
  5
141
330
1F
100
AcDbEntity
  8
0
  6
Continuous
 62
     7
370
    25
100
AcDbLine
 10
6721.0187331045
 20
4786.3470528449
 30
0.0
 11
6724.0187540853
 21
4786.3470528449
 31
0.0
  0
LINE
  5
142
330
1F
100
AcDbEntity
  8
0
  6
Continuous
 62
     7
370
    25
100
AcDbLine
 10
6724.0187540853
 20
4786.3470528449
 30
0.0
 11
6724.0187540853
 21
3892.3470888461
 31
0.0
  0
LINE
  5
143
330
1F
100
AcDbEntity
  8
0
  6
Continuous
 62
     7
370
    25
100
AcDbLine
 10
6721.0187331045
 20
3892.3470888461
 30
0.0
 11
6724.0187540853
 21
3892.3470888461
 31
0.0
  0
ARC
  5
144
330
1F
100
AcDbEntity
  8
0
  6
Continuous
 62
     7
370
    25
100
AcDbCircle
 10
6721.0187553361
 20
4786.3470659812
 30
0.0
 40
3.0
100
AcDbArc
 50
0.0
 51
90.0
  0
LINE
  5
145
330
1F
100
AcDbEntity
  8
0
  6
Continuous
 62
     7
370
    25
100
AcDbLine
 10
6699.2814555967
 20
4761.3676402892
 30
0.0
 11
5849.2814615572
 21
4761.3676402892
 31
0.0
  0
LWPOLYLINE
  5
146
330
1F
100
AcDbEntity
  8
0
  6
Continuous
 62
     7
370
    25
100
AcDbPolyline
 90
        9
 70
   128
 43
0.0
 10
5846.2814703787
 20
4764.3676314677
 10
5846.8667283857
 20
4763.7823436583
 10
5847.4295154417
 20
4763.2195864047
 10
5847.9481950605
 20
4762.7009067858
 10
5848.4027996862
 20
4762.2463021601
 10
5848.7758651579
 20
4761.8732068862
 10
5849.0531161631
 20
4761.5959856833
 10
5849.2238238657
 20
4761.4252779807
 10
5849.2814615572
 20
4761.3676402892
  0
LWPOLYLINE
  5
147
330
1F
100
AcDbEntity
  8
0
  6
Continuous
 62
     7
370
    25
100
AcDbPolyline
 90
        9
 70
   128
 43
0.0
 10
6699.2814555967
 20
4761.3676402892
 10
6699.3390932882
 20
4761.4252779807
 10
6699.5098605955
 20
4761.5959856833
 10
6699.7870817984
 20
4761.8732068862
 10
6700.16014727
 20
4762.2463021601
 10
6700.6147518957
 20
4762.7009067858
 10
6701.1334315145
 20
4763.2195864047
 10
6701.6962185705
 20
4763.7823436583
 10
6702.2814765776
 20
4764.3676314677
  0
LINE
  5
148
330
1F
100
AcDbEntity
  8
0
  6
Continuous
 62
     7
370
    25
100
AcDbLine
 10
5849.2814615572
 20
4761.3676402892
 30
0.0
 11
5849.2814615572
 21
3911.3676462496
 31
0.0
  0
LWPOLYLINE
  5
149
330
1F
100
AcDbEntity
  8
0
  6
Continuous
 62
     7
370
    25
100
AcDbPolyline
 90
        9
 70
   128
 43
0.0
 10
5846.2814703787
 20
3908.3676252688
 10
5846.8667283857
 20
3908.9528832759
 10
5847.4295154417
 20
3909.5156703318
 10
5847.9481950605
 20
3910.0343499507
 10
5848.4027996862
 20
3910.4889545764
 10
5848.7758651579
 20
3910.862020048
 10
5849.0531161631
 20
3911.1392412509
 10
5849.2238238657
 20
3911.3100085581
 10
5849.2814615572
 20
3911.3676462496
  0
LINE
  5
14A
330
1F
100
AcDbEntity
  8
0
  6
Continuous
 62
     7
370
    25
100
AcDbLine
 10
6699.2814555967
 20
3911.3676462496
 30
0.0
 11
6699.2814555967
 21
4761.3676402892
 31
0.0
  0
LWPOLYLINE
  5
14B
330
1F
100
AcDbEntity
  8
0
  6
Continuous
 62
     7
370
    25
100
AcDbPolyline
 90
       10
 70
   128
 43
0.0
 10
6699.2814555967
 20
3911.3676462496
 10
6699.32705315
 20
3911.3220486964
 10
6699.4624152983
 20
3911.1866865481
 10
6699.6833697164
 20
3910.9657321299
 10
6699.9833598936
 20
3910.6657419528
 10
6700.3530875051
 20
3910.2960143412
 10
6700.7814660871
 20
3909.8676357592
 10
6701.2553826178
 20
3909.393659624
 10
6701.7605319822
 20
3908.8885698641
 10
6702.2814765776
 20
3908.3676252688
  0
LINE
  5
14C
330
1F
100
AcDbEntity
  8
0
  6
Continuous
 62
     7
370
    25
100
AcDbLine
 10
5849.2814615572
 20
3911.3676462496
 30
0.0
 11
6699.2814555967
 21
3911.3676462496
 31
0.0
  0
ARC
  5
14D
330
1F
100
AcDbEntity
  8
0
  6
Continuous
 62
     7
370
    25
100
AcDbCircle
 10
6721.0187553361
 20
3892.3470659812
 30
0.0
 40
3.0
100
AcDbArc
 50
270.0
 51
0.0
  0
LINE
  5
14E
330
1F
100
AcDbEntity
  8
0
  6
Continuous
 62
     7
370
    25
100
AcDbLine
 10
6721.0187331045
 20
3892.3470888461
 30
0.0
 11
6721.0187331045
 21
3889.3470678652
 31
0.0
  0
LINE
  5
14F
330
1F
100
AcDbEntity
  8
0
  6
Continuous
 62
     7
370
    25
100
AcDbLine
 10
6721.0187331045
 20
3889.3470678652
 30
0.0
 11
5827.0187691057
 21
3889.3470678652
 31
0.0
  0
LINE
  5
150
330
1F
100
AcDbEntity
  8
0
  6
Continuous
 62
     7
370
    25
100
AcDbLine
 10
5827.0187691057
 20
3889.3470678652
 30
0.0
 11
5827.0187691057
 21
3892.3470888461
 31
0.0
  0
ARC
  5
151
330
1F
100
AcDbEntity
  8
0
  6
Continuous
 62
     7
370
    25
100
AcDbCircle
 10
5827.0187553361
 20
3892.3470659812
 30
0.0
 40
3.0
100
AcDbArc
 50
180.0
 51
270.0
  0
LINE
  5
152
330
1F
100
AcDbEntity
  8
0
  6
Continuous
 62
     7
370
    25
100
AcDbLine
 10
5851.2814656103
 20
4759.3676362361
 30
0.0
 11
5851.2814656103
 21
3913.3676205004
 31
0.0
  0
LWPOLYLINE
  5
153
330
1F
100
AcDbEntity
  8
0
  6
Continuous
 62
     7
370
    25
100
AcDbPolyline
 90
        9
 70
   128
 43
0.0
 10
5849.2814615572
 20
3911.3676462496
 10
5849.3199065531
 20
3911.4060316409
 10
5849.4337216223
 20
3911.5198765124
 10
5849.6185258234
 20
3911.7047105158
 10
5849.867256006
 20
3911.9534406985
 10
5850.1703158224
 20
3912.2564707125
 10
5850.5161121691
 20
3912.6022372569
 10
5850.8912936056
 20
3912.9774484957
 10
5851.2814656103
 20
3913.3676205004
  0
LWPOLYLINE
  5
154
330
1F
100
AcDbEntity
  8
0
  6
Continuous
 62
     7
370
    25
100
AcDbPolyline
 90
        9
 70
   128
 43
0.0
 10
5851.2814656103
 20
4759.3676362361
 10
5850.8912936056
 20
4759.7578082408
 10
5850.5161121691
 20
4760.1329896773
 10
5850.1703158224
 20
4760.4787562216
 10
5849.867256006
 20
4760.7818458403
 10
5849.6185258234
 20
4761.030576023
 10
5849.4337216223
 20
4761.2153802241
 10
5849.3199065531
 20
4761.3291952933
 10
5849.2814615572
 20
4761.3676402892
  0
LINE
  5
155
330
1F
100
AcDbEntity
  8
0
  6
Continuous
 62
     7
370
    25
100
AcDbLine
 10
6697.2814813459
 20
3913.3676205004
 30
0.0
 11
6697.2814813459
 21
4759.3676362361
 31
0.0
  0
LWPOLYLINE
  5
156
330
1F
100
AcDbEntity
  8
0
  6
Continuous
 62
     7
370
    25
100
AcDbPolyline
 90
       10
 70
   128
 43
0.0
 10
6697.2814813459
 20
4759.3676362361
 10
6697.6287380064
 20
4759.7149226988
 10
6697.9655042494
 20
4760.0516591395
 10
6698.2814684713
 20
4760.3676233615
 10
6698.5670343244
 20
4760.6531892146
 10
6698.8135591352
 20
4760.8997140254
 10
6699.0135327185
 20
4761.0996876086
 10
6699.1608754003
 20
4761.2470004882
 10
6699.2510572279
 20
4761.3372419203
 10
6699.2814555967
 20
4761.3676402892
  0
LWPOLYLINE
  5
157
330
1F
100
AcDbEntity
  8
0
  6
Continuous
 62
     7
370
    25
100
AcDbPolyline
 90
       10
 70
   128
 43
0.0
 10
6699.2814555967
 20
3911.3676462496
 10
6699.2510572279
 20
3911.3979850138
 10
6699.1608754003
 20
3911.488226446
 10
6699.0135327185
 20
3911.6355691279
 10
6698.8135591352
 20
3911.8355427111
 10
6698.5670343244
 20
3912.0820675219
 10
6698.2814684713
 20
3912.367633375
 10
6697.9655042494
 20
3912.683597597
 10
6697.6287380064
 20
3913.0203042353
 10
6697.2814813459
 20
3913.3676205004
  0
LINE
  5
158
330
1F
100
AcDbEntity
  8
0
  6
Continuous
 62
     7
370
    25
100
AcDbLine
 10
6697.2814813459
 20
4759.3676362361
 30
0.0
 11
5851.2814656103
 21
4759.3676362361
 31
0.0
  0
LINE
  5
159
330
1F
100
AcDbEntity
  8
0
  6
Continuous
 62
     7
370
    25
100
AcDbLine
 10
5851.2814656103
 20
3913.3676205004
 30
0.0
 11
6697.2814813459
 21
3913.3676205004
 31
0.0
  0
CIRCLE
  5
15A
330
1F
100
AcDbEntity
  8
0
  6
Continuous
 62
     7
370
    25
100
AcDbCircle
 10
5991.0831966874
 20
4676.1344433138
 30
0.0
 40
13.75252258054479
  0
CIRCLE
  5
15B
330
1F
100
AcDbEntity
  8
0
  6
Continuous
 62
     7
370
    25
100
AcDbCircle
 10
6104.2202816772
 20
4676.1344433138
 30
0.0
 40
13.7525225805457
  0
CIRCLE
  5
15C
330
1F
100
AcDbEntity
  8
0
  6
Continuous
 62
     7
370
    25
100
AcDbCircle
 10
6104.2202816772
 20
4676.1344433138
 30
0.0
 40
16.16861367476577
  0
CIRCLE
  5
15D
330
1F
100
AcDbEntity
  8
0
  6
Continuous
 62
     7
370
    25
100
AcDbCircle
 10
6217.6965950661
 20
4675.7625477821
 30
0.0
 40
13.7525225805457
  0
CIRCLE
  5
15E
330
1F
100
AcDbEntity
  8
0
  6
Continuous
 62
     7
370
    25
100
AcDbCircle
 10
6217.6965950661
 20
4675.7625477821
 30
0.0
 40
16.16861367476577
  0
CIRCLE
  5
15F
330
1F
100
AcDbEntity
  8
0
  6
Continuous
 62
     7
370
    25
100
AcDbCircle
 10
6443.4449265293
 20
4675.2367092656
 30
0.0
 40
13.7525225805457
  0
CIRCLE
  5
160
330
1F
100
AcDbEntity
  8
0
  6
Continuous
 62
     7
370
    25
100
AcDbCircle
 10
6555.624656241
 20
4674.2793539875
 30
0.0
 40
13.75252258054479
  0
CIRCLE
  5
161
330
1F
100
AcDbEntity
  8
0
  6
Continuous
 62
     7
370
    25
100
AcDbCircle
 10
6555.624656241
 20
4674.2793539875
 30
0.0
 40
16.16861367476486
  0
CIRCLE
  5
162
330
1F
100
AcDbEntity
  8
0
  6
Continuous
 62
     7
370
    25
100
AcDbCircle
 10
5991.0831966874
 20
4676.1344433138
 30
0.0
 40
16.16861367476486
  0
CIRCLE
  5
163
330
1F
100
AcDbEntity
  8
0
  6
Continuous
 62
     7
370
    25
100
AcDbCircle
 10
6330.833680056
 20
4675.7625477821
 30
0.0
 40
13.75252258054479
  0
CIRCLE
  5
164
330
1F
100
AcDbEntity
  8
0
  6
Continuous
 62
     7
370
    25
100
AcDbCircle
 10
6330.833680056
 20
4675.7625477821
 30
0.0
 40
16.16861367476486
  0
CIRCLE
  5
165
330
1F
100
AcDbEntity
  8
0
  6
Continuous
 62
     7
370
    25
100
AcDbCircle
 10
6443.4449265293
 20
4675.2367092656
 30
0.0
 40
16.16861367476577
  0
CIRCLE
  5
166
330
1F
100
AcDbEntity
  8
0
  6
Continuous
 62
     7
370
    25
100
AcDbCircle
 10
6274.265137561
 20
4619.1940052872
 30
0.0
 40
13.75252258054479
  0
CIRCLE
  5
167
330
1F
100
AcDbEntity
  8
0
  6
Continuous
 62
     7
370
    25
100
AcDbCircle
 10
5934.5146541925
 20
4619.5659008189
 30
0.0
 40
13.7525225805457
  0
CIRCLE
  5
168
330
1F
100
AcDbEntity
  8
0
  6
Continuous
 62
     7
370
    25
100
AcDbCircle
 10
5934.5146541925
 20
4619.5659008189
 30
0.0
 40
16.16861367476577
  0
CIRCLE
  5
169
330
1F
100
AcDbEntity
  8
0
  6
Continuous
 62
     7
370
    25
100
AcDbCircle
 10
6387.4022225509
 20
4619.1940052872
 30
0.0
 40
13.7525225805457
  0
CIRCLE
  5
16A
330
1F
100
AcDbEntity
  8
0
  6
Continuous
 62
     7
370
    25
100
AcDbCircle
 10
6387.4022225509
 20
4619.1940052872
 30
0.0
 40
16.16861367476577
  0
CIRCLE
  5
16B
330
1F
100
AcDbEntity
  8
0
  6
Continuous
 62
     7
370
    25
100
AcDbCircle
 10
6500.0134690243
 20
4618.6681667707
 30
0.0
 40
13.7525225805457
  0
CIRCLE
  5
16C
330
1F
100
AcDbEntity
  8
0
  6
Continuous
 62
     7
370
    25
100
AcDbCircle
 10
6048.0073011477
 20
4619.2103388535
 30
0.0
 40
13.75252258054479
  0
CIRCLE
  5
16D
330
1F
100
AcDbEntity
  8
0
  6
Continuous
 62
     7
370
    25
100
AcDbCircle
 10
6161.1443861375
 20
4619.2103388535
 30
0.0
 40
13.7525225805457
  0
CIRCLE
  5
16E
330
1F
100
AcDbEntity
  8
0
  6
Continuous
 62
     7
370
    25
100
AcDbCircle
 10
6161.1443861375
 20
4619.2103388535
 30
0.0
 40
16.16861367476577
  0
CIRCLE
  5
16F
330
1F
100
AcDbEntity
  8
0
  6
Continuous
 62
     7
370
    25
100
AcDbCircle
 10
6612.193198736
 20
4617.7108114925
 30
0.0
 40
13.7525225805457
  0
CIRCLE
  5
170
330
1F
100
AcDbEntity
  8
0
  6
Continuous
 62
     7
370
    25
100
AcDbCircle
 10
6612.193198736
 20
4617.7108114925
 30
0.0
 40
16.16861367476577
  0
CIRCLE
  5
171
330
1F
100
AcDbEntity
  8
0
  6
Continuous
 62
     7
370
    25
100
AcDbCircle
 10
6274.265137561
 20
4619.1940052872
 30
0.0
 40
16.16861367476577
  0
CIRCLE
  5
172
330
1F
100
AcDbEntity
  8
0
  6
Continuous
 62
     7
370
    25
100
AcDbCircle
 10
6500.0134690243
 20
4618.6681667707
 30
0.0
 40
16.16861367476577
  0
CIRCLE
  5
173
330
1F
100
AcDbEntity
  8
0
  6
Continuous
 62
     7
370
    25
100
AcDbCircle
 10
6048.0073011477
 20
4619.2103388535
 30
0.0
 40
16.16861367476486
  0
CIRCLE
  5
174
330
1F
100
AcDbEntity
  8
0
  6
Continuous
 62
     7
370
    25
100
AcDbCircle
 10
6330.833680056
 20
4562.6254627922
 30
0.0
 40
13.75252258054479
  0
CIRCLE
  5
175
330
1F
100
AcDbEntity
  8
0
  6
Continuous
 62
     7
370
    25
100
AcDbCircle
 10
6330.833680056
 20
4562.6254627922
 30
0.0
 40
16.16861367476486
  0
CIRCLE
  5
176
330
1F
100
AcDbEntity
  8
0
  6
Continuous
 62
     7
370
    25
100
AcDbCircle
 10
6104.5758436426
 20
4562.6417963586
 30
0.0
 40
13.75252258054479
  0
CIRCLE
  5
177
330
1F
100
AcDbEntity
  8
0
  6
Continuous
 62
     7
370
    25
100
AcDbCircle
 10
6104.5758436426
 20
4562.6417963586
 30
0.0
 40
16.16861367476577
  0
CIRCLE
  5
178
330
1F
100
AcDbEntity
  8
0
  6
Continuous
 62
     7
370
    25
100
AcDbCircle
 10
6557.8601148901
 20
4563.3777276466
 30
0.0
 40
13.7525225805457
  0
CIRCLE
  5
179
330
1F
100
AcDbEntity
  8
0
  6
Continuous
 62
     7
370
    25
100
AcDbCircle
 10
6557.8601148901
 20
4563.3777276466
 30
0.0
 40
16.16861367476577
  0
CIRCLE
  5
17A
330
1F
100
AcDbEntity
  8
0
  6
Continuous
 62
     7
370
    25
100
AcDbCircle
 10
6217.7129286325
 20
4562.6417963586
 30
0.0
 40
13.7525225805457
  0
CIRCLE
  5
17B
330
1F
100
AcDbEntity
  8
0
  6
Continuous
 62
     7
370
    25
100
AcDbCircle
 10
6217.7129286325
 20
4562.6417963586
 30
0.0
 40
16.16861367476577
  0
CIRCLE
  5
17C
330
1F
100
AcDbEntity
  8
0
  6
Continuous
 62
     7
370
    25
100
AcDbCircle
 10
5991.4387586528
 20
4562.6417963586
 30
0.0
 40
13.75252258054479
  0
CIRCLE
  5
17D
330
1F
100
AcDbEntity
  8
0
  6
Continuous
 62
     7
370
    25
100
AcDbCircle
 10
6444.7230299002
 20
4563.3777276466
 30
0.0
 40
13.75252258054479
  0
CIRCLE
  5
17E
330
1F
100
AcDbEntity
  8
0
  6
Continuous
 62
     7
370
    25
100
AcDbCircle
 10
6444.7230299002
 20
4563.3777276466
 30
0.0
 40
16.16861367476577
  0
CIRCLE
  5
17F
330
1F
100
AcDbEntity
  8
0
  6
Continuous
 62
     7
370
    25
100
AcDbCircle
 10
5991.4387586528
 20
4562.6417963586
 30
0.0
 40
16.16861367476577
  0
CIRCLE
  5
180
330
1F
100
AcDbEntity
  8
0
  6
Continuous
 62
     7
370
    25
100
AcDbCircle
 10
6387.4022225509
 20
4506.0569202973
 30
0.0
 40
13.7525225805457
  0
CIRCLE
  5
181
330
1F
100
AcDbEntity
  8
0
  6
Continuous
 62
     7
370
    25
100
AcDbCircle
 10
6387.4022225509
 20
4506.0569202973
 30
0.0
 40
16.16861367476577
  0
CIRCLE
  5
182
330
1F
100
AcDbEntity
  8
0
  6
Continuous
 62
     7
370
    25
100
AcDbCircle
 10
5934.5146541925
 20
4506.428815829
 30
0.0
 40
13.7525225805457
  0
CIRCLE
  5
183
330
1F
100
AcDbEntity
  8
0
  6
Continuous
 62
     7
370
    25
100
AcDbCircle
 10
5934.5146541925
 20
4506.428815829
 30
0.0
 40
16.16861367476577
  0
CIRCLE
  5
184
330
1F
100
AcDbEntity
  8
0
  6
Continuous
 62
     7
370
    25
100
AcDbCircle
 10
6274.2814711274
 20
4506.0732538637
 30
0.0
 40
13.75252258054479
  0
CIRCLE
  5
185
330
1F
100
AcDbEntity
  8
0
  6
Continuous
 62
     7
370
    25
100
AcDbCircle
 10
6161.1443861375
 20
4506.0732538637
 30
0.0
 40
13.7525225805457
  0
CIRCLE
  5
186
330
1F
100
AcDbEntity
  8
0
  6
Continuous
 62
     7
370
    25
100
AcDbCircle
 10
6161.1443861375
 20
4506.0732538637
 30
0.0
 40
16.16861367476577
  0
CIRCLE
  5
187
330
1F
100
AcDbEntity
  8
0
  6
Continuous
 62
     7
370
    25
100
AcDbCircle
 10
6614.428657385
 20
4506.8091851517
 30
0.0
 40
13.7525225805457
  0
CIRCLE
  5
188
330
1F
100
AcDbEntity
  8
0
  6
Continuous
 62
     7
370
    25
100
AcDbCircle
 10
6614.428657385
 20
4506.8091851517
 30
0.0
 40
16.16861367476577
  0
CIRCLE
  5
189
330
1F
100
AcDbEntity
  8
0
  6
Continuous
 62
     7
370
    25
100
AcDbCircle
 10
6500.5393075407
 20
4506.0569202973
 30
0.0
 40
13.75252258054479
  0
CIRCLE
  5
18A
330
1F
100
AcDbEntity
  8
0
  6
Continuous
 62
     7
370
    25
100
AcDbCircle
 10
6500.5393075407
 20
4506.0569202973
 30
0.0
 40
16.16861367476486
  0
CIRCLE
  5
18B
330
1F
100
AcDbEntity
  8
0
  6
Continuous
 62
     7
370
    25
100
AcDbCircle
 10
6274.2814711274
 20
4506.0732538637
 30
0.0
 40
16.16861367476486
  0
CIRCLE
  5
18C
330
1F
100
AcDbEntity
  8
0
  6
Continuous
 62
     7
370
    25
100
AcDbCircle
 10
6048.0073011477
 20
4506.0732538637
 30
0.0
 40
13.7525225805457
  0
CIRCLE
  5
18D
330
1F
100
AcDbEntity
  8
0
  6
Continuous
 62
     7
370
    25
100
AcDbCircle
 10
6048.0073011477
 20
4506.0732538637
 30
0.0
 40
16.16861367476577
  0
CIRCLE
  5
18E
330
1F
100
AcDbEntity
  8
0
  6
Continuous
 62
     7
370
    25
100
AcDbCircle
 10
6557.1078500357
 20
4449.4883778024
 30
0.0
 40
13.75252258054479
  0
CIRCLE
  5
18F
330
1F
100
AcDbEntity
  8
0
  6
Continuous
 62
     7
370
    25
100
AcDbCircle
 10
6557.1078500357
 20
4449.4883778024
 30
0.0
 40
16.16861367476577
  0
CIRCLE
  5
190
330
1F
100
AcDbEntity
  8
0
  6
Continuous
 62
     7
370
    25
100
AcDbCircle
 10
6330.8500136223
 20
4449.5047113687
 30
0.0
 40
13.75252258054479
  0
CIRCLE
  5
191
330
1F
100
AcDbEntity
  8
0
  6
Continuous
 62
     7
370
    25
100
AcDbCircle
 10
6330.8500136223
 20
4449.5047113687
 30
0.0
 40
16.16861367476486
  0
CIRCLE
  5
192
330
1F
100
AcDbEntity
  8
0
  6
Continuous
 62
     7
370
    25
100
AcDbCircle
 10
6444.3674679349
 20
4449.8850806914
 30
0.0
 40
13.7525225805457
  0
CIRCLE
  5
193
330
1F
100
AcDbEntity
  8
0
  6
Continuous
 62
     7
370
    25
100
AcDbCircle
 10
6444.3674679349
 20
4449.8850806914
 30
0.0
 40
16.16861367476577
  0
CIRCLE
  5
194
330
1F
100
AcDbEntity
  8
0
  6
Continuous
 62
     7
370
    25
100
AcDbCircle
 10
6217.7129286325
 20
4449.5047113687
 30
0.0
 40
13.7525225805457
  0
CIRCLE
  5
195
330
1F
100
AcDbEntity
  8
0
  6
Continuous
 62
     7
370
    25
100
AcDbCircle
 10
6217.7129286325
 20
4449.5047113687
 30
0.0
 40
16.16861367476577
  0
CIRCLE
  5
196
330
1F
100
AcDbEntity
  8
0
  6
Continuous
 62
     7
370
    25
100
AcDbCircle
 10
5991.4387586528
 20
4449.5047113687
 30
0.0
 40
13.75252258054479
  0
CIRCLE
  5
197
330
1F
100
AcDbEntity
  8
0
  6
Continuous
 62
     7
370
    25
100
AcDbCircle
 10
5991.4387586528
 20
4449.5047113687
 30
0.0
 40
16.16861367476577
  0
CIRCLE
  5
198
330
1F
100
AcDbEntity
  8
0
  6
Continuous
 62
     7
370
    25
100
AcDbCircle
 10
6104.5758436426
 20
4449.5047113687
 30
0.0
 40
13.7525225805457
  0
CIRCLE
  5
199
330
1F
100
AcDbEntity
  8
0
  6
Continuous
 62
     7
370
    25
100
AcDbCircle
 10
6104.5758436426
 20
4449.5047113687
 30
0.0
 40
16.16861367476577
  0
CIRCLE
  5
19A
330
1F
100
AcDbEntity
  8
0
  6
Continuous
 62
     7
370
    25
100
AcDbCircle
 10
6161.1443861375
 20
4392.9361688738
 30
0.0
 40
13.75252258054479
  0
CIRCLE
  5
19B
330
1F
100
AcDbEntity
  8
0
  6
Continuous
 62
     7
370
    25
100
AcDbCircle
 10
6161.1443861375
 20
4392.9361688738
 30
0.0
 40
16.16861367476577
  0
CIRCLE
  5
19C
330
1F
100
AcDbEntity
  8
0
  6
Continuous
 62
     7
370
    25
100
AcDbCircle
 10
6048.0073011477
 20
4392.9361688738
 30
0.0
 40
13.7525225805457
  0
CIRCLE
  5
19D
330
1F
100
AcDbEntity
  8
0
  6
Continuous
 62
     7
370
    25
100
AcDbCircle
 10
6048.0073011477
 20
4392.9361688738
 30
0.0
 40
16.16861367476577
  0
CIRCLE
  5
19E
330
1F
100
AcDbEntity
  8
0
  6
Continuous
 62
     7
370
    25
100
AcDbCircle
 10
6613.6763925306
 20
4392.9198353075
 30
0.0
 40
13.7525225805457
  0
CIRCLE
  5
19F
330
1F
100
AcDbEntity
  8
0
  6
Continuous
 62
     7
370
    25
100
AcDbCircle
 10
6613.6763925306
 20
4392.9198353075
 30
0.0
 40
16.16861367476577
  0
CIRCLE
  5
1A0
330
1F
100
AcDbEntity
  8
0
  6
Continuous
 62
     7
370
    25
100
AcDbCircle
 10
5934.8865497242
 20
4392.9525024402
 30
0.0
 40
13.75252258054479
  0
CIRCLE
  5
1A1
330
1F
100
AcDbEntity
  8
0
  6
Continuous
 62
     7
370
    25
100
AcDbCircle
 10
5934.8865497242
 20
4392.9525024402
 30
0.0
 40
16.16861367476577
  0
CIRCLE
  5
1A2
330
1F
100
AcDbEntity
  8
0
  6
Continuous
 62
     7
370
    25
100
AcDbCircle
 10
6387.4185561172
 20
4392.9361688738
 30
0.0
 40
13.7525225805457
  0
CIRCLE
  5
1A3
330
1F
100
AcDbEntity
  8
0
  6
Continuous
 62
     7
370
    25
100
AcDbCircle
 10
6387.4185561172
 20
4392.9361688738
 30
0.0
 40
16.16861367476577
  0
CIRCLE
  5
1A4
330
1F
100
AcDbEntity
  8
0
  6
Continuous
 62
     7
370
    25
100
AcDbCircle
 10
6500.5393075407
 20
4392.9198353075
 30
0.0
 40
13.7525225805457
  0
CIRCLE
  5
1A5
330
1F
100
AcDbEntity
  8
0
  6
Continuous
 62
     7
370
    25
100
AcDbCircle
 10
6500.5393075407
 20
4392.9198353075
 30
0.0
 40
16.16861367476486
  0
CIRCLE
  5
1A6
330
1F
100
AcDbEntity
  8
0
  6
Continuous
 62
     7
370
    25
100
AcDbCircle
 10
6444.0034321785
 20
4336.3512928125
 30
0.0
 40
13.75252258054661
  0
CIRCLE
  5
1A7
330
1F
100
AcDbEntity
  8
0
  6
Continuous
 62
     7
370
    25
100
AcDbCircle
 10
6444.0034321785
 20
4336.3512928125
 30
0.0
 40
16.16861367476577
  0
CIRCLE
  5
1A8
330
1F
100
AcDbEntity
  8
0
  6
Continuous
 62
     7
370
    25
100
AcDbCircle
 10
6557.1078500357
 20
4336.3512928125
 30
0.0
 40
13.75252258054479
  0
CIRCLE
  5
1A9
330
1F
100
AcDbEntity
  8
0
  6
Continuous
 62
     7
370
    25
100
AcDbCircle
 10
6557.1078500357
 20
4336.3512928125
 30
0.0
 40
16.16861367476577
  0
CIRCLE
  5
1AA
330
1F
100
AcDbEntity
  8
0
  6
Continuous
 62
     7
370
    25
100
AcDbCircle
 10
5991.4550922191
 20
4336.3839599452
 30
0.0
 40
13.75252258054479
  0
CIRCLE
  5
1AB
330
1F
100
AcDbEntity
  8
0
  6
Continuous
 62
     7
370
    25
100
AcDbCircle
 10
5991.4550922191
 20
4336.3839599452
 30
0.0
 40
16.16861367476577
  0
CIRCLE
  5
1AC
330
1F
100
AcDbEntity
  8
0
  6
Continuous
 62
     7
370
    25
100
AcDbCircle
 10
6104.5758436426
 20
4336.3676263789
 30
0.0
 40
13.75252258054479
  0
CIRCLE
  5
1AD
330
1F
100
AcDbEntity
  8
0
  6
Continuous
 62
     7
370
    25
100
AcDbCircle
 10
6104.5758436426
 20
4336.3676263789
 30
0.0
 40
16.16861367476577
  0
CIRCLE
  5
1AE
330
1F
100
AcDbEntity
  8
0
  6
Continuous
 62
     7
370
    25
100
AcDbCircle
 10
6618.9278698815
 20
4285.0342276685
 30
0.0
 40
13.75252258054479
  0
CIRCLE
  5
1AF
330
1F
100
AcDbEntity
  8
0
  6
Continuous
 62
     7
370
    25
100
AcDbCircle
 10
6618.9278698815
 20
4285.0342276685
 30
0.0
 40
16.16861367476577
  0
CIRCLE
  5
1B0
330
1F
100
AcDbEntity
  8
0
  6
Continuous
 62
     7
370
    25
100
AcDbCircle
 10
6500.5556411071
 20
4279.799083884
 30
0.0
 40
13.75252258054479
  0
CIRCLE
  5
1B1
330
1F
100
AcDbEntity
  8
0
  6
Continuous
 62
     7
370
    25
100
AcDbCircle
 10
5934.8865497242
 20
4279.8154174503
 30
0.0
 40
13.75252258054479
  0
CIRCLE
  5
1B2
330
1F
100
AcDbEntity
  8
0
  6
Continuous
 62
     7
370
    25
100
AcDbCircle
 10
6387.4185561172
 20
4279.799083884
 30
0.0
 40
13.7525225805457
  0
CIRCLE
  5
1B3
330
1F
100
AcDbEntity
  8
0
  6
Continuous
 62
     7
370
    25
100
AcDbCircle
 10
6500.5556411071
 20
4279.799083884
 30
0.0
 40
16.16861367476486
  0
CIRCLE
  5
1B4
330
1F
100
AcDbEntity
  8
0
  6
Continuous
 62
     7
370
    25
100
AcDbCircle
 10
6048.023634714
 20
4279.8154174503
 30
0.0
 40
13.7525225805457
  0
CIRCLE
  5
1B5
330
1F
100
AcDbEntity
  8
0
  6
Continuous
 62
     7
370
    25
100
AcDbCircle
 10
6048.023634714
 20
4279.8154174503
 30
0.0
 40
16.16861367476577
  0
CIRCLE
  5
1B6
330
1F
100
AcDbEntity
  8
0
  6
Continuous
 62
     7
370
    25
100
AcDbCircle
 10
6161.1443861375
 20
4279.799083884
 30
0.0
 40
13.75252258054479
  0
CIRCLE
  5
1B7
330
1F
100
AcDbEntity
  8
0
  6
Continuous
 62
     7
370
    25
100
AcDbCircle
 10
6161.1443861375
 20
4279.799083884
 30
0.0
 40
16.16861367476577
  0
CIRCLE
  5
1B8
330
1F
100
AcDbEntity
  8
0
  6
Continuous
 62
     7
370
    25
100
AcDbCircle
 10
5934.8865497242
 20
4279.8154174503
 30
0.0
 40
16.16861367476577
  0
CIRCLE
  5
1B9
330
1F
100
AcDbEntity
  8
0
  6
Continuous
 62
     7
370
    25
100
AcDbCircle
 10
6387.4185561172
 20
4279.799083884
 30
0.0
 40
16.16861367476577
  0
CIRCLE
  5
1BA
330
1F
100
AcDbEntity
  8
0
  6
Continuous
 62
     7
370
    25
100
AcDbCircle
 10
6330.8500136223
 20
4223.230541389
 30
0.0
 40
13.39986861912803
  0
CIRCLE
  5
1BB
330
1F
100
AcDbEntity
  8
0
  6
Continuous
 62
     7
370
    25
100
AcDbCircle
 10
6330.8500136223
 20
4223.230541389
 30
0.0
 40
14.08390890577994
  0
CIRCLE
  5
1BC
330
1F
100
AcDbEntity
  8
0
  6
Continuous
 62
     7
370
    25
100
AcDbCircle
 10
6443.9870986122
 20
4223.230541389
 30
0.0
 40
13.7525225805457
  0
CIRCLE
  5
1BD
330
1F
100
AcDbEntity
  8
0
  6
Continuous
 62
     7
370
    25
100
AcDbCircle
 10
6443.9870986122
 20
4223.230541389
 30
0.0
 40
16.16861367476577
  0
CIRCLE
  5
1BE
330
1F
100
AcDbEntity
  8
0
  6
Continuous
 62
     7
370
    25
100
AcDbCircle
 10
6217.7129286325
 20
4223.230541389
 30
0.0
 40
13.75252258054479
  0
CIRCLE
  5
1BF
330
1F
100
AcDbEntity
  8
0
  6
Continuous
 62
     7
370
    25
100
AcDbCircle
 10
6557.124183602
 20
4223.230541389
 30
0.0
 40
13.75252258054479
  0
CIRCLE
  5
1C0
330
1F
100
AcDbEntity
  8
0
  6
Continuous
 62
     7
370
    25
100
AcDbCircle
 10
6217.7129286325
 20
4223.230541389
 30
0.0
 40
16.16861367476577
  0
CIRCLE
  5
1C1
330
1F
100
AcDbEntity
  8
0
  6
Continuous
 62
     7
370
    25
100
AcDbCircle
 10
5991.4550922191
 20
4223.2468749554
 30
0.0
 40
13.75252258054479
  0
CIRCLE
  5
1C2
330
1F
100
AcDbEntity
  8
0
  6
Continuous
 62
     7
370
    25
100
AcDbCircle
 10
5991.4550922191
 20
4223.2468749554
 30
0.0
 40
16.16861367476577
  0
CIRCLE
  5
1C3
330
1F
100
AcDbEntity
  8
0
  6
Continuous
 62
     7
370
    25
100
AcDbCircle
 10
6104.592177209
 20
4223.2468749554
 30
0.0
 40
13.7525225805457
  0
CIRCLE
  5
1C4
330
1F
100
AcDbEntity
  8
0
  6
Continuous
 62
     7
370
    25
100
AcDbCircle
 10
6104.592177209
 20
4223.2468749554
 30
0.0
 40
16.16861367476577
  0
CIRCLE
  5
1C5
330
1F
100
AcDbEntity
  8
0
  6
Continuous
 62
     7
370
    25
100
AcDbCircle
 10
6557.124183602
 20
4223.230541389
 30
0.0
 40
16.16861367476577
  0
CIRCLE
  5
1C6
330
1F
100
AcDbEntity
  8
0
  6
Continuous
 62
     7
370
    25
100
AcDbCircle
 10
5935.4123882406
 20
4167.2041709769
 30
0.0
 40
13.7525225805457
  0
CIRCLE
  5
1C7
330
1F
100
AcDbEntity
  8
0
  6
Continuous
 62
     7
370
    25
100
AcDbCircle
 10
6047.2713698596
 20
4165.926067606
 30
0.0
 40
13.75252258054479
  0
CIRCLE
  5
1C8
330
1F
100
AcDbEntity
  8
0
  6
Continuous
 62
     7
370
    25
100
AcDbCircle
 10
5935.4123882406
 20
4167.2041709769
 30
0.0
 40
16.16861367476486
  0
CIRCLE
  5
1C9
330
1F
100
AcDbEntity
  8
0
  6
Continuous
 62
     7
370
    25
100
AcDbCircle
 10
6047.2713698596
 20
4165.926067606
 30
0.0
 40
16.16861367476668
  0
CIRCLE
  5
1CA
330
1F
100
AcDbEntity
  8
0
  6
Continuous
 62
     7
370
    25
100
AcDbCircle
 10
6500.5556411071
 20
4166.6619988941
 30
0.0
 40
13.75252258054479
  0
CIRCLE
  5
1CB
330
1F
100
AcDbEntity
  8
0
  6
Continuous
 62
     7
370
    25
100
AcDbCircle
 10
6500.5556411071
 20
4166.6619988941
 30
0.0
 40
16.16861367476486
  0
CIRCLE
  5
1CC
330
1F
100
AcDbEntity
  8
0
  6
Continuous
 62
     7
370
    25
100
AcDbCircle
 10
6274.2978046937
 20
4166.6456653278
 30
0.0
 40
13.75252258054661
  0
CIRCLE
  5
1CD
330
1F
100
AcDbEntity
  8
0
  6
Continuous
 62
     7
370
    25
100
AcDbCircle
 10
6614.0482880623
 20
4166.3064369287
 30
0.0
 40
13.75252258054479
  0
CIRCLE
  5
1CE
330
1F
100
AcDbEntity
  8
0
  6
Continuous
 62
     7
370
    25
100
AcDbCircle
 10
6614.0482880623
 20
4166.3064369287
 30
0.0
 40
16.16861367476486
  0
CIRCLE
  5
1CF
330
1F
100
AcDbEntity
  8
0
  6
Continuous
 62
     7
370
    25
100
AcDbCircle
 10
6387.4185561172
 20
4166.6619988941
 30
0.0
 40
13.75252258054479
  0
CIRCLE
  5
1D0
330
1F
100
AcDbEntity
  8
0
  6
Continuous
 62
     7
370
    25
100
AcDbCircle
 10
6387.4185561172
 20
4166.6619988941
 30
0.0
 40
16.16861367476577
  0
CIRCLE
  5
1D1
330
1F
100
AcDbEntity
  8
0
  6
Continuous
 62
     7
370
    25
100
AcDbCircle
 10
6160.7640168148
 20
4166.2816295714
 30
0.0
 40
13.75252258054479
  0
CIRCLE
  5
1D2
330
1F
100
AcDbEntity
  8
0
  6
Continuous
 62
     7
370
    25
100
AcDbCircle
 10
6160.7640168148
 20
4166.2816295714
 30
0.0
 40
16.16861367476577
  0
CIRCLE
  5
1D3
330
1F
100
AcDbEntity
  8
0
  6
Continuous
 62
     7
370
    25
100
AcDbCircle
 10
6274.2978046937
 20
4166.6456653278
 30
0.0
 40
16.16861367476486
  0
CIRCLE
  5
1D4
330
1F
100
AcDbEntity
  8
0
  6
Continuous
 62
     7
370
    25
100
AcDbCircle
 10
6443.9870986122
 20
4110.0934563992
 30
0.0
 40
13.75252258054479
  0
CIRCLE
  5
1D5
330
1F
100
AcDbEntity
  8
0
  6
Continuous
 62
     7
370
    25
100
AcDbCircle
 10
6443.9870986122
 20
4110.0934563992
 30
0.0
 40
16.16861367476577
  0
CIRCLE
  5
1D6
330
1F
100
AcDbEntity
  8
0
  6
Continuous
 62
     7
370
    25
100
AcDbCircle
 10
6104.592177209
 20
4110.1097899655
 30
0.0
 40
13.75252258054479
  0
CIRCLE
  5
1D7
330
1F
100
AcDbEntity
  8
0
  6
Continuous
 62
     7
370
    25
100
AcDbCircle
 10
6330.8500136223
 20
4110.0934563992
 30
0.0
 40
13.7525225805457
  0
CIRCLE
  5
1D8
330
1F
100
AcDbEntity
  8
0
  6
Continuous
 62
     7
370
    25
100
AcDbCircle
 10
6330.8500136223
 20
4110.0934563992
 30
0.0
 40
16.16861367476486
  0
CIRCLE
  5
1D9
330
1F
100
AcDbEntity
  8
0
  6
Continuous
 62
     7
370
    25
100
AcDbCircle
 10
6557.4797455674
 20
4109.7378944338
 30
0.0
 40
13.7525225805457
  0
CIRCLE
  5
1DA
330
1F
100
AcDbEntity
  8
0
  6
Continuous
 62
     7
370
    25
100
AcDbCircle
 10
6557.4797455674
 20
4109.7378944338
 30
0.0
 40
16.16861367476577
  0
CIRCLE
  5
1DB
330
1F
100
AcDbEntity
  8
0
  6
Continuous
 62
     7
370
    25
100
AcDbCircle
 10
6217.7292621988
 20
4110.1097899655
 30
0.0
 40
13.75252258054479
  0
CIRCLE
  5
1DC
330
1F
100
AcDbEntity
  8
0
  6
Continuous
 62
     7
370
    25
100
AcDbCircle
 10
6217.7292621988
 20
4110.1097899655
 30
0.0
 40
16.16861367476668
  0
CIRCLE
  5
1DD
330
1F
100
AcDbEntity
  8
0
  6
Continuous
 62
     7
370
    25
100
AcDbCircle
 10
5991.9809307356
 20
4110.635628482
 30
0.0
 40
13.7525225805457
  0
CIRCLE
  5
1DE
330
1F
100
AcDbEntity
  8
0
  6
Continuous
 62
     7
370
    25
100
AcDbCircle
 10
5991.9809307356
 20
4110.635628482
 30
0.0
 40
16.16861367476577
  0
CIRCLE
  5
1DF
330
1F
100
AcDbEntity
  8
0
  6
Continuous
 62
     7
370
    25
100
AcDbCircle
 10
6104.592177209
 20
4110.1097899655
 30
0.0
 40
16.16861367476577
  0
CIRCLE
  5
1E0
330
1F
100
AcDbEntity
  8
0
  6
Continuous
 62
     7
370
    25
100
AcDbCircle
 10
5936.3697435188
 20
4055.0244412652
 30
0.0
 40
13.75252258054479
  0
CIRCLE
  5
1E1
330
1F
100
AcDbEntity
  8
0
  6
Continuous
 62
     7
370
    25
100
AcDbCircle
 10
5936.3697435188
 20
4055.0244412652
 30
0.0
 40
16.16861367476577
  0
CIRCLE
  5
1E2
330
1F
100
AcDbEntity
  8
0
  6
Continuous
 62
     7
370
    25
100
AcDbCircle
 10
6161.1607197039
 20
4053.5412474706
 30
0.0
 40
13.75252258054479
  0
CIRCLE
  5
1E3
330
1F
100
AcDbEntity
  8
0
  6
Continuous
 62
     7
370
    25
100
AcDbCircle
 10
6161.1607197039
 20
4053.5412474706
 30
0.0
 40
16.16861367476577
  0
CIRCLE
  5
1E4
330
1F
100
AcDbEntity
  8
0
  6
Continuous
 62
     7
370
    25
100
AcDbCircle
 10
6047.2713698596
 20
4052.7889826162
 30
0.0
 40
13.75252258054479
  0
CIRCLE
  5
1E5
330
1F
100
AcDbEntity
  8
0
  6
Continuous
 62
     7
370
    25
100
AcDbCircle
 10
6614.0482880623
 20
4053.1693519389
 30
0.0
 40
13.75252258054479
  0
CIRCLE
  5
1E6
330
1F
100
AcDbEntity
  8
0
  6
Continuous
 62
     7
370
    25
100
AcDbCircle
 10
6387.4185561172
 20
4053.5249139043
 30
0.0
 40
13.75252258054479
  0
CIRCLE
  5
1E7
330
1F
100
AcDbEntity
  8
0
  6
Continuous
 62
     7
370
    25
100
AcDbCircle
 10
6274.2978046937
 20
4053.5412474706
 30
0.0
 40
13.75252258054661
  0
CIRCLE
  5
1E8
330
1F
100
AcDbEntity
  8
0
  6
Continuous
 62
     7
370
    25
100
AcDbCircle
 10
6274.2978046937
 20
4053.5412474706
 30
0.0
 40
16.16861367476486
  0
CIRCLE
  5
1E9
330
1F
100
AcDbEntity
  8
0
  6
Continuous
 62
     7
370
    25
100
AcDbCircle
 10
6387.4185561172
 20
4053.5249139043
 30
0.0
 40
16.16861367476577
  0
CIRCLE
  5
1EA
330
1F
100
AcDbEntity
  8
0
  6
Continuous
 62
     7
370
    25
100
AcDbCircle
 10
6047.2713698596
 20
4052.7889826162
 30
0.0
 40
16.16861367476577
  0
CIRCLE
  5
1EB
330
1F
100
AcDbEntity
  8
0
  6
Continuous
 62
     7
370
    25
100
AcDbCircle
 10
6614.0482880623
 20
4053.1693519389
 30
0.0
 40
16.16861367476486
  0
CIRCLE
  5
1EC
330
1F
100
AcDbEntity
  8
0
  6
Continuous
 62
     7
370
    25
100
AcDbCircle
 10
6500.9112030724
 20
4053.1693519389
 30
0.0
 40
13.7525225805457
  0
CIRCLE
  5
1ED
330
1F
100
AcDbEntity
  8
0
  6
Continuous
 62
     7
370
    25
100
AcDbCircle
 10
6500.9112030724
 20
4053.1693519389
 30
0.0
 40
16.16861367476577
  0
CIRCLE
  5
1EE
330
1F
100
AcDbEntity
  8
0
  6
Continuous
 62
     7
370
    25
100
AcDbCircle
 10
5992.9382860137
 20
3998.4558987703
 30
0.0
 40
13.75252258054479
  0
CIRCLE
  5
1EF
330
1F
100
AcDbEntity
  8
0
  6
Continuous
 62
     7
370
    25
100
AcDbCircle
 10
5992.9382860137
 20
3998.4558987703
 30
0.0
 40
16.16861367476577
  0
CIRCLE
  5
1F0
330
1F
100
AcDbEntity
  8
0
  6
Continuous
 62
     7
370
    25
100
AcDbCircle
 10
6444.3426605775
 20
3996.600809444
 30
0.0
 40
13.7525225805457
  0
CIRCLE
  5
1F1
330
1F
100
AcDbEntity
  8
0
  6
Continuous
 62
     7
370
    25
100
AcDbCircle
 10
6444.3426605775
 20
3996.600809444
 30
0.0
 40
16.16861367476577
  0
CIRCLE
  5
1F2
330
1F
100
AcDbEntity
  8
0
  6
Continuous
 62
     7
370
    25
100
AcDbCircle
 10
6103.8399123545
 20
3996.2204401213
 30
0.0
 40
13.75252258054479
  0
CIRCLE
  5
1F3
330
1F
100
AcDbEntity
  8
0
  6
Continuous
 62
     7
370
    25
100
AcDbCircle
 10
6103.8399123545
 20
3996.2204401213
 30
0.0
 40
16.16861367476577
  0
CIRCLE
  5
1F4
330
1F
100
AcDbEntity
  8
0
  6
Continuous
 62
     7
370
    25
100
AcDbCircle
 10
6557.4797455674
 20
3996.600809444
 30
0.0
 40
13.75252258054479
  0
CIRCLE
  5
1F5
330
1F
100
AcDbEntity
  8
0
  6
Continuous
 62
     7
370
    25
100
AcDbCircle
 10
6557.4797455674
 20
3996.600809444
 30
0.0
 40
16.16861367476486
  0
CIRCLE
  5
1F6
330
1F
100
AcDbEntity
  8
0
  6
Continuous
 62
     7
370
    25
100
AcDbCircle
 10
6217.7292621988
 20
3996.9727049757
 30
0.0
 40
13.75252258054479
  0
CIRCLE
  5
1F7
330
1F
100
AcDbEntity
  8
0
  6
Continuous
 62
     7
370
    25
100
AcDbCircle
 10
6217.7292621988
 20
3996.9727049757
 30
0.0
 40
16.16861367476668
  0
CIRCLE
  5
1F8
330
1F
100
AcDbEntity
  8
0
  6
Continuous
 62
     7
370
    25
100
AcDbCircle
 10
6325.6148698377
 20
3991.7212276248
 30
0.0
 40
13.7525225805457
  0
CIRCLE
  5
1F9
330
1F
100
AcDbEntity
  8
0
  6
Continuous
 62
     7
370
    25
100
AcDbCircle
 10
6325.6148698377
 20
3991.7212276248
 30
0.0
 40
16.16861367476577
  0
CIRCLE
  5
1FA
330
1F
100
AcDbEntity
  8
0
  6
Continuous
 62
     7
370
    25
100
AcDbCircle
 10
6330.8500136223
 20
4223.230541389
 30
0.0
 40
16.16861367476577
  0
CIRCLE
  5
1FB
330
1F
100
AcDbEntity
  8
0
  6
Continuous
 62
     7
370
    25
100
AcDbCircle
 10
5991.0831966874
 20
4676.1344433138
 30
0.0
 40
16.85265396141676
  0
CIRCLE
  5
1FC
330
1F
100
AcDbEntity
  8
0
  6
Continuous
 62
     7
370
    25
100
AcDbCircle
 10
6330.833680056
 20
4675.7625477821
 30
0.0
 40
16.85265396141676
  0
CIRCLE
  5
1FD
330
1F
100
AcDbEntity
  8
0
  6
Continuous
 62
     7
370
    25
100
AcDbCircle
 10
6217.6965950661
 20
4675.7625477821
 30
0.0
 40
16.85265396141676
  0
CIRCLE
  5
1FE
330
1F
100
AcDbEntity
  8
0
  6
Continuous
 62
     7
370
    25
100
AcDbCircle
 10
6104.2202816772
 20
4676.1344433138
 30
0.0
 40
16.85265396141676
  0
CIRCLE
  5
1FF
330
1F
100
AcDbEntity
  8
0
  6
Continuous
 62
     7
370
    25
100
AcDbCircle
 10
6443.4449265293
 20
4675.2367092656
 30
0.0
 40
16.85265396141676
  0
CIRCLE
  5
200
330
1F
100
AcDbEntity
  8
0
  6
Continuous
 62
     7
370
    25
100
AcDbCircle
 10
6555.624656241
 20
4674.2793539875
 30
0.0
 40
16.85265396141676
  0
CIRCLE
  5
201
330
1F
100
AcDbEntity
  8
0
  6
Continuous
 62
     7
370
    25
100
AcDbCircle
 10
5934.5146541925
 20
4619.5659008189
 30
0.0
 40
16.85265396141676
  0
CIRCLE
  5
202
330
1F
100
AcDbEntity
  8
0
  6
Continuous
 62
     7
370
    25
100
AcDbCircle
 10
6048.0073011477
 20
4619.2103388535
 30
0.0
 40
16.85265396141676
  0
CIRCLE
  5
203
330
1F
100
AcDbEntity
  8
0
  6
Continuous
 62
     7
370
    25
100
AcDbCircle
 10
6274.265137561
 20
4619.1940052872
 30
0.0
 40
16.85265396141676
  0
CIRCLE
  5
204
330
1F
100
AcDbEntity
  8
0
  6
Continuous
 62
     7
370
    25
100
AcDbCircle
 10
6161.1443861375
 20
4619.2103388535
 30
0.0
 40
16.85265396141676
  0
CIRCLE
  5
205
330
1F
100
AcDbEntity
  8
0
  6
Continuous
 62
     7
370
    25
100
AcDbCircle
 10
6387.4022225509
 20
4619.1940052872
 30
0.0
 40
16.85265396141676
  0
CIRCLE
  5
206
330
1F
100
AcDbEntity
  8
0
  6
Continuous
 62
     7
370
    25
100
AcDbCircle
 10
6500.0134690243
 20
4618.6681667707
 30
0.0
 40
16.85265396141676
  0
CIRCLE
  5
207
330
1F
100
AcDbEntity
  8
0
  6
Continuous
 62
     7
370
    25
100
AcDbCircle
 10
6612.193198736
 20
4617.7108114925
 30
0.0
 40
16.85265396141676
  0
CIRCLE
  5
208
330
1F
100
AcDbEntity
  8
0
  6
Continuous
 62
     7
370
    25
100
AcDbCircle
 10
6104.5758436426
 20
4562.6417963586
 30
0.0
 40
16.85265396141676
  0
CIRCLE
  5
209
330
1F
100
AcDbEntity
  8
0
  6
Continuous
 62
     7
370
    25
100
AcDbCircle
 10
5991.4387586528
 20
4562.6417963586
 30
0.0
 40
16.85265396141676
  0
CIRCLE
  5
20A
330
1F
100
AcDbEntity
  8
0
  6
Continuous
 62
     7
370
    25
100
AcDbCircle
 10
6557.8601148901
 20
4563.3777276466
 30
0.0
 40
16.85265396141676
  0
CIRCLE
  5
20B
330
1F
100
AcDbEntity
  8
0
  6
Continuous
 62
     7
370
    25
100
AcDbCircle
 10
6217.7129286325
 20
4562.6417963586
 30
0.0
 40
16.85265396141676
  0
CIRCLE
  5
20C
330
1F
100
AcDbEntity
  8
0
  6
Continuous
 62
     7
370
    25
100
AcDbCircle
 10
6444.7230299002
 20
4563.3777276466
 30
0.0
 40
16.85265396141767
  0
CIRCLE
  5
20D
330
1F
100
AcDbEntity
  8
0
  6
Continuous
 62
     7
370
    25
100
AcDbCircle
 10
6330.833680056
 20
4562.6254627922
 30
0.0
 40
16.85265396141676
  0
CIRCLE
  5
20E
330
1F
100
AcDbEntity
  8
0
  6
Continuous
 62
     7
370
    25
100
AcDbCircle
 10
6048.0073011477
 20
4506.0732538637
 30
0.0
 40
16.85265396141767
  0
CIRCLE
  5
20F
330
1F
100
AcDbEntity
  8
0
  6
Continuous
 62
     7
370
    25
100
AcDbCircle
 10
5934.5146541925
 20
4506.428815829
 30
0.0
 40
16.85265396141767
  0
CIRCLE
  5
210
330
1F
100
AcDbEntity
  8
0
  6
Continuous
 62
     7
370
    25
100
AcDbCircle
 10
6161.1443861375
 20
4506.0732538637
 30
0.0
 40
16.85265396141676
  0
CIRCLE
  5
211
330
1F
100
AcDbEntity
  8
0
  6
Continuous
 62
     7
370
    25
100
AcDbCircle
 10
6614.428657385
 20
4506.8091851517
 30
0.0
 40
16.85265396141676
  0
CIRCLE
  5
212
330
1F
100
AcDbEntity
  8
0
  6
Continuous
 62
     7
370
    25
100
AcDbCircle
 10
6387.4022225509
 20
4506.0569202973
 30
0.0
 40
16.85265396141676
  0
CIRCLE
  5
213
330
1F
100
AcDbEntity
  8
0
  6
Continuous
 62
     7
370
    25
100
AcDbCircle
 10
6274.2814711274
 20
4506.0732538637
 30
0.0
 40
16.85265396141676
  0
CIRCLE
  5
214
330
1F
100
AcDbEntity
  8
0
  6
Continuous
 62
     7
370
    25
100
AcDbCircle
 10
6500.5393075407
 20
4506.0569202973
 30
0.0
 40
16.85265396141676
  0
CIRCLE
  5
215
330
1F
100
AcDbEntity
  8
0
  6
Continuous
 62
     7
370
    25
100
AcDbCircle
 10
6217.7129286325
 20
4449.5047113687
 30
0.0
 40
16.85265396141676
  0
CIRCLE
  5
216
330
1F
100
AcDbEntity
  8
0
  6
Continuous
 62
     7
370
    25
100
AcDbCircle
 10
5991.4387586528
 20
4449.5047113687
 30
0.0
 40
16.85265396141676
  0
CIRCLE
  5
217
330
1F
100
AcDbEntity
  8
0
  6
Continuous
 62
     7
370
    25
100
AcDbCircle
 10
6104.5758436426
 20
4449.5047113687
 30
0.0
 40
16.85265396141767
  0
CIRCLE
  5
218
330
1F
100
AcDbEntity
  8
0
  6
Continuous
 62
     7
370
    25
100
AcDbCircle
 10
6557.1078500357
 20
4449.4883778024
 30
0.0
 40
16.85265396141676
  0
CIRCLE
  5
219
330
1F
100
AcDbEntity
  8
0
  6
Continuous
 62
     7
370
    25
100
AcDbCircle
 10
6444.3674679349
 20
4449.8850806914
 30
0.0
 40
16.85265396141676
  0
CIRCLE
  5
21A
330
1F
100
AcDbEntity
  8
0
  6
Continuous
 62
     7
370
    25
100
AcDbCircle
 10
6330.8500136223
 20
4449.5047113687
 30
0.0
 40
16.85265396141676
  0
CIRCLE
  5
21B
330
1F
100
AcDbEntity
  8
0
  6
Continuous
 62
     7
370
    25
100
AcDbCircle
 10
6161.1443861375
 20
4392.9361688738
 30
0.0
 40
16.85265396141676
  0
CIRCLE
  5
21C
330
1F
100
AcDbEntity
  8
0
  6
Continuous
 62
     7
370
    25
100
AcDbCircle
 10
5934.8865497242
 20
4392.9525024402
 30
0.0
 40
16.85265396141676
  0
CIRCLE
  5
21D
330
1F
100
AcDbEntity
  8
0
  6
Continuous
 62
     7
370
    25
100
AcDbCircle
 10
6048.0073011477
 20
4392.9361688738
 30
0.0
 40
16.85265396141767
  0
CIRCLE
  5
21E
330
1F
100
AcDbEntity
  8
0
  6
Continuous
 62
     7
370
    25
100
AcDbCircle
 10
6387.4185561172
 20
4392.9361688738
 30
0.0
 40
16.85265396141676
  0
CIRCLE
  5
21F
330
1F
100
AcDbEntity
  8
0
  6
Continuous
 62
     7
370
    25
100
AcDbCircle
 10
6613.6763925306
 20
4392.9198353075
 30
0.0
 40
16.85265396141676
  0
CIRCLE
  5
220
330
1F
100
AcDbEntity
  8
0
  6
Continuous
 62
     7
370
    25
100
AcDbCircle
 10
6500.5393075407
 20
4392.9198353075
 30
0.0
 40
16.85265396141676
  0
CIRCLE
  5
221
330
1F
100
AcDbEntity
  8
0
  6
Continuous
 62
     7
370
    25
100
AcDbCircle
 10
5991.4550922191
 20
4336.3839599452
 30
0.0
 40
16.85265396141676
  0
CIRCLE
  5
222
330
1F
100
AcDbEntity
  8
0
  6
Continuous
 62
     7
370
    25
100
AcDbCircle
 10
6104.5758436426
 20
4336.3676263789
 30
0.0
 40
16.85265396141676
  0
CIRCLE
  5
223
330
1F
100
AcDbEntity
  8
0
  6
Continuous
 62
     7
370
    25
100
AcDbCircle
 10
6444.0034321785
 20
4336.3512928125
 30
0.0
 40
16.85265396141767
  0
CIRCLE
  5
224
330
1F
100
AcDbEntity
  8
0
  6
Continuous
 62
     7
370
    25
100
AcDbCircle
 10
6557.1078500357
 20
4336.3512928125
 30
0.0
 40
16.85265396141676
  0
CIRCLE
  5
225
330
1F
100
AcDbEntity
  8
0
  6
Continuous
 62
     7
370
    25
100
AcDbCircle
 10
6161.1443861375
 20
4279.799083884
 30
0.0
 40
16.85265396141767
  0
CIRCLE
  5
226
330
1F
100
AcDbEntity
  8
0
  6
Continuous
 62
     7
370
    25
100
AcDbCircle
 10
6048.023634714
 20
4279.8154174503
 30
0.0
 40
16.85265396141767
  0
CIRCLE
  5
227
330
1F
100
AcDbEntity
  8
0
  6
Continuous
 62
     7
370
    25
100
AcDbCircle
 10
6387.4185561172
 20
4279.799083884
 30
0.0
 40
16.85265396141676
  0
CIRCLE
  5
228
330
1F
100
AcDbEntity
  8
0
  6
Continuous
 62
     7
370
    25
100
AcDbCircle
 10
5934.8865497242
 20
4279.8154174503
 30
0.0
 40
16.85265396141676
  0
CIRCLE
  5
229
330
1F
100
AcDbEntity
  8
0
  6
Continuous
 62
     7
370
    25
100
AcDbCircle
 10
6500.5556411071
 20
4279.799083884
 30
0.0
 40
16.85265396141585
  0
CIRCLE
  5
22A
330
1F
100
AcDbEntity
  8
0
  6
Continuous
 62
     7
370
    25
100
AcDbCircle
 10
6618.9278698815
 20
4285.0342276685
 30
0.0
 40
16.85265396141676
  0
CIRCLE
  5
22B
330
1F
100
AcDbEntity
  8
0
  6
Continuous
 62
     7
370
    25
100
AcDbCircle
 10
6443.9870986122
 20
4223.230541389
 30
0.0
 40
16.85265396141676
  0
CIRCLE
  5
22C
330
1F
100
AcDbEntity
  8
0
  6
Continuous
 62
     7
370
    25
100
AcDbCircle
 10
5991.4550922191
 20
4223.2468749554
 30
0.0
 40
16.85265396141676
  0
CIRCLE
  5
22D
330
1F
100
AcDbEntity
  8
0
  6
Continuous
 62
     7
370
    25
100
AcDbCircle
 10
6217.7129286325
 20
4223.230541389
 30
0.0
 40
16.85265396141676
  0
CIRCLE
  5
22E
330
1F
100
AcDbEntity
  8
0
  6
Continuous
 62
     7
370
    25
100
AcDbCircle
 10
6330.8500136223
 20
4223.230541389
 30
0.0
 40
16.85265396141767
  0
CIRCLE
  5
22F
330
1F
100
AcDbEntity
  8
0
  6
Continuous
 62
     7
370
    25
100
AcDbCircle
 10
6104.592177209
 20
4223.2468749554
 30
0.0
 40
16.85265396141676
  0
CIRCLE
  5
230
330
1F
100
AcDbEntity
  8
0
  6
Continuous
 62
     7
370
    25
100
AcDbCircle
 10
6557.124183602
 20
4223.230541389
 30
0.0
 40
16.85265396141767
  0
CIRCLE
  5
231
330
1F
100
AcDbEntity
  8
0
  6
Continuous
 62
     7
370
    25
100
AcDbCircle
 10
6160.7640168148
 20
4166.2816295714
 30
0.0
 40
16.85265396141676
  0
CIRCLE
  5
232
330
1F
100
AcDbEntity
  8
0
  6
Continuous
 62
     7
370
    25
100
AcDbCircle
 10
6500.5556411071
 20
4166.6619988941
 30
0.0
 40
16.85265396141585
  0
CIRCLE
  5
233
330
1F
100
AcDbEntity
  8
0
  6
Continuous
 62
     7
370
    25
100
AcDbCircle
 10
6047.2713698596
 20
4165.926067606
 30
0.0
 40
16.85265396141767
  0
CIRCLE
  5
234
330
1F
100
AcDbEntity
  8
0
  6
Continuous
 62
     7
370
    25
100
AcDbCircle
 10
6387.4185561172
 20
4166.6619988941
 30
0.0
 40
16.85265396141676
  0
CIRCLE
  5
235
330
1F
100
AcDbEntity
  8
0
  6
Continuous
 62
     7
370
    25
100
AcDbCircle
 10
6274.2978046937
 20
4166.6456653278
 30
0.0
 40
16.85265396141676
  0
CIRCLE
  5
236
330
1F
100
AcDbEntity
  8
0
  6
Continuous
 62
     7
370
    25
100
AcDbCircle
 10
5935.4123882406
 20
4167.2041709769
 30
0.0
 40
16.85265396141676
  0
CIRCLE
  5
237
330
1F
100
AcDbEntity
  8
0
  6
Continuous
 62
     7
370
    25
100
AcDbCircle
 10
6614.0482880623
 20
4166.3064369287
 30
0.0
 40
16.85265396141676
  0
CIRCLE
  5
238
330
1F
100
AcDbEntity
  8
0
  6
Continuous
 62
     7
370
    25
100
AcDbCircle
 10
5991.9809307356
 20
4110.635628482
 30
0.0
 40
16.85265396141676
  0
CIRCLE
  5
239
330
1F
100
AcDbEntity
  8
0
  6
Continuous
 62
     7
370
    25
100
AcDbCircle
 10
6104.592177209
 20
4110.1097899655
 30
0.0
 40
16.85265396141767
  0
CIRCLE
  5
23A
330
1F
100
AcDbEntity
  8
0
  6
Continuous
 62
     7
370
    25
100
AcDbCircle
 10
6443.9870986122
 20
4110.0934563992
 30
0.0
 40
16.85265396141676
  0
CIRCLE
  5
23B
330
1F
100
AcDbEntity
  8
0
  6
Continuous
 62
     7
370
    25
100
AcDbCircle
 10
6557.4797455674
 20
4109.7378944338
 30
0.0
 40
16.85265396141676
  0
CIRCLE
  5
23C
330
1F
100
AcDbEntity
  8
0
  6
Continuous
 62
     7
370
    25
100
AcDbCircle
 10
6330.8500136223
 20
4110.0934563992
 30
0.0
 40
16.85265396141676
  0
CIRCLE
  5
23D
330
1F
100
AcDbEntity
  8
0
  6
Continuous
 62
     7
370
    25
100
AcDbCircle
 10
6217.7292621988
 20
4110.1097899655
 30
0.0
 40
16.85265396141767
  0
CIRCLE
  5
23E
330
1F
100
AcDbEntity
  8
0
  6
Continuous
 62
     7
370
    25
100
AcDbCircle
 10
6500.9112030724
 20
4053.1693519389
 30
0.0
 40
16.85265396141767
  0
CIRCLE
  5
23F
330
1F
100
AcDbEntity
  8
0
  6
Continuous
 62
     7
370
    25
100
AcDbCircle
 10
6161.1607197039
 20
4053.5412474706
 30
0.0
 40
16.85265396141767
  0
CIRCLE
  5
240
330
1F
100
AcDbEntity
  8
0
  6
Continuous
 62
     7
370
    25
100
AcDbCircle
 10
6047.2713698596
 20
4052.7889826162
 30
0.0
 40
16.85265396141676
  0
CIRCLE
  5
241
330
1F
100
AcDbEntity
  8
0
  6
Continuous
 62
     7
370
    25
100
AcDbCircle
 10
5936.3697435188
 20
4055.0244412652
 30
0.0
 40
16.85265396141676
  0
CIRCLE
  5
242
330
1F
100
AcDbEntity
  8
0
  6
Continuous
 62
     7
370
    25
100
AcDbCircle
 10
6274.2978046937
 20
4053.5412474706
 30
0.0
 40
16.85265396141585
  0
CIRCLE
  5
243
330
1F
100
AcDbEntity
  8
0
  6
Continuous
 62
     7
370
    25
100
AcDbCircle
 10
6614.0482880623
 20
4053.1693519389
 30
0.0
 40
16.85265396141585
  0
CIRCLE
  5
244
330
1F
100
AcDbEntity
  8
0
  6
Continuous
 62
     7
370
    25
100
AcDbCircle
 10
6387.4185561172
 20
4053.5249139043
 30
0.0
 40
16.85265396141676
  0
CIRCLE
  5
245
330
1F
100
AcDbEntity
  8
0
  6
Continuous
 62
     7
370
    25
100
AcDbCircle
 10
6444.3426605775
 20
3996.600809444
 30
0.0
 40
16.85265396141676
  0
CIRCLE
  5
246
330
1F
100
AcDbEntity
  8
0
  6
Continuous
 62
     7
370
    25
100
AcDbCircle
 10
6557.4797455674
 20
3996.600809444
 30
0.0
 40
16.85265396141585
  0
CIRCLE
  5
247
330
1F
100
AcDbEntity
  8
0
  6
Continuous
 62
     7
370
    25
100
AcDbCircle
 10
5992.9382860137
 20
3998.4558987703
 30
0.0
 40
16.85265396141767
  0
CIRCLE
  5
248
330
1F
100
AcDbEntity
  8
0
  6
Continuous
 62
     7
370
    25
100
AcDbCircle
 10
6217.7292621988
 20
3996.9727049757
 30
0.0
 40
16.85265396141767
  0
CIRCLE
  5
249
330
1F
100
AcDbEntity
  8
0
  6
Continuous
 62
     7
370
    25
100
AcDbCircle
 10
6103.8399123545
 20
3996.2204401213
 30
0.0
 40
16.85265396141676
  0
CIRCLE
  5
24A
330
1F
100
AcDbEntity
  8
0
  6
Continuous
 62
     7
370
    25
100
AcDbCircle
 10
6325.6148698377
 20
3991.7212276248
 30
0.0
 40
16.85265396141676
  0
CIRCLE
  5
24B
330
1F
100
AcDbEntity
  8
0
  6
Continuous
 62
     7
370
    25
100
AcDbCircle
 10
6274.0187553361
 20
4339.3470659812
 30
0.0
 40
64.23205080756816
  0
CIRCLE
  5
24C
330
1F
100
AcDbEntity
  8
0
  6
Continuous
 62
     7
370
    25
100
AcDbCircle
 10
6274.0187553361
 20
4339.3470659812
 30
0.0
 40
62.5
  0
CIRCLE
  5
24D
330
1F
100
AcDbEntity
  8
0
  6
Continuous
 62
     7
370
    25
100
AcDbCircle
 10
6274.0187553361
 20
4339.3470659812
 30
0.0
 40
61.49341765479221
  0
CIRCLE
  5
24E
330
1F
100
AcDbEntity
  8
0
  6
Continuous
 62
     7
370
    25
100
AcDbCircle
 10
6274.0187553361
 20
4339.3470659812
 30
0.0
 40
60.77978932835231
  0
SPLINE
  5
24F
330
1F
100
AcDbEntity
  8
0
  6
Continuous
 62
     8
370
    25
100
AcDbSpline
210
0.0
220
0.0
230
1.0
 70
     8
 71
     3
 72
    14
 73
    10
 74
     0
 42
0.000000001
 43
0.00000001
 40
0.0
 40
0.0
 40
0.0
 40
0.0
 40
0.1339005328278584
 40
0.4348446710727347
 40
0.7384747624229396
 40
0.8883023561297766
 40
0.9626010418015035
 40
0.9985250415734409
 40
1.0
 40
1.0
 40
1.0
 40
1.0
 10
6302.826838215631
 20
4326.562679203858
 30
0.0
 10
6303.94991910521
 20
4326.908983786515
 30
0.0
 10
6307.597146862285
 20
4328.033614877641
 30
0.0
 10
6313.638111391503
 20
4330.412618396939
 30
0.0
 10
6319.560546305148
 20
4333.379899710782
 30
0.0
 10
6323.521541909868
 20
4335.798650524162
 30
0.0
 10
6325.358090052387
 20
4337.137940308168
 30
0.0
 10
6326.129978668517
 20
4337.759132594828
 30
0.0
 10
6326.331879726607
 20
4338.017731884225
 30
0.0
 10
6326.3398423994
 20
4338.027930649628
 30
0.0
  0
ENDSEC
  0
SECTION
  2
OBJECTS
  0
DICTIONARY
  5
C
330
0
100
AcDbDictionary
281
     1
  3
ACAD_GROUP
350
D
  3
ACAD_LAYOUT
350
1A
  3
ACAD_MLINESTYLE
350
17
  3
ACAD_PLOTSETTINGS
350
19
  3
ACAD_PLOTSTYLENAME
350
E
  3
ACAD_SCALELIST
350
47
  0
DICTIONARY
  5
D
102
{ACAD_REACTORS
330
C
102
}
330
C
100
AcDbDictionary
281
     1
  0
DICTIONARY
  5
1A
102
{ACAD_REACTORS
330
C
102
}
330
C
100
AcDbDictionary
281
     1
  3
Layout1
350
1E
  3
Layout2
350
26
  3
Model
350
22
  0
DICTIONARY
  5
17
102
{ACAD_REACTORS
330
C
102
}
330
C
100
AcDbDictionary
281
     1
  3
Standard
350
18
  0
DICTIONARY
  5
19
102
{ACAD_REACTORS
330
C
102
}
330
C
100
AcDbDictionary
281
     1
  0
ACDBDICTIONARYWDFLT
  5
E
102
{ACAD_REACTORS
330
C
102
}
330
C
100
AcDbDictionary
281
     1
  3
Normal
350
F
100
AcDbDictionaryWithDefault
340
F
  0
DICTIONARY
  5
47
102
{ACAD_REACTORS
330
C
102
}
330
C
100
AcDbDictionary
281
     1
  3
A0
350
48
  3
A1
350
49
  3
A2
350
4A
  3
A3
350
4B
  3
A4
350
4C
  3
A5
350
4D
  3
A6
350
4E
  3
A7
350
4F
  3
A8
350
50
  3
A9
350
51
  3
B0
350
52
  3
B1
350
53
  3
B2
350
54
  3
B3
350
55
  3
B4
350
56
  3
B5
350
57
  3
B6
350
58
  3
B7
350
59
  3
B8
350
5A
  3
B9
350
5B
  3
C0
350
5C
  3
C1
350
5D
  3
C2
350
5E
  3
C3
350
5F
  3
C4
350
60
  3
C5
350
61
  3
C6
350
62
  3
C7
350
63
  3
C8
350
64
  3
C9
350
65
  3
D0
350
66
  3
D1
350
67
  3
D2
350
68
  0
LAYOUT
  5
1E
102
{ACAD_REACTORS
330
1A
102
}
330
1A
100
AcDbPlotSettings
  1

  2
none_device
  4

  6

 40
0.0
 41
0.0
 42
0.0
 43
0.0
 44
0.0
 45
0.0
 46
0.0
 47
0.0
 48
0.0
 49
0.0
140
0.0
141
0.0
142
1.0
143
1.0
 70
   688
 72
     1
 73
     0
 74
     5
  7

 75
    16
147
1.0
148
0.0
149
0.0
100
AcDbLayout
  1
Layout1
 70
     1
 71
     1
 10
0.0
 20
0.0
 11
420.0
 21
297.0
 12
0.0
 22
0.0
 32
0.0
 14
1.0000000000E+20
 24
1.0000000000E+20
 34
1.0000000000E+20
 15
-1.0000000000E+20
 25
-1.0000000000E+20
 35
-1.0000000000E+20
146
0.0
 13
0.0
 23
0.0
 33
0.0
 16
1.0
 26
0.0
 36
0.0
 17
0.0
 27
1.0
 37
0.0
 76
     0
330
1B
  0
LAYOUT
  5
26
102
{ACAD_REACTORS
330
1A
102
}
330
1A
100
AcDbPlotSettings
  1

  2
none_device
  4

  6

 40
0.0
 41
0.0
 42
0.0
 43
0.0
 44
0.0
 45
0.0
 46
0.0
 47
0.0
 48
0.0
 49
0.0
140
0.0
141
0.0
142
1.0
143
1.0
 70
   688
 72
     1
 73
     0
 74
     5
  7

 75
    16
147
1.0
148
0.0
149
0.0
100
AcDbLayout
  1
Layout2
 70
     1
 71
     2
 10
0.0
 20
0.0
 11
0.0
 21
0.0
 12
0.0
 22
0.0
 32
0.0
 14
0.0
 24
0.0
 34
0.0
 15
0.0
 25
0.0
 35
0.0
146
0.0
 13
0.0
 23
0.0
 33
0.0
 16
1.0
 26
0.0
 36
0.0
 17
0.0
 27
1.0
 37
0.0
 76
     0
330
23
  0
LAYOUT
  5
22
102
{ACAD_REACTORS
330
1A
102
}
330
1A
100
AcDbPlotSettings
  1

  2
none_device
  4
Letter_(8.50_x_11.00_Inches)
  6

 40
6.35
 41
6.35
 42
6.35000508
 43
6.35000508
 44
215.9
 45
279.4
 46
0.0
 47
0.0
 48
0.0
 49
0.0
140
0.0
141
0.0
142
1.0
143
1.0
 70
  1712
 72
     1
 73
     0
 74
     0
  7

 75
     0
147
1.0
148
0.0
149
0.0
100
AcDbLayout
  1
Model
 70
     1
 71
     0
 10
0.0
 20
0.0
 11
20000.0
 21
10000.0
 12
0.0
 22
0.0
 32
0.0
 14
0.0
 24
0.0
 34
0.0
 15
20000.0
 25
10000.0
 35
0.0
146
0.0
 13
0.0
 23
0.0
 33
0.0
 16
1.0
 26
0.0
 36
0.0
 17
0.0
 27
1.0
 37
0.0
 76
     0
330
1F
331
29
  0
MLINESTYLE
  5
18
102
{ACAD_REACTORS
330
17
102
}
330
17
100
AcDbMlineStyle
  2
Standard
 70
     0
  3

 62
   256
 51
90.0
 52
90.0
 71
     2
 49
0.5
 62
   256
  6
BYLAYER
 49
-0.5
 62
   256
  6
BYLAYER
  0
ACDBPLACEHOLDER
  5
F
102
{ACAD_REACTORS
330
E
102
}
330
E
  0
SCALE
  5
48
102
{ACAD_REACTORS
330
47
102
}
330
47
100
AcDbScale
 70
     0
300
1:1
140
1.0
141
1.0
290
     1
  0
SCALE
  5
49
102
{ACAD_REACTORS
330
47
102
}
330
47
100
AcDbScale
 70
     0
300
1:2
140
1.0
141
2.0
290
     0
  0
SCALE
  5
4A
102
{ACAD_REACTORS
330
47
102
}
330
47
100
AcDbScale
 70
     0
300
1:4
140
1.0
141
4.0
290
     0
  0
SCALE
  5
4B
102
{ACAD_REACTORS
330
47
102
}
330
47
100
AcDbScale
 70
     0
300
1:5
140
1.0
141
5.0
290
     0
  0
SCALE
  5
4C
102
{ACAD_REACTORS
330
47
102
}
330
47
100
AcDbScale
 70
     0
300
1:8
140
1.0
141
8.0
290
     0
  0
SCALE
  5
4D
102
{ACAD_REACTORS
330
47
102
}
330
47
100
AcDbScale
 70
     0
300
1:10
140
1.0
141
10.0
290
     0
  0
SCALE
  5
4E
102
{ACAD_REACTORS
330
47
102
}
330
47
100
AcDbScale
 70
     0
300
1:16
140
1.0
141
16.0
290
     0
  0
SCALE
  5
4F
102
{ACAD_REACTORS
330
47
102
}
330
47
100
AcDbScale
 70
     0
300
1:20
140
1.0
141
20.0
290
     0
  0
SCALE
  5
50
102
{ACAD_REACTORS
330
47
102
}
330
47
100
AcDbScale
 70
     0
300
1:30
140
1.0
141
30.0
290
     0
  0
SCALE
  5
51
102
{ACAD_REACTORS
330
47
102
}
330
47
100
AcDbScale
 70
     0
300
1:40
140
1.0
141
40.0
290
     0
  0
SCALE
  5
52
102
{ACAD_REACTORS
330
47
102
}
330
47
100
AcDbScale
 70
     0
300
1:50
140
1.0
141
50.0
290
     0
  0
SCALE
  5
53
102
{ACAD_REACTORS
330
47
102
}
330
47
100
AcDbScale
 70
     0
300
1:100
140
1.0
141
100.0
290
     0
  0
SCALE
  5
54
102
{ACAD_REACTORS
330
47
102
}
330
47
100
AcDbScale
 70
     0
300
2:1
140
2.0
141
1.0
290
     0
  0
SCALE
  5
55
102
{ACAD_REACTORS
330
47
102
}
330
47
100
AcDbScale
 70
     0
300
4:1
140
4.0
141
1.0
290
     0
  0
SCALE
  5
56
102
{ACAD_REACTORS
330
47
102
}
330
47
100
AcDbScale
 70
     0
300
8:1
140
8.0
141
1.0
290
     0
  0
SCALE
  5
57
102
{ACAD_REACTORS
330
47
102
}
330
47
100
AcDbScale
 70
     0
300
10:1
140
10.0
141
1.0
290
     0
  0
SCALE
  5
58
102
{ACAD_REACTORS
330
47
102
}
330
47
100
AcDbScale
 70
     0
300
100:1
140
100.0
141
1.0
290
     0
  0
SCALE
  5
59
102
{ACAD_REACTORS
330
47
102
}
330
47
100
AcDbScale
 70
     0
300
1/128" = 1'-0"
140
0.0078125
141
12.0
290
     0
  0
SCALE
  5
5A
102
{ACAD_REACTORS
330
47
102
}
330
47
100
AcDbScale
 70
     0
300
1/64" = 1'-0"
140
0.015625
141
12.0
290
     0
  0
SCALE
  5
5B
102
{ACAD_REACTORS
330
47
102
}
330
47
100
AcDbScale
 70
     0
300
1/32" = 1'-0"
140
0.03125
141
12.0
290
     0
  0
SCALE
  5
5C
102
{ACAD_REACTORS
330
47
102
}
330
47
100
AcDbScale
 70
     0
300
1/16" = 1'-0"
140
0.0625
141
12.0
290
     0
  0
SCALE
  5
5D
102
{ACAD_REACTORS
330
47
102
}
330
47
100
AcDbScale
 70
     0
300
3/32" = 1'-0"
140
0.09375
141
12.0
290
     0
  0
SCALE
  5
5E
102
{ACAD_REACTORS
330
47
102
}
330
47
100
AcDbScale
 70
     0
300
1/8" = 1'-0"
140
0.125
141
12.0
290
     0
  0
SCALE
  5
5F
102
{ACAD_REACTORS
330
47
102
}
330
47
100
AcDbScale
 70
     0
300
3/16" = 1'-0"
140
0.1875
141
12.0
290
     0
  0
SCALE
  5
60
102
{ACAD_REACTORS
330
47
102
}
330
47
100
AcDbScale
 70
     0
300
1/4" = 1'-0"
140
0.25
141
12.0
290
     0
  0
SCALE
  5
61
102
{ACAD_REACTORS
330
47
102
}
330
47
100
AcDbScale
 70
     0
300
3/8" = 1'-0"
140
0.375
141
12.0
290
     0
  0
SCALE
  5
62
102
{ACAD_REACTORS
330
47
102
}
330
47
100
AcDbScale
 70
     0
300
1/2" = 1'-0"
140
0.5
141
12.0
290
     0
  0
SCALE
  5
63
102
{ACAD_REACTORS
330
47
102
}
330
47
100
AcDbScale
 70
     0
300
3/4" = 1'-0"
140
0.75
141
12.0
290
     0
  0
SCALE
  5
64
102
{ACAD_REACTORS
330
47
102
}
330
47
100
AcDbScale
 70
     0
300
1" = 1'-0"
140
1.0
141
12.0
290
     0
  0
SCALE
  5
65
102
{ACAD_REACTORS
330
47
102
}
330
47
100
AcDbScale
 70
     0
300
1-1/2" = 1'-0"
140
1.5
141
12.0
290
     0
  0
SCALE
  5
66
102
{ACAD_REACTORS
330
47
102
}
330
47
100
AcDbScale
 70
     0
300
3" = 1'-0"
140
3.0
141
12.0
290
     0
  0
SCALE
  5
67
102
{ACAD_REACTORS
330
47
102
}
330
47
100
AcDbScale
 70
     0
300
6" = 1'-0"
140
6.0
141
12.0
290
     0
  0
SCALE
  5
68
102
{ACAD_REACTORS
330
47
102
}
330
47
100
AcDbScale
 70
     0
300
1'-0" = 1'-0"
140
12.0
141
12.0
290
     0
  0
ENDSEC
  0
EOF
