  0
SECTION
  2
HEADER
  9
$ACADVER
  1
AC1015
  9
$ACADMAINTVER
 70
     6
  9
$DWGCODEPAGE
  3
ANSI_1250
  9
$INSBASE
 10
0.0
 20
0.0
 30
0.0
  9
$EXTMIN
 10
0.0
 20
0.0
 30
0.0
  9
$EXTMAX
 10
20000.0
 20
10000.0
 30
0.0
  9
$LIMMIN
 10
0.0
 20
0.0
  9
$LIMMAX
 10
20000.0
 20
10000.0
  9
$ORTHOMODE
 70
     0
  9
$REGENMODE
 70
     1
  9
$FILLMODE
 70
     1
  9
$QTEXTMODE
 70
     0
  9
$MIRRTEXT
 70
     1
  9
$LTSCALE
 40
1.0
  9
$ATTMODE
 70
     1
  9
$TEXTSIZE
 40
2.0
  9
$TRACEWID
 40
1.0
  9
$TEXTSTYLE
  7
Standard
  9
$CLAYER
  8
0
  9
$CELTYPE
  6
ByLayer
  9
$CECOLOR
 62
   256
  9
$CELTSCALE
 40
1.0
  9
$DISPSILH
 70
     0
  9
$DIMSCALE
 40
1.0
  9
$DIMASZ
 40
2.0
  9
$DIMEXO
 40
1.0
  9
$DIMDLI
 40
3.75
  9
$DIMRND
 40
0.0
  9
$DIMDLE
 40
0.0
  9
$DIMEXE
 40
1.0
  9
$DIMTP
 40
0.0
  9
$DIMTM
 40
0.0
  9
$DIMTXT
 40
2.0
  9
$DIMCEN
 40
2.5
  9
$DIMTSZ
 40
0.0
  9
$DIMTOL
 70
     0
  9
$DIMLIM
 70
     0
  9
$DIMTIH
 70
     1
  9
$DIMTOH
 70
     1
  9
$DIMSE1
 70
     0
  9
$DIMSE2
 70
     0
  9
$DIMTAD
 70
     1
  9
$DIMZIN
 70
     0
  9
$DIMBLK
  1

  9
$DIMASO
 70
     1
  9
$DIMSHO
 70
     1
  9
$DIMPOST
  1

  9
$DIMAPOST
  1

  9
$DIMALT
 70
     0
  9
$DIMALTD
 70
     3
  9
$DIMALTF
 40
0.0393700787
  9
$DIMLFAC
 40
1.0
  9
$DIMTOFL
 70
     1
  9
$DIMTVP
 40
0.0
  9
$DIMTIX
 70
     0
  9
$DIMSOXD
 70
     0
  9
$DIMSAH
 70
     0
  9
$DIMBLK1
  1

  9
$DIMBLK2
  1

  9
$DIMSTYLE
  2
ISO-25
  9
$DIMCLRD
 70
     0
  9
$DIMCLRE
 70
     0
  9
$DIMCLRT
 70
     0
  9
$DIMTFAC
 40
1.0
  9
$DIMGAP
 40
1.524
  9
$DIMJUST
 70
     0
  9
$DIMSD1
 70
     0
  9
$DIMSD2
 70
     0
  9
$DIMTOLJ
 70
     0
  9
$DIMTZIN
 70
     0
  9
$DIMALTZ
 70
     0
  9
$DIMALTTZ
 70
     0
  9
$DIMUPT
 70
     0
  9
$DIMDEC
 70
     2
  9
$DIMTDEC
 70
     0
  9
$DIMALTU
 70
     2
  9
$DIMALTTD
 70
     3
  9
$DIMTXSTY
  7
Standard
  9
$DIMAUNIT
 70
     0
  9
$DIMADEC
 70
     2
  9
$DIMALTRND
 40
0.0
  9
$DIMAZIN
 70
     0
  9
$DIMDSEP
 70
    44
  9
$DIMATFIT
 70
     3
  9
$DIMFRAC
 70
     0
  9
$DIMLDRBLK
  1

  9
$DIMLUNIT
 70
     2
  9
$DIMLWD
 70
    -2
  9
$DIMLWE
 70
    -2
  9
$DIMTMOVE
 70
     0
  9
$LUNITS
 70
     2
  9
$LUPREC
 70
     3
  9
$SKETCHINC
 40
1.0
  9
$FILLETRAD
 40
10.0
  9
$AUNITS
 70
     0
  9
$AUPREC
 70
     2
  9
$MENU
  1
.
  9
$ELEVATION
 40
0.0
  9
$PELEVATION
 40
0.0
  9
$THICKNESS
 40
0.0
  9
$LIMCHECK
 70
     0
  9
$CHAMFERA
 40
0.0
  9
$CHAMFERB
 40
0.0
  9
$CHAMFERC
 40
0.0
  9
$CHAMFERD
 40
0.0
  9
$SKPOLY
 70
     0
  9
$TDCREATE
 40
2459136.473217824
  9
$TDUCREATE
 40
2459136.389884491
  9
$TDUPDATE
 40
2459136.473218171
  9
$TDUUPDATE
 40
2459136.389884838
  9
$TDINDWG
 40
0.0000000116
  9
$TDUSRTIMER
 40
0.0000000116
  9
$USRTIMER
 70
     1
  9
$ANGBASE
 50
0.0
  9
$ANGDIR
 70
     0
  9
$PDMODE
 70
     0
  9
$PDSIZE
 40
-1.0
  9
$PLINEWID
 40
0.0
  9
$SPLFRAME
 70
     0
  9
$SPLINETYPE
 70
     6
  9
$SPLINESEGS
 70
     8
  9
$HANDSEED
  5
23C
  9
$SURFTAB1
 70
     6
  9
$SURFTAB2
 70
     6
  9
$SURFTYPE
 70
     6
  9
$SURFU
 70
     6
  9
$SURFV
 70
     6
  9
$UCSBASE
  2

  9
$UCSNAME
  2

  9
$UCSORG
 10
0.0
 20
0.0
 30
0.0
  9
$UCSXDIR
 10
1.0
 20
0.0
 30
0.0
  9
$UCSYDIR
 10
0.0
 20
1.0
 30
0.0
  9
$UCSORTHOREF
  2

  9
$UCSORTHOVIEW
 70
     0
  9
$UCSORGTOP
 10
0.0
 20
0.0
 30
0.0
  9
$UCSORGBOTTOM
 10
0.0
 20
0.0
 30
0.0
  9
$UCSORGLEFT
 10
0.0
 20
0.0
 30
0.0
  9
$UCSORGRIGHT
 10
0.0
 20
0.0
 30
0.0
  9
$UCSORGFRONT
 10
0.0
 20
0.0
 30
0.0
  9
$UCSORGBACK
 10
0.0
 20
0.0
 30
0.0
  9
$PUCSBASE
  2

  9
$PUCSNAME
  2

  9
$PUCSORG
 10
0.0
 20
0.0
 30
0.0
  9
$PUCSXDIR
 10
1.0
 20
0.0
 30
0.0
  9
$PUCSYDIR
 10
0.0
 20
1.0
 30
0.0
  9
$PUCSORTHOREF
  2

  9
$PUCSORTHOVIEW
 70
     0
  9
$PUCSORGTOP
 10
0.0
 20
0.0
 30
0.0
  9
$PUCSORGBOTTOM
 10
0.0
 20
0.0
 30
0.0
  9
$PUCSORGLEFT
 10
0.0
 20
0.0
 30
0.0
  9
$PUCSORGRIGHT
 10
0.0
 20
0.0
 30
0.0
  9
$PUCSORGFRONT
 10
0.0
 20
0.0
 30
0.0
  9
$PUCSORGBACK
 10
0.0
 20
0.0
 30
0.0
  9
$USERI1
 70
     0
  9
$USERI2
 70
     0
  9
$USERI3
 70
     0
  9
$USERI4
 70
     0
  9
$USERI5
 70
     0
  9
$USERR1
 40
0.0
  9
$USERR2
 40
0.0
  9
$USERR3
 40
0.0
  9
$USERR4
 40
0.0
  9
$USERR5
 40
0.0
  9
$WORLDVIEW
 70
     1
  9
$SHADEDGE
 70
     3
  9
$SHADEDIF
 70
    70
  9
$TILEMODE
 70
     1
  9
$MAXACTVP
 70
    64
  9
$PINSBASE
 10
0.0
 20
0.0
 30
0.0
  9
$PLIMCHECK
 70
     0
  9
$PEXTMIN
 10
1.0000000000E+20
 20
1.0000000000E+20
 30
1.0000000000E+20
  9
$PEXTMAX
 10
-1.0000000000E+20
 20
-1.0000000000E+20
 30
-1.0000000000E+20
  9
$PLIMMIN
 10
0.0
 20
0.0
  9
$PLIMMAX
 10
420.0
 20
297.0
  9
$UNITMODE
 70
     0
  9
$VISRETAIN
 70
     1
  9
$PLINEGEN
 70
     0
  9
$PSLTSCALE
 70
     1
  9
$TREEDEPTH
 70
  3020
  9
$CMLSTYLE
  2
Standard
  9
$CMLJUST
 70
     0
  9
$CMLSCALE
 40
20.0
  9
$PROXYGRAPHICS
 70
     1
  9
$MEASUREMENT
 70
     1
  9
$CELWEIGHT
370
    -1
  9
$ENDCAPS
280
     0
  9
$JOINSTYLE
280
     0
  9
$LWDISPLAY
290
     1
  9
$INSUNITS
 70
     4
  9
$HYPERLINKBASE
  1

  9
$STYLESHEET
  1

  9
$XEDIT
290
     1
  9
$CEPSNTYPE
380
     0
  9
$PSTYLEMODE
290
     1
  9
$FINGERPRINTGUID
  2
{bf385c86-04e0-4a1a-95cd-d04f9bc2e88a}
  9
$VERSIONGUID
  2
{FAEB1C32-E019-11D5-929B-00C0DF256EC4}
  9
$EXTNAMES
290
     1
  9
$PSVPSCALE
 40
0.0
  9
$OLESTARTUP
290
     0
  0
ENDSEC
  0
SECTION
  2
CLASSES
  0
CLASS
  1
ACDBDICTIONARYWDFLT
  2
AcDbDictionaryWithDefault
  3
ObjectDBX Classes
 90
        0
280
     0
281
     0
  0
CLASS
  1
VISUALSTYLE
  2
AcDbVisualStyle
  3
ObjectDBX Classes
 90
     4095
280
     0
281
     0
  0
CLASS
  1
MATERIAL
  2
AcDbMaterial
  3
ObjectDBX Classes
 90
     1153
280
     0
281
     0
  0
CLASS
  1
SCALE
  2
AcDbScale
  3
ObjectDBX Classes
 90
     1153
280
     0
281
     0
  0
CLASS
  1
TABLESTYLE
  2
AcDbTableStyle
  3
ObjectDBX Classes
 90
     4095
280
     0
281
     0
  0
CLASS
  1
MLEADERSTYLE
  2
AcDbMLeaderStyle
  3
ACDB_MLEADERSTYLE_CLASS
 90
     4095
280
     0
281
     0
  0
CLASS
  1
SUN
  2
AcDbSun
  3
SCENEOE
 90
     1153
280
     0
281
     0
  0
CLASS
  1
ACDBPLACEHOLDER
  2
AcDbPlaceHolder
  3
ObjectDBX Classes
 90
        0
280
     0
281
     0
  0
CLASS
  1
LAYOUT
  2
AcDbLayout
  3
ObjectDBX Classes
 90
        0
280
     0
281
     0
  0
ENDSEC
  0
SECTION
  2
TABLES
  0
TABLE
  2
VPORT
  5
8
330
0
100
AcDbSymbolTable
 70
     1
  0
VPORT
  5
29
330
8
100
AcDbSymbolTableRecord
100
AcDbViewportTableRecord
  2
*Active
 70
     0
 10
0.0
 20
0.0
 11
1.0
 21
1.0
 12
10000.0
 22
5000.0
 13
0.0
 23
0.0
 14
10.0
 24
10.0
 15
10.0
 25
10.0
 16
0.0
 26
0.0
 36
1.0
 17
0.0
 27
0.0
 37
0.0
 40
10000.0
 41
2.0
 42
50.0
 43
0.0
 44
0.0
 50
0.0
 51
0.0
 71
     0
 72
  2000
 73
     1
 74
     3
 75
     0
 76
     0
 77
     0
 78
     0
281
     0
 65
     1
110
0.0
120
0.0
130
0.0
111
1.0
121
0.0
131
0.0
112
0.0
122
1.0
132
0.0
 79
     0
146
0.0
  0
ENDTAB
  0
TABLE
  2
LTYPE
  5
5
330
0
100
AcDbSymbolTable
 70
     6
  0
LTYPE
  5
14
330
5
100
AcDbSymbolTableRecord
100
AcDbLinetypeTableRecord
  2
ByBlock
 70
     0
  3

 72
    65
 73
     0
 40
0.0
  0
LTYPE
  5
15
330
5
100
AcDbSymbolTableRecord
100
AcDbLinetypeTableRecord
  2
ByLayer
 70
     0
  3

 72
    65
 73
     0
 40
0.0
  0
LTYPE
  5
16
330
5
100
AcDbSymbolTableRecord
100
AcDbLinetypeTableRecord
  2
Continuous
 70
     0
  3
Solid line
 72
    65
 73
     0
 40
0.0
  0
LTYPE
  5
6E
330
5
100
AcDbSymbolTableRecord
100
AcDbLinetypeTableRecord
  2
HIDDEN
 70
     0
  3
Hidden __ __ __ __ __ __ __ __ __ __ __ __ __ __
 72
    65
 73
     2
 40
1.905
 49
1.27
 74
     0
 49
-0.635
 74
     0
  0
LTYPE
  5
6F
330
5
100
AcDbSymbolTableRecord
100
AcDbLinetypeTableRecord
  2
PHANTOM
 70
     0
  3
Phantom ______  __  __  ______  __  __  ______
 72
    65
 73
     6
 40
12.7
 49
6.35
 74
     0
 49
-1.27
 74
     0
 49
1.27
 74
     0
 49
-1.27
 74
     0
 49
1.27
 74
     0
 49
-1.27
 74
     0
  0
LTYPE
  5
70
330
5
100
AcDbSymbolTableRecord
100
AcDbLinetypeTableRecord
  2
CENTER
 70
     0
  3
Center ____ _ ____ _ ____ _ ____ _ ____ _ ____
 72
    65
 73
     4
 40
10.16
 49
6.35
 74
     0
 49
-1.27
 74
     0
 49
1.27
 74
     0
 49
-1.27
 74
     0
  0
LTYPE
  5
71
330
5
100
AcDbSymbolTableRecord
100
AcDbLinetypeTableRecord
  2
CENTERX2
 70
     0
  3
Center (2x) ________  __  ________  __  _____
 72
    65
 73
     4
 40
20.32
 49
12.7
 74
     0
 49
-2.54
 74
     0
 49
2.54
 74
     0
 49
-2.54
 74
     0
  0
LTYPE
  5
72
330
5
100
AcDbSymbolTableRecord
100
AcDbLinetypeTableRecord
  2
DOT2
 70
     0
  3
Dot (.5x) ........................................
 72
    65
 73
     2
 40
0.635
 49
0.0
 74
     0
 49
-0.635
 74
     0
  0
ENDTAB
  0
TABLE
  2
LAYER
  5
2
330
0
100
AcDbSymbolTable
 70
    13
  0
LAYER
  5
10
330
2
100
AcDbSymbolTableRecord
100
AcDbLayerTableRecord
  2
0
 70
     0
 62
     7
  6
Continuous
370
    -3
390
F
  0
LAYER
  5
73
330
2
100
AcDbSymbolTableRecord
100
AcDbLayerTableRecord
  2
FORMAT
 70
     0
 62
     7
  6
Continuous
370
    -3
390
F
  0
LAYER
  5
74
330
2
100
AcDbSymbolTableRecord
100
AcDbLayerTableRecord
  2
OSA
 70
     0
 62
     7
  6
CENTER
370
    -3
390
F
  0
LAYER
  5
75
330
2
100
AcDbSymbolTableRecord
100
AcDbLayerTableRecord
  2
0_35
 70
     0
 62
     7
  6
Continuous
370
    35
390
F
  0
LAYER
  5
76
330
2
100
AcDbSymbolTableRecord
100
AcDbLayerTableRecord
  2
0_5
 70
     0
 62
     7
  6
Continuous
370
    50
390
F
  0
LAYER
  5
77
330
2
100
AcDbSymbolTableRecord
100
AcDbLayerTableRecord
  2
0_25
 70
     0
 62
     7
  6
Continuous
370
    25
390
F
  0
LAYER
  5
78
330
2
100
AcDbSymbolTableRecord
100
AcDbLayerTableRecord
  2
0_18
 70
     0
 62
     7
  6
Continuous
370
    -3
390
F
  0
LAYER
  5
79
330
2
100
AcDbSymbolTableRecord
100
AcDbLayerTableRecord
  2
SLD-0
 70
     0
 62
   179
  6
Continuous
370
    -3
390
F
  0
LAYER
  5
7A
330
2
100
AcDbSymbolTableRecord
100
AcDbLayerTableRecord
  2
KOTY
 70
     0
 62
     7
  6
Continuous
370
    -3
390
F
  0
LAYER
  5
7B
330
2
100
AcDbSymbolTableRecord
100
AcDbLayerTableRecord
  2
SILNA
 70
     0
 62
   179
  6
Continuous
370
    -3
390
F
  0
LAYER
  5
7C
330
2
100
AcDbSymbolTableRecord
100
AcDbLayerTableRecord
  2
0_18_1
 70
     0
 62
   179
  6
Continuous
370
    -3
390
F
  0
LAYER
  5
7D
330
2
100
AcDbSymbolTableRecord
100
AcDbLayerTableRecord
  2
0_35_1
 70
     0
 62
   179
  6
Continuous
370
    35
390
F
  0
LAYER
  5
7E
330
2
100
AcDbSymbolTableRecord
100
AcDbLayerTableRecord
  2
0_5_1
 70
     0
 62
   179
  6
Continuous
370
    50
390
F
  0
ENDTAB
  0
TABLE
  2
STYLE
  5
3
330
0
100
AcDbSymbolTable
 70
     1
  0
STYLE
  5
11
330
3
100
AcDbSymbolTableRecord
100
AcDbTextStyleTableRecord
  2
Standard
 70
     0
 40
0.0
 41
1.0
 50
0.0
 71
     0
 42
2.0
  3
txt
  4

  0
ENDTAB
  0
TABLE
  2
VIEW
  5
6
330
0
100
AcDbSymbolTable
 70
     0
  0
ENDTAB
  0
TABLE
  2
UCS
  5
7
330
0
100
AcDbSymbolTable
 70
     0
  0
ENDTAB
  0
TABLE
  2
APPID
  5
9
330
0
100
AcDbSymbolTable
 70
     1
  0
APPID
  5
12
330
9
100
AcDbSymbolTableRecord
100
AcDbRegAppTableRecord
  2
ACAD
 70
     0
  0
ENDTAB
  0
TABLE
  2
DIMSTYLE
  5
A
330
0
100
AcDbSymbolTable
 70
     1
100
AcDbDimStyleTable
  0
DIMSTYLE
105
27
330
A
100
AcDbSymbolTableRecord
100
AcDbDimStyleTableRecord
  2
ISO-25
 70
     0
 41
2.5
 42
0.625
 43
3.75
 44
1.25
 73
     0
 74
     0
 77
     1
 78
     8
140
2.5
141
2.5
143
0.0393700787
147
0.625
171
     3
172
     1
178
     0
271
     2
272
     2
274
     3
278
    44
283
     0
284
     8
340
11
  0
ENDTAB
  0
TABLE
  2
BLOCK_RECORD
  5
1
330
0
100
AcDbSymbolTable
 70
     1
  0
BLOCK_RECORD
  5
1F
330
1
100
AcDbSymbolTableRecord
100
AcDbBlockTableRecord
  2
*Model_Space
340
22
  0
BLOCK_RECORD
  5
1B
330
1
100
AcDbSymbolTableRecord
100
AcDbBlockTableRecord
  2
*Paper_Space
340
1E
  0
BLOCK_RECORD
  5
23
330
1
100
AcDbSymbolTableRecord
100
AcDbBlockTableRecord
  2
*Paper_Space0
340
26
  0
ENDTAB
  0
ENDSEC
  0
SECTION
  2
BLOCKS
  0
BLOCK
  5
20
330
1F
100
AcDbEntity
  8
0
100
AcDbBlockBegin
  2
*Model_Space
 70
     0
 10
0.0
 20
0.0
 30
0.0
  3
*Model_Space
  1

  0
ENDBLK
  5
21
330
1F
100
AcDbEntity
  8
0
100
AcDbBlockEnd
  0
BLOCK
  5
1C
330
1B
100
AcDbEntity
 67
     1
  8
0
100
AcDbBlockBegin
  2
*Paper_Space
 70
     0
 10
0.0
 20
0.0
 30
0.0
  3
*Paper_Space
  1

  0
ENDBLK
  5
1D
330
1B
100
AcDbEntity
 67
     1
  8
0
100
AcDbBlockEnd
  0
BLOCK
  5
24
330
23
100
AcDbEntity
  8
0
100
AcDbBlockBegin
  2
*Paper_Space0
 70
     0
 10
0.0
 20
0.0
 30
0.0
  3
*Paper_Space0
  1

  0
ENDBLK
  5
25
330
23
100
AcDbEntity
  8
0
100
AcDbBlockEnd
  0
ENDSEC
  0
SECTION
  2
ENTITIES
  0
CIRCLE
  5
7F
330
1F
100
AcDbEntity
  8
0
  6
Continuous
 62
     7
370
    25
100
AcDbCircle
 10
10975.9174071254
 20
4723.1395654623
 30
0.0
 40
8.249999999999389
  0
LINE
  5
80
330
1F
100
AcDbEntity
  8
0
  6
Continuous
 62
     7
370
    25
100
AcDbLine
 10
10958.9174071254
 20
4706.4830352114
 30
0.0
 11
10958.9174071254
 21
4706.1984911162
 31
0.0
  0
LINE
  5
81
330
1F
100
AcDbEntity
  8
0
  6
Continuous
 62
     7
370
    25
100
AcDbLine
 10
10958.9174071254
 20
4740.0806398084
 30
0.0
 11
10958.9174071254
 21
4739.7960957132
 31
0.0
  0
LINE
  5
82
330
1F
100
AcDbEntity
  8
0
  6
Continuous
 62
     7
370
    25
100
AcDbLine
 10
10992.9174071254
 20
4739.7960957132
 30
0.0
 11
10992.9174071254
 21
4740.0806398084
 31
0.0
  0
LINE
  5
83
330
1F
100
AcDbEntity
  8
0
  6
Continuous
 62
     7
370
    25
100
AcDbLine
 10
10992.9174071254
 20
4706.1984911162
 30
0.0
 11
10992.9174071254
 21
4706.4830352114
 31
0.0
  0
CIRCLE
  5
84
330
1F
100
AcDbEntity
  8
0
  6
Continuous
 62
     7
370
    25
100
AcDbCircle
 10
10975.9174071254
 20
4723.1395654623
 30
0.0
 40
26.50000000000092
  0
CIRCLE
  5
85
330
1F
100
AcDbEntity
  8
0
  6
Continuous
 62
     7
370
    25
100
AcDbCircle
 10
10975.9174071254
 20
4723.1395654623
 30
0.0
 40
28.50000000000054
  0
CIRCLE
  5
86
330
1F
100
AcDbEntity
  8
0
  6
Continuous
 62
     7
370
    25
100
AcDbCircle
 10
10975.9174071254
 20
4723.1395654623
 30
0.0
 40
24.50000000000009
  0
ARC
  5
87
330
1F
100
AcDbEntity
  8
0
  6
Continuous
 62
     7
370
    25
100
AcDbCircle
 10
10975.9174071254
 20
4723.1395654623
 30
0.0
 40
24.00000000000057
100
AcDbArc
 50
79.978272972
 51
250.6333576585
  0
ARC
  5
88
330
1F
100
AcDbEntity
  8
0
  6
Continuous
 62
     7
370
    25
100
AcDbCircle
 10
10975.9174071254
 20
4723.1395654623
 30
0.0
 40
24.00000000000057
100
AcDbArc
 50
263.8723300362
 51
79.978272972
  0
CIRCLE
  5
89
330
1F
100
AcDbEntity
  8
0
  6
Continuous
 62
     7
370
    25
100
AcDbCircle
 10
10975.9174071254
 20
4723.1395654623
 30
0.0
 40
24.24999999999988
  0
CIRCLE
  5
8A
330
1F
100
AcDbEntity
  8
0
  6
Continuous
 62
     7
370
    25
100
AcDbCircle
 10
10975.9174071254
 20
4723.1395654623
 30
0.0
 40
87.5
  0
CIRCLE
  5
8B
330
1F
100
AcDbEntity
  8
0
  6
Continuous
 62
     7
370
    25
100
AcDbCircle
 10
10975.9174071254
 20
4723.1395654623
 30
0.0
 40
92.5
  0
LINE
  5
8C
330
1F
100
AcDbEntity
  8
0
  6
Continuous
 62
     7
370
    25
100
AcDbLine
 10
10924.4789472137
 20
4753.1395654623
 30
0.0
 11
10924.4789472137
 21
4693.1395654623
 31
0.0
  0
LINE
  5
8D
330
1F
100
AcDbEntity
  8
0
  6
Continuous
 62
     7
370
    25
100
AcDbLine
 10
10924.4789472137
 20
4693.1395654623
 30
0.0
 11
10923.4892038951
 21
4693.1395654623
 31
0.0
  0
LINE
  5
8E
330
1F
100
AcDbEntity
  8
0
  6
Continuous
 62
     7
370
    25
100
AcDbLine
 10
10923.4892038951
 20
4693.1395654623
 30
0.0
 11
10923.4892038951
 21
4753.1395654623
 31
0.0
  0
LINE
  5
8F
330
1F
100
AcDbEntity
  8
0
  6
Continuous
 62
     7
370
    25
100
AcDbLine
 10
10923.4892038951
 20
4753.1395654623
 30
0.0
 11
10924.4789472137
 21
4753.1395654623
 31
0.0
  0
LINE
  5
90
330
1F
100
AcDbEntity
  8
0
  6
Continuous
 62
     7
370
    25
100
AcDbLine
 10
11027.3558670371
 20
4693.1395654623
 30
0.0
 11
11027.3558670371
 21
4753.1395654623
 31
0.0
  0
LINE
  5
91
330
1F
100
AcDbEntity
  8
0
  6
Continuous
 62
     7
370
    25
100
AcDbLine
 10
11028.3456103557
 20
4753.1395654623
 30
0.0
 11
11027.3558670371
 21
4753.1395654623
 31
0.0
  0
LINE
  5
92
330
1F
100
AcDbEntity
  8
0
  6
Continuous
 62
     7
370
    25
100
AcDbLine
 10
11028.3456103557
 20
4753.1395654623
 30
0.0
 11
11028.3456103557
 21
4693.1395654623
 31
0.0
  0
LINE
  5
93
330
1F
100
AcDbEntity
  8
0
  6
Continuous
 62
     7
370
    25
100
AcDbLine
 10
11027.3558670371
 20
4693.1395654623
 30
0.0
 11
11028.3456103557
 21
4693.1395654623
 31
0.0
  0
ARC
  5
94
330
1F
100
AcDbEntity
  8
0
  6
Continuous
 62
     7
370
    25
100
AcDbCircle
 10
10975.9174071254
 20
4753.1395654623
 30
0.0
 40
52.42820323027627
100
AcDbArc
 50
0.0
 51
180.0
  0
ARC
  5
95
330
1F
100
AcDbEntity
  8
0
  6
Continuous
 62
     7
370
    25
100
AcDbCircle
 10
10975.9174071254
 20
4753.1395654623
 30
0.0
 40
51.43845991166563
100
AcDbArc
 50
0.0
 51
180.0
  0
ARC
  5
96
330
1F
100
AcDbEntity
  8
0
  6
Continuous
 62
     7
370
    25
100
AcDbCircle
 10
10975.9174071254
 20
4693.1395654623
 30
0.0
 40
52.42820323027627
100
AcDbArc
 50
180.0
 51
0.0
  0
ARC
  5
97
330
1F
100
AcDbEntity
  8
0
  6
Continuous
 62
     7
370
    25
100
AcDbCircle
 10
10975.9174071254
 20
4693.1395654623
 30
0.0
 40
51.43845991166563
100
AcDbArc
 50
180.0
 51
0.0
  0
LINE
  5
98
330
1F
100
AcDbEntity
  8
0
  6
Continuous
 62
     7
370
    25
100
AcDbLine
 10
10930.4174071254
 20
4753.1395654623
 30
0.0
 11
10930.4174071254
 21
4693.1395654623
 31
0.0
  0
LINE
  5
99
330
1F
100
AcDbEntity
  8
0
  6
Continuous
 62
     7
370
    25
100
AcDbLine
 10
10930.4174071254
 20
4693.1395654623
 30
0.0
 11
10924.4789472137
 21
4693.1395654623
 31
0.0
  0
LINE
  5
9A
330
1F
100
AcDbEntity
  8
0
  6
Continuous
 62
     7
370
    25
100
AcDbLine
 10
10924.4789472137
 20
4753.1395654623
 30
0.0
 11
10930.4174071254
 21
4753.1395654623
 31
0.0
  0
LINE
  5
9B
330
1F
100
AcDbEntity
  8
0
  6
Continuous
 62
     7
370
    25
100
AcDbLine
 10
11021.4174071254
 20
4693.1395654623
 30
0.0
 11
11021.4174071254
 21
4753.1395654623
 31
0.0
  0
LINE
  5
9C
330
1F
100
AcDbEntity
  8
0
  6
Continuous
 62
     7
370
    25
100
AcDbLine
 10
11027.3558670371
 20
4753.1395654623
 30
0.0
 11
11021.4174071254
 21
4753.1395654623
 31
0.0
  0
LINE
  5
9D
330
1F
100
AcDbEntity
  8
0
  6
Continuous
 62
     7
370
    25
100
AcDbLine
 10
11021.4174071254
 20
4693.1395654623
 30
0.0
 11
11027.3558670371
 21
4693.1395654623
 31
0.0
  0
ARC
  5
9E
330
1F
100
AcDbEntity
  8
0
  6
Continuous
 62
     7
370
    25
100
AcDbCircle
 10
10975.9174071254
 20
4693.1395654623
 30
0.0
 40
45.50000000000182
100
AcDbArc
 50
180.0
 51
0.0
  0
ARC
  5
9F
330
1F
100
AcDbEntity
  8
0
  6
Continuous
 62
     7
370
    25
100
AcDbCircle
 10
10975.9174071254
 20
4753.1395654623
 30
0.0
 40
45.50000000000182
100
AcDbArc
 50
0.0
 51
180.0
  0
CIRCLE
  5
A0
330
1F
100
AcDbEntity
  8
0
  6
Continuous
 62
     7
370
    25
100
AcDbCircle
 10
11000.9174071254
 20
4688.1395654623
 30
0.0
 40
5.000000000001486
  0
CIRCLE
  5
A1
330
1F
100
AcDbEntity
  8
0
  6
Continuous
 62
     7
370
    25
100
AcDbCircle
 10
10950.9174071254
 20
4688.1395654623
 30
0.0
 40
4.999999999999053
  0
CIRCLE
  5
A2
330
1F
100
AcDbEntity
  8
0
  6
Continuous
 62
     7
370
    25
100
AcDbCircle
 10
10950.9174071254
 20
4688.1395654623
 30
0.0
 40
2.0
  0
CIRCLE
  5
A3
330
1F
100
AcDbEntity
  8
0
  6
Continuous
 62
     7
370
    25
100
AcDbCircle
 10
11000.9174071254
 20
4688.1395654623
 30
0.0
 40
2.000000000001819
  0
ARC
  5
A4
330
1F
100
AcDbEntity
  8
0
  6
Continuous
 62
     7
370
    25
100
AcDbCircle
 10
10975.9174071254
 20
4723.1395654623
 30
0.0
 40
23.80000000000001
100
AcDbArc
 50
264.2134035126
 51
0.0
  0
ARC
  5
A5
330
1F
100
AcDbEntity
  8
0
  6
Continuous
 62
     7
370
    25
100
AcDbCircle
 10
10975.9174071254
 20
4723.1395654623
 30
0.0
 40
23.80000000000055
100
AcDbArc
 50
0.0
 51
250.2159807578
  0
CIRCLE
  5
A6
330
1F
100
AcDbEntity
  8
0
  6
Continuous
 62
     7
370
    25
100
AcDbCircle
 10
10975.9174071254
 20
4723.1395654623
 30
0.0
 40
7.920669088318956
  0
LWPOLYLINE
  5
A7
330
1F
100
AcDbEntity
  8
0
  6
Continuous
 62
     7
370
    25
100
AcDbPolyline
 90
       24
 70
   128
 43
0.0
 10
10965.2956977116
 20
4740.0859305336
 10
10965.586491971
 20
4740.1805739367
 10
10965.8104692787
 20
4740.0477378167
 10
10965.9501366368
 20
4739.6965958893
 10
10966.0139316516
 20
4739.1212639777
 10
10966.0051321547
 20
4738.3910937679
 10
10965.935105441
 20
4737.4882517869
 10
10965.7654518971
 20
4736.0933469118
 10
10965.523263723
 20
4734.483776876
 10
10965.1222536843
 20
4732.1206496074
 10
10964.6481223683
 20
4729.5672080561
 10
10964.2382340334
 20
4727.5386578658
 10
10963.790844849
 20
4725.50336897
 10
10963.2880567836
 20
4723.4059495689
 10
10962.7567522963
 20
4721.3403695767
 10
10962.2044711382
 20
4719.306547599
 10
10961.64327857
 20
4717.3422591884
 10
10961.1846046336
 20
4715.83634956
 10
10960.7287456697
 20
4714.4780403715
 10
10960.3795683948
 20
4713.5774118023
 10
10960.0368200799
 20
4712.8606795261
 10
10959.7187628536
 20
4712.3949483546
 10
10959.4158901744
 20
4712.1902715196
 10
10959.0358748225
 20
4712.4151136299
  0
ARC
  5
A8
330
1F
100
AcDbEntity
  8
0
  6
Continuous
 62
     7
370
    25
100
AcDbCircle
 10
10960.6264685149
 20
4713.4160247773
 30
0.0
 40
1.879311421588578
100
AcDbArc
 50
164.4683059497
 51
212.1809308708
  0
ARC
  5
A9
330
1F
100
AcDbEntity
  8
0
  6
Continuous
 62
     7
370
    25
100
AcDbCircle
 10
10724.9606072046
 20
4779.8969752318
 30
0.0
 40
243.8377210445103
100
AcDbArc
 50
344.85264351
 51
349.6709721579
  0
ARC
  5
AA
330
1F
100
AcDbEntity
  8
0
  6
Continuous
 62
     7
370
    25
100
AcDbCircle
 10
10966.3005984675
 20
4738.4978543735
 30
0.0
 40
1.879311421589977
100
AcDbArc
 50
122.324756824
 51
170.037381745
  0
CIRCLE
  5
AB
330
1F
100
AcDbEntity
  8
0
  6
Continuous
 62
     7
370
    25
100
AcDbCircle
 10
10975.9174071254
 20
4723.1395654623
 30
0.0
 40
8.749999999999563
  0
ARC
  5
AC
330
1F
100
AcDbEntity
  8
0
  6
Continuous
 62
     7
370
    25
100
AcDbCircle
 10
10975.9174071254
 20
4723.1395654623
 30
0.0
 40
19.99999999999995
100
AcDbArc
 50
212.4268626105
 51
257.2528438473
  0
ARC
  5
AD
330
1F
100
AcDbEntity
  8
0
  6
Continuous
 62
     7
370
    25
100
AcDbCircle
 10
10975.9174071254
 20
4723.1395654623
 30
0.0
 40
20.00000000000046
100
AcDbArc
 50
32.4268626105
 51
122.0788250842
  0
LWPOLYLINE
  5
AE
330
1F
100
AcDbEntity
  8
0
  6
Continuous
 62
     7
370
    25
100
AcDbPolyline
 90
       24
 70
   128
 43
0.0
 10
10986.5391165393
 20
4706.1932003911
 10
10986.0993271586
 20
4706.1538183793
 10
10985.9185156837
 20
4706.4544220825
 10
10985.8274164468
 20
4707.0262090071
 10
10985.825557478
 20
4707.7978090149
 10
10985.8990118988
 20
4708.7839038661
 10
10986.0668127041
 20
4710.1673358254
 10
10986.3063502291
 20
4711.7628626341
 10
10986.638261823
 20
4713.7374244059
 10
10987.0221703025
 20
4715.85093211
 10
10987.4164224761
 20
4717.869219407
 10
10987.8472935017
 20
4719.9035785239
 10
10988.3348511733
 20
4722.0088053311
 10
10988.8559748116
 20
4724.0907933429
 10
10989.509772473
 20
4726.5369066918
 10
10990.182244613
 20
4728.9053057548
 10
10990.6443454767
 20
4730.4242778305
 10
10991.1036953258
 20
4731.794494512
 10
10991.4224410548
 20
4732.6236163168
 10
10991.7354281297
 20
4733.302425562
 10
10992.0326707847
 20
4733.7839693455
 10
10992.3178532235
 20
4734.0511122265
 10
10992.5703764867
 20
4734.0772818716
 10
10992.7989394283
 20
4733.8640172947
  0
ARC
  5
AF
330
1F
100
AcDbEntity
  8
0
  6
Continuous
 62
     7
370
    25
100
AcDbCircle
 10
10975.9174071254
 20
4723.1395654623
 30
0.0
 40
20.00000000000063
100
AcDbArc
 50
257.2528438473
 51
302.0788250842
  0
ARC
  5
B0
330
1F
100
AcDbEntity
  8
0
  6
Continuous
 62
     7
370
    25
100
AcDbCircle
 10
10991.2083457359
 20
4732.8631061473
 30
0.0
 40
1.879311421587524
100
AcDbArc
 50
344.4683059497
 51
32.1809308708
  0
ARC
  5
B1
330
1F
100
AcDbEntity
  8
0
  6
Continuous
 62
     7
370
    25
100
AcDbCircle
 10
11240.9810872688
 20
4663.2194960835
 30
0.0
 40
258.2827072229858
100
AcDbArc
 50
165.0027667403
 51
169.5513852825
  0
ARC
  5
B2
330
1F
100
AcDbEntity
  8
0
  6
Continuous
 62
     7
370
    25
100
AcDbCircle
 10
10985.5342157833
 20
4707.7812765511
 30
0.0
 40
1.879311421587513
100
AcDbArc
 50
302.3247568239
 51
350.037381745
  0
ARC
  5
B3
330
1F
100
AcDbEntity
  8
0
  6
Continuous
 62
     7
370
    25
100
AcDbCircle
 10
10974.6310904512
 20
4723.4305620956
 30
0.0
 40
18.4550517887395
100
AcDbArc
 50
123.4830219314
 51
211.0226657633
  0
ARC
  5
B4
330
1F
100
AcDbEntity
  8
0
  6
Continuous
 62
     7
370
    25
100
AcDbCircle
 10
10977.2025837672
 20
4722.8488267325
 30
0.0
 40
18.45589585502766
100
AcDbArc
 50
303.4855320835
 51
31.0201556112
  0
ARC
  5
B5
330
1F
100
AcDbEntity
  8
0
  6
Continuous
 62
     7
370
    25
100
AcDbCircle
 10
10975.9174071254
 20
4723.1395654623
 30
0.0
 40
20.00000000000236
100
AcDbArc
 50
122.0788250842
 51
212.4268626105
  0
ARC
  5
B6
330
1F
100
AcDbEntity
  8
0
  6
Continuous
 62
     7
370
    25
100
AcDbCircle
 10
10975.9174071254
 20
4723.1395654623
 30
0.0
 40
20.0000000000043
100
AcDbArc
 50
302.0788250842
 51
32.4268626105
  0
LINE
  5
B7
330
1F
100
AcDbEntity
  8
0
  6
Continuous
 62
     7
370
    25
100
AcDbLine
 10
10967.9036305654
 20
4700.8586457047
 30
0.0
 11
10973.5606795517
 21
4699.5788813648
 31
0.0
  0
ARC
  5
B8
330
1F
100
AcDbEntity
  8
0
  6
Continuous
 62
     7
370
    25
100
AcDbCircle
 10
10973.073002915
 20
4699.6892058768
 30
0.0
 40
0.5000000000001477
100
AcDbArc
 50
257.2528438473
 51
347.2528438473
  0
LINE
  5
B9
330
1F
100
AcDbEntity
  8
0
  6
Continuous
 62
     7
370
    25
100
AcDbLine
 10
10972.9626784029
 20
4699.2015292401
 30
0.0
 11
10968.2809826901
 21
4700.2606445559
 31
0.0
  0
ARC
  5
BA
330
1F
100
AcDbEntity
  8
0
  6
Continuous
 62
     7
370
    25
100
AcDbCircle
 10
10968.3913072021
 20
4700.7483211926
 30
0.0
 40
0.500000000000834
100
AcDbArc
 50
167.2528438474
 51
257.2528438473
  0
LINE
  5
BB
330
1F
100
AcDbEntity
  8
0
  6
Continuous
 62
     7
370
    25
100
AcDbLine
 10
10973.5606795517
 20
4699.5788813648
 30
0.0
 11
10974.3795890362
 21
4703.1987752191
 31
0.0
  0
LINE
  5
BC
330
1F
100
AcDbEntity
  8
0
  6
Continuous
 62
     7
370
    25
100
AcDbLine
 10
10967.9036305654
 20
4700.8586457047
 30
0.0
 11
10968.7225400498
 21
4704.478539559
 31
0.0
  0
LINE
  5
BD
330
1F
100
AcDbEntity
  8
0
  6
Continuous
 62
     7
370
    25
100
AcDbLine
 10
10954.4139190363
 20
4712.9395654623
 30
0.0
 11
10954.1927667371
 21
4712.9395654623
 31
0.0
  0
LINE
  5
BE
330
1F
100
AcDbEntity
  8
0
  6
Continuous
 62
     7
370
    25
100
AcDbLine
 10
10954.4139190363
 20
4733.3395654623
 30
0.0
 11
10954.1927667371
 21
4733.3395654623
 31
0.0
  0
LINE
  5
BF
330
1F
100
AcDbEntity
  8
0
  6
Continuous
 62
     7
370
    25
100
AcDbLine
 10
10997.6420475137
 20
4712.9395654623
 30
0.0
 11
10997.4208952146
 21
4712.9395654623
 31
0.0
  0
LINE
  5
C0
330
1F
100
AcDbEntity
  8
0
  6
Continuous
 62
     7
370
    25
100
AcDbLine
 10
10997.6420475137
 20
4733.3395654623
 30
0.0
 11
10997.4208952146
 21
4733.3395654623
 31
0.0
  0
LINE
  5
C1
330
1F
100
AcDbEntity
  8
0
  6
Continuous
 62
     7
370
    25
100
AcDbLine
 10
10955.8674071254
 20
4709.9487542666
 30
0.0
 11
10955.8674071254
 21
4710.3162468591
 31
0.0
  0
CIRCLE
  5
C2
330
1F
100
AcDbEntity
  8
0
  6
Continuous
 62
     7
370
    25
100
AcDbCircle
 10
10950.9174071254
 20
4688.1395654623
 30
0.0
 40
1.699999999999818
  0
CIRCLE
  5
C3
330
1F
100
AcDbEntity
  8
0
  6
Continuous
 62
     7
370
    25
100
AcDbCircle
 10
11000.9174071254
 20
4688.1395654623
 30
0.0
 40
1.699999999999818
  0
LINE
  5
C4
330
1F
100
AcDbEntity
  8
0
  6
Continuous
 62
     7
370
    25
100
AcDbLine
 10
10995.9674071254
 20
4710.3162468591
 30
0.0
 11
10995.9674071254
 21
4709.9487542666
 31
0.0
  0
LWPOLYLINE
  5
C5
330
1F
100
AcDbEntity
  8
0
  6
Continuous
 62
     8
370
    25
100
AcDbPolyline
 90
        7
 70
   128
 43
0.0
 10
10958.8157848881
 20
4713.9192505945
 10
10959.1359997973
 20
4713.7142201682
 10
10959.3766885824
 20
4713.8798771853
 10
10959.642322232
 20
4714.2955711731
 10
10959.9095998837
 20
4714.9090775517
 10
10960.1902309554
 20
4715.7186910263
 10
10960.3266711857
 20
4716.1815914516
  0
LWPOLYLINE
  5
C6
330
1F
100
AcDbEntity
  8
0
  6
Continuous
 62
     8
370
    25
100
AcDbPolyline
 90
        7
 70
   128
 43
0.0
 10
10964.8467733521
 20
4736.1767111054
 10
10964.9148873823
 20
4736.6011049894
 10
10965.035262523
 20
4738.0143070228
 10
10965.0003635735
 20
4738.4950954488
 10
10964.8888224383
 20
4738.8057520448
 10
10964.7074474882
 20
4738.9130342685
 10
10964.4496254883
 20
4738.8229858078
  0
LWPOLYLINE
  5
C7
330
1F
100
AcDbEntity
  8
0
  6
Continuous
 62
     8
370
    25
100
AcDbPolyline
 90
        7
 70
   128
 43
0.0
 10
10993.0190293627
 20
4732.3598803302
 10
10992.8316630614
 20
4732.5492724941
 10
10992.6151801088
 20
4732.5333644611
 10
10992.388183117
 20
4732.3112223322
 10
10992.1423442354
 20
4731.8820149713
 10
10991.6427256766
 20
4730.5546071751
 10
10991.4959221408
 20
4730.05593249
  0
LWPOLYLINE
  5
C8
330
1F
100
AcDbEntity
  8
0
  6
Continuous
 62
     8
370
    25
100
AcDbPolyline
 90
        7
 70
   128
 43
0.0
 10
10986.981237159
 20
4710.0600020012
 10
10986.9190930779
 20
4709.6719615967
 10
10986.8256524597
 20
4708.8420020154
 10
10986.8011094659
 20
4708.1515820543
 10
10986.8580611123
 20
4707.676213873
 10
10987.0079043116
 20
4707.4089062902
 10
10987.3851887625
 20
4707.4561451169
  0
LINE
  5
C9
330
1F
100
AcDbEntity
  8
0
  6
Continuous
 62
     7
370
    25
100
AcDbLine
 10
11231.8857910019
 20
4630.6395654623
 30
0.0
 11
11236.8857910019
 21
4630.6395654623
 31
0.0
  0
LINE
  5
CA
330
1F
100
AcDbEntity
  8
0
  6
Continuous
 62
     7
370
    25
100
AcDbLine
 10
11236.8857910019
 20
4815.6395654623
 30
0.0
 11
11231.8857910019
 21
4815.6395654623
 31
0.0
  0
ARC
  5
CB
330
1F
100
AcDbEntity
  8
0
  6
Continuous
 62
     7
370
    25
100
AcDbCircle
 10
11236.8857910019
 20
4810.6395654623
 30
0.0
 40
5.0
100
AcDbArc
 50
0.0
 51
90.0
  0
ARC
  5
CC
330
1F
100
AcDbEntity
  8
0
  6
Continuous
 62
     7
370
    25
100
AcDbCircle
 10
11236.8857910019
 20
4635.6395654623
 30
0.0
 40
5.0
100
AcDbArc
 50
270.0
 51
0.0
  0
LINE
  5
CD
330
1F
100
AcDbEntity
  8
0
  6
Continuous
 62
     7
370
    25
100
AcDbLine
 10
11173.0657910019
 20
4759.1395654623
 30
0.0
 11
11173.0657910019
 21
4758.1395654623
 31
0.0
  0
LINE
  5
CE
330
1F
100
AcDbEntity
  8
0
  6
Continuous
 62
     7
370
    25
100
AcDbLine
 10
11199.2657910019
 20
4758.1395654623
 30
0.0
 11
11199.2657910019
 21
4759.1395654623
 31
0.0
  0
LINE
  5
CF
330
1F
100
AcDbEntity
  8
0
  6
Continuous
 62
     7
370
    25
100
AcDbLine
 10
11226.8857910019
 20
4699.3395654623
 30
0.0
 11
11231.8857910019
 21
4699.3395654623
 31
0.0
  0
LINE
  5
D0
330
1F
100
AcDbEntity
  8
0
  6
Continuous
 62
     7
370
    25
100
AcDbLine
 10
11241.8857910019
 20
4699.3395654623
 30
0.0
 11
11250.5857910019
 21
4699.3395654623
 31
0.0
  0
LINE
  5
D1
330
1F
100
AcDbEntity
  8
0
  6
Continuous
 62
     7
370
    25
100
AcDbLine
 10
11250.5857910019
 20
4746.9395654623
 30
0.0
 11
11241.8857910019
 21
4746.9395654623
 31
0.0
  0
LINE
  5
D2
330
1F
100
AcDbEntity
  8
0
  6
Continuous
 62
     7
370
    25
100
AcDbLine
 10
11231.8857910019
 20
4746.9395654623
 30
0.0
 11
11226.8857910019
 21
4746.9395654623
 31
0.0
  0
ARC
  5
D3
330
1F
100
AcDbEntity
  8
0
  6
Continuous
 62
     7
370
    25
100
AcDbCircle
 10
11250.5857910019
 20
4703.6395654623
 30
0.0
 40
4.299999999999272
100
AcDbArc
 50
270.0
 51
0.0
  0
ARC
  5
D4
330
1F
100
AcDbEntity
  8
0
  6
Continuous
 62
     7
370
    25
100
AcDbCircle
 10
11250.5857910019
 20
4742.6395654623
 30
0.0
 40
4.300000000000182
100
AcDbArc
 50
0.0
 51
90.0
  0
ARC
  5
D5
330
1F
100
AcDbEntity
  8
0
  6
Continuous
 62
     7
370
    25
100
AcDbCircle
 10
11277.9689937003
 20
4723.1395654623
 30
0.0
 40
23.204755958847
100
AcDbArc
 50
340.8208388762
 51
19.1791611238
  0
LINE
  5
D6
330
1F
100
AcDbEntity
  8
0
  6
Continuous
 62
     7
370
    25
100
AcDbLine
 10
11264.8857910019
 20
4703.1395654623
 30
0.0
 11
11276.8857910019
 21
4703.1395654623
 31
0.0
  0
LINE
  5
D7
330
1F
100
AcDbEntity
  8
0
  6
Continuous
 62
     7
370
    25
100
AcDbLine
 10
11286.8857910019
 20
4743.1395654623
 30
0.0
 11
11264.8857910019
 21
4743.1395654623
 31
0.0
  0
LINE
  5
D8
330
1F
100
AcDbEntity
  8
0
  6
Continuous
 62
     7
370
    25
100
AcDbLine
 10
11254.8857910019
 20
4703.3895654623
 30
0.0
 11
11264.8857910019
 21
4703.3895654623
 31
0.0
  0
LINE
  5
D9
330
1F
100
AcDbEntity
  8
0
  6
Continuous
 62
     7
370
    25
100
AcDbLine
 10
11264.8857910019
 20
4742.8895654623
 30
0.0
 11
11254.8857910019
 21
4742.8895654623
 31
0.0
  0
ARC
  5
DA
330
1F
100
AcDbEntity
  8
0
  6
Continuous
 62
     7
370
    25
100
AcDbCircle
 10
11286.8857910019
 20
4716.2756765734
 30
0.0
 40
13.13611111111186
100
AcDbArc
 50
270.0
 51
351.744816595
  0
ARC
  5
DB
330
1F
100
AcDbEntity
  8
0
  6
Continuous
 62
     7
370
    25
100
AcDbCircle
 10
11286.8857910019
 20
4730.0034543512
 30
0.0
 40
13.13611111111109
100
AcDbArc
 50
8.255183405
 51
90.0
  0
LWPOLYLINE
  5
DC
330
1F
100
AcDbEntity
  8
0
  6
Continuous
 62
     7
370
    25
100
AcDbPolyline
 90
        9
 70
   128
 43
0.0
 10
11276.9023691909
 20
4700.2184388884
 10
11276.9177867997
 20
4700.0221895872
 10
11277.0472472463
 20
4699.7958000812
 10
11277.2424632334
 20
4699.6281542784
 10
11277.5359050939
 20
4699.4842426593
 10
11278.0718899834
 20
4699.33691881
 10
11278.6940808604
 20
4699.2441884064
 10
11279.3631568485
 20
4699.1971099127
 10
11279.7857910019
 20
4699.1892058768
  0
LWPOLYLINE
  5
DD
330
1F
100
AcDbEntity
  8
0
  6
Continuous
 62
     7
370
    25
100
AcDbPolyline
 90
        9
 70
   128
 43
0.0
 10
11283.9857910019
 20
4699.1892058768
 10
11284.3432703
 20
4699.1948496338
 10
11285.0064467856
 20
4699.2369531488
 10
11285.607491341
 20
4699.3192430704
 10
11286.118955311
 20
4699.443530241
 10
11286.5499222027
 20
4699.6419574275
 10
11286.7584132466
 20
4699.838814695
 10
11286.8772702656
 20
4700.1165256191
 10
11286.8692128129
 20
4700.2190881811
  0
LINE
  5
DE
330
1F
100
AcDbEntity
  8
0
  6
Continuous
 62
     7
370
    25
100
AcDbLine
 10
11276.8857910019
 20
4703.6375652239
 30
0.0
 11
11276.8857910019
 21
4700.2187635347
 31
0.0
  0
LINE
  5
DF
330
1F
100
AcDbEntity
  8
0
  6
Continuous
 62
     7
370
    25
100
AcDbLine
 10
11286.8857910019
 20
4700.2187635347
 30
0.0
 11
11286.8857910019
 21
4703.632499992
 31
0.0
  0
LINE
  5
E0
330
1F
100
AcDbEntity
  8
0
  6
Continuous
 62
     7
370
    25
100
AcDbLine
 10
11279.7857910019
 20
4699.1892058768
 30
0.0
 11
11283.9857910019
 21
4699.1892058768
 31
0.0
  0
LINE
  5
E1
330
1F
100
AcDbEntity
  8
0
  6
Continuous
 62
     7
370
    25
100
AcDbLine
 10
11225.1657910019
 20
4738.1395654623
 30
0.0
 11
11213.1657910019
 21
4738.1395654623
 31
0.0
  0
LINE
  5
E2
330
1F
100
AcDbEntity
  8
0
  6
Continuous
 62
     7
370
    25
100
AcDbLine
 10
11213.1657910019
 20
4708.1395654623
 30
0.0
 11
11225.1657910019
 21
4708.1395654623
 31
0.0
  0
LINE
  5
E3
330
1F
100
AcDbEntity
  8
0
  6
Continuous
 62
     7
370
    25
100
AcDbLine
 10
11195.8094417629
 20
4709.1395654623
 30
0.0
 11
11200.1657910019
 21
4709.1395654623
 31
0.0
  0
LINE
  5
E4
330
1F
100
AcDbEntity
  8
0
  6
Continuous
 62
     7
370
    25
100
AcDbLine
 10
11200.1657910019
 20
4737.1395654623
 30
0.0
 11
11195.8094417629
 21
4737.1395654623
 31
0.0
  0
LINE
  5
E5
330
1F
100
AcDbEntity
  8
0
  6
Continuous
 62
     7
370
    25
100
AcDbLine
 10
11213.1657910019
 20
4737.1395654623
 30
0.0
 11
11200.1657910019
 21
4737.1395654623
 31
0.0
  0
LINE
  5
E6
330
1F
100
AcDbEntity
  8
0
  6
Continuous
 62
     7
370
    25
100
AcDbLine
 10
11200.1657910019
 20
4709.1395654623
 30
0.0
 11
11213.1657910019
 21
4709.1395654623
 31
0.0
  0
LINE
  5
E7
330
1F
100
AcDbEntity
  8
0
  6
Continuous
 62
     7
370
    25
100
AcDbLine
 10
11225.1657910019
 20
4710.8895654623
 30
0.0
 11
11225.3657910019
 21
4710.8895654623
 31
0.0
  0
LINE
  5
E8
330
1F
100
AcDbEntity
  8
0
  6
Continuous
 62
     7
370
    25
100
AcDbLine
 10
11225.3657910019
 20
4735.3895654623
 30
0.0
 11
11225.1657910019
 21
4735.3895654623
 31
0.0
  0
LINE
  5
E9
330
1F
100
AcDbEntity
  8
0
  6
Continuous
 62
     7
370
    25
100
AcDbLine
 10
11170.2598172813
 20
4729.1395654623
 30
0.0
 11
11170.1657910019
 21
4729.1395654623
 31
0.0
  0
LINE
  5
EA
330
1F
100
AcDbEntity
  8
0
  6
Continuous
 62
     7
370
    25
100
AcDbLine
 10
11170.1657910019
 20
4692.6395654623
 30
0.0
 11
11176.1657910019
 21
4692.6395654623
 31
0.0
  0
LINE
  5
EB
330
1F
100
AcDbEntity
  8
0
  6
Continuous
 62
     7
370
    25
100
AcDbLine
 10
11229.3657910019
 20
4720.1395654623
 30
0.0
 11
11229.5657910019
 21
4720.1395654623
 31
0.0
  0
LINE
  5
EC
330
1F
100
AcDbEntity
  8
0
  6
Continuous
 62
     7
370
    25
100
AcDbLine
 10
11229.5657910019
 20
4726.1395654623
 30
0.0
 11
11229.3657910019
 21
4726.1395654623
 31
0.0
  0
LINE
  5
ED
330
1F
100
AcDbEntity
  8
0
  6
Continuous
 62
     7
370
    25
100
AcDbLine
 10
11183.1657910019
 20
4683.1895654623
 30
0.0
 11
11189.1657910019
 21
4683.1895654623
 31
0.0
  0
LINE
  5
EE
330
1F
100
AcDbEntity
  8
0
  6
Continuous
 62
     7
370
    25
100
AcDbLine
 10
11203.1325239078
 20
4701.6395654623
 30
0.0
 11
11223.6657910019
 21
4701.6395654623
 31
0.0
  0
LINE
  5
EF
330
1F
100
AcDbEntity
  8
0
  6
Continuous
 62
     7
370
    25
100
AcDbLine
 10
11223.6657910019
 20
4744.6395654623
 30
0.0
 11
11203.1657910019
 21
4744.6395654623
 31
0.0
  0
LINE
  5
F0
330
1F
100
AcDbEntity
  8
0
  6
Continuous
 62
     7
370
    25
100
AcDbLine
 10
11223.6657910019
 20
4702.1395654623
 30
0.0
 11
11226.8857910019
 21
4702.1395654623
 31
0.0
  0
LINE
  5
F1
330
1F
100
AcDbEntity
  8
0
  6
Continuous
 62
     7
370
    25
100
AcDbLine
 10
11226.8857910019
 20
4744.1395654623
 30
0.0
 11
11223.6657910019
 21
4744.1395654623
 31
0.0
  0
LINE
  5
F2
330
1F
100
AcDbEntity
  8
0
  6
Continuous
 62
     7
370
    25
100
AcDbLine
 10
11203.1657910019
 20
4757.1395654623
 30
0.0
 11
11202.1657910019
 21
4758.1395654623
 31
0.0
  0
LINE
  5
F3
330
1F
100
AcDbEntity
  8
0
  6
Continuous
 62
     7
370
    25
100
AcDbLine
 10
11170.1657910019
 20
4758.1395654623
 30
0.0
 11
11169.1657910019
 21
4757.1395654623
 31
0.0
  0
LINE
  5
F4
330
1F
100
AcDbEntity
  8
0
  6
Continuous
 62
     7
370
    25
100
AcDbLine
 10
11169.1657910019
 20
4757.1395654623
 30
0.0
 11
11169.1657910019
 21
4689.1395654623
 31
0.0
  0
LINE
  5
F5
330
1F
100
AcDbEntity
  8
0
  6
Continuous
 62
     7
370
    25
100
AcDbLine
 10
11203.1657910019
 20
4744.6395654623
 30
0.0
 11
11203.1657910019
 21
4757.1395654623
 31
0.0
  0
LINE
  5
F6
330
1F
100
AcDbEntity
  8
0
  6
Continuous
 62
     7
370
    25
100
AcDbLine
 10
11203.1657910019
 20
4689.1395654623
 30
0.0
 11
11203.1657910019
 21
4701.6658432667
 31
0.0
  0
LINE
  5
F7
330
1F
100
AcDbEntity
  8
0
  6
Continuous
 62
     7
370
    25
100
AcDbLine
 10
11169.1657910019
 20
4689.1395654623
 30
0.0
 11
11170.1657910019
 21
4688.1395654623
 31
0.0
  0
LINE
  5
F8
330
1F
100
AcDbEntity
  8
0
  6
Continuous
 62
     7
370
    25
100
AcDbLine
 10
11202.1657910019
 20
4688.1395654623
 30
0.0
 11
11203.1657910019
 21
4689.1395654623
 31
0.0
  0
LINE
  5
F9
330
1F
100
AcDbEntity
  8
0
  6
Continuous
 62
     7
370
    25
100
AcDbLine
 10
11231.8857910019
 20
4815.6395654623
 30
0.0
 11
11231.8857910019
 21
4630.6395654623
 31
0.0
  0
LINE
  5
FA
330
1F
100
AcDbEntity
  8
0
  6
Continuous
 62
     7
370
    25
100
AcDbLine
 10
11241.8857910019
 20
4810.6395654623
 30
0.0
 11
11241.8857910019
 21
4635.6395654623
 31
0.0
  0
LINE
  5
FB
330
1F
100
AcDbEntity
  8
0
  6
Continuous
 62
     7
370
    25
100
AcDbLine
 10
11185.0640177168
 20
4763.1395654623
 30
0.0
 11
11185.0640177168
 21
4759.1395654623
 31
0.0
  0
LWPOLYLINE
  5
FC
330
1F
100
AcDbEntity
  8
0
  6
Continuous
 62
     7
370
    25
100
AcDbPolyline
 90
        3
 70
   128
 43
0.0
 10
11188.367139511
 20
4763.6395654623
 10
11186.7118733142
 20
4763.5127071744
 10
11185.0640177168
 20
4763.1395654623
  0
LINE
  5
FD
330
1F
100
AcDbEntity
  8
0
  6
Continuous
 62
     7
370
    25
100
AcDbLine
 10
11194.7380074032
 20
4763.6395654623
 30
0.0
 11
11188.367139511
 21
4763.6395654623
 31
0.0
  0
LWPOLYLINE
  5
FE
330
1F
100
AcDbEntity
  8
0
  6
Continuous
 62
     7
370
    25
100
AcDbPolyline
 90
        3
 70
   128
 43
0.0
 10
11198.0411291974
 20
4763.1395654623
 10
11196.4252779026
 20
4763.5084466046
 10
11194.7380074032
 20
4763.6395654623
  0
LINE
  5
FF
330
1F
100
AcDbEntity
  8
0
  6
Continuous
 62
     7
370
    25
100
AcDbLine
 10
11198.0411291974
 20
4759.1395654623
 30
0.0
 11
11198.0411291974
 21
4763.1395654623
 31
0.0
  0
LINE
  5
100
330
1F
100
AcDbEntity
  8
0
  6
Continuous
 62
     7
370
    25
100
AcDbLine
 10
11198.0411291974
 20
4759.1395654623
 30
0.0
 11
11185.0640177168
 21
4759.1395654623
 31
0.0
  0
LINE
  5
101
330
1F
100
AcDbEntity
  8
0
  6
Continuous
 62
     7
370
    25
100
AcDbLine
 10
11183.2549912263
 20
4763.1395654623
 30
0.0
 11
11185.0640177168
 21
4763.1395654623
 31
0.0
  0
LWPOLYLINE
  5
102
330
1F
100
AcDbEntity
  8
0
  6
Continuous
 62
     7
370
    25
100
AcDbPolyline
 90
        3
 70
   128
 43
0.0
 10
11183.2549912263
 20
4763.1395654623
 10
11181.8637200378
 20
4763.5084466046
 10
11180.4109558878
 20
4763.6395654623
  0
LINE
  5
103
330
1F
100
AcDbEntity
  8
0
  6
Continuous
 62
     7
370
    25
100
AcDbLine
 10
11180.4109558878
 20
4763.6395654623
 30
0.0
 11
11188.367139511
 21
4763.6395654623
 31
0.0
  0
LINE
  5
104
330
1F
100
AcDbEntity
  8
0
  6
Continuous
 62
     7
370
    25
100
AcDbLine
 10
11183.2549912263
 20
4759.1395654623
 30
0.0
 11
11183.2549912263
 21
4763.1395654623
 31
0.0
  0
LINE
  5
105
330
1F
100
AcDbEntity
  8
0
  6
Continuous
 62
     7
370
    25
100
AcDbLine
 10
11183.2549912263
 20
4759.1395654623
 30
0.0
 11
11185.0640177168
 21
4759.1395654623
 31
0.0
  0
LINE
  5
106
330
1F
100
AcDbEntity
  8
0
  6
Continuous
 62
     7
370
    25
100
AcDbLine
 10
11172.0815117297
 20
4763.1395654623
 30
0.0
 11
11172.0815117297
 21
4759.1395654623
 31
0.0
  0
LWPOLYLINE
  5
107
330
1F
100
AcDbEntity
  8
0
  6
Continuous
 62
     7
370
    25
100
AcDbPolyline
 90
        3
 70
   128
 43
0.0
 10
11174.9255470682
 20
4763.6395654623
 10
11173.5003390826
 20
4763.5127071744
 10
11172.0815117297
 20
4763.1395654623
  0
LINE
  5
108
330
1F
100
AcDbEntity
  8
0
  6
Continuous
 62
     7
370
    25
100
AcDbLine
 10
11180.4109558878
 20
4763.6395654623
 30
0.0
 11
11174.9255470682
 21
4763.6395654623
 31
0.0
  0
LINE
  5
109
330
1F
100
AcDbEntity
  8
0
  6
Continuous
 62
     7
370
    25
100
AcDbLine
 10
11183.2549912263
 20
4759.1395654623
 30
0.0
 11
11172.0815117297
 21
4759.1395654623
 31
0.0
  0
LWPOLYLINE
  5
10A
330
1F
100
AcDbEntity
  8
0
  6
Continuous
 62
     7
370
    25
100
AcDbPolyline
 90
        3
 70
   128
 43
0.0
 10
11199.6073834447
 20
4763.6395654623
 10
11199.3426439284
 20
4763.4770465233
 10
11199.148296989
 20
4763.1395654623
  0
LINE
  5
10B
330
1F
100
AcDbEntity
  8
0
  6
Continuous
 62
     7
370
    25
100
AcDbLine
 10
11198.0411291974
 20
4763.1395654623
 30
0.0
 11
11199.148296989
 21
4763.1395654623
 31
0.0
  0
LINE
  5
10C
330
1F
100
AcDbEntity
  8
0
  6
Continuous
 62
     7
370
    25
100
AcDbLine
 10
11194.7380074032
 20
4763.6395654623
 30
0.0
 11
11199.6073834447
 21
4763.6395654623
 31
0.0
  0
LINE
  5
10D
330
1F
100
AcDbEntity
  8
0
  6
Continuous
 62
     7
370
    25
100
AcDbLine
 10
11199.148296989
 20
4763.1395654623
 30
0.0
 11
11199.148296989
 21
4759.1395654623
 31
0.0
  0
LINE
  5
10E
330
1F
100
AcDbEntity
  8
0
  6
Continuous
 62
     7
370
    25
100
AcDbLine
 10
11198.0411291974
 20
4759.1395654623
 30
0.0
 11
11199.148296989
 21
4759.1395654623
 31
0.0
  0
LINE
  5
10F
330
1F
100
AcDbEntity
  8
0
  6
Continuous
 62
     7
370
    25
100
AcDbLine
 10
11171.3796530307
 20
4763.1395654623
 30
0.0
 11
11172.0815117297
 21
4763.1395654623
 31
0.0
  0
ARC
  5
110
330
1F
100
AcDbEntity
  8
0
  6
Continuous
 62
     7
370
    25
100
AcDbCircle
 10
11172.1499224697
 20
4762.8930853027
 30
0.0
 40
0.8087443834101993
100
AcDbArc
 50
112.6296470631
 51
162.2557373337
  0
LINE
  5
111
330
1F
100
AcDbEntity
  8
0
  6
Continuous
 62
     7
370
    25
100
AcDbLine
 10
11171.8387394865
 20
4763.6395654623
 30
0.0
 11
11174.9255470682
 21
4763.6395654623
 31
0.0
  0
ARC
  5
112
330
1F
100
AcDbEntity
  8
0
  6
Continuous
 62
     7
370
    25
100
AcDbCircle
 10
11200.1816595341
 20
4762.8930853028
 30
0.0
 40
0.8087443832916758
100
AcDbArc
 50
17.7442626624
 51
67.3703529408
  0
LINE
  5
113
330
1F
100
AcDbEntity
  8
0
  6
Continuous
 62
     7
370
    25
100
AcDbLine
 10
11200.951928973
 20
4759.1395654623
 30
0.0
 11
11200.951928973
 21
4763.1395654623
 31
0.0
  0
LINE
  5
114
330
1F
100
AcDbEntity
  8
0
  6
Continuous
 62
     7
370
    25
100
AcDbLine
 10
11200.4928425173
 20
4763.6395654623
 30
0.0
 11
11199.6073834447
 21
4763.6395654623
 31
0.0
  0
LINE
  5
115
330
1F
100
AcDbEntity
  8
0
  6
Continuous
 62
     7
370
    25
100
AcDbLine
 10
11200.951928973
 20
4759.1395654623
 30
0.0
 11
11199.148296989
 21
4759.1395654623
 31
0.0
  0
LINE
  5
116
330
1F
100
AcDbEntity
  8
0
  6
Continuous
 62
     7
370
    25
100
AcDbLine
 10
11171.3796530307
 20
4759.1395654623
 30
0.0
 11
11171.3796530307
 21
4763.1395654623
 31
0.0
  0
LINE
  5
117
330
1F
100
AcDbEntity
  8
0
  6
Continuous
 62
     7
370
    25
100
AcDbLine
 10
11171.3796530307
 20
4759.1395654623
 30
0.0
 11
11172.0815117297
 21
4759.1395654623
 31
0.0
  0
LINE
  5
118
330
1F
100
AcDbEntity
  8
0
  6
Continuous
 62
     7
370
    25
100
AcDbLine
 10
11226.8857910019
 20
4699.3395654623
 30
0.0
 11
11226.8857910019
 21
4712.4895654623
 31
0.0
  0
LINE
  5
119
330
1F
100
AcDbEntity
  8
0
  6
Continuous
 62
     7
370
    25
100
AcDbLine
 10
11231.8857910019
 20
4712.4895654623
 30
0.0
 11
11226.8857910019
 21
4712.4895654623
 31
0.0
  0
LINE
  5
11A
330
1F
100
AcDbEntity
  8
0
  6
Continuous
 62
     7
370
    25
100
AcDbLine
 10
11226.8857910019
 20
4733.7895654623
 30
0.0
 11
11231.8857910019
 21
4733.7895654623
 31
0.0
  0
LINE
  5
11B
330
1F
100
AcDbEntity
  8
0
  6
Continuous
 62
     7
370
    25
100
AcDbLine
 10
11226.8857910019
 20
4733.7895654623
 30
0.0
 11
11226.8857910019
 21
4746.9395654623
 31
0.0
  0
LWPOLYLINE
  5
11C
330
1F
100
AcDbEntity
  8
0
  6
Continuous
 62
     7
370
    25
100
AcDbPolyline
 90
       20
 70
   128
 43
0.0
 10
11286.8857910019
 20
4712.4151136299
 10
11283.983118487
 20
4713.3832906416
 10
11281.2100739256
 20
4714.6599463913
 10
11278.6446397523
 20
4716.2786168971
 10
11276.8894691244
 20
4717.7525749345
 10
11275.3372697959
 20
4719.4558065624
 10
11273.9979548269
 20
4721.4782750071
 10
11273.0170832598
 20
4723.7080135832
 10
11272.5989428679
 20
4725.297051199
 10
11272.3957072369
 20
4726.9126698554
 10
11272.4208243652
 20
4728.5234935282
 10
11272.6712600889
 20
4730.0803986693
 10
11273.1165676048
 20
4731.4912179528
 10
11273.7428147893
 20
4732.797587299
 10
11274.892974994
 20
4734.4322192582
 10
11276.3009868234
 20
4735.8269555704
 10
11278.6960264463
 20
4737.4461711395
 10
11281.3937887171
 20
4738.6582194226
 10
11284.0759720865
 20
4739.4848737085
 10
11286.8857910019
 20
4740.0859305336
  0
ARC
  5
11D
330
1F
100
AcDbEntity
  8
0
  6
Continuous
 62
     7
370
    25
100
AcDbCircle
 10
11282.6937017956
 20
4738.0086549414
 30
0.0
 40
4.678534578162544
100
AcDbArc
 50
10.0237757335
 51
26.3594620684
  0
LWPOLYLINE
  5
11E
330
1F
100
AcDbEntity
  8
0
  6
Continuous
 62
     7
370
    25
100
AcDbPolyline
 90
       20
 70
   128
 43
0.0
 10
11287.3008213989
 20
4738.8229858078
 10
11284.601426899
 20
4738.2785731277
 10
11282.0098793535
 20
4737.526192494
 10
11279.4226980846
 20
4736.4342571355
 10
11277.1035231156
 20
4734.9624281977
 10
11275.7520677804
 20
4733.7076178456
 10
11274.6390048447
 20
4732.2262993622
 10
11274.0369138801
 20
4731.0507820747
 10
11273.6066793786
 20
4729.7763708245
 10
11273.3656196045
 20
4728.3750019719
 10
11273.341214418
 20
4726.9242289032
 10
11273.5375403271
 20
4725.4689680732
 10
11273.939842087
 20
4724.0426896919
 10
11274.8895573324
 20
4722.0319410758
 10
11276.1750874238
 20
4720.2248935719
 10
11277.6767846914
 20
4718.6917469911
 10
11279.361375749
 20
4717.3766989655
 10
11281.8509785204
 20
4715.9171167651
 10
11284.5215759549
 20
4714.7777647989
 10
11287.3008213989
 20
4713.9192505945
  0
ARC
  5
11F
330
1F
100
AcDbEntity
  8
0
  6
Continuous
 62
     7
370
    25
100
AcDbCircle
 10
11275.5049211306
 20
4716.3647180877
 30
0.0
 40
12.04672463373863
100
AcDbArc
 50
340.8612370296
 51
348.2876395793
  0
LWPOLYLINE
  5
120
330
1F
100
AcDbEntity
  8
0
  6
Continuous
 62
     7
370
    25
100
AcDbPolyline
 90
       21
 70
   128
 43
0.0
 10
11287.3008213989
 20
4713.9192505945
 10
11289.1485294058
 20
4713.7142201682
 10
11290.3872599935
 20
4713.8869106635
 10
11291.5667412886
 20
4714.2955711731
 10
11292.6510208184
 20
4714.9198923566
 10
11293.6140718367
 20
4715.7186910263
 10
11294.6370104388
 20
4716.9192574151
 10
11295.4508405319
 20
4718.2723579398
 10
11296.1792793923
 20
4720.0508692471
 10
11296.6610533208
 20
4721.9138535099
 10
11297.0591827766
 20
4725.7219297662
 10
11296.7982474771
 20
4729.5474825795
 10
11296.3019787505
 20
4731.806802079
 10
11295.4651186729
 20
4733.9678053543
 10
11294.6486103497
 20
4735.3546159848
 10
11293.6200468385
 20
4736.6011049894
 10
11291.7780648832
 20
4738.0143070228
 10
11290.7117258583
 20
4738.5004107268
 10
11289.5856509718
 20
4738.8057520448
 10
11288.4375520148
 20
4738.9121297239
 10
11287.3008213989
 20
4738.8229858078
  0
LINE
  5
121
330
1F
100
AcDbEntity
  8
0
  6
Continuous
 62
     7
370
    25
100
AcDbLine
 10
11286.8857910019
 20
4703.632499992
 30
0.0
 11
11286.8857910019
 21
4712.4151136299
 31
0.0
  0
ARC
  5
122
330
1F
100
AcDbEntity
  8
0
  6
Continuous
 62
     7
370
    25
100
AcDbCircle
 10
11284.5955836768
 20
4701.175511159
 30
0.0
 40
3.358845592972595
100
AcDbArc
 50
47.0121241011
 51
100.4599563383
  0
LINE
  5
123
330
1F
100
AcDbEntity
  8
0
  6
Continuous
 62
     7
370
    25
100
AcDbLine
 10
11283.9857910019
 20
4704.478539559
 30
0.0
 11
11279.7857910019
 21
4704.478539559
 31
0.0
  0
LWPOLYLINE
  5
124
330
1F
100
AcDbEntity
  8
0
  6
Continuous
 62
     7
370
    25
100
AcDbPolyline
 90
        6
 70
   128
 43
0.0
 10
11279.7857910019
 20
4704.478539559
 10
11278.8316077277
 20
4704.4204861202
 10
11277.9850819261
 20
4704.2604915181
 10
11277.3352417474
 20
4704.033397084
 10
11276.9592855309
 20
4703.7859094368
 10
11276.9219425372
 20
4703.6371075258
  0
LINE
  5
125
330
1F
100
AcDbEntity
  8
0
  6
Continuous
 62
     7
370
    25
100
AcDbLine
 10
11264.8857910019
 20
4703.1395654623
 30
0.0
 11
11264.8857910019
 21
4743.1395654623
 31
0.0
  0
LINE
  5
126
330
1F
100
AcDbEntity
  8
0
  6
Continuous
 62
     7
370
    25
100
AcDbLine
 10
11254.8857910019
 20
4703.3895654623
 30
0.0
 11
11254.8857910019
 21
4742.8895654623
 31
0.0
  0
LINE
  5
127
330
1F
100
AcDbEntity
  8
0
  6
Continuous
 62
     7
370
    25
100
AcDbLine
 10
11299.8857910019
 20
4714.3895654623
 30
0.0
 11
11299.8857910019
 21
4731.8895654623
 31
0.0
  0
LWPOLYLINE
  5
128
330
1F
100
AcDbEntity
  8
0
  6
Continuous
 62
     7
370
    25
100
AcDbPolyline
 90
       23
 70
   128
 43
0.0
 10
11286.8857910019
 20
4740.0859305336
 10
11288.2794936942
 20
4740.1793315061
 10
11289.6833855553
 20
4740.0477378167
 10
11291.0586083034
 20
4739.6893436887
 10
11292.3678243818
 20
4739.1212639777
 10
11293.5520566628
 20
4738.3819949421
 10
11294.6231867715
 20
4737.4882517869
 10
11295.8727003819
 20
4736.0729239003
 10
11296.8823324759
 20
4734.483776876
 10
11297.8966423806
 20
4732.0881527098
 10
11298.5146441046
 20
4729.5672080561
 10
11298.8107476903
 20
4726.8144951183
 10
11298.7576011055
 20
4724.0498550636
 10
11298.346660624
 20
4721.3403695767
 10
11297.7488770014
 20
4719.2870629319
 10
11296.8648500124
 20
4717.3422591884
 10
11295.8586174451
 20
4715.8182226342
 10
11294.6158708506
 20
4714.4780403715
 10
11293.4296032318
 20
4713.5676358363
 10
11292.1090752199
 20
4712.8606795261
 10
11290.6615229345
 20
4712.3907751447
 10
11289.1481644925
 20
4712.1902715196
 10
11286.8857910019
 20
4712.4151136299
  0
LWPOLYLINE
  5
129
330
1F
100
AcDbEntity
  8
0
  6
Continuous
 62
     7
370
    25
100
AcDbPolyline
 90
       11
 70
   128
 43
0.0
 10
11279.7857910019
 20
4700.2606445559
 10
11279.0441502154
 20
4700.2347261593
 10
11278.3751063964
 20
4700.1595080427
 10
11277.8441502154
 20
4700.0423530795
 10
11277.5032553628
 20
4699.8947292138
 10
11277.3857910019
 20
4699.731086898
 10
11277.5032553628
 20
4699.5674445822
 10
11277.8441502154
 20
4699.4198207164
 10
11278.3751063964
 20
4699.3026657532
 10
11279.0441502154
 20
4699.2274476367
 10
11279.7857910019
 20
4699.2015292401
  0
LINE
  5
12A
330
1F
100
AcDbEntity
  8
0
  6
Continuous
 62
     7
370
    25
100
AcDbLine
 10
11279.7857910019
 20
4699.2015292401
 30
0.0
 11
11279.7857910019
 21
4699.1892058768
 31
0.0
  0
LINE
  5
12B
330
1F
100
AcDbEntity
  8
0
  6
Continuous
 62
     7
370
    25
100
AcDbLine
 10
11279.7857910019
 20
4700.2606445559
 30
0.0
 11
11279.7857910019
 21
4700.8586457047
 31
0.0
  0
LINE
  5
12C
330
1F
100
AcDbEntity
  8
0
  6
Continuous
 62
     7
370
    25
100
AcDbLine
 10
11283.9857910019
 20
4700.2606445559
 30
0.0
 11
11279.7857910019
 21
4700.2606445559
 31
0.0
  0
LINE
  5
12D
330
1F
100
AcDbEntity
  8
0
  6
Continuous
 62
     7
370
    25
100
AcDbLine
 10
11279.7857910019
 20
4700.8586457047
 30
0.0
 11
11283.9857910019
 21
4700.8586457047
 31
0.0
  0
LINE
  5
12E
330
1F
100
AcDbEntity
  8
0
  6
Continuous
 62
     7
370
    25
100
AcDbLine
 10
11283.9857910019
 20
4700.8586457047
 30
0.0
 11
11283.9857910019
 21
4700.2606445559
 31
0.0
  0
LWPOLYLINE
  5
12F
330
1F
100
AcDbEntity
  8
0
  6
Continuous
 62
     7
370
    25
100
AcDbPolyline
 90
       11
 70
   128
 43
0.0
 10
11283.9857910019
 20
4699.2015292401
 10
11284.7274317884
 20
4699.2274476367
 10
11285.3964756074
 20
4699.3026657532
 10
11285.9274317884
 20
4699.4198207164
 10
11286.268326641
 20
4699.5674445822
 10
11286.3857910019
 20
4699.731086898
 10
11286.268326641
 20
4699.8947292138
 10
11285.9274317884
 20
4700.0423530795
 10
11285.3964756074
 20
4700.1595080427
 10
11284.7274317884
 20
4700.2347261593
 10
11283.9857910019
 20
4700.2606445559
  0
LINE
  5
130
330
1F
100
AcDbEntity
  8
0
  6
Continuous
 62
     7
370
    25
100
AcDbLine
 10
11279.7857910019
 20
4700.8586457047
 30
0.0
 11
11279.7857910019
 21
4704.478539559
 31
0.0
  0
LINE
  5
131
330
1F
100
AcDbEntity
  8
0
  6
Continuous
 62
     7
370
    25
100
AcDbLine
 10
11283.9857910019
 20
4700.8586457047
 30
0.0
 11
11283.9857910019
 21
4704.478539559
 31
0.0
  0
LINE
  5
132
330
1F
100
AcDbEntity
  8
0
  6
Continuous
 62
     7
370
    25
100
AcDbLine
 10
11279.7857910019
 20
4699.2015292401
 30
0.0
 11
11283.9857910019
 21
4699.2015292401
 31
0.0
  0
LWPOLYLINE
  5
133
330
1F
100
AcDbEntity
  8
0
  6
Continuous
 62
     7
370
    25
100
AcDbPolyline
 90
       33
 70
   128
 43
0.0
 10
11176.1538741572
 20
4721.2568025772
 10
11176.0012510209
 20
4722.9421419766
 10
11176.1333765204
 20
4724.6429588728
 10
11176.5473735874
 20
4726.297866806
 10
11177.2351335815
 20
4727.8579536994
 10
11178.1735170099
 20
4729.2814475266
 10
11179.3388413578
 20
4730.5250522184
 10
11180.6961823901
 20
4731.5554678363
 10
11182.2000421457
 20
4732.3348398147
 10
11183.8131399203
 20
4732.8514885449
 10
11185.4837915312
 20
4733.0865986125
 10
11187.1701372962
 20
4733.03903006
 10
11188.8192845829
 20
4732.705840946
 10
11190.389046697
 20
4732.1004266677
 10
11191.8226117975
 20
4731.2437746902
 10
11193.0932948804
 20
4730.1600963904
 10
11194.1617496041
 20
4728.8757779265
 10
11194.9986180702
 20
4727.4298690671
 10
11195.5715133816
 20
4725.8788826155
 10
11195.8777449586
 20
4724.2540731039
 10
11195.9044608684
 20
4722.6008534314
 10
11195.6532799195
 20
4720.9667225999
 10
11195.1309284954
 20
4719.4099056623
 10
11194.3554468398
 20
4717.9624401985
 10
11193.3496815114
 20
4716.6717720178
 10
11192.1422163352
 20
4715.5676583688
 10
11190.768824878
 20
4714.6883374585
 10
11189.2672997147
 20
4714.0520891865
 10
11187.6908907064
 20
4713.6824684128
 10
11186.0749193434
 20
4713.5809269864
 10
11184.465056041
 20
4713.7556850378
 10
11182.9076545059
 20
4714.1991531357
 10
11181.8794557697
 20
4714.6615155522
  0
ARC
  5
134
330
1F
100
AcDbEntity
  8
0
  6
Continuous
 62
     7
370
    25
100
AcDbCircle
 10
11186.1657910019
 20
4723.1395654623
 30
0.0
 40
10.18740766760041
100
AcDbArc
 50
190.6502158497
 51
280.6502158497
  0
ARC
  5
135
330
1F
100
AcDbEntity
  8
0
  6
Continuous
 62
     7
370
    25
100
AcDbCircle
 10
11186.5948599377
 20
4722.8435749851
 30
0.0
 40
9.824075085049499
100
AcDbArc
 50
195.7581698655
 51
278.5094540894
  0
ARC
  5
136
330
1F
100
AcDbEntity
  8
0
  6
Continuous
 62
     7
370
    25
100
AcDbCircle
 10
11186.1657910019
 20
4723.1395654623
 30
0.0
 40
9.500000000000531
100
AcDbArc
 50
198.1797379771
 51
243.1797369068
  0
CIRCLE
  5
137
330
1F
100
AcDbEntity
  8
0
  6
Continuous
 62
     7
370
    25
100
AcDbCircle
 10
11186.1657910019
 20
4723.1395654623
 30
0.0
 40
10.5
  0
CIRCLE
  5
138
330
1F
100
AcDbEntity
  8
0
  6
Continuous
 62
     7
370
    25
100
AcDbCircle
 10
11186.1657910019
 20
4723.1395654623
 30
0.0
 40
17.0
  0
ARC
  5
139
330
1F
100
AcDbEntity
  8
0
  6
Continuous
 62
     7
370
    25
100
AcDbCircle
 10
11186.162321609
 20
4723.1460633583
 30
0.0
 40
9.498733898896976
100
AcDbArc
 50
255.4316086263
 51
198.2235056301
  0
LINE
  5
13A
330
1F
100
AcDbEntity
  8
0
  6
Continuous
 62
     7
370
    25
100
AcDbLine
 10
11225.1657910019
 20
4738.1395654623
 30
0.0
 11
11225.1657910019
 21
4708.1395654623
 31
0.0
  0
LINE
  5
13B
330
1F
100
AcDbEntity
  8
0
  6
Continuous
 62
     7
370
    25
100
AcDbLine
 10
11213.1657910019
 20
4738.1395654623
 30
0.0
 11
11213.1657910019
 21
4708.1395654623
 31
0.0
  0
LINE
  5
13C
330
1F
100
AcDbEntity
  8
0
  6
Continuous
 62
     7
370
    25
100
AcDbLine
 10
11225.3657910019
 20
4735.3895654623
 30
0.0
 11
11225.3657910019
 21
4710.8895654623
 31
0.0
  0
LINE
  5
13D
330
1F
100
AcDbEntity
  8
0
  6
Continuous
 62
     7
370
    25
100
AcDbLine
 10
11176.1657910019
 20
4698.6395654623
 30
0.0
 11
11176.1657910019
 21
4709.3918383774
 31
0.0
  0
LINE
  5
13E
330
1F
100
AcDbEntity
  8
0
  6
Continuous
 62
     7
370
    25
100
AcDbLine
 10
11176.1657910019
 20
4698.6395654623
 30
0.0
 11
11170.1657910019
 21
4698.6395654623
 31
0.0
  0
LINE
  5
13F
330
1F
100
AcDbEntity
  8
0
  6
Continuous
 62
     7
370
    25
100
AcDbLine
 10
11170.1657910019
 20
4698.6395654623
 30
0.0
 11
11170.1657910019
 21
4717.3950028158
 31
0.0
  0
LINE
  5
140
330
1F
100
AcDbEntity
  8
0
  6
Continuous
 62
     7
370
    25
100
AcDbLine
 10
11170.1657910019
 20
4728.8841281089
 30
0.0
 11
11170.1657910019
 21
4729.1395654623
 31
0.0
  0
LINE
  5
141
330
1F
100
AcDbEntity
  8
0
  6
Continuous
 62
     7
370
    25
100
AcDbLine
 10
11176.1657910019
 20
4692.6395654623
 30
0.0
 11
11176.1657910019
 21
4698.6395654623
 31
0.0
  0
LINE
  5
142
330
1F
100
AcDbEntity
  8
0
  6
Continuous
 62
     7
370
    25
100
AcDbLine
 10
11170.1657910019
 20
4692.6395654623
 30
0.0
 11
11170.1657910019
 21
4698.6395654623
 31
0.0
  0
LINE
  5
143
330
1F
100
AcDbEntity
  8
0
  6
Continuous
 62
     7
370
    25
100
AcDbLine
 10
11229.3657910019
 20
4726.0263168083
 30
0.0
 11
11225.3657910019
 21
4726.0263168083
 31
0.0
  0
LINE
  5
144
330
1F
100
AcDbEntity
  8
0
  6
Continuous
 62
     7
370
    25
100
AcDbLine
 10
11229.3657910019
 20
4726.0263168083
 30
0.0
 11
11229.3657910019
 21
4720.2528141164
 31
0.0
  0
LINE
  5
145
330
1F
100
AcDbEntity
  8
0
  6
Continuous
 62
     7
370
    25
100
AcDbLine
 10
11229.3657910019
 20
4720.2528141164
 30
0.0
 11
11225.3657910019
 21
4720.2528141164
 31
0.0
  0
LINE
  5
146
330
1F
100
AcDbEntity
  8
0
  6
Continuous
 62
     7
370
    25
100
AcDbLine
 10
11229.3657910019
 20
4728.9130681542
 30
0.0
 11
11225.3657910019
 21
4728.9130681542
 31
0.0
  0
LINE
  5
147
330
1F
100
AcDbEntity
  8
0
  6
Continuous
 62
     7
370
    25
100
AcDbLine
 10
11229.3657910019
 20
4728.9130681542
 30
0.0
 11
11229.3657910019
 21
4726.0263168083
 31
0.0
  0
LINE
  5
148
330
1F
100
AcDbEntity
  8
0
  6
Continuous
 62
     7
370
    25
100
AcDbLine
 10
11229.3657910019
 20
4720.2528141164
 30
0.0
 11
11229.3657910019
 21
4717.3660627704
 31
0.0
  0
LINE
  5
149
330
1F
100
AcDbEntity
  8
0
  6
Continuous
 62
     7
370
    25
100
AcDbLine
 10
11229.3657910019
 20
4717.3660627704
 30
0.0
 11
11225.3657910019
 21
4717.3660627704
 31
0.0
  0
LINE
  5
14A
330
1F
100
AcDbEntity
  8
0
  6
Continuous
 62
     7
370
    25
100
AcDbLine
 10
11229.5657910019
 20
4726.044302972
 30
0.0
 11
11229.5657910019
 21
4726.1395654623
 31
0.0
  0
LINE
  5
14B
330
1F
100
AcDbEntity
  8
0
  6
Continuous
 62
     7
370
    25
100
AcDbLine
 10
11229.8657910019
 20
4726.044302972
 30
0.0
 11
11229.5657910019
 21
4726.044302972
 31
0.0
  0
LINE
  5
14C
330
1F
100
AcDbEntity
  8
0
  6
Continuous
 62
     7
370
    25
100
AcDbLine
 10
11229.8657910019
 20
4720.2348279527
 30
0.0
 11
11229.8657910019
 21
4726.044302972
 31
0.0
  0
LINE
  5
14D
330
1F
100
AcDbEntity
  8
0
  6
Continuous
 62
     7
370
    25
100
AcDbLine
 10
11229.5657910019
 20
4720.2348279527
 30
0.0
 11
11229.8657910019
 21
4720.2348279527
 31
0.0
  0
LINE
  5
14E
330
1F
100
AcDbEntity
  8
0
  6
Continuous
 62
     7
370
    25
100
AcDbLine
 10
11229.5657910019
 20
4720.1395654623
 30
0.0
 11
11229.5657910019
 21
4720.2348279527
 31
0.0
  0
LINE
  5
14F
330
1F
100
AcDbEntity
  8
0
  6
Continuous
 62
     7
370
    25
100
AcDbLine
 10
11230.3657910019
 20
4725.5244134659
 30
0.0
 11
11230.3657910019
 21
4720.7547174588
 31
0.0
  0
LINE
  5
150
330
1F
100
AcDbEntity
  8
0
  6
Continuous
 62
     7
370
    25
100
AcDbLine
 10
11230.3657910019
 20
4720.7547174588
 30
0.0
 11
11229.8657910019
 21
4720.2348279527
 31
0.0
  0
LINE
  5
151
330
1F
100
AcDbEntity
  8
0
  6
Continuous
 62
     7
370
    25
100
AcDbLine
 10
11229.8657910019
 20
4726.044302972
 30
0.0
 11
11230.3657910019
 21
4725.5244134659
 31
0.0
  0
LINE
  5
152
330
1F
100
AcDbEntity
  8
0
  6
Continuous
 62
     7
370
    25
100
AcDbLine
 10
11183.1657910019
 20
4688.1395654623
 30
0.0
 11
11183.1657910019
 21
4683.1895654623
 31
0.0
  0
LINE
  5
153
330
1F
100
AcDbEntity
  8
0
  6
Continuous
 62
     7
370
    25
100
AcDbLine
 10
11183.1657910019
 20
4688.1395654623
 30
0.0
 11
11189.1657910019
 21
4688.1395654623
 31
0.0
  0
LINE
  5
154
330
1F
100
AcDbEntity
  8
0
  6
Continuous
 62
     7
370
    25
100
AcDbLine
 10
11189.1657910019
 20
4688.1395654623
 30
0.0
 11
11189.1657910019
 21
4683.1895654623
 31
0.0
  0
LINE
  5
155
330
1F
100
AcDbEntity
  8
0
  6
Continuous
 62
     7
370
    25
100
AcDbLine
 10
11189.1657910019
 20
4706.4063649316
 30
0.0
 11
11189.1657910019
 21
4688.1395654623
 31
0.0
  0
LINE
  5
156
330
1F
100
AcDbEntity
  8
0
  6
Continuous
 62
     7
370
    25
100
AcDbLine
 10
11183.1657910019
 20
4706.4063649316
 30
0.0
 11
11183.1657910019
 21
4688.1395654623
 31
0.0
  0
ARC
  5
157
330
1F
100
AcDbEntity
  8
0
  6
Continuous
 62
     7
370
    25
100
AcDbCircle
 10
11165.3014266677
 20
4655.0331022422
 30
0.0
 40
60.04835746516351
100
AcDbArc
 50
50.9491009097
 51
61.8382337364
  0
LINE
  5
158
330
1F
100
AcDbEntity
  8
0
  6
Continuous
 62
     7
370
    25
100
AcDbLine
 10
11223.6657910019
 20
4738.1395654623
 30
0.0
 11
11223.6657910019
 21
4744.6395654623
 31
0.0
  0
LINE
  5
159
330
1F
100
AcDbEntity
  8
0
  6
Continuous
 62
     7
370
    25
100
AcDbLine
 10
11223.6657910019
 20
4701.6395654623
 30
0.0
 11
11223.6657910019
 21
4708.1395654623
 31
0.0
  0
ARC
  5
15A
330
1F
100
AcDbEntity
  8
0
  6
Continuous
 62
     7
370
    25
100
AcDbCircle
 10
11165.791667241
 20
4790.5030701915
 30
0.0
 40
59.16321655332558
100
AcDbArc
 50
298.0775654142
 51
309.1765564113
  0
LINE
  5
15B
330
1F
100
AcDbEntity
  8
0
  6
Continuous
 62
     7
370
    25
100
AcDbLine
 10
11203.1657910019
 20
4757.1395654623
 30
0.0
 11
11169.1657910019
 21
4757.1395654623
 31
0.0
  0
LINE
  5
15C
330
1F
100
AcDbEntity
  8
0
  6
Continuous
 62
     7
370
    25
100
AcDbLine
 10
11170.1657910019
 20
4758.1395654623
 30
0.0
 11
11202.1657910019
 21
4758.1395654623
 31
0.0
  0
LINE
  5
15D
330
1F
100
AcDbEntity
  8
0
  6
Continuous
 62
     7
370
    25
100
AcDbLine
 10
11170.1657910019
 20
4739.1395654623
 30
0.0
 11
11174.1449757217
 21
4735.1603807425
 31
0.0
  0
LINE
  5
15E
330
1F
100
AcDbEntity
  8
0
  6
Continuous
 62
     7
370
    25
100
AcDbLine
 10
11169.1657910019
 20
4689.1395654623
 30
0.0
 11
11183.1657910019
 21
4689.1395654623
 31
0.0
  0
LINE
  5
15F
330
1F
100
AcDbEntity
  8
0
  6
Continuous
 62
     7
370
    25
100
AcDbLine
 10
11189.1657910019
 20
4689.1395654623
 30
0.0
 11
11203.1657910019
 21
4689.1395654623
 31
0.0
  0
LINE
  5
160
330
1F
100
AcDbEntity
  8
0
  6
Continuous
 62
     7
370
    25
100
AcDbLine
 10
11202.1657910019
 20
4688.1395654623
 30
0.0
 11
11189.1657910019
 21
4688.1395654623
 31
0.0
  0
LINE
  5
161
330
1F
100
AcDbEntity
  8
0
  6
Continuous
 62
     7
370
    25
100
AcDbLine
 10
11183.1657910019
 20
4688.1395654623
 30
0.0
 11
11170.1657910019
 21
4688.1395654623
 31
0.0
  0
LINE
  5
162
330
1F
100
AcDbEntity
  8
0
  6
Continuous
 62
     7
370
    25
100
AcDbLine
 10
11170.1657910019
 20
4739.1395654623
 30
0.0
 11
11170.1657910019
 21
4729.1395654623
 31
0.0
  0
LINE
  5
163
330
1F
100
AcDbEntity
  8
0
  6
Continuous
 62
     8
370
    25
100
AcDbLine
 10
11236.8857910019
 20
4630.6395654623
 30
0.0
 11
11236.8857910019
 21
4815.6395654623
 31
0.0
  0
LINE
  5
164
330
1F
100
AcDbEntity
  8
0
  6
Continuous
 62
     8
370
    25
100
AcDbLine
 10
11250.5857910019
 20
4699.3395654623
 30
0.0
 11
11250.5857910019
 21
4746.9395654623
 31
0.0
  0
LINE
  5
165
330
1F
100
AcDbEntity
  8
0
  6
Continuous
 62
     8
370
    25
100
AcDbLine
 10
11286.8857910019
 20
4740.0859305336
 30
0.0
 11
11286.8857910019
 21
4743.1395654623
 31
0.0
  0
LWPOLYLINE
  5
166
330
1F
100
AcDbEntity
  8
0
  6
Continuous
 62
     8
370
    25
100
AcDbPolyline
 90
        7
 70
   128
 43
0.0
 10
11276.8857935302
 20
4700.2179185871
 10
11276.9153088204
 20
4700.3098282623
 10
11277.1478582153
 20
4700.4845801947
 10
11277.5941172362
 20
4700.6377972422
 10
11278.2179326312
 20
4700.7570666708
 10
11278.968766587
 20
4700.8327259808
 10
11279.7857910019
 20
4700.8586457047
  0
LWPOLYLINE
  5
167
330
1F
100
AcDbEntity
  8
0
  6
Continuous
 62
     8
370
    25
100
AcDbPolyline
 90
        7
 70
   128
 43
0.0
 10
11283.9857910019
 20
4700.8586457047
 10
11284.8028154167
 20
4700.8327259808
 10
11285.5536493725
 20
4700.7570666708
 10
11286.1774647675
 20
4700.6377972422
 10
11286.6237237884
 20
4700.4845801947
 10
11286.8562731833
 20
4700.3098282623
 10
11286.8857884736
 20
4700.2196084824
  0
LINE
  5
168
330
1F
100
AcDbEntity
  8
0
  6
Continuous
 62
     8
370
    25
100
AcDbLine
 10
11283.9857910019
 20
4699.1892058862
 30
0.0
 11
11283.9857910019
 21
4699.2015292401
 31
0.0
  0
LINE
  5
169
330
1F
100
AcDbEntity
  8
0
  6
Continuous
 62
     8
370
    25
100
AcDbLine
 10
11200.1657910019
 20
4737.1395654623
 30
0.0
 11
11200.1657910019
 21
4732.7832162233
 31
0.0
  0
LINE
  5
16A
330
1F
100
AcDbEntity
  8
0
  6
Continuous
 62
     8
370
    25
100
AcDbLine
 10
11200.1657910019
 20
4713.4959147013
 30
0.0
 11
11200.1657910019
 21
4709.1395654623
 31
0.0
  0
LINE
  5
16B
330
1F
100
AcDbEntity
  8
0
  6
Continuous
 62
     7
370
    25
100
AcDbLine
 10
10883.4174071254
 20
4470.3679332067
 30
0.0
 11
10883.4174071254
 21
4465.3679332067
 31
0.0
  0
LINE
  5
16C
330
1F
100
AcDbEntity
  8
0
  6
Continuous
 62
     7
370
    25
100
AcDbLine
 10
11068.4174071254
 20
4465.3679332067
 30
0.0
 11
11068.4174071254
 21
4470.3679332067
 31
0.0
  0
ARC
  5
16D
330
1F
100
AcDbEntity
  8
0
  6
Continuous
 62
     7
370
    25
100
AcDbCircle
 10
11063.4174071254
 20
4465.3679332067
 30
0.0
 40
5.0
100
AcDbArc
 50
270.0
 51
0.0
  0
ARC
  5
16E
330
1F
100
AcDbEntity
  8
0
  6
Continuous
 62
     7
370
    25
100
AcDbCircle
 10
10888.4174071254
 20
4465.3679332067
 30
0.0
 40
5.0
100
AcDbArc
 50
180.0
 51
270.0
  0
LINE
  5
16F
330
1F
100
AcDbEntity
  8
0
  6
Continuous
 62
     7
370
    25
100
AcDbLine
 10
10952.1174071254
 20
4460.3679332067
 30
0.0
 11
10952.1174071254
 21
4451.6679332067
 31
0.0
  0
LINE
  5
170
330
1F
100
AcDbEntity
  8
0
  6
Continuous
 62
     7
370
    25
100
AcDbLine
 10
10999.7174071254
 20
4451.6679332067
 30
0.0
 11
10999.7174071254
 21
4460.3679332067
 31
0.0
  0
ARC
  5
171
330
1F
100
AcDbEntity
  8
0
  6
Continuous
 62
     7
370
    25
100
AcDbCircle
 10
10956.4174071254
 20
4451.6679332067
 30
0.0
 40
4.300000000000182
100
AcDbArc
 50
180.0
 51
270.0
  0
ARC
  5
172
330
1F
100
AcDbEntity
  8
0
  6
Continuous
 62
     7
370
    25
100
AcDbCircle
 10
10995.4174071254
 20
4451.6679332067
 30
0.0
 40
4.300000000000182
100
AcDbArc
 50
270.0
 51
0.0
  0
ARC
  5
173
330
1F
100
AcDbEntity
  8
0
  6
Continuous
 62
     7
370
    25
100
AcDbCircle
 10
10975.9174071254
 20
4424.2847305083
 30
0.0
 40
23.20475595884816
100
AcDbArc
 50
250.8208388762
 51
289.1791611238
  0
LINE
  5
174
330
1F
100
AcDbEntity
  8
0
  6
Continuous
 62
     7
370
    25
100
AcDbLine
 10
10955.9174071254
 20
4437.3679332067
 30
0.0
 11
10955.9174071254
 21
4428.9863686249
 31
0.0
  0
LINE
  5
175
330
1F
100
AcDbEntity
  8
0
  6
Continuous
 62
     7
370
    25
100
AcDbLine
 10
10995.9174071254
 20
4429.0172570413
 30
0.0
 11
10995.9174071254
 21
4437.3679332067
 31
0.0
  0
LINE
  5
176
330
1F
100
AcDbEntity
  8
0
  6
Continuous
 62
     7
370
    25
100
AcDbLine
 10
10956.1674071254
 20
4447.3679332067
 30
0.0
 11
10956.1674071254
 21
4437.3679332067
 31
0.0
  0
LINE
  5
177
330
1F
100
AcDbEntity
  8
0
  6
Continuous
 62
     7
370
    25
100
AcDbLine
 10
10995.6674071254
 20
4437.3679332067
 30
0.0
 11
10995.6674071254
 21
4447.3679332067
 31
0.0
  0
ARC
  5
178
330
1F
100
AcDbEntity
  8
0
  6
Continuous
 62
     7
370
    25
100
AcDbCircle
 10
10969.0535182365
 20
4415.3679332067
 30
0.0
 40
13.13611111111083
100
AcDbArc
 50
243.6136867573
 51
261.744816595
  0
ARC
  5
179
330
1F
100
AcDbEntity
  8
0
  6
Continuous
 62
     7
370
    25
100
AcDbCircle
 10
10982.7812960143
 20
4415.3679332067
 30
0.0
 40
13.13611111111125
100
AcDbArc
 50
278.255183405
 51
296.4245815899
  0
LWPOLYLINE
  5
17A
330
1F
100
AcDbEntity
  8
0
  6
Continuous
 62
     7
370
    25
100
AcDbPolyline
 90
       11
 70
   128
 43
0.0
 10
10955.9356557805
 20
4428.9423178312
 10
10955.9654016943
 20
4428.3350700841
 10
10956.1251579813
 20
4427.2310595814
 10
10956.3687428923
 20
4426.0477510762
 10
10956.6470279326
 20
4424.8529990689
 10
10956.9821271907
 20
4423.4645130191
 10
10957.3476406521
 20
4421.9484909177
 10
10957.7381516473
 20
4420.2681522293
 10
10958.1358768795
 20
4418.4131407876
 10
10958.5242613931
 20
4416.3537967338
 10
10958.7330902874
 20
4415.048536684
  0
LWPOLYLINE
  5
17B
330
1F
100
AcDbEntity
  8
0
  6
Continuous
 62
     7
370
    25
100
AcDbPolyline
 90
       14
 70
   128
 43
0.0
 10
10958.751111098
 20
4415.047944535
 10
10958.8811550511
 20
4414.2561534489
 10
10959.0795944822
 20
4413.1458534487
 10
10959.2944801796
 20
4412.0397226884
 10
10959.5289838237
 20
4410.932414349
 10
10959.7804262647
 20
4409.853255627
 10
10960.0459768436
 20
4408.8336743853
 10
10960.3254611336
 20
4407.8988329553
 10
10960.6529706112
 20
4406.9716476573
 10
10961.0170748456
 20
4406.124324475
 10
10961.4489081124
 20
4405.3277586773
 10
10961.9956763701
 20
4404.5755359126
 10
10962.5805211356
 20
4404.0094165861
 10
10963.2047616419
 20
4403.6074532353
  0
LWPOLYLINE
  5
17C
330
1F
100
AcDbEntity
  8
0
  6
Continuous
 62
     7
370
    25
100
AcDbPolyline
 90
        3
 70
   128
 43
0.0
 10
10988.636843494
 20
4403.6154302079
 10
10988.6838021285
 20
4403.6336870955
 10
10988.8014980066
 20
4403.7127047021
  0
LWPOLYLINE
  5
17D
330
1F
100
AcDbEntity
  8
0
  6
Continuous
 62
     7
370
    25
100
AcDbPolyline
 90
       14
 70
   128
 43
0.0
 10
10988.8956723673
 20
4403.7759306427
 10
10989.3132925911
 20
4404.0563087757
 10
10989.8713540292
 20
4404.6118472167
 10
10990.3907161203
 20
4405.3341147414
 10
10990.8306242918
 20
4406.1501985833
 10
10991.1961586881
 20
4407.0080294043
 10
10991.5164225556
 20
4407.9205545857
 10
10991.8029197323
 20
4408.8845971611
 10
10992.0561775028
 20
4409.8605787898
 10
10992.3133331172
 20
4410.9663877733
 10
10992.5560411358
 20
4412.1175903692
 10
10992.7801881507
 20
4413.2806041227
 10
10992.9818511899
 20
4414.4218539572
 10
10993.0827772617
 20
4415.0465072906
  0
LWPOLYLINE
  5
17E
330
1F
100
AcDbEntity
  8
0
  6
Continuous
 62
     7
370
    25
100
AcDbPolyline
 90
       11
 70
   128
 43
0.0
 10
10993.1008640019
 20
4415.0493330367
 10
10993.3781828059
 20
4416.7352556478
 10
10993.8131929973
 20
4418.9674647762
 10
10994.2179945589
 20
4420.8019520425
 10
10994.6057411478
 20
4422.4445448161
 10
10994.9610289711
 20
4423.9111878995
 10
10995.2754554163
 20
4425.2221417193
 10
10995.5700020443
 20
4426.5231302808
 10
10995.7667887111
 20
4427.5645544113
 10
10995.8888089293
 20
4428.5840058881
 10
10995.8891040305
 20
4428.633349018
  0
LINE
  5
17F
330
1F
100
AcDbEntity
  8
0
  6
Continuous
 62
     7
370
    25
100
AcDbLine
 10
10997.4174071254
 20
4478.5879332067
 30
0.0
 11
10997.4174071254
 21
4487.0879332067
 31
0.0
  0
LINE
  5
180
330
1F
100
AcDbEntity
  8
0
  6
Continuous
 62
     7
370
    25
100
AcDbLine
 10
10954.9174071254
 20
4477.0879332067
 30
0.0
 11
10954.9174071254
 21
4475.3679332067
 31
0.0
  0
LINE
  5
181
330
1F
100
AcDbEntity
  8
0
  6
Continuous
 62
     7
370
    25
100
AcDbLine
 10
10996.9174071254
 20
4475.3679332067
 30
0.0
 11
10996.9174071254
 21
4478.5879332067
 31
0.0
  0
LINE
  5
182
330
1F
100
AcDbEntity
  8
0
  6
Continuous
 62
     7
370
    25
100
AcDbLine
 10
11050.9174071254
 20
4533.0879332067
 30
0.0
 11
11047.9174071254
 21
4533.0879332067
 31
0.0
  0
LINE
  5
183
330
1F
100
AcDbEntity
  8
0
  6
Continuous
 62
     7
370
    25
100
AcDbLine
 10
11047.9174071254
 20
4499.0879332067
 30
0.0
 11
11050.9174071254
 21
4499.0879332067
 31
0.0
  0
LINE
  5
184
330
1F
100
AcDbEntity
  8
0
  6
Continuous
 62
     7
370
    25
100
AcDbLine
 10
10900.9174071254
 20
4499.0879332067
 30
0.0
 11
10903.9174071254
 21
4499.0879332067
 31
0.0
  0
LINE
  5
185
330
1F
100
AcDbEntity
  8
0
  6
Continuous
 62
     7
370
    25
100
AcDbLine
 10
10903.9174071254
 20
4533.0879332067
 30
0.0
 11
10900.9174071254
 21
4533.0879332067
 31
0.0
  0
LINE
  5
186
330
1F
100
AcDbEntity
  8
0
  6
Continuous
 62
     7
370
    25
100
AcDbLine
 10
10903.9174071254
 20
4500.0879332067
 30
0.0
 11
10920.9174071254
 21
4500.0879332067
 31
0.0
  0
LINE
  5
187
330
1F
100
AcDbEntity
  8
0
  6
Continuous
 62
     7
370
    25
100
AcDbLine
 10
10920.9174071254
 20
4532.0879332067
 30
0.0
 11
10903.9174071254
 21
4532.0879332067
 31
0.0
  0
LINE
  5
188
330
1F
100
AcDbEntity
  8
0
  6
Continuous
 62
     7
370
    25
100
AcDbLine
 10
10992.9174071254
 20
4521.0879332067
 30
0.0
 11
10992.9174071254
 21
4532.0879332067
 31
0.0
  0
LINE
  5
189
330
1F
100
AcDbEntity
  8
0
  6
Continuous
 62
     7
370
    25
100
AcDbLine
 10
11047.9174071254
 20
4532.0879332067
 30
0.0
 11
11030.9174071254
 21
4532.0879332067
 31
0.0
  0
LINE
  5
18A
330
1F
100
AcDbEntity
  8
0
  6
Continuous
 62
     7
370
    25
100
AcDbLine
 10
11030.9174071254
 20
4500.0879332067
 30
0.0
 11
11047.9174071254
 21
4500.0879332067
 31
0.0
  0
LINE
  5
18B
330
1F
100
AcDbEntity
  8
0
  6
Continuous
 62
     7
370
    25
100
AcDbLine
 10
10958.9174071254
 20
4532.0879332067
 30
0.0
 11
10958.9174071254
 21
4521.0879332067
 31
0.0
  0
LINE
  5
18C
330
1F
100
AcDbEntity
  8
0
  6
Continuous
 62
     7
370
    25
100
AcDbLine
 10
11030.9174071254
 20
4477.0879332067
 30
0.0
 11
11030.9174071254
 21
4489.0879332067
 31
0.0
  0
LINE
  5
18D
330
1F
100
AcDbEntity
  8
0
  6
Continuous
 62
     7
370
    25
100
AcDbLine
 10
11000.9174071254
 20
4487.0879332067
 30
0.0
 11
11000.9174071254
 21
4477.0879332067
 31
0.0
  0
LINE
  5
18E
330
1F
100
AcDbEntity
  8
0
  6
Continuous
 62
     7
370
    25
100
AcDbLine
 10
10920.9174071254
 20
4489.0879332067
 30
0.0
 11
10920.9174071254
 21
4477.0879332067
 31
0.0
  0
LINE
  5
18F
330
1F
100
AcDbEntity
  8
0
  6
Continuous
 62
     7
370
    25
100
AcDbLine
 10
10920.9174071254
 20
4502.0879332067
 30
0.0
 11
10921.9174071254
 21
4502.0879332067
 31
0.0
  0
LINE
  5
190
330
1F
100
AcDbEntity
  8
0
  6
Continuous
 62
     7
370
    25
100
AcDbLine
 10
10921.9174071254
 20
4530.0879332067
 30
0.0
 11
10920.9174071254
 21
4530.0879332067
 31
0.0
  0
LINE
  5
191
330
1F
100
AcDbEntity
  8
0
  6
Continuous
 62
     7
370
    25
100
AcDbLine
 10
11030.9174071254
 20
4530.0879332067
 30
0.0
 11
11029.9174071254
 21
4530.0879332067
 31
0.0
  0
LINE
  5
192
330
1F
100
AcDbEntity
  8
0
  6
Continuous
 62
     7
370
    25
100
AcDbLine
 10
11029.9174071254
 20
4502.0879332067
 30
0.0
 11
11030.9174071254
 21
4502.0879332067
 31
0.0
  0
ARC
  5
193
330
1F
100
AcDbEntity
  8
0
  6
Continuous
 62
     7
370
    25
100
AcDbCircle
 10
10921.9174071254
 20
4502.0879332067
 30
0.0
 40
28.00000000000034
100
AcDbArc
 50
73.4002808499
 51
90.0
  0
ARC
  5
194
330
1F
100
AcDbEntity
  8
0
  6
Continuous
 62
     7
370
    25
100
AcDbCircle
 10
10921.9174071254
 20
4502.0879332067
 30
0.0
 40
28.00000000000151
100
AcDbArc
 50
42.7348968081
 51
44.4277178831
  0
ARC
  5
195
330
1F
100
AcDbEntity
  8
0
  6
Continuous
 62
     7
370
    25
100
AcDbCircle
 10
11029.9174071254
 20
4502.0879332067
 30
0.0
 40
27.99999999999955
100
AcDbArc
 50
135.5712548377
 51
137.2678899574
  0
ARC
  5
196
330
1F
100
AcDbEntity
  8
0
  6
Continuous
 62
     7
370
    25
100
AcDbCircle
 10
11029.9174071254
 20
4502.0879332067
 30
0.0
 40
28.0
100
AcDbArc
 50
90.0
 51
106.5998967159
  0
LINE
  5
197
330
1F
100
AcDbEntity
  8
0
  6
Continuous
 62
     7
370
    25
100
AcDbLine
 10
10921.9174071254
 20
4502.0879332067
 30
0.0
 11
10921.9174071254
 21
4489.0879332067
 31
0.0
  0
LINE
  5
198
330
1F
100
AcDbEntity
  8
0
  6
Continuous
 62
     7
370
    25
100
AcDbLine
 10
11029.9174071254
 20
4489.0879332067
 30
0.0
 11
11029.9174071254
 21
4502.0879332067
 31
0.0
  0
LINE
  5
199
330
1F
100
AcDbEntity
  8
0
  6
Continuous
 62
     7
370
    25
100
AcDbLine
 10
10923.6674071254
 20
4477.0879332067
 30
0.0
 11
10923.6674071254
 21
4476.8879332067
 31
0.0
  0
LINE
  5
19A
330
1F
100
AcDbEntity
  8
0
  6
Continuous
 62
     7
370
    25
100
AcDbLine
 10
10948.1674071254
 20
4476.8879332067
 30
0.0
 11
10948.1674071254
 21
4477.0879332067
 31
0.0
  0
LINE
  5
19B
330
1F
100
AcDbEntity
  8
0
  6
Continuous
 62
     7
370
    25
100
AcDbLine
 10
11003.6674071254
 20
4477.0879332067
 30
0.0
 11
11003.6674071254
 21
4476.8879332067
 31
0.0
  0
LINE
  5
19C
330
1F
100
AcDbEntity
  8
0
  6
Continuous
 62
     7
370
    25
100
AcDbLine
 10
11028.1674071254
 20
4476.8879332067
 30
0.0
 11
11028.1674071254
 21
4477.0879332067
 31
0.0
  0
LINE
  5
19D
330
1F
100
AcDbEntity
  8
0
  6
Continuous
 62
     7
370
    25
100
AcDbLine
 10
11009.9174071254
 20
4526.0879332067
 30
0.0
 11
11009.9174071254
 21
4521.6858060688
 31
0.0
  0
LINE
  5
19E
330
1F
100
AcDbEntity
  8
0
  6
Continuous
 62
     7
370
    25
100
AcDbLine
 10
10941.9174071254
 20
4521.6858060688
 30
0.0
 11
10941.9174071254
 21
4526.0879332067
 31
0.0
  0
LINE
  5
19F
330
1F
100
AcDbEntity
  8
0
  6
Continuous
 62
     7
370
    25
100
AcDbLine
 10
10932.9174071254
 20
4472.8879332067
 30
0.0
 11
10932.9174071254
 21
4472.3879332067
 31
0.0
  0
LINE
  5
1A0
330
1F
100
AcDbEntity
  8
0
  6
Continuous
 62
     7
370
    25
100
AcDbLine
 10
10938.9174071254
 20
4472.3879332067
 30
0.0
 11
10938.9174071254
 21
4472.8879332067
 31
0.0
  0
LINE
  5
1A1
330
1F
100
AcDbEntity
  8
0
  6
Continuous
 62
     7
370
    25
100
AcDbLine
 10
11012.9174071254
 20
4472.8879332067
 30
0.0
 11
11012.9174071254
 21
4472.3879332067
 31
0.0
  0
LINE
  5
1A2
330
1F
100
AcDbEntity
  8
0
  6
Continuous
 62
     7
370
    25
100
AcDbLine
 10
11018.9174071254
 20
4472.3879332067
 30
0.0
 11
11018.9174071254
 21
4472.8879332067
 31
0.0
  0
LINE
  5
1A3
330
1F
100
AcDbEntity
  8
0
  6
Continuous
 62
     7
370
    25
100
AcDbLine
 10
10938.4174071254
 20
4471.8879332067
 30
0.0
 11
10938.9174071254
 21
4472.3879332067
 31
0.0
  0
LINE
  5
1A4
330
1F
100
AcDbEntity
  8
0
  6
Continuous
 62
     7
370
    25
100
AcDbLine
 10
10932.9174071254
 20
4472.3879332067
 30
0.0
 11
10933.4174071254
 21
4471.8879332067
 31
0.0
  0
LINE
  5
1A5
330
1F
100
AcDbEntity
  8
0
  6
Continuous
 62
     7
370
    25
100
AcDbLine
 10
11012.9174071254
 20
4472.3879332067
 30
0.0
 11
11013.4174071254
 21
4471.8879332067
 31
0.0
  0
LINE
  5
1A6
330
1F
100
AcDbEntity
  8
0
  6
Continuous
 62
     7
370
    25
100
AcDbLine
 10
11018.4174071254
 20
4471.8879332067
 30
0.0
 11
11018.9174071254
 21
4472.3879332067
 31
0.0
  0
LINE
  5
1A7
330
1F
100
AcDbEntity
  8
0
  6
Continuous
 62
     7
370
    25
100
AcDbLine
 10
11068.4174071254
 20
4470.3679332067
 30
0.0
 11
10883.4174071254
 21
4470.3679332067
 31
0.0
  0
LINE
  5
1A8
330
1F
100
AcDbEntity
  8
0
  6
Continuous
 62
     7
370
    25
100
AcDbLine
 10
11063.4174071254
 20
4460.3679332067
 30
0.0
 11
10888.4174071272
 21
4460.3679332067
 31
0.0
  0
LINE
  5
1A9
330
1F
100
AcDbEntity
  8
0
  6
Continuous
 62
     7
370
    25
100
AcDbLine
 10
10966.8859509558
 20
4527.3281771404
 30
0.0
 11
10969.0580629017
 21
4530.1722124789
 31
0.0
  0
ARC
  5
1AA
330
1F
100
AcDbEntity
  8
0
  6
Continuous
 62
     7
370
    25
100
AcDbCircle
 10
10975.9174071254
 20
4516.0879332067
 30
0.0
 40
15.66580753730879
100
AcDbArc
 50
109.2918771159
 51
115.9670693089
  0
ARC
  5
1AB
330
1F
100
AcDbEntity
  8
0
  6
Continuous
 62
     7
370
    25
100
AcDbCircle
 10
10975.9174071254
 20
4516.0879332067
 30
0.0
 40
14.4190944317267
100
AcDbArc
 50
96.4773164704
 51
128.7816299545
  0
LINE
  5
1AC
330
1F
100
AcDbEntity
  8
0
  6
Continuous
 62
     7
370
    25
100
AcDbLine
 10
10970.7417284555
 20
4530.8740711778
 30
0.0
 11
10974.2907912808
 21
4530.4149847221
 31
0.0
  0
LINE
  5
1AD
330
1F
100
AcDbEntity
  8
0
  6
Continuous
 62
     7
370
    25
100
AcDbLine
 10
10984.948863295
 20
4504.847689273
 30
0.0
 11
10982.7767513491
 21
4502.0036539345
 31
0.0
  0
ARC
  5
1AE
330
1F
100
AcDbEntity
  8
0
  6
Continuous
 62
     7
370
    25
100
AcDbCircle
 10
10975.9174071254
 20
4516.0879332067
 30
0.0
 40
15.66580753731053
100
AcDbArc
 50
289.2918771159
 51
295.9670693089
  0
LINE
  5
1AF
330
1F
100
AcDbEntity
  8
0
  6
Continuous
 62
     7
370
    25
100
AcDbLine
 10
10981.0930857954
 20
4501.3017952356
 30
0.0
 11
10977.54402297
 21
4501.7608816913
 31
0.0
  0
ARC
  5
1B0
330
1F
100
AcDbEntity
  8
0
  6
Continuous
 62
     7
370
    25
100
AcDbCircle
 10
10975.9174071254
 20
4516.0879332067
 30
0.0
 40
14.41909443172741
100
AcDbArc
 50
276.4773164704
 51
308.7816299545
  0
ARC
  5
1B1
330
1F
100
AcDbEntity
  8
0
  6
Continuous
 62
     7
370
    25
100
AcDbCircle
 10
10975.9174071254
 20
4516.0879332067
 30
0.0
 40
15.66580753731013
100
AcDbArc
 50
49.2918771159
 51
55.9670693089
  0
LINE
  5
1B2
330
1F
100
AcDbEntity
  8
0
  6
Continuous
 62
     7
370
    25
100
AcDbLine
 10
10986.1347388973
 20
4527.9632714023
 30
0.0
 11
10987.5116897768
 21
4524.660149608
 31
0.0
  0
ARC
  5
1B3
330
1F
100
AcDbEntity
  8
0
  6
Continuous
 62
     7
370
    25
100
AcDbCircle
 10
10975.9174071254
 20
4516.0879332067
 30
0.0
 40
14.41909443172629
100
AcDbArc
 50
36.4773164704
 51
68.7816299545
  0
LINE
  5
1B4
330
1F
100
AcDbEntity
  8
0
  6
Continuous
 62
     7
370
    25
100
AcDbLine
 10
10981.1360158319
 20
4529.5295256495
 30
0.0
 11
10984.6850786573
 21
4529.0704391938
 31
0.0
  0
LINE
  5
1B5
330
1F
100
AcDbEntity
  8
0
  6
Continuous
 62
     7
370
    25
100
AcDbLine
 10
10961.6673422493
 20
4513.8865846975
 30
0.0
 11
10960.2903913699
 21
4517.1897064918
 31
0.0
  0
ARC
  5
1B6
330
1F
100
AcDbEntity
  8
0
  6
Continuous
 62
     7
370
    25
100
AcDbCircle
 10
10975.9174071254
 20
4516.0879332067
 30
0.0
 40
15.66580753730919
100
AcDbArc
 50
169.2918771159
 51
175.9670693089
  0
ARC
  5
1B7
330
1F
100
AcDbEntity
  8
0
  6
Continuous
 62
     7
370
    25
100
AcDbCircle
 10
10975.9174071254
 20
4516.0879332067
 30
0.0
 40
14.41909443172599
100
AcDbArc
 50
156.4773164704
 51
188.7816299545
  0
LINE
  5
1B8
330
1F
100
AcDbEntity
  8
0
  6
Continuous
 62
     7
370
    25
100
AcDbLine
 10
10960.5243966836
 20
4518.9987329823
 30
0.0
 11
10962.6965086294
 21
4521.8427683208
 31
0.0
  0
ARC
  5
1B9
330
1F
100
AcDbEntity
  8
0
  6
Continuous
 62
     7
370
    25
100
AcDbCircle
 10
10975.9174071254
 20
4516.0879332067
 30
0.0
 40
15.66580753731083
100
AcDbArc
 50
349.2918771159
 51
355.9670693089
  0
LINE
  5
1BA
330
1F
100
AcDbEntity
  8
0
  6
Continuous
 62
     7
370
    25
100
AcDbLine
 10
10991.3104175673
 20
4513.1771334311
 30
0.0
 11
10989.1383056214
 21
4510.3330980926
 31
0.0
  0
ARC
  5
1BB
330
1F
100
AcDbEntity
  8
0
  6
Continuous
 62
     7
370
    25
100
AcDbCircle
 10
10975.9174071254
 20
4516.0879332067
 30
0.0
 40
14.41909443172765
100
AcDbArc
 50
336.4773164704
 51
8.7816299545
  0
LINE
  5
1BC
330
1F
100
AcDbEntity
  8
0
  6
Continuous
 62
     7
370
    25
100
AcDbLine
 10
10990.1674720015
 20
4518.2892817159
 30
0.0
 11
10991.544422881
 21
4514.9861599216
 31
0.0
  0
ARC
  5
1BD
330
1F
100
AcDbEntity
  8
0
  6
Continuous
 62
     7
370
    25
100
AcDbCircle
 10
10975.9174071254
 20
4516.0879332067
 30
0.0
 40
14.41909443172683
100
AcDbArc
 50
216.4773164704
 51
248.7816299545
  0
ARC
  5
1BE
330
1F
100
AcDbEntity
  8
0
  6
Continuous
 62
     7
370
    25
100
AcDbCircle
 10
10975.9174071254
 20
4516.0879332067
 30
0.0
 40
15.66580753730953
100
AcDbArc
 50
229.2918771159
 51
235.9670693089
  0
LINE
  5
1BF
330
1F
100
AcDbEntity
  8
0
  6
Continuous
 62
     7
370
    25
100
AcDbLine
 10
10965.7000753535
 20
4504.2125950111
 30
0.0
 11
10964.323124474
 21
4507.5157168054
 31
0.0
  0
LINE
  5
1C0
330
1F
100
AcDbEntity
  8
0
  6
Continuous
 62
     7
370
    25
100
AcDbLine
 10
10970.6987984189
 20
4502.6463407639
 30
0.0
 11
10967.1497355936
 21
4503.1054272196
 31
0.0
  0
LINE
  5
1C1
330
1F
100
AcDbEntity
  8
0
  6
Continuous
 62
     7
370
    25
100
AcDbLine
 10
10989.1383056214
 20
4510.3330980926
 30
0.0
 11
10984.948863295
 21
4504.847689273
 31
0.0
  0
LINE
  5
1C2
330
1F
100
AcDbEntity
  8
0
  6
Continuous
 62
     7
370
    25
100
AcDbLine
 10
10964.323124474
 20
4507.5157168054
 30
0.0
 11
10961.6673422493
 21
4513.8865846975
 31
0.0
  0
LINE
  5
1C3
330
1F
100
AcDbEntity
  8
0
  6
Continuous
 62
     7
370
    25
100
AcDbLine
 10
10987.5116897768
 20
4524.660149608
 30
0.0
 11
10990.1674720015
 21
4518.2892817159
 31
0.0
  0
LINE
  5
1C4
330
1F
100
AcDbEntity
  8
0
  6
Continuous
 62
     7
370
    25
100
AcDbLine
 10
10962.6965086294
 20
4521.8427683208
 30
0.0
 11
10966.8859509558
 21
4527.3281771404
 31
0.0
  0
LINE
  5
1C5
330
1F
100
AcDbEntity
  8
0
  6
Continuous
 62
     7
370
    25
100
AcDbLine
 10
10977.54402297
 20
4501.7608816913
 30
0.0
 11
10970.6987984189
 21
4502.6463407639
 31
0.0
  0
LINE
  5
1C6
330
1F
100
AcDbEntity
  8
0
  6
Continuous
 62
     7
370
    25
100
AcDbLine
 10
10974.2907912808
 20
4530.4149847221
 30
0.0
 11
10981.1360158319
 21
4529.5295256495
 31
0.0
  0
LINE
  5
1C7
330
1F
100
AcDbEntity
  8
0
  6
Continuous
 62
     7
370
    25
100
AcDbLine
 10
10997.2016148861
 20
4470.3679332067
 30
0.0
 11
10997.2016148861
 21
4475.3679332067
 31
0.0
  0
LINE
  5
1C8
330
1F
100
AcDbEntity
  8
0
  6
Continuous
 62
     7
370
    25
100
AcDbLine
 10
10954.6331993647
 20
4475.3679332067
 30
0.0
 11
10954.6331993647
 21
4470.3679332067
 31
0.0
  0
LINE
  5
1C9
330
1F
100
AcDbEntity
  8
0
  6
Continuous
 62
     7
370
    25
100
AcDbLine
 10
10954.6331993647
 20
4475.3679332067
 30
0.0
 11
10997.2016148861
 21
4475.3679332067
 31
0.0
  0
LINE
  5
1CA
330
1F
100
AcDbEntity
  8
0
  6
Continuous
 62
     7
370
    25
100
AcDbLine
 10
10965.2956977116
 20
4415.3679332067
 30
0.0
 11
10992.7989394283
 21
4415.3679332067
 31
0.0
  0
LINE
  5
1CB
330
1F
100
AcDbEntity
  8
0
  6
Continuous
 62
     7
370
    25
100
AcDbLine
 10
10955.9444381617
 20
4428.9424964969
 30
0.0
 11
10955.9416115781
 21
4428.9863686249
 31
0.0
  0
LINE
  5
1CC
330
1F
100
AcDbEntity
  8
0
  6
Continuous
 62
     7
370
    25
100
AcDbLine
 10
10980.3303876078
 20
4437.3679332067
 30
0.0
 11
10995.9174071254
 21
4437.3679332067
 31
0.0
  0
LINE
  5
1CD
330
1F
100
AcDbEntity
  8
0
  6
Continuous
 62
     7
370
    25
100
AcDbLine
 10
10955.9174071254
 20
4437.3679332067
 30
0.0
 11
10980.3303876078
 21
4437.3679332067
 31
0.0
  0
LINE
  5
1CE
330
1F
100
AcDbEntity
  8
0
  6
Continuous
 62
     7
370
    25
100
AcDbLine
 10
10980.2752253518
 20
4447.3679332067
 30
0.0
 11
10995.6674071254
 21
4447.3679332067
 31
0.0
  0
LINE
  5
1CF
330
1F
100
AcDbEntity
  8
0
  6
Continuous
 62
     7
370
    25
100
AcDbLine
 10
10956.1674071254
 20
4447.3679332067
 30
0.0
 11
10980.2752253518
 21
4447.3679332067
 31
0.0
  0
LINE
  5
1D0
330
1F
100
AcDbEntity
  8
0
  6
Continuous
 62
     7
370
    25
100
AcDbLine
 10
10977.8480860865
 20
4402.3679332067
 30
0.0
 11
10984.6674071254
 21
4402.3679332067
 31
0.0
  0
LINE
  5
1D1
330
1F
100
AcDbEntity
  8
0
  6
Continuous
 62
     7
370
    25
100
AcDbLine
 10
10967.1674071254
 20
4402.3679332067
 30
0.0
 11
10977.8480860865
 21
4402.3679332067
 31
0.0
  0
ARC
  5
1D2
330
1F
100
AcDbEntity
  8
0
  6
Continuous
 62
     7
370
    25
100
AcDbCircle
 10
10965.9746700872
 20
4412.9138867237
 30
0.0
 40
2.546241863553738
100
AcDbArc
 50
105.465415652
 51
126.7939761713
  0
LWPOLYLINE
  5
1D3
330
1F
100
AcDbEntity
  8
0
  6
Continuous
 62
     7
370
    25
100
AcDbPolyline
 90
       20
 70
   128
 43
0.0
 10
10964.4496254883
 20
4414.9529028097
 10
10963.6669634724
 20
4417.6387999446
 10
10962.7068775407
 20
4420.2438448551
 10
10961.539549487
 20
4422.8002061181
 10
10960.216097314
 20
4425.1502010929
 10
10959.3134723564
 20
4426.4861246842
 10
10958.4113546639
 20
4427.6147193638
 10
10957.8366526286
 20
4428.2118815538
 10
10957.3119175409
 20
4428.6470448299
 10
10956.8683789216
 20
4428.8872262651
 10
10956.5216740053
 20
4428.9125097905
 10
10956.3015429229
 20
4428.7210299813
 10
10956.1940065313
 20
4428.3138821215
 10
10956.2291611781
 20
4427.3881079143
 10
10956.4540716025
 20
4426.0786367847
 10
10956.7849835063
 20
4424.5919221147
 10
10957.1885402091
 20
4422.8923484595
 10
10957.6148079886
 20
4421.0697634732
 10
10958.0382336241
 20
4419.1451982624
 10
10958.8157848881
 20
4414.9529028097
  0
LWPOLYLINE
  5
1D4
330
1F
100
AcDbEntity
  8
0
  6
Continuous
 62
     7
370
    25
100
AcDbPolyline
 90
       21
 70
   128
 43
0.0
 10
10958.8157848881
 20
4414.9529028097
 10
10959.1359997973
 20
4413.1051948028
 10
10959.3815317094
 20
4411.866464215
 10
10959.642322232
 20
4410.6869829199
 10
10959.9135147005
 20
4409.6027033902
 10
10960.1902309554
 20
4408.6396523719
 10
10960.543826821
 20
4407.6167137698
 10
10960.9003116433
 20
4406.8028836766
 10
10961.3370799221
 20
4406.0744448162
 10
10961.7752309183
 20
4405.5926708877
 10
10962.6483477345
 20
4405.194541432
 10
10963.5061377857
 20
4405.4554767315
 10
10964.0015087204
 20
4405.9517454581
 10
10964.4517798715
 20
4406.7886055356
 10
10964.71517523
 20
4407.6051138588
 10
10964.9148873823
 20
4408.6336773701
 10
10965.035262523
 20
4410.4756593253
 10
10964.9988250621
 20
4411.5419983502
 10
10964.8888224383
 20
4412.6680732368
 10
10964.7034270505
 20
4413.8161721938
 10
10964.4496254883
 20
4414.9529028097
  0
CIRCLE
  5
1D5
330
1F
100
AcDbEntity
  8
0
  6
Continuous
 62
     7
370
    25
100
AcDbCircle
 10
10975.9174071254
 20
4516.0879332067
 30
0.0
 40
17.0
  0
CIRCLE
  5
1D6
330
1F
100
AcDbEntity
  8
0
  6
Continuous
 62
     7
370
    25
100
AcDbCircle
 10
10975.9174071254
 20
4516.0879332067
 30
0.0
 40
16.0
  0
LINE
  5
1D7
330
1F
100
AcDbEntity
  8
0
  6
Continuous
 62
     7
370
    25
100
AcDbLine
 10
10956.9909705881
 20
4478.5879332067
 30
0.0
 11
10997.4174071254
 21
4478.5879332067
 31
0.0
  0
LINE
  5
1D8
330
1F
100
AcDbEntity
  8
0
  6
Continuous
 62
     7
370
    25
100
AcDbLine
 10
10956.9909705881
 20
4505.0879332067
 30
0.0
 11
10956.9909705881
 21
4478.5879332067
 31
0.0
  0
LINE
  5
1D9
330
1F
100
AcDbEntity
  8
0
  6
Continuous
 62
     7
370
    25
100
AcDbLine
 10
10954.4174071254
 20
4513.0879332067
 30
0.0
 11
10954.4174071254
 21
4505.0879332067
 31
0.0
  0
LINE
  5
1DA
330
1F
100
AcDbEntity
  8
0
  6
Continuous
 62
     7
370
    25
100
AcDbLine
 10
10954.6624571254
 20
4516.0879332067
 30
0.0
 11
10954.6624571254
 21
4513.0879332067
 31
0.0
  0
LINE
  5
1DB
330
1F
100
AcDbEntity
  8
0
  6
Continuous
 62
     7
370
    25
100
AcDbLine
 10
10958.9174071254
 20
4516.0879332067
 30
0.0
 11
10954.6624571254
 21
4516.0879332067
 31
0.0
  0
LINE
  5
1DC
330
1F
100
AcDbEntity
  8
0
  6
Continuous
 62
     7
370
    25
100
AcDbLine
 10
10997.1723571254
 20
4516.0879332067
 30
0.0
 11
10992.9174071254
 21
4516.0879332067
 31
0.0
  0
LINE
  5
1DD
330
1F
100
AcDbEntity
  8
0
  6
Continuous
 62
     7
370
    25
100
AcDbLine
 10
10997.1723571254
 20
4513.0879332067
 30
0.0
 11
10997.1723571254
 21
4516.0879332067
 31
0.0
  0
LINE
  5
1DE
330
1F
100
AcDbEntity
  8
0
  6
Continuous
 62
     7
370
    25
100
AcDbLine
 10
10997.4174071254
 20
4505.0879332067
 30
0.0
 11
10997.4174071254
 21
4513.0879332067
 31
0.0
  0
LINE
  5
1DF
330
1F
100
AcDbEntity
  8
0
  6
Continuous
 62
     7
370
    25
100
AcDbLine
 10
10994.8438436627
 20
4487.0879332067
 30
0.0
 11
10994.8438436627
 21
4505.0879332067
 31
0.0
  0
LINE
  5
1E0
330
1F
100
AcDbEntity
  8
0
  6
Continuous
 62
     7
370
    25
100
AcDbLine
 10
10957.5609368765
 20
4478.5879332067
 30
0.0
 11
10957.5609368765
 21
4477.0879332067
 31
0.0
  0
LINE
  5
1E1
330
1F
100
AcDbEntity
  8
0
  6
Continuous
 62
     7
370
    25
100
AcDbLine
 10
11047.9174071254
 20
4499.0879332067
 30
0.0
 11
11047.9174071254
 21
4533.0879332067
 31
0.0
  0
LINE
  5
1E2
330
1F
100
AcDbEntity
  8
0
  6
Continuous
 62
     7
370
    25
100
AcDbLine
 10
11050.9174071254
 20
4499.0879332067
 30
0.0
 11
11050.9174071254
 21
4533.0879332067
 31
0.0
  0
LINE
  5
1E3
330
1F
100
AcDbEntity
  8
0
  6
Continuous
 62
     7
370
    25
100
AcDbLine
 10
10903.9174071254
 20
4499.0879332067
 30
0.0
 11
10903.9174071254
 21
4533.0879332067
 31
0.0
  0
LINE
  5
1E4
330
1F
100
AcDbEntity
  8
0
  6
Continuous
 62
     7
370
    25
100
AcDbLine
 10
10900.9174071254
 20
4499.0879332067
 30
0.0
 11
10900.9174071254
 21
4533.0879332067
 31
0.0
  0
LINE
  5
1E5
330
1F
100
AcDbEntity
  8
0
  6
Continuous
 62
     7
370
    25
100
AcDbLine
 10
10920.9174071254
 20
4500.0879332067
 30
0.0
 11
10920.9174071254
 21
4532.0879332067
 31
0.0
  0
LINE
  5
1E6
330
1F
100
AcDbEntity
  8
0
  6
Continuous
 62
     7
370
    25
100
AcDbLine
 10
10992.9174071254
 20
4532.0879332067
 30
0.0
 11
10981.661969772
 21
4532.0879332067
 31
0.0
  0
LINE
  5
1E7
330
1F
100
AcDbEntity
  8
0
  6
Continuous
 62
     7
370
    25
100
AcDbLine
 10
10992.9174071254
 20
4521.0879332067
 30
0.0
 11
10992.9174071254
 21
4516.0879332067
 31
0.0
  0
LINE
  5
1E8
330
1F
100
AcDbEntity
  8
0
  6
Continuous
 62
     7
370
    25
100
AcDbLine
 10
11030.9174071254
 20
4500.0879332067
 30
0.0
 11
11030.9174071254
 21
4532.0879332067
 31
0.0
  0
LINE
  5
1E9
330
1F
100
AcDbEntity
  8
0
  6
Continuous
 62
     7
370
    25
100
AcDbLine
 10
10958.9174071254
 20
4516.0879332067
 30
0.0
 11
10958.9174071254
 21
4521.0879332067
 31
0.0
  0
LINE
  5
1EA
330
1F
100
AcDbEntity
  8
0
  6
Continuous
 62
     7
370
    25
100
AcDbLine
 10
10970.1728444789
 20
4532.0879332067
 30
0.0
 11
10958.9174071254
 21
4532.0879332067
 31
0.0
  0
LINE
  5
1EB
330
1F
100
AcDbEntity
  8
0
  6
Continuous
 62
     7
370
    25
100
AcDbLine
 10
11004.9192254575
 20
4487.0879332067
 30
0.0
 11
11004.9192254575
 21
4489.0879332067
 31
0.0
  0
LINE
  5
1EC
330
1F
100
AcDbEntity
  8
0
  6
Continuous
 62
     7
370
    25
100
AcDbLine
 10
11004.9192254575
 20
4489.0879332067
 30
0.0
 11
11030.9174071254
 21
4489.0879332067
 31
0.0
  0
LINE
  5
1ED
330
1F
100
AcDbEntity
  8
0
  6
Continuous
 62
     7
370
    25
100
AcDbLine
 10
11000.9174071254
 20
4477.0879332067
 30
0.0
 11
11030.9174071254
 21
4477.0879332067
 31
0.0
  0
LINE
  5
1EE
330
1F
100
AcDbEntity
  8
0
  6
Continuous
 62
     7
370
    25
100
AcDbLine
 10
10946.9155887933
 20
4477.0879332067
 30
0.0
 11
10946.9155887933
 21
4489.0879332067
 31
0.0
  0
LINE
  5
1EF
330
1F
100
AcDbEntity
  8
0
  6
Continuous
 62
     7
370
    25
100
AcDbLine
 10
10946.9155887933
 20
4477.0879332067
 30
0.0
 11
10920.9174071254
 21
4477.0879332067
 31
0.0
  0
LINE
  5
1F0
330
1F
100
AcDbEntity
  8
0
  6
Continuous
 62
     7
370
    25
100
AcDbLine
 10
10946.9155887933
 20
4489.0879332067
 30
0.0
 11
10920.9174071254
 21
4489.0879332067
 31
0.0
  0
ARC
  5
1F1
330
1F
100
AcDbEntity
  8
0
  6
Continuous
 62
     7
370
    25
100
AcDbCircle
 10
10965.8201081645
 20
4574.8846093917
 30
0.0
 40
58.32392656388654
100
AcDbArc
 50
232.0063496947
 51
245.8003304641
  0
ARC
  5
1F2
330
1F
100
AcDbEntity
  8
0
  6
Continuous
 62
     7
370
    25
100
AcDbCircle
 10
10921.9174071254
 20
4502.0879332067
 30
0.0
 40
28.00000000000091
100
AcDbArc
 50
6.1506398279
 51
23.1323963993
  0
ARC
  5
1F3
330
1F
100
AcDbEntity
  8
0
  6
Continuous
 62
     7
370
    25
100
AcDbCircle
 10
10921.9174071254
 20
4502.0879332067
 30
0.0
 40
23.58957767580485
100
AcDbArc
 50
0.0
 51
7.3063655734
  0
LINE
  5
1F4
330
1F
100
AcDbEntity
  8
0
  6
Continuous
 62
     7
370
    25
100
AcDbLine
 10
10945.5069848012
 20
4502.0879332067
 30
0.0
 11
10921.9174071254
 21
4502.0879332067
 31
0.0
  0
ARC
  5
1F5
330
1F
100
AcDbEntity
  8
0
  6
Continuous
 62
     7
370
    25
100
AcDbCircle
 10
10921.9174071254
 20
4502.0879332067
 30
0.0
 40
28.00000000000117
100
AcDbArc
 50
30.8035050327
 51
42.7321100426
  0
ARC
  5
1F6
330
1F
100
AcDbEntity
  8
0
  6
Continuous
 62
     7
370
    25
100
AcDbCircle
 10
10902.0967379356
 20
4497.8648848081
 30
0.0
 40
47.63583798212235
100
AcDbArc
 50
18.6370031075
 51
22.9332659343
  0
ARC
  5
1F7
330
1F
100
AcDbEntity
  8
0
  6
Continuous
 62
     7
370
    25
100
AcDbCircle
 10
10986.0143372957
 20
4574.8851188592
 30
0.0
 40
58.32455508254932
100
AcDbArc
 50
294.2001988344
 51
307.9936277318
  0
ARC
  5
1F8
330
1F
100
AcDbEntity
  8
0
  6
Continuous
 62
     7
370
    25
100
AcDbCircle
 10
11029.9174071254
 20
4502.0879332067
 30
0.0
 40
27.99999999999961
100
AcDbArc
 50
137.2678899574
 51
149.1964949673
  0
LINE
  5
1F9
330
1F
100
AcDbEntity
  8
0
  6
Continuous
 62
     7
370
    25
100
AcDbLine
 10
11006.3278294496
 20
4502.0879332067
 30
0.0
 11
11029.9174071254
 21
4502.0879332067
 31
0.0
  0
ARC
  5
1FA
330
1F
100
AcDbEntity
  8
0
  6
Continuous
 62
     7
370
    25
100
AcDbCircle
 10
11029.9174071254
 20
4502.0879332067
 30
0.0
 40
23.58957767578861
100
AcDbArc
 50
172.6936344266
 51
180.0
  0
ARC
  5
1FB
330
1F
100
AcDbEntity
  8
0
  6
Continuous
 62
     7
370
    25
100
AcDbCircle
 10
11029.9174071254
 20
4502.0879332067
 30
0.0
 40
27.99999999999982
100
AcDbArc
 50
156.8676036007
 51
173.8493601721
  0
ARC
  5
1FC
330
1F
100
AcDbEntity
  8
0
  6
Continuous
 62
     7
370
    25
100
AcDbCircle
 10
11049.7380763119
 20
4497.8648848095
 30
0.0
 40
47.63583797849698
100
AcDbArc
 50
157.0667340656
 51
161.3629968927
  0
LINE
  5
1FD
330
1F
100
AcDbEntity
  8
0
  6
Continuous
 62
     7
370
    25
100
AcDbLine
 10
10945.5069848012
 20
4489.0879332067
 30
0.0
 11
10945.5069848012
 21
4502.0879332067
 31
0.0
  0
LINE
  5
1FE
330
1F
100
AcDbEntity
  8
0
  6
Continuous
 62
     7
370
    25
100
AcDbLine
 10
11006.3278294496
 20
4489.0879332067
 30
0.0
 11
11006.3278294496
 21
4502.0879332067
 31
0.0
  0
LINE
  5
1FF
330
1F
100
AcDbEntity
  8
0
  6
Continuous
 62
     7
370
    25
100
AcDbLine
 10
10948.1674071254
 20
4476.8879332067
 30
0.0
 11
10923.6674071254
 21
4476.8879332067
 31
0.0
  0
LINE
  5
200
330
1F
100
AcDbEntity
  8
0
  6
Continuous
 62
     7
370
    25
100
AcDbLine
 10
11003.6674071254
 20
4476.8879332067
 30
0.0
 11
11028.1674071254
 21
4476.8879332067
 31
0.0
  0
LINE
  5
201
330
1F
100
AcDbEntity
  8
0
  6
Continuous
 62
     7
370
    25
100
AcDbLine
 10
10945.3154449688
 20
4505.0879332067
 30
0.0
 11
10956.9909705881
 21
4505.0879332067
 31
0.0
  0
LINE
  5
202
330
1F
100
AcDbEntity
  8
0
  6
Continuous
 62
     7
370
    25
100
AcDbLine
 10
10957.5609368765
 20
4477.0879332067
 30
0.0
 11
10946.9155887933
 21
4477.0879332067
 31
0.0
  0
LINE
  5
203
330
1F
100
AcDbEntity
  8
0
  6
Continuous
 62
     7
370
    25
100
AcDbLine
 10
11004.9192254575
 20
4487.0879332067
 30
0.0
 11
10994.8438436627
 21
4487.0879332067
 31
0.0
  0
LINE
  5
204
330
1F
100
AcDbEntity
  8
0
  6
Continuous
 62
     7
370
    25
100
AcDbLine
 10
10994.8438436627
 20
4505.0879332067
 30
0.0
 11
11006.519369282
 21
4505.0879332067
 31
0.0
  0
LINE
  5
205
330
1F
100
AcDbEntity
  8
0
  6
Continuous
 62
     7
370
    25
100
AcDbLine
 10
11009.9174071254
 20
4532.0879332067
 30
0.0
 11
11021.9174071254
 21
4532.0879332067
 31
0.0
  0
LINE
  5
206
330
1F
100
AcDbEntity
  8
0
  6
Continuous
 62
     7
370
    25
100
AcDbLine
 10
11021.9174071254
 20
4528.9207489367
 30
0.0
 11
11021.9174071254
 21
4532.0879332067
 31
0.0
  0
LINE
  5
207
330
1F
100
AcDbEntity
  8
0
  6
Continuous
 62
     7
370
    25
100
AcDbLine
 10
11009.9174071254
 20
4526.0879332067
 30
0.0
 11
11009.9174071254
 21
4532.0879332067
 31
0.0
  0
LINE
  5
208
330
1F
100
AcDbEntity
  8
0
  6
Continuous
 62
     7
370
    25
100
AcDbLine
 10
10929.9174071254
 20
4528.9207489367
 30
0.0
 11
10929.9174071254
 21
4532.0879332067
 31
0.0
  0
LINE
  5
209
330
1F
100
AcDbEntity
  8
0
  6
Continuous
 62
     7
370
    25
100
AcDbLine
 10
10929.9174071254
 20
4532.0879332067
 30
0.0
 11
10941.9174071254
 21
4532.0879332067
 31
0.0
  0
LINE
  5
20A
330
1F
100
AcDbEntity
  8
0
  6
Continuous
 62
     7
370
    25
100
AcDbLine
 10
10941.9174071254
 20
4526.0879332067
 30
0.0
 11
10941.9174071254
 21
4532.0879332067
 31
0.0
  0
LINE
  5
20B
330
1F
100
AcDbEntity
  8
0
  6
Continuous
 62
     7
370
    25
100
AcDbLine
 10
11020.9174071254
 20
4472.8879332067
 30
0.0
 11
11020.9174071254
 21
4476.8879332067
 31
0.0
  0
LINE
  5
20C
330
1F
100
AcDbEntity
  8
0
  6
Continuous
 62
     7
370
    25
100
AcDbLine
 10
11015.9174071254
 20
4472.8879332067
 30
0.0
 11
11020.9174071254
 21
4472.8879332067
 31
0.0
  0
LINE
  5
20D
330
1F
100
AcDbEntity
  8
0
  6
Continuous
 62
     7
370
    25
100
AcDbLine
 10
11015.9174071254
 20
4472.8879332067
 30
0.0
 11
11015.9174071254
 21
4476.8879332067
 31
0.0
  0
LINE
  5
20E
330
1F
100
AcDbEntity
  8
0
  6
Continuous
 62
     7
370
    25
100
AcDbLine
 10
11010.9174071254
 20
4472.8879332067
 30
0.0
 11
11015.9174071254
 21
4472.8879332067
 31
0.0
  0
LINE
  5
20F
330
1F
100
AcDbEntity
  8
0
  6
Continuous
 62
     7
370
    25
100
AcDbLine
 10
11010.9174071254
 20
4472.8879332067
 30
0.0
 11
11010.9174071254
 21
4476.8879332067
 31
0.0
  0
LINE
  5
210
330
1F
100
AcDbEntity
  8
0
  6
Continuous
 62
     7
370
    25
100
AcDbLine
 10
10935.9174071254
 20
4472.8879332067
 30
0.0
 11
10935.9174071254
 21
4476.8879332067
 31
0.0
  0
LINE
  5
211
330
1F
100
AcDbEntity
  8
0
  6
Continuous
 62
     7
370
    25
100
AcDbLine
 10
10935.9174071254
 20
4472.8879332067
 30
0.0
 11
10930.9174071254
 21
4472.8879332067
 31
0.0
  0
LINE
  5
212
330
1F
100
AcDbEntity
  8
0
  6
Continuous
 62
     7
370
    25
100
AcDbLine
 10
10930.9174071254
 20
4472.8879332067
 30
0.0
 11
10930.9174071254
 21
4476.8879332067
 31
0.0
  0
LINE
  5
213
330
1F
100
AcDbEntity
  8
0
  6
Continuous
 62
     7
370
    25
100
AcDbLine
 10
10940.9174071254
 20
4472.8879332067
 30
0.0
 11
10940.9174071254
 21
4476.8879332067
 31
0.0
  0
LINE
  5
214
330
1F
100
AcDbEntity
  8
0
  6
Continuous
 62
     7
370
    25
100
AcDbLine
 10
10940.9174071254
 20
4472.8879332067
 30
0.0
 11
10935.9174071254
 21
4472.8879332067
 31
0.0
  0
LINE
  5
215
330
1F
100
AcDbEntity
  8
0
  6
Continuous
 62
     7
370
    25
100
AcDbLine
 10
10945.9674071254
 20
4519.0879332067
 30
0.0
 11
10945.9674071254
 21
4516.4266046933
 31
0.0
  0
LINE
  5
216
330
1F
100
AcDbEntity
  8
0
  6
Continuous
 62
     7
370
    25
100
AcDbLine
 10
10955.8674071254
 20
4519.0879332067
 30
0.0
 11
10945.9674071254
 21
4519.0879332067
 31
0.0
  0
LINE
  5
217
330
1F
100
AcDbEntity
  8
0
  6
Continuous
 62
     7
370
    25
100
AcDbLine
 10
10955.8674071254
 20
4519.0879332067
 30
0.0
 11
10955.8674071254
 21
4516.0879332067
 31
0.0
  0
LINE
  5
218
330
1F
100
AcDbEntity
  8
0
  6
Continuous
 62
     7
370
    25
100
AcDbLine
 10
10954.6624571254
 20
4513.0879332067
 30
0.0
 11
10947.234658332
 21
4513.0879332067
 31
0.0
  0
LINE
  5
219
330
1F
100
AcDbEntity
  8
0
  6
Continuous
 62
     7
370
    25
100
AcDbLine
 10
10995.9674071254
 20
4519.0879332067
 30
0.0
 11
10995.9674071254
 21
4516.0879332067
 31
0.0
  0
LINE
  5
21A
330
1F
100
AcDbEntity
  8
0
  6
Continuous
 62
     7
370
    25
100
AcDbLine
 10
11005.8674071254
 20
4519.0879332067
 30
0.0
 11
10995.9674071254
 21
4519.0879332067
 31
0.0
  0
LINE
  5
21B
330
1F
100
AcDbEntity
  8
0
  6
Continuous
 62
     7
370
    25
100
AcDbLine
 10
11005.8674071254
 20
4519.0879332067
 30
0.0
 11
11005.8674071254
 21
4516.4266046933
 31
0.0
  0
LINE
  5
21C
330
1F
100
AcDbEntity
  8
0
  6
Continuous
 62
     7
370
    25
100
AcDbLine
 10
11004.6001559188
 20
4513.0879332067
 30
0.0
 11
10997.1723571254
 21
4513.0879332067
 31
0.0
  0
LINE
  5
21D
330
1F
100
AcDbEntity
  8
0
  6
Continuous
 62
     7
370
    25
100
AcDbLine
 10
10936.6674071254
 20
4472.3879332067
 30
0.0
 11
10938.9174071254
 21
4472.3879332067
 31
0.0
  0
LINE
  5
21E
330
1F
100
AcDbEntity
  8
0
  6
Continuous
 62
     7
370
    25
100
AcDbLine
 10
10936.6674071254
 20
4472.6879332067
 30
0.0
 11
10936.6674071254
 21
4472.3879332067
 31
0.0
  0
LINE
  5
21F
330
1F
100
AcDbEntity
  8
0
  6
Continuous
 62
     7
370
    25
100
AcDbLine
 10
10935.1674071254
 20
4472.3879332067
 30
0.0
 11
10935.1674071254
 21
4472.6879332067
 31
0.0
  0
LINE
  5
220
330
1F
100
AcDbEntity
  8
0
  6
Continuous
 62
     7
370
    25
100
AcDbLine
 10
10932.9174071254
 20
4472.3879332067
 30
0.0
 11
10935.1674071254
 21
4472.3879332067
 31
0.0
  0
LINE
  5
221
330
1F
100
AcDbEntity
  8
0
  6
Continuous
 62
     7
370
    25
100
AcDbLine
 10
10935.1674071254
 20
4472.6879332067
 30
0.0
 11
10936.6674071254
 21
4472.6879332067
 31
0.0
  0
LINE
  5
222
330
1F
100
AcDbEntity
  8
0
  6
Continuous
 62
     7
370
    25
100
AcDbLine
 10
11016.6674071254
 20
4472.6879332067
 30
0.0
 11
11016.6674071254
 21
4472.3879332067
 31
0.0
  0
LINE
  5
223
330
1F
100
AcDbEntity
  8
0
  6
Continuous
 62
     7
370
    25
100
AcDbLine
 10
11015.1674071254
 20
4472.3879332067
 30
0.0
 11
11015.1674071254
 21
4472.6879332067
 31
0.0
  0
LINE
  5
224
330
1F
100
AcDbEntity
  8
0
  6
Continuous
 62
     7
370
    25
100
AcDbLine
 10
11012.9174071254
 20
4472.3879332067
 30
0.0
 11
11015.1674071254
 21
4472.3879332067
 31
0.0
  0
LINE
  5
225
330
1F
100
AcDbEntity
  8
0
  6
Continuous
 62
     7
370
    25
100
AcDbLine
 10
11016.6674071254
 20
4472.3879332067
 30
0.0
 11
11018.9174071254
 21
4472.3879332067
 31
0.0
  0
LINE
  5
226
330
1F
100
AcDbEntity
  8
0
  6
Continuous
 62
     7
370
    25
100
AcDbLine
 10
11016.6674071254
 20
4472.6879332067
 30
0.0
 11
11015.1674071254
 21
4472.6879332067
 31
0.0
  0
LINE
  5
227
330
1F
100
AcDbEntity
  8
0
  6
Continuous
 62
     7
370
    25
100
AcDbLine
 10
10938.4174071254
 20
4471.8879332067
 30
0.0
 11
10936.6674071254
 21
4471.8879332067
 31
0.0
  0
LINE
  5
228
330
1F
100
AcDbEntity
  8
0
  6
Continuous
 62
     7
370
    25
100
AcDbLine
 10
10936.6674071254
 20
4471.8879332067
 30
0.0
 11
10936.6674071254
 21
4472.3879332067
 31
0.0
  0
LINE
  5
229
330
1F
100
AcDbEntity
  8
0
  6
Continuous
 62
     7
370
    25
100
AcDbLine
 10
10935.1674071254
 20
4471.8879332067
 30
0.0
 11
10933.4174071254
 21
4471.8879332067
 31
0.0
  0
LINE
  5
22A
330
1F
100
AcDbEntity
  8
0
  6
Continuous
 62
     7
370
    25
100
AcDbLine
 10
10935.1674071254
 20
4472.3879332067
 30
0.0
 11
10935.1674071254
 21
4471.8879332067
 31
0.0
  0
LINE
  5
22B
330
1F
100
AcDbEntity
  8
0
  6
Continuous
 62
     7
370
    25
100
AcDbLine
 10
11015.1674071254
 20
4471.8879332067
 30
0.0
 11
11013.4174071254
 21
4471.8879332067
 31
0.0
  0
LINE
  5
22C
330
1F
100
AcDbEntity
  8
0
  6
Continuous
 62
     7
370
    25
100
AcDbLine
 10
11015.1674071254
 20
4471.8879332067
 30
0.0
 11
11015.1674071254
 21
4472.3879332067
 31
0.0
  0
LINE
  5
22D
330
1F
100
AcDbEntity
  8
0
  6
Continuous
 62
     7
370
    25
100
AcDbLine
 10
11018.4174071254
 20
4471.8879332067
 30
0.0
 11
11016.6674071254
 21
4471.8879332067
 31
0.0
  0
LINE
  5
22E
330
1F
100
AcDbEntity
  8
0
  6
Continuous
 62
     7
370
    25
100
AcDbLine
 10
11016.6674071254
 20
4472.3879332067
 30
0.0
 11
11016.6674071254
 21
4471.8879332067
 31
0.0
  0
LINE
  5
22F
330
1F
100
AcDbEntity
  8
0
  6
Continuous
 62
     7
370
    25
100
AcDbLine
 10
10992.9174071254
 20
4521.0879332067
 30
0.0
 11
11009.3504433242
 21
4521.0879332067
 31
0.0
  0
LINE
  5
230
330
1F
100
AcDbEntity
  8
0
  6
Continuous
 62
     7
370
    25
100
AcDbLine
 10
10942.4843709266
 20
4521.0879332067
 30
0.0
 11
10958.9174071254
 21
4521.0879332067
 31
0.0
  0
LINE
  5
231
330
1F
100
AcDbEntity
  8
0
  6
Continuous
 62
     8
370
    25
100
AcDbLine
 10
10883.4174071254
 20
4465.3679332067
 30
0.0
 11
11068.4174071254
 21
4465.3679332067
 31
0.0
  0
LINE
  5
232
330
1F
100
AcDbEntity
  8
0
  6
Continuous
 62
     8
370
    25
100
AcDbLine
 10
10952.1174071254
 20
4451.6679332067
 30
0.0
 11
10999.7174071254
 21
4451.6679332067
 31
0.0
  0
LWPOLYLINE
  5
233
330
1F
100
AcDbEntity
  8
0
  6
Continuous
 62
     8
370
    25
100
AcDbPolyline
 90
        8
 70
   128
 43
0.0
 10
10992.7989394283
 20
4415.3679332067
 10
10993.3527443059
 20
4418.1623030498
 10
10993.9848078683
 20
4420.8599354915
 10
10994.68102974
 20
4423.5248306807
 10
10995.3335026772
 20
4425.9527373852
 10
10995.6737876468
 20
4427.3451538239
 10
10995.8826013423
 20
4428.5109094193
 10
10995.909493138
 20
4429.0172570413
  0
LWPOLYLINE
  5
234
330
1F
100
AcDbEntity
  8
0
  6
Continuous
 62
     8
370
    25
100
AcDbPolyline
 90
       14
 70
   128
 43
0.0
 10
10955.9416115781
 20
4428.9863686249
 10
10955.9254870892
 20
4429.2366409487
 10
10956.0319966412
 20
4429.651794112
 10
10956.276539445
 20
4429.8580169717
 10
10956.6500509188
 20
4429.8356118185
 10
10957.1604128461
 20
4429.5824641197
 10
10957.738602645
 20
4429.1430220248
 10
10958.4039090681
 20
4428.5109094193
 10
10959.397799003
 20
4427.378095014
 10
10960.456807776
 20
4425.9527373852
 10
10961.9229185903
 20
4423.5921539137
 10
10963.3010931129
 20
4420.8599354915
 10
10964.385953775
 20
4418.1933444537
 10
10965.2956977116
 20
4415.3679332067
  0
LWPOLYLINE
  5
235
330
1F
100
AcDbEntity
  8
0
  6
Continuous
 62
     8
370
    25
100
AcDbPolyline
 90
       15
 70
   128
 43
0.0
 10
10965.2956977116
 20
4415.3679332067
 10
10965.586491971
 20
4413.9941290404
 10
10965.8104692787
 20
4412.5703386533
 10
10965.9501366368
 20
4411.2132627035
 10
10966.0139316516
 20
4409.8858998267
 10
10966.0051321547
 20
4408.7132199803
 10
10965.935105441
 20
4407.630537437
 10
10965.7654518971
 20
4406.3950706145
 10
10965.523263723
 20
4405.3713917327
 10
10965.1222536843
 20
4404.3668779168
 10
10964.6481223683
 20
4403.739080104
 10
10964.2382340334
 20
4403.492266765
 10
10963.790844849
 20
4403.4344797337
 10
10963.2880567836
 20
4403.5654331376
 10
10963.2194681311
 20
4403.6095358557
  0
LWPOLYLINE
  5
236
330
1F
100
AcDbEntity
  8
0
  6
Continuous
 62
     8
370
    25
100
AcDbPolyline
 90
       12
 70
   128
 43
0.0
 10
10988.6180177478
 20
4403.6238711967
 10
10988.8559748116
 20
4403.739080104
 10
10989.509772473
 20
4404.3459889072
 10
10990.182244613
 20
4405.3713917327
 10
10990.6443454767
 20
4406.365482932
 10
10991.1036953258
 20
4407.630537437
 10
10991.4224410548
 20
4408.6894550761
 10
10991.7354281297
 20
4409.8858998267
 10
10992.0326707847
 20
4411.1764404847
 10
10992.3178532235
 20
4412.5703386533
 10
10992.5703764867
 20
4413.9544419204
 10
10992.7989394283
 20
4415.3679332067
  0
ARC
  5
237
330
1F
100
AcDbEntity
  8
0
  6
Continuous
 62
     8
370
    25
100
AcDbCircle
 10
10958.8983144589
 20
4415.0804032762
 30
0.0
 40
0.1518798835211316
100
AcDbArc
 50
191.0715713159
 51
237.0854869342
  0
LWPOLYLINE
  5
238
330
1F
100
AcDbEntity
  8
0
  6
Continuous
 62
     8
370
    25
100
AcDbPolyline
 90
        7
 70
   128
 43
0.0
 10
10992.7989394283
 20
4415.3679332067
 10
10992.8941311552
 20
4415.3100165894
 10
10992.9710633812
 20
4415.2526929748
 10
10993.0289484043
 20
4415.1965492941
 10
10993.0671935453
 20
4415.1421603972
 10
10993.0854072158
 20
4415.0900831668
 10
10993.0846426209
 20
4415.0462494907
  0
LINE
  5
239
330
1F
100
AcDbEntity
  8
0
  6
Continuous
 62
     8
370
    25
100
AcDbLine
 10
10921.9174071254
 20
4530.0879332067
 30
0.0
 11
10921.9174071254
 21
4502.0879332067
 31
0.0
  0
LINE
  5
23A
330
1F
100
AcDbEntity
  8
0
  6
Continuous
 62
     8
370
    25
100
AcDbLine
 10
11029.9174071254
 20
4530.0879332067
 30
0.0
 11
11029.9174071254
 21
4502.0879332067
 31
0.0
  0
ENDSEC
  0
SECTION
  2
OBJECTS
  0
DICTIONARY
  5
C
330
0
100
AcDbDictionary
281
     1
  3
ACAD_GROUP
350
D
  3
ACAD_LAYOUT
350
1A
  3
ACAD_MLINESTYLE
350
17
  3
ACAD_PLOTSETTINGS
350
19
  3
ACAD_PLOTSTYLENAME
350
E
  3
ACAD_SCALELIST
350
47
  3
DWGPROPS
350
23B
  0
DICTIONARY
  5
D
102
{ACAD_REACTORS
330
C
102
}
330
C
100
AcDbDictionary
281
     1
  0
DICTIONARY
  5
1A
102
{ACAD_REACTORS
330
C
102
}
330
C
100
AcDbDictionary
281
     1
  3
Layout1
350
1E
  3
Layout2
350
26
  3
Model
350
22
  0
DICTIONARY
  5
17
102
{ACAD_REACTORS
330
C
102
}
330
C
100
AcDbDictionary
281
     1
  3
Standard
350
18
  0
DICTIONARY
  5
19
102
{ACAD_REACTORS
330
C
102
}
330
C
100
AcDbDictionary
281
     1
  0
ACDBDICTIONARYWDFLT
  5
E
102
{ACAD_REACTORS
330
C
102
}
330
C
100
AcDbDictionary
281
     1
  3
Normal
350
F
100
AcDbDictionaryWithDefault
340
F
  0
DICTIONARY
  5
47
102
{ACAD_REACTORS
330
C
102
}
330
C
100
AcDbDictionary
281
     1
  3
A0
350
48
  3
A1
350
49
  3
A2
350
4A
  3
A3
350
4B
  3
A4
350
4C
  3
A5
350
4D
  3
A6
350
4E
  3
A7
350
4F
  3
A8
350
50
  3
A9
350
51
  3
B0
350
52
  3
B1
350
53
  3
B2
350
54
  3
B3
350
55
  3
B4
350
56
  3
B5
350
57
  3
B6
350
58
  3
B7
350
59
  3
B8
350
5A
  3
B9
350
5B
  3
C0
350
5C
  3
C1
350
5D
  3
C2
350
5E
  3
C3
350
5F
  3
C4
350
60
  3
C5
350
61
  3
C6
350
62
  3
C7
350
63
  3
C8
350
64
  3
C9
350
65
  3
D0
350
66
  3
D1
350
67
  3
D2
350
68
  0
XRECORD
  5
23B
102
{ACAD_REACTORS
330
C
102
}
330
C
100
AcDbXrecord
280
     1
  1
DWGPROPS COOKIE
  2

  3

  4

  6

  7

  8
radek.stransky
  9

300
=
301
=
302
=
303
=
304
=
305
=
306
=
307
=
308
=
309
=
 40
0.0
 41
2459136.389884491
 42
2459136.389884838
  1

 90
        0
  0
LAYOUT
  5
1E
102
{ACAD_REACTORS
330
1A
102
}
330
1A
100
AcDbPlotSettings
  1

  2
none_device
  4

  6

 40
0.0
 41
0.0
 42
0.0
 43
0.0
 44
0.0
 45
0.0
 46
0.0
 47
0.0
 48
0.0
 49
0.0
140
0.0
141
0.0
142
1.0
143
1.0
 70
   688
 72
     1
 73
     0
 74
     5
  7

 75
    16
147
1.0
148
0.0
149
0.0
100
AcDbLayout
  1
Layout1
 70
     1
 71
     1
 10
0.0
 20
0.0
 11
420.0
 21
297.0
 12
0.0
 22
0.0
 32
0.0
 14
1.0000000000E+20
 24
1.0000000000E+20
 34
1.0000000000E+20
 15
-1.0000000000E+20
 25
-1.0000000000E+20
 35
-1.0000000000E+20
146
0.0
 13
0.0
 23
0.0
 33
0.0
 16
1.0
 26
0.0
 36
0.0
 17
0.0
 27
1.0
 37
0.0
 76
     0
330
1B
  0
LAYOUT
  5
26
102
{ACAD_REACTORS
330
1A
102
}
330
1A
100
AcDbPlotSettings
  1

  2
none_device
  4

  6

 40
0.0
 41
0.0
 42
0.0
 43
0.0
 44
0.0
 45
0.0
 46
0.0
 47
0.0
 48
0.0
 49
0.0
140
0.0
141
0.0
142
1.0
143
1.0
 70
   688
 72
     1
 73
     0
 74
     5
  7

 75
    16
147
1.0
148
0.0
149
0.0
100
AcDbLayout
  1
Layout2
 70
     1
 71
     2
 10
0.0
 20
0.0
 11
0.0
 21
0.0
 12
0.0
 22
0.0
 32
0.0
 14
0.0
 24
0.0
 34
0.0
 15
0.0
 25
0.0
 35
0.0
146
0.0
 13
0.0
 23
0.0
 33
0.0
 16
1.0
 26
0.0
 36
0.0
 17
0.0
 27
1.0
 37
0.0
 76
     0
330
23
  0
LAYOUT
  5
22
102
{ACAD_REACTORS
330
1A
102
}
330
1A
100
AcDbPlotSettings
  1

  2
none_device
  4
Letter_(8.50_x_11.00_Inches)
  6

 40
6.35
 41
6.35
 42
6.35000508
 43
6.35000508
 44
215.9
 45
279.4
 46
0.0
 47
0.0
 48
0.0
 49
0.0
140
0.0
141
0.0
142
1.0
143
1.0
 70
  1712
 72
     1
 73
     0
 74
     0
  7

 75
     0
147
1.0
148
0.0
149
0.0
100
AcDbLayout
  1
Model
 70
     1
 71
     0
 10
0.0
 20
0.0
 11
20000.0
 21
10000.0
 12
0.0
 22
0.0
 32
0.0
 14
0.0
 24
0.0
 34
0.0
 15
20000.0
 25
10000.0
 35
0.0
146
0.0
 13
0.0
 23
0.0
 33
0.0
 16
1.0
 26
0.0
 36
0.0
 17
0.0
 27
1.0
 37
0.0
 76
     0
330
1F
331
29
  0
MLINESTYLE
  5
18
102
{ACAD_REACTORS
330
17
102
}
330
17
100
AcDbMlineStyle
  2
Standard
 70
     0
  3

 62
   256
 51
90.0
 52
90.0
 71
     2
 49
0.5
 62
   256
  6
BYLAYER
 49
-0.5
 62
   256
  6
BYLAYER
  0
ACDBPLACEHOLDER
  5
F
102
{ACAD_REACTORS
330
E
102
}
330
E
  0
SCALE
  5
48
102
{ACAD_REACTORS
330
47
102
}
330
47
100
AcDbScale
 70
     0
300
1:1
140
1.0
141
1.0
290
     1
  0
SCALE
  5
49
102
{ACAD_REACTORS
330
47
102
}
330
47
100
AcDbScale
 70
     0
300
1:2
140
1.0
141
2.0
290
     0
  0
SCALE
  5
4A
102
{ACAD_REACTORS
330
47
102
}
330
47
100
AcDbScale
 70
     0
300
1:4
140
1.0
141
4.0
290
     0
  0
SCALE
  5
4B
102
{ACAD_REACTORS
330
47
102
}
330
47
100
AcDbScale
 70
     0
300
1:5
140
1.0
141
5.0
290
     0
  0
SCALE
  5
4C
102
{ACAD_REACTORS
330
47
102
}
330
47
100
AcDbScale
 70
     0
300
1:8
140
1.0
141
8.0
290
     0
  0
SCALE
  5
4D
102
{ACAD_REACTORS
330
47
102
}
330
47
100
AcDbScale
 70
     0
300
1:10
140
1.0
141
10.0
290
     0
  0
SCALE
  5
4E
102
{ACAD_REACTORS
330
47
102
}
330
47
100
AcDbScale
 70
     0
300
1:16
140
1.0
141
16.0
290
     0
  0
SCALE
  5
4F
102
{ACAD_REACTORS
330
47
102
}
330
47
100
AcDbScale
 70
     0
300
1:20
140
1.0
141
20.0
290
     0
  0
SCALE
  5
50
102
{ACAD_REACTORS
330
47
102
}
330
47
100
AcDbScale
 70
     0
300
1:30
140
1.0
141
30.0
290
     0
  0
SCALE
  5
51
102
{ACAD_REACTORS
330
47
102
}
330
47
100
AcDbScale
 70
     0
300
1:40
140
1.0
141
40.0
290
     0
  0
SCALE
  5
52
102
{ACAD_REACTORS
330
47
102
}
330
47
100
AcDbScale
 70
     0
300
1:50
140
1.0
141
50.0
290
     0
  0
SCALE
  5
53
102
{ACAD_REACTORS
330
47
102
}
330
47
100
AcDbScale
 70
     0
300
1:100
140
1.0
141
100.0
290
     0
  0
SCALE
  5
54
102
{ACAD_REACTORS
330
47
102
}
330
47
100
AcDbScale
 70
     0
300
2:1
140
2.0
141
1.0
290
     0
  0
SCALE
  5
55
102
{ACAD_REACTORS
330
47
102
}
330
47
100
AcDbScale
 70
     0
300
4:1
140
4.0
141
1.0
290
     0
  0
SCALE
  5
56
102
{ACAD_REACTORS
330
47
102
}
330
47
100
AcDbScale
 70
     0
300
8:1
140
8.0
141
1.0
290
     0
  0
SCALE
  5
57
102
{ACAD_REACTORS
330
47
102
}
330
47
100
AcDbScale
 70
     0
300
10:1
140
10.0
141
1.0
290
     0
  0
SCALE
  5
58
102
{ACAD_REACTORS
330
47
102
}
330
47
100
AcDbScale
 70
     0
300
100:1
140
100.0
141
1.0
290
     0
  0
SCALE
  5
59
102
{ACAD_REACTORS
330
47
102
}
330
47
100
AcDbScale
 70
     0
300
1/128" = 1'-0"
140
0.0078125
141
12.0
290
     0
  0
SCALE
  5
5A
102
{ACAD_REACTORS
330
47
102
}
330
47
100
AcDbScale
 70
     0
300
1/64" = 1'-0"
140
0.015625
141
12.0
290
     0
  0
SCALE
  5
5B
102
{ACAD_REACTORS
330
47
102
}
330
47
100
AcDbScale
 70
     0
300
1/32" = 1'-0"
140
0.03125
141
12.0
290
     0
  0
SCALE
  5
5C
102
{ACAD_REACTORS
330
47
102
}
330
47
100
AcDbScale
 70
     0
300
1/16" = 1'-0"
140
0.0625
141
12.0
290
     0
  0
SCALE
  5
5D
102
{ACAD_REACTORS
330
47
102
}
330
47
100
AcDbScale
 70
     0
300
3/32" = 1'-0"
140
0.09375
141
12.0
290
     0
  0
SCALE
  5
5E
102
{ACAD_REACTORS
330
47
102
}
330
47
100
AcDbScale
 70
     0
300
1/8" = 1'-0"
140
0.125
141
12.0
290
     0
  0
SCALE
  5
5F
102
{ACAD_REACTORS
330
47
102
}
330
47
100
AcDbScale
 70
     0
300
3/16" = 1'-0"
140
0.1875
141
12.0
290
     0
  0
SCALE
  5
60
102
{ACAD_REACTORS
330
47
102
}
330
47
100
AcDbScale
 70
     0
300
1/4" = 1'-0"
140
0.25
141
12.0
290
     0
  0
SCALE
  5
61
102
{ACAD_REACTORS
330
47
102
}
330
47
100
AcDbScale
 70
     0
300
3/8" = 1'-0"
140
0.375
141
12.0
290
     0
  0
SCALE
  5
62
102
{ACAD_REACTORS
330
47
102
}
330
47
100
AcDbScale
 70
     0
300
1/2" = 1'-0"
140
0.5
141
12.0
290
     0
  0
SCALE
  5
63
102
{ACAD_REACTORS
330
47
102
}
330
47
100
AcDbScale
 70
     0
300
3/4" = 1'-0"
140
0.75
141
12.0
290
     0
  0
SCALE
  5
64
102
{ACAD_REACTORS
330
47
102
}
330
47
100
AcDbScale
 70
     0
300
1" = 1'-0"
140
1.0
141
12.0
290
     0
  0
SCALE
  5
65
102
{ACAD_REACTORS
330
47
102
}
330
47
100
AcDbScale
 70
     0
300
1-1/2" = 1'-0"
140
1.5
141
12.0
290
     0
  0
SCALE
  5
66
102
{ACAD_REACTORS
330
47
102
}
330
47
100
AcDbScale
 70
     0
300
3" = 1'-0"
140
3.0
141
12.0
290
     0
  0
SCALE
  5
67
102
{ACAD_REACTORS
330
47
102
}
330
47
100
AcDbScale
 70
     0
300
6" = 1'-0"
140
6.0
141
12.0
290
     0
  0
SCALE
  5
68
102
{ACAD_REACTORS
330
47
102
}
330
47
100
AcDbScale
 70
     0
300
1'-0" = 1'-0"
140
12.0
141
12.0
290
     0
  0
ENDSEC
  0
EOF
