  0
SECTION
  2
HEADER
  9
$ACADVER
  1
AC1015
  9
$ACADMAINTVER
 70
     6
  9
$DWGCODEPAGE
  3
ANSI_1250
  9
$INSBASE
 10
0.0
 20
0.0
 30
0.0
  9
$EXTMIN
 10
0.0
 20
0.0
 30
0.0
  9
$EXTMAX
 10
20000.0
 20
10000.0
 30
0.0
  9
$LIMMIN
 10
0.0
 20
0.0
  9
$LIMMAX
 10
20000.0
 20
10000.0
  9
$ORTHOMODE
 70
     0
  9
$REGENMODE
 70
     1
  9
$FILLMODE
 70
     1
  9
$QTEXTMODE
 70
     0
  9
$MIRRTEXT
 70
     1
  9
$LTSCALE
 40
1.0
  9
$ATTMODE
 70
     1
  9
$TEXTSIZE
 40
2.0
  9
$TRACEWID
 40
1.0
  9
$TEXTSTYLE
  7
STANDARD
  9
$CLAYER
  8
0
  9
$CELTYPE
  6
ByLayer
  9
$CECOLOR
 62
   256
  9
$CELTSCALE
 40
1.0
  9
$DISPSILH
 70
     0
  9
$DIMSCALE
 40
1.0
  9
$DIMASZ
 40
2.0
  9
$DIMEXO
 40
1.0
  9
$DIMDLI
 40
3.75
  9
$DIMRND
 40
0.0
  9
$DIMDLE
 40
0.0
  9
$DIMEXE
 40
1.0
  9
$DIMTP
 40
0.0
  9
$DIMTM
 40
0.0
  9
$DIMTXT
 40
2.0
  9
$DIMCEN
 40
2.5
  9
$DIMTSZ
 40
0.0
  9
$DIMTOL
 70
     0
  9
$DIMLIM
 70
     0
  9
$DIMTIH
 70
     1
  9
$DIMTOH
 70
     1
  9
$DIMSE1
 70
     0
  9
$DIMSE2
 70
     0
  9
$DIMTAD
 70
     1
  9
$DIMZIN
 70
     0
  9
$DIMBLK
  1

  9
$DIMASO
 70
     1
  9
$DIMSHO
 70
     1
  9
$DIMPOST
  1

  9
$DIMAPOST
  1

  9
$DIMALT
 70
     0
  9
$DIMALTD
 70
     3
  9
$DIMALTF
 40
0.0393700787
  9
$DIMLFAC
 40
1.0
  9
$DIMTOFL
 70
     1
  9
$DIMTVP
 40
0.0
  9
$DIMTIX
 70
     0
  9
$DIMSOXD
 70
     0
  9
$DIMSAH
 70
     0
  9
$DIMBLK1
  1

  9
$DIMBLK2
  1

  9
$DIMSTYLE
  2
ISO-25
  9
$DIMCLRD
 70
     0
  9
$DIMCLRE
 70
     0
  9
$DIMCLRT
 70
     0
  9
$DIMTFAC
 40
1.0
  9
$DIMGAP
 40
1.524
  9
$DIMJUST
 70
     0
  9
$DIMSD1
 70
     0
  9
$DIMSD2
 70
     0
  9
$DIMTOLJ
 70
     0
  9
$DIMTZIN
 70
     0
  9
$DIMALTZ
 70
     0
  9
$DIMALTTZ
 70
     0
  9
$DIMUPT
 70
     0
  9
$DIMDEC
 70
     2
  9
$DIMTDEC
 70
     0
  9
$DIMALTU
 70
     2
  9
$DIMALTTD
 70
     3
  9
$DIMTXSTY
  7
STANDARD
  9
$DIMAUNIT
 70
     0
  9
$DIMADEC
 70
     2
  9
$DIMALTRND
 40
0.0
  9
$DIMAZIN
 70
     0
  9
$DIMDSEP
 70
    44
  9
$DIMATFIT
 70
     3
  9
$DIMFRAC
 70
     0
  9
$DIMLDRBLK
  1

  9
$DIMLUNIT
 70
     2
  9
$DIMLWD
 70
    -2
  9
$DIMLWE
 70
    -2
  9
$DIMTMOVE
 70
     0
  9
$LUNITS
 70
     2
  9
$LUPREC
 70
     3
  9
$SKETCHINC
 40
1.0
  9
$FILLETRAD
 40
10.0
  9
$AUNITS
 70
     0
  9
$AUPREC
 70
     2
  9
$MENU
  1
.
  9
$ELEVATION
 40
0.0
  9
$PELEVATION
 40
0.0
  9
$THICKNESS
 40
0.0
  9
$LIMCHECK
 70
     0
  9
$CHAMFERA
 40
0.0
  9
$CHAMFERB
 40
0.0
  9
$CHAMFERC
 40
0.0
  9
$CHAMFERD
 40
0.0
  9
$SKPOLY
 70
     0
  9
$TDCREATE
 40
2460823.372266725
  9
$TDUCREATE
 40
2460823.288933391
  9
$TDUPDATE
 40
2460823.372267234
  9
$TDUUPDATE
 40
2460823.288933901
  9
$TDINDWG
 40
0.0000000116
  9
$TDUSRTIMER
 40
0.0000000116
  9
$USRTIMER
 70
     1
  9
$ANGBASE
 50
0.0
  9
$ANGDIR
 70
     0
  9
$PDMODE
 70
     0
  9
$PDSIZE
 40
-1.0
  9
$PLINEWID
 40
0.0
  9
$SPLFRAME
 70
     0
  9
$SPLINETYPE
 70
     6
  9
$SPLINESEGS
 70
     8
  9
$HANDSEED
  5
1EB
  9
$SURFTAB1
 70
     6
  9
$SURFTAB2
 70
     6
  9
$SURFTYPE
 70
     6
  9
$SURFU
 70
     6
  9
$SURFV
 70
     6
  9
$UCSBASE
  2

  9
$UCSNAME
  2

  9
$UCSORG
 10
0.0
 20
0.0
 30
0.0
  9
$UCSXDIR
 10
1.0
 20
0.0
 30
0.0
  9
$UCSYDIR
 10
0.0
 20
1.0
 30
0.0
  9
$UCSORTHOREF
  2

  9
$UCSORTHOVIEW
 70
     0
  9
$UCSORGTOP
 10
0.0
 20
0.0
 30
0.0
  9
$UCSORGBOTTOM
 10
0.0
 20
0.0
 30
0.0
  9
$UCSORGLEFT
 10
0.0
 20
0.0
 30
0.0
  9
$UCSORGRIGHT
 10
0.0
 20
0.0
 30
0.0
  9
$UCSORGFRONT
 10
0.0
 20
0.0
 30
0.0
  9
$UCSORGBACK
 10
0.0
 20
0.0
 30
0.0
  9
$PUCSBASE
  2

  9
$PUCSNAME
  2

  9
$PUCSORG
 10
0.0
 20
0.0
 30
0.0
  9
$PUCSXDIR
 10
1.0
 20
0.0
 30
0.0
  9
$PUCSYDIR
 10
0.0
 20
1.0
 30
0.0
  9
$PUCSORTHOREF
  2

  9
$PUCSORTHOVIEW
 70
     0
  9
$PUCSORGTOP
 10
0.0
 20
0.0
 30
0.0
  9
$PUCSORGBOTTOM
 10
0.0
 20
0.0
 30
0.0
  9
$PUCSORGLEFT
 10
0.0
 20
0.0
 30
0.0
  9
$PUCSORGRIGHT
 10
0.0
 20
0.0
 30
0.0
  9
$PUCSORGFRONT
 10
0.0
 20
0.0
 30
0.0
  9
$PUCSORGBACK
 10
0.0
 20
0.0
 30
0.0
  9
$USERI1
 70
     0
  9
$USERI2
 70
     0
  9
$USERI3
 70
     0
  9
$USERI4
 70
     0
  9
$USERI5
 70
     0
  9
$USERR1
 40
0.0
  9
$USERR2
 40
0.0
  9
$USERR3
 40
0.0
  9
$USERR4
 40
0.0
  9
$USERR5
 40
0.0
  9
$WORLDVIEW
 70
     1
  9
$SHADEDGE
 70
     3
  9
$SHADEDIF
 70
    70
  9
$TILEMODE
 70
     1
  9
$MAXACTVP
 70
    64
  9
$PINSBASE
 10
0.0
 20
0.0
 30
0.0
  9
$PLIMCHECK
 70
     0
  9
$PEXTMIN
 10
1.0000000000E+20
 20
1.0000000000E+20
 30
1.0000000000E+20
  9
$PEXTMAX
 10
-1.0000000000E+20
 20
-1.0000000000E+20
 30
-1.0000000000E+20
  9
$PLIMMIN
 10
0.0
 20
0.0
  9
$PLIMMAX
 10
420.0
 20
297.0
  9
$UNITMODE
 70
     0
  9
$VISRETAIN
 70
     1
  9
$PLINEGEN
 70
     0
  9
$PSLTSCALE
 70
     1
  9
$TREEDEPTH
 70
  3020
  9
$CMLSTYLE
  2
Standard
  9
$CMLJUST
 70
     0
  9
$CMLSCALE
 40
20.0
  9
$PROXYGRAPHICS
 70
     1
  9
$MEASUREMENT
 70
     1
  9
$CELWEIGHT
370
    -1
  9
$ENDCAPS
280
     0
  9
$JOINSTYLE
280
     0
  9
$LWDISPLAY
290
     1
  9
$INSUNITS
 70
     4
  9
$HYPERLINKBASE
  1

  9
$STYLESHEET
  1

  9
$XEDIT
290
     1
  9
$CEPSNTYPE
380
     0
  9
$PSTYLEMODE
290
     1
  9
$FINGERPRINTGUID
  2
{3780808f-c289-4aa1-9f47-74657d3695d5}
  9
$VERSIONGUID
  2
{FAEB1C32-E019-11D5-929B-00C0DF256EC4}
  9
$EXTNAMES
290
     1
  9
$PSVPSCALE
 40
0.0
  9
$OLESTARTUP
290
     0
  0
ENDSEC
  0
SECTION
  2
CLASSES
  0
CLASS
  1
ACDBDICTIONARYWDFLT
  2
AcDbDictionaryWithDefault
  3
ObjectDBX Classes
 90
        0
280
     0
281
     0
  0
CLASS
  1
VISUALSTYLE
  2
AcDbVisualStyle
  3
ObjectDBX Classes
 90
     4095
280
     0
281
     0
  0
CLASS
  1
MATERIAL
  2
AcDbMaterial
  3
ObjectDBX Classes
 90
     1153
280
     0
281
     0
  0
CLASS
  1
SCALE
  2
AcDbScale
  3
ObjectDBX Classes
 90
     1153
280
     0
281
     0
  0
CLASS
  1
TABLESTYLE
  2
AcDbTableStyle
  3
ObjectDBX Classes
 90
     4095
280
     0
281
     0
  0
CLASS
  1
MLEADERSTYLE
  2
AcDbMLeaderStyle
  3
ACDB_MLEADERSTYLE_CLASS
 90
     4095
280
     0
281
     0
  0
CLASS
  1
SUN
  2
AcDbSun
  3
SCENEOE
 90
     1153
280
     0
281
     0
  0
CLASS
  1
ACDBPLACEHOLDER
  2
AcDbPlaceHolder
  3
ObjectDBX Classes
 90
        0
280
     0
281
     0
  0
CLASS
  1
LAYOUT
  2
AcDbLayout
  3
ObjectDBX Classes
 90
        0
280
     0
281
     0
  0
ENDSEC
  0
SECTION
  2
TABLES
  0
TABLE
  2
VPORT
  5
8
330
0
100
AcDbSymbolTable
 70
     1
  0
VPORT
  5
29
330
8
100
AcDbSymbolTableRecord
100
AcDbViewportTableRecord
  2
*Active
 70
     0
 10
0.0
 20
0.0
 11
1.0
 21
1.0
 12
10000.0
 22
5000.0
 13
0.0
 23
0.0
 14
10.0
 24
10.0
 15
10.0
 25
10.0
 16
0.0
 26
0.0
 36
1.0
 17
0.0
 27
0.0
 37
0.0
 40
10000.0
 41
2.0
 42
50.0
 43
0.0
 44
0.0
 50
0.0
 51
0.0
 71
     0
 72
  2000
 73
     1
 74
     3
 75
     0
 76
     0
 77
     0
 78
     0
281
     0
 65
     1
110
0.0
120
0.0
130
0.0
111
1.0
121
0.0
131
0.0
112
0.0
122
1.0
132
0.0
 79
     0
146
0.0
  0
ENDTAB
  0
TABLE
  2
LTYPE
  5
5
330
0
100
AcDbSymbolTable
 70
    10
  0
LTYPE
  5
14
330
5
100
AcDbSymbolTableRecord
100
AcDbLinetypeTableRecord
  2
ByBlock
 70
     0
  3

 72
    65
 73
     0
 40
0.0
  0
LTYPE
  5
15
330
5
100
AcDbSymbolTableRecord
100
AcDbLinetypeTableRecord
  2
ByLayer
 70
     0
  3

 72
    65
 73
     0
 40
0.0
  0
LTYPE
  5
16
330
5
100
AcDbSymbolTableRecord
100
AcDbLinetypeTableRecord
  2
Continuous
 70
     0
  3
Solid line
 72
    65
 73
     0
 40
0.0
  0
LTYPE
  5
6E
330
5
100
AcDbSymbolTableRecord
100
AcDbLinetypeTableRecord
  2
SLD-Plná
 70
     0
  3
SolidWorks Line Style
 72
    65
 73
     0
 40
0.0
  0
LTYPE
  5
6F
330
5
100
AcDbSymbolTableRecord
100
AcDbLinetypeTableRecord
  2
SLD-Čárkovaná
 70
     0
  3
SolidWorks Line Style
 72
    65
 73
     2
 40
1.905
 49
1.27
 74
     0
 49
-0.635
 74
     0
  0
LTYPE
  5
70
330
5
100
AcDbSymbolTableRecord
100
AcDbLinetypeTableRecord
  2
SLD-Dvojitě-čerchovaná
 70
     0
  3
SolidWorks Line Style
 72
    65
 73
     6
 40
12.7
 49
6.35
 74
     0
 49
-1.27
 74
     0
 49
1.27
 74
     0
 49
-1.27
 74
     0
 49
1.27
 74
     0
 49
-1.27
 74
     0
  0
LTYPE
  5
71
330
5
100
AcDbSymbolTableRecord
100
AcDbLinetypeTableRecord
  2
SLD-Čerchovaná
 70
     0
  3
SolidWorks Line Style
 72
    65
 73
     4
 40
10.16
 49
6.35
 74
     0
 49
-1.27
 74
     0
 49
1.27
 74
     0
 49
-1.27
 74
     0
  0
LTYPE
  5
72
330
5
100
AcDbSymbolTableRecord
100
AcDbLinetypeTableRecord
  2
SLD-Osa
 70
     0
  3
SolidWorks Line Style
 72
    65
 73
     4
 40
19.05
 49
15.24
 74
     0
 49
-1.27
 74
     0
 49
1.27
 74
     0
 49
-1.27
 74
     0
  0
LTYPE
  5
73
330
5
100
AcDbSymbolTableRecord
100
AcDbLinetypeTableRecord
  2
SLD-Tečkovaná
 70
     0
  3
SolidWorks Line Style
 72
    65
 73
     2
 40
0.635
 49
0.0
 74
     0
 49
-0.635
 74
     0
  0
LTYPE
  5
74
330
5
100
AcDbSymbolTableRecord
100
AcDbLinetypeTableRecord
  2
SLD-Hrubá-tenká-čerchovaná
 70
     0
  3
SolidWorks Line Style
 72
    65
 73
     4
 40
10.16
 49
6.35
 74
     0
 49
-1.27
 74
     0
 49
1.27
 74
     0
 49
-1.27
 74
     0
  0
LTYPE
  5
75
330
5
100
AcDbSymbolTableRecord
100
AcDbLinetypeTableRecord
  2
SLD-Řez-1
 70
     0
  3
SolidWorks Line Style
 72
    65
 73
     4
 40
8.128
 49
5.08
 74
     0
 49
-1.016
 74
     0
 49
1.016
 74
     0
 49
-1.016
 74
     0
  0
LTYPE
  5
76
330
5
100
AcDbSymbolTableRecord
100
AcDbLinetypeTableRecord
  2
SLD-Řez-2
 70
     0
  3
SolidWorks Line Style
 72
    65
 73
     2
 40
5080.0
 49
0.0
 74
     0
 49
-5080.0
 74
     0
  0
ENDTAB
  0
TABLE
  2
LAYER
  5
2
330
0
100
AcDbSymbolTable
 70
    13
  0
LAYER
  5
10
330
2
100
AcDbSymbolTableRecord
100
AcDbLayerTableRecord
  2
0
 70
     0
 62
     7
  6
Continuous
370
    -3
390
F
  0
LAYER
  5
77
330
2
100
AcDbSymbolTableRecord
100
AcDbLayerTableRecord
  2
FORMAT
 70
     0
 62
     7
  6
SLD-Plná
370
    -3
390
F
  0
LAYER
  5
78
330
2
100
AcDbSymbolTableRecord
100
AcDbLayerTableRecord
  2
OSA
 70
     0
 62
     7
  6
SLD-Hrubá-tenká-čerchovaná
370
    -3
390
F
  0
LAYER
  5
79
330
2
100
AcDbSymbolTableRecord
100
AcDbLayerTableRecord
  2
0_35
 70
     0
 62
     7
  6
SLD-Plná
370
    35
390
F
  0
LAYER
  5
7A
330
2
100
AcDbSymbolTableRecord
100
AcDbLayerTableRecord
  2
0_5
 70
     0
 62
     7
  6
SLD-Plná
370
    50
390
F
  0
LAYER
  5
7B
330
2
100
AcDbSymbolTableRecord
100
AcDbLayerTableRecord
  2
0_25
 70
     0
 62
     7
  6
SLD-Plná
370
    25
390
F
  0
LAYER
  5
7C
330
2
100
AcDbSymbolTableRecord
100
AcDbLayerTableRecord
  2
0_18
 70
     0
 62
     7
  6
SLD-Plná
370
    -3
390
F
  0
LAYER
  5
7D
330
2
100
AcDbSymbolTableRecord
100
AcDbLayerTableRecord
  2
SLD-0
 70
     0
 62
   179
  6
SLD-Plná
370
    -3
390
F
  0
LAYER
  5
7E
330
2
100
AcDbSymbolTableRecord
100
AcDbLayerTableRecord
  2
KOTY
 70
     0
 62
     7
  6
SLD-Plná
370
    -3
390
F
  0
LAYER
  5
7F
330
2
100
AcDbSymbolTableRecord
100
AcDbLayerTableRecord
  2
SILNA
 70
     0
 62
   179
  6
SLD-Plná
370
    -3
390
F
  0
LAYER
  5
80
330
2
100
AcDbSymbolTableRecord
100
AcDbLayerTableRecord
  2
0_18_1
 70
     0
 62
   179
  6
SLD-Plná
370
    -3
390
F
  0
LAYER
  5
81
330
2
100
AcDbSymbolTableRecord
100
AcDbLayerTableRecord
  2
0_35_1
 70
     0
 62
   179
  6
SLD-Plná
370
    35
390
F
  0
LAYER
  5
82
330
2
100
AcDbSymbolTableRecord
100
AcDbLayerTableRecord
  2
0_5_1
 70
     0
 62
   179
  6
SLD-Plná
370
    50
390
F
  0
ENDTAB
  0
TABLE
  2
STYLE
  5
3
330
0
100
AcDbSymbolTable
 70
     1
  0
STYLE
  5
11
330
3
100
AcDbSymbolTableRecord
100
AcDbTextStyleTableRecord
  2
STANDARD
 70
     0
 40
0.0
 41
1.0
 50
0.0
 71
     0
 42
2.0
  3
SWISOP1.TTF
  4

1001
ACAD
1000
SWISOP1
1071
        2
  0
ENDTAB
  0
TABLE
  2
VIEW
  5
6
330
0
100
AcDbSymbolTable
 70
     0
  0
ENDTAB
  0
TABLE
  2
UCS
  5
7
330
0
100
AcDbSymbolTable
 70
     0
  0
ENDTAB
  0
TABLE
  2
APPID
  5
9
330
0
100
AcDbSymbolTable
 70
     1
  0
APPID
  5
12
330
9
100
AcDbSymbolTableRecord
100
AcDbRegAppTableRecord
  2
ACAD
 70
     0
  0
ENDTAB
  0
TABLE
  2
DIMSTYLE
  5
A
330
0
100
AcDbSymbolTable
 70
     1
100
AcDbDimStyleTable
  0
DIMSTYLE
105
27
330
A
100
AcDbSymbolTableRecord
100
AcDbDimStyleTableRecord
  2
ISO-25
 70
     0
 41
2.5
 42
0.625
 43
3.75
 44
1.25
 73
     0
 74
     0
 77
     1
 78
     8
140
2.5
141
2.5
143
0.0393700787
147
0.625
171
     3
172
     1
178
     0
271
     2
272
     2
274
     3
278
    44
283
     0
284
     8
340
11
  0
ENDTAB
  0
TABLE
  2
BLOCK_RECORD
  5
1
330
0
100
AcDbSymbolTable
 70
     1
  0
BLOCK_RECORD
  5
1F
330
1
100
AcDbSymbolTableRecord
100
AcDbBlockTableRecord
  2
*Model_Space
340
22
  0
BLOCK_RECORD
  5
1B
330
1
100
AcDbSymbolTableRecord
100
AcDbBlockTableRecord
  2
*Paper_Space
340
1E
  0
BLOCK_RECORD
  5
23
330
1
100
AcDbSymbolTableRecord
100
AcDbBlockTableRecord
  2
*Paper_Space0
340
26
  0
ENDTAB
  0
ENDSEC
  0
SECTION
  2
BLOCKS
  0
BLOCK
  5
20
330
1F
100
AcDbEntity
  8
0
100
AcDbBlockBegin
  2
*Model_Space
 70
     0
 10
0.0
 20
0.0
 30
0.0
  3
*Model_Space
  1

  0
ENDBLK
  5
21
330
1F
100
AcDbEntity
  8
0
100
AcDbBlockEnd
  0
BLOCK
  5
1C
330
1B
100
AcDbEntity
 67
     1
  8
0
100
AcDbBlockBegin
  2
*Paper_Space
 70
     0
 10
0.0
 20
0.0
 30
0.0
  3
*Paper_Space
  1

  0
ENDBLK
  5
1D
330
1B
100
AcDbEntity
 67
     1
  8
0
100
AcDbBlockEnd
  0
BLOCK
  5
24
330
23
100
AcDbEntity
  8
0
100
AcDbBlockBegin
  2
*Paper_Space0
 70
     0
 10
0.0
 20
0.0
 30
0.0
  3
*Paper_Space0
  1

  0
ENDBLK
  5
25
330
23
100
AcDbEntity
  8
0
100
AcDbBlockEnd
  0
ENDSEC
  0
SECTION
  2
ENTITIES
  0
LINE
  5
83
330
1F
100
AcDbEntity
  8
0
  6
SLD-Plná
 62
     7
370
    25
100
AcDbLine
 10
6361.4041386781
 20
5583.2572457042
 30
0.0
 11
6359.9041386781
 21
5584.7572457042
 31
0.0
  0
LINE
  5
84
330
1F
100
AcDbEntity
  8
0
  6
SLD-Plná
 62
     7
370
    25
100
AcDbLine
 10
6334.9041386781
 20
5584.7572457042
 30
0.0
 11
6333.4041386781
 21
5583.2572457042
 31
0.0
  0
LINE
  5
85
330
1F
100
AcDbEntity
  8
0
  6
SLD-Plná
 62
     7
370
    25
100
AcDbLine
 10
6361.4041386781
 20
5582.7572457042
 30
0.0
 11
6361.4041386781
 21
5583.2572457042
 31
0.0
  0
LINE
  5
86
330
1F
100
AcDbEntity
  8
0
  6
SLD-Plná
 62
     7
370
    25
100
AcDbLine
 10
6333.4041386781
 20
5583.2572457042
 30
0.0
 11
6333.4041386781
 21
5582.7572457042
 31
0.0
  0
ARC
  5
87
330
1F
100
AcDbEntity
  8
0
  6
SLD-Plná
 62
     7
370
    25
100
AcDbCircle
 10
6168.9894134034
 20
5368.2572457042
 30
0.0
 40
4.324969328315037
100
AcDbArc
 50
206.059831153
 51
241.4762140417
  0
ARC
  5
88
330
1F
100
AcDbEntity
  8
0
  6
SLD-Plná
 62
     7
370
    25
100
AcDbCircle
 10
6168.9894134034
 20
5368.2572457042
 30
0.0
 40
4.324969328314237
100
AcDbArc
 50
118.5237859583
 51
153.940168847
  0
LINE
  5
89
330
1F
100
AcDbEntity
  8
0
  6
SLD-Plná
 62
     7
370
    25
100
AcDbLine
 10
6166.9241386781
 20
5364.4572457042
 30
0.0
 11
6167.3041386781
 21
5364.4572457042
 31
0.0
  0
LINE
  5
8A
330
1F
100
AcDbEntity
  8
0
  6
SLD-Plná
 62
     7
370
    25
100
AcDbLine
 10
6167.3041386781
 20
5372.0572457042
 30
0.0
 11
6166.9241386781
 21
5372.0572457042
 31
0.0
  0
ARC
  5
8B
330
1F
100
AcDbEntity
  8
0
  6
SLD-Plná
 62
     7
370
    25
100
AcDbCircle
 10
6168.9894134034
 20
5218.2572457042
 30
0.0
 40
4.324969328315037
100
AcDbArc
 50
206.059831153
 51
241.4762140417
  0
ARC
  5
8C
330
1F
100
AcDbEntity
  8
0
  6
SLD-Plná
 62
     7
370
    25
100
AcDbCircle
 10
6168.9894134034
 20
5218.2572457042
 30
0.0
 40
4.324969328314634
100
AcDbArc
 50
118.5237859583
 51
153.940168847
  0
LINE
  5
8D
330
1F
100
AcDbEntity
  8
0
  6
SLD-Plná
 62
     7
370
    25
100
AcDbLine
 10
6166.9241386781
 20
5214.4572457042
 30
0.0
 11
6167.3041386781
 21
5214.4572457042
 31
0.0
  0
LINE
  5
8E
330
1F
100
AcDbEntity
  8
0
  6
SLD-Plná
 62
     7
370
    25
100
AcDbLine
 10
6167.3041386781
 20
5222.0572457042
 30
0.0
 11
6166.9241386781
 21
5222.0572457042
 31
0.0
  0
LINE
  5
8F
330
1F
100
AcDbEntity
  8
0
  6
SLD-Plná
 62
     7
370
    25
100
AcDbLine
 10
6167.4041386781
 20
5523.7572457042
 30
0.0
 11
6166.9041386781
 21
5523.7572457042
 31
0.0
  0
LINE
  5
90
330
1F
100
AcDbEntity
  8
0
  6
SLD-Plná
 62
     7
370
    25
100
AcDbLine
 10
6166.9041386781
 20
5495.7572457042
 30
0.0
 11
6167.4041386781
 21
5495.7572457042
 31
0.0
  0
LINE
  5
91
330
1F
100
AcDbEntity
  8
0
  6
SLD-Plná
 62
     7
370
    25
100
AcDbLine
 10
6166.9041386781
 20
5523.7572457042
 30
0.0
 11
6165.4041386781
 21
5522.2572457042
 31
0.0
  0
LINE
  5
92
330
1F
100
AcDbEntity
  8
0
  6
SLD-Plná
 62
     7
370
    25
100
AcDbLine
 10
6165.4041386781
 20
5497.2572457042
 30
0.0
 11
6166.9041386781
 21
5495.7572457042
 31
0.0
  0
LINE
  5
93
330
1F
100
AcDbEntity
  8
0
  6
SLD-Plná
 62
     7
370
    25
100
AcDbLine
 10
6166.9041386781
 20
5473.7572457042
 30
0.0
 11
6165.4041386781
 21
5472.2572457042
 31
0.0
  0
LINE
  5
94
330
1F
100
AcDbEntity
  8
0
  6
SLD-Plná
 62
     7
370
    25
100
AcDbLine
 10
6165.4041386781
 20
5447.2572457042
 30
0.0
 11
6166.9041386781
 21
5445.7572457042
 31
0.0
  0
LINE
  5
95
330
1F
100
AcDbEntity
  8
0
  6
SLD-Plná
 62
     7
370
    25
100
AcDbLine
 10
6167.4041386781
 20
5473.7572457042
 30
0.0
 11
6166.9041386781
 21
5473.7572457042
 31
0.0
  0
LINE
  5
96
330
1F
100
AcDbEntity
  8
0
  6
SLD-Plná
 62
     7
370
    25
100
AcDbLine
 10
6166.9041386781
 20
5445.7572457042
 30
0.0
 11
6167.4041386781
 21
5445.7572457042
 31
0.0
  0
LINE
  5
97
330
1F
100
AcDbEntity
  8
0
  6
SLD-Plná
 62
     7
370
    25
100
AcDbLine
 10
6182.4041386781
 20
5562.2572457042
 30
0.0
 11
6182.4041386781
 21
5559.7572457042
 31
0.0
  0
LINE
  5
98
330
1F
100
AcDbEntity
  8
0
  6
SLD-Plná
 62
     7
370
    25
100
AcDbLine
 10
6227.4041386781
 20
5559.7572457042
 30
0.0
 11
6227.4041386781
 21
5562.2572457042
 31
0.0
  0
ARC
  5
99
330
1F
100
AcDbEntity
  8
0
  6
SLD-Plná
 62
     7
370
    25
100
AcDbCircle
 10
6204.9041386781
 20
5562.2572457042
 30
0.0
 40
22.5
100
AcDbArc
 50
0.0
 51
180.0
  0
SPLINE
  5
9A
330
1F
100
AcDbEntity
  8
0
  6
SLD-Plná
 62
     7
370
    25
100
AcDbSpline
210
0.0
220
0.0
230
1.0
 70
     8
 71
     3
 72
    35
 73
    31
 74
     0
 42
0.00000001
 43
0.00000001
 40
0.0
 40
0.0
 40
0.0
 40
0.0
 40
0.0564787528822892
 40
0.1100171770309904
 40
0.1606174833693472
 40
0.2082817757924057
 40
0.2530120502161318
 40
0.2948101935382046
 40
0.3336779827792274
 40
0.3667339805278862
 40
0.3973302699421323
 40
0.4254679741137172
 40
0.4511481375572398
 40
0.4743717264493261
 40
0.4951396292395315
 40
0.5112983522970276
 40
0.5289547101254461
 40
0.5487841942098558
 40
0.5707854772808438
 40
0.594956310503183
 40
0.6208043852970097
 40
0.6487388073442197
 40
0.6787555027634966
 40
0.7108498616252327
 40
0.751759270587131
 40
0.7955964065810164
 40
0.8423508118660419
 40
0.892011136625555
 40
0.9445651903187008
 40
1.0
 40
1.0
 40
1.0
 40
1.0
 10
5846.822022413271
 20
5108.757245704188
 30
0.0
 10
5849.014654850076
 20
5101.253817920112
 30
0.0
 10
5853.285769537516
 20
5086.637596762034
 30
0.0
 10
5859.519907551674
 20
5065.291939296715
 30
0.0
 10
5865.410448916611
 20
5045.113175703781
 30
0.0
 10
5870.957452339001
 20
5026.100822093296
 30
0.0
 10
5876.161148894633
 20
5008.254997356951
 30
0.0
 10
5881.0218298795
 20
4991.575672249558
 30
0.0
 10
5885.428143776977
 20
4976.44641413648
 30
0.0
 10
5889.398762308536
 20
4962.805240035173
 30
0.0
 10
5892.952349696267
 20
4950.59011836942
 30
0.0
 10
5896.219040604106
 20
4939.355172238367
 30
0.0
 10
5899.199180369496
 20
4929.100442622279
 30
0.0
 10
5901.893164331159
 20
4919.825792964455
 30
0.0
 10
5904.217954255936
 20
4911.818438194898
 30
0.0
 10
5906.32704066408
 20
4904.551038227243
 30
0.0
 10
5908.396892967573
 20
4897.416242244795
 30
0.0
 10
5910.689379238343
 20
4889.510299791154
 30
0.0
 10
5913.230134784366
 20
4880.743467344943
 30
0.0
 10
5915.99988631433
 20
4871.180641121256
 30
0.0
 10
5918.995145420736
 20
4860.831937747869
 30
0.0
 10
5922.212225543578
 20
4849.707516118269
 30
0.0
 10
5925.665910246059
 20
4837.752599212078
 30
0.0
 10
5929.613073370427
 20
4824.071802800336
 30
0.0
 10
5934.083484924109
 20
4808.549563571903
 30
0.0
 10
5939.104817961608
 20
4791.069453852244
 30
0.0
 10
5944.446475904302
 20
4772.412470427364
 30
0.0
 10
5950.099797879108
 20
4752.578060647636
 30
0.0
 10
5956.058515060868
 20
4731.568445728082
 30
0.0
 10
5960.108753833958
 20
4717.155804919247
 30
0.0
 10
5962.187896150434
 20
4709.757245704188
 30
0.0
  0
LINE
  5
9B
330
1F
100
AcDbEntity
  8
0
  6
SLD-Plná
 62
     7
370
    25
100
AcDbLine
 10
6167.4041386781
 20
5108.7572457042
 30
0.0
 11
6167.4041386781
 21
5559.7572457042
 31
0.0
  0
LINE
  5
9C
330
1F
100
AcDbEntity
  8
0
  6
SLD-Plná
 62
     7
370
    25
100
AcDbLine
 10
6527.4041386781
 20
4709.7572457042
 30
0.0
 11
6527.4041386781
 21
5559.7572457042
 31
0.0
  0
LINE
  5
9D
330
1F
100
AcDbEntity
  8
0
  6
SLD-Plná
 62
     7
370
    25
100
AcDbLine
 10
6167.4041386781
 20
5559.7572457042
 30
0.0
 11
6527.4041386781
 21
5559.7572457042
 31
0.0
  0
LINE
  5
9E
330
1F
100
AcDbEntity
  8
0
  6
SLD-Plná
 62
     7
370
    25
100
AcDbLine
 10
6300.653436017
 20
4709.7572457042
 30
0.0
 11
6527.4041386781
 21
4709.7572457042
 31
0.0
  0
LINE
  5
9F
330
1F
100
AcDbEntity
  8
0
  6
SLD-Plná
 62
     7
370
    25
100
AcDbLine
 10
6167.4041386781
 20
5582.7572457042
 30
0.0
 11
6195.6305201826
 21
5582.7572457042
 31
0.0
  0
LINE
  5
A0
330
1F
100
AcDbEntity
  8
0
  6
SLD-Plná
 62
     7
370
    25
100
AcDbLine
 10
6214.1777571736
 20
5582.7572457042
 30
0.0
 11
6527.4041386781
 21
5582.7572457042
 31
0.0
  0
LINE
  5
A1
330
1F
100
AcDbEntity
  8
0
  6
SLD-Plná
 62
     7
370
    25
100
AcDbLine
 10
6167.4041386781
 20
5582.7572457042
 30
0.0
 11
6167.4041386781
 21
5559.7572457042
 31
0.0
  0
LINE
  5
A2
330
1F
100
AcDbEntity
  8
0
  6
SLD-Plná
 62
     7
370
    25
100
AcDbLine
 10
6527.4041386781
 20
5582.7572457042
 30
0.0
 11
6527.4041386781
 21
5559.7572457042
 31
0.0
  0
LINE
  5
A3
330
1F
100
AcDbEntity
  8
0
  6
SLD-Plná
 62
     7
370
    25
100
AcDbLine
 10
6347.4041386781
 20
5584.7572457042
 30
0.0
 11
6359.9041386781
 21
5584.7572457042
 31
0.0
  0
LINE
  5
A4
330
1F
100
AcDbEntity
  8
0
  6
SLD-Plná
 62
     7
370
    25
100
AcDbLine
 10
6334.9041386781
 20
5584.7572457042
 30
0.0
 11
6347.4041386781
 21
5584.7572457042
 31
0.0
  0
LINE
  5
A5
330
1F
100
AcDbEntity
  8
0
  6
SLD-Plná
 62
     7
370
    25
100
AcDbLine
 10
6347.4041386781
 20
5583.2572457042
 30
0.0
 11
6333.4041386781
 21
5583.2572457042
 31
0.0
  0
LINE
  5
A6
330
1F
100
AcDbEntity
  8
0
  6
SLD-Plná
 62
     7
370
    25
100
AcDbLine
 10
6361.4041386781
 20
5583.2572457042
 30
0.0
 11
6347.4041386781
 21
5583.2572457042
 31
0.0
  0
LINE
  5
A7
330
1F
100
AcDbEntity
  8
0
  6
SLD-Plná
 62
     7
370
    25
100
AcDbLine
 10
6165.1041386781
 20
5370.1565924579
 30
0.0
 11
6165.1041386781
 21
5370.1572457042
 31
0.0
  0
LINE
  5
A8
330
1F
100
AcDbEntity
  8
0
  6
SLD-Plná
 62
     7
370
    25
100
AcDbLine
 10
6165.1041386781
 20
5366.3572457042
 30
0.0
 11
6165.1041386781
 21
5370.1565924579
 31
0.0
  0
LINE
  5
A9
330
1F
100
AcDbEntity
  8
0
  6
SLD-Plná
 62
     7
370
    25
100
AcDbLine
 10
6166.9241386781
 20
5372.0559392115
 30
0.0
 11
6166.9241386781
 21
5372.0572457042
 31
0.0
  0
LINE
  5
AA
330
1F
100
AcDbEntity
  8
0
  6
SLD-Plná
 62
     7
370
    25
100
AcDbLine
 10
6166.9241386781
 20
5364.4572457042
 30
0.0
 11
6166.9241386781
 21
5372.0559392115
 31
0.0
  0
LINE
  5
AB
330
1F
100
AcDbEntity
  8
0
  6
SLD-Plná
 62
     7
370
    25
100
AcDbLine
 10
6165.1041386781
 20
5220.1565924579
 30
0.0
 11
6165.1041386781
 21
5220.1572457042
 31
0.0
  0
LINE
  5
AC
330
1F
100
AcDbEntity
  8
0
  6
SLD-Plná
 62
     7
370
    25
100
AcDbLine
 10
6165.1041386781
 20
5216.3572457042
 30
0.0
 11
6165.1041386781
 21
5220.1565924579
 31
0.0
  0
LINE
  5
AD
330
1F
100
AcDbEntity
  8
0
  6
SLD-Plná
 62
     7
370
    25
100
AcDbLine
 10
6166.9241386781
 20
5222.0559392115
 30
0.0
 11
6166.9241386781
 21
5222.0572457042
 31
0.0
  0
LINE
  5
AE
330
1F
100
AcDbEntity
  8
0
  6
SLD-Plná
 62
     7
370
    25
100
AcDbLine
 10
6166.9241386781
 20
5214.4572457042
 30
0.0
 11
6166.9241386781
 21
5222.0559392115
 31
0.0
  0
LINE
  5
AF
330
1F
100
AcDbEntity
  8
0
  6
SLD-Plná
 62
     7
370
    25
100
AcDbLine
 10
6166.9041386781
 20
5523.7572457042
 30
0.0
 11
6166.9041386781
 21
5495.7572457042
 31
0.0
  0
LINE
  5
B0
330
1F
100
AcDbEntity
  8
0
  6
SLD-Plná
 62
     7
370
    25
100
AcDbLine
 10
6165.4041386781
 20
5497.2572457042
 30
0.0
 11
6165.4041386781
 21
5522.2572457042
 31
0.0
  0
LINE
  5
B1
330
1F
100
AcDbEntity
  8
0
  6
SLD-Plná
 62
     7
370
    25
100
AcDbLine
 10
6165.4041386781
 20
5447.2572457042
 30
0.0
 11
6165.4041386781
 21
5472.2572457042
 31
0.0
  0
LINE
  5
B2
330
1F
100
AcDbEntity
  8
0
  6
SLD-Plná
 62
     7
370
    25
100
AcDbLine
 10
6166.9041386781
 20
5473.7572457042
 30
0.0
 11
6166.9041386781
 21
5445.7572457042
 31
0.0
  0
LINE
  5
B3
330
1F
100
AcDbEntity
  8
0
  6
SLD-Plná
 62
     7
370
    25
100
AcDbLine
 10
6167.4041386781
 20
5404.7572457042
 30
0.0
 11
6167.3041386781
 21
5404.7572457042
 31
0.0
  0
LINE
  5
B4
330
1F
100
AcDbEntity
  8
0
  6
SLD-Plná
 62
     7
370
    25
100
AcDbLine
 10
6167.3041386781
 20
5404.7572457042
 30
0.0
 11
6167.3041386781
 21
5108.7572457042
 31
0.0
  0
LWPOLYLINE
  5
B5
330
1F
100
AcDbEntity
  8
0
  6
SLD-Plná
 62
     7
370
    25
100
AcDbPolyline
 90
       17
 70
   128
 43
0.0
 10
6214.8344785656
 20
5579.836400958
 10
6215.6061242751
 20
5579.7018377111
 10
6216.4505950891
 20
5579.318634005
 10
6217.2393279812
 20
5578.7451291302
 10
6217.8522455186
 20
5578.068634005
 10
6218.1960365621
 20
5577.3921388798
 10
6218.2183620421
 20
5576.818634005
 10
6217.9158231064
 20
5576.4354302989
 10
6217.3344785656
 20
5576.3008670521
 10
6216.5628328561
 20
5576.4354302989
 10
6215.7183620421
 20
5576.818634005
 10
6214.92962915
 20
5577.3921388798
 10
6214.3167116126
 20
5578.068634005
 10
6213.972920569
 20
5578.7451291302
 10
6213.9505950891
 20
5579.318634005
 10
6214.2531340248
 20
5579.7018377111
 10
6214.8344785656
 20
5579.836400958
  0
LINE
  5
B6
330
1F
100
AcDbEntity
  8
0
  6
SLD-Plná
 62
     7
370
    25
100
AcDbLine
 10
6347.4041234362
 20
5108.7572457042
 30
0.0
 11
6300.653436017
 21
4709.7572457042
 31
0.0
  0
LINE
  5
B7
330
1F
100
AcDbEntity
  8
0
  6
SLD-Plná
 62
     7
370
    25
100
AcDbLine
 10
6115.8273583722
 20
4709.7572457042
 30
0.0
 11
6300.653436017
 21
4709.7572457042
 31
0.0
  0
LINE
  5
B8
330
1F
100
AcDbEntity
  8
0
  6
SLD-Plná
 62
     7
370
    25
100
AcDbLine
 10
5962.1877592224
 20
4709.7572457042
 30
0.0
 11
6115.8273583722
 21
4709.7572457042
 31
0.0
  0
LINE
  5
B9
330
1F
100
AcDbEntity
  8
0
  6
SLD-Plná
 62
     7
370
    25
100
AcDbLine
 10
6179.4669686803
 20
5108.7572457042
 30
0.0
 11
6347.4041234362
 21
5108.7572457042
 31
0.0
  0
LINE
  5
BA
330
1F
100
AcDbEntity
  8
0
  6
SLD-Plná
 62
     7
370
    25
100
AcDbLine
 10
6143.1519690495
 20
5108.7572457042
 30
0.0
 11
6179.4669686803
 21
5108.7572457042
 31
0.0
  0
LINE
  5
BB
330
1F
100
AcDbEntity
  8
0
  6
SLD-Plná
 62
     7
370
    25
100
AcDbLine
 10
6054.7177444112
 20
5108.7572457042
 30
0.0
 11
6143.1519690495
 21
5108.7572457042
 31
0.0
  0
LINE
  5
BC
330
1F
100
AcDbEntity
  8
0
  6
SLD-Plná
 62
     7
370
    25
100
AcDbLine
 10
5846.8220942387
 20
5108.7572457042
 30
0.0
 11
6054.7177444112
 21
5108.7572457042
 31
0.0
  0
LINE
  5
BD
330
1F
100
AcDbEntity
  8
0
  6
SLD-Plná
 62
     7
370
    25
100
AcDbLine
 10
6347.4041278885
 20
5108.7572457042
 30
0.0
 11
6345.8369862959
 21
5095.3822672726
 31
0.0
  0
LINE
  5
BE
330
1F
100
AcDbEntity
  8
0
  6
SLD-Plná
 62
     7
370
    25
100
AcDbLine
 10
6302.2205776095
 20
4723.1322241358
 30
0.0
 11
6300.653436017
 21
4709.7572457042
 31
0.0
  0
LINE
  5
BF
330
1F
100
AcDbEntity
  8
0
  6
SLD-Plná
 62
     7
370
    25
100
AcDbLine
 10
6347.4041234362
 20
5108.7572457042
 30
0.0
 11
6347.4041278885
 21
5108.7572457042
 31
0.0
  0
LINE
  5
C0
330
1F
100
AcDbEntity
  8
0
  6
SLD-Plná
 62
     8
370
    25
100
AcDbLine
 10
6182.4041386781
 20
5562.2572457042
 30
0.0
 11
6227.4041386781
 21
5562.2572457042
 31
0.0
  0
ARC
  5
C1
330
1F
100
AcDbEntity
  8
0
  6
SLD-Plná
 62
     7
370
    25
100
AcDbCircle
 10
6168.9894134034
 20
4129.8219825012
 30
0.0
 40
4.324969328315037
100
AcDbArc
 50
206.059831153
 51
241.4762140417
  0
ARC
  5
C2
330
1F
100
AcDbEntity
  8
0
  6
SLD-Plná
 62
     7
370
    25
100
AcDbCircle
 10
6168.9894134034
 20
4129.8219825012
 30
0.0
 40
4.324969328315037
100
AcDbArc
 50
118.5237859583
 51
153.940168847
  0
LINE
  5
C3
330
1F
100
AcDbEntity
  8
0
  6
SLD-Plná
 62
     7
370
    25
100
AcDbLine
 10
6166.9241386781
 20
4126.0219825012
 30
0.0
 11
6167.3041386781
 21
4126.0219825012
 31
0.0
  0
LINE
  5
C4
330
1F
100
AcDbEntity
  8
0
  6
SLD-Plná
 62
     7
370
    25
100
AcDbLine
 10
6167.3041386781
 20
4133.6219825012
 30
0.0
 11
6166.9241386781
 21
4133.6219825012
 31
0.0
  0
LINE
  5
C5
330
1F
100
AcDbEntity
  8
0
  6
SLD-Plná
 62
     7
370
    25
100
AcDbLine
 10
6166.9241386781
 20
4288.0219825012
 30
0.0
 11
6167.3041386781
 21
4288.0219825012
 31
0.0
  0
LINE
  5
C6
330
1F
100
AcDbEntity
  8
0
  6
SLD-Plná
 62
     7
370
    25
100
AcDbLine
 10
6167.3041386781
 20
4295.6219825012
 30
0.0
 11
6166.9241386781
 21
4295.6219825012
 31
0.0
  0
ARC
  5
C7
330
1F
100
AcDbEntity
  8
0
  6
SLD-Plná
 62
     7
370
    25
100
AcDbCircle
 10
6168.9894134034
 20
4291.8219825012
 30
0.0
 40
4.324969328314602
100
AcDbArc
 50
206.059831153
 51
241.4762140417
  0
ARC
  5
C8
330
1F
100
AcDbEntity
  8
0
  6
SLD-Plná
 62
     7
370
    25
100
AcDbCircle
 10
6168.9894134034
 20
4291.8219825012
 30
0.0
 40
4.324969328314602
100
AcDbArc
 50
118.5237859583
 51
153.940168847
  0
LINE
  5
C9
330
1F
100
AcDbEntity
  8
0
  6
SLD-Plná
 62
     7
370
    25
100
AcDbLine
 10
6166.9041386781
 20
4162.3219825012
 30
0.0
 11
6165.4041386781
 21
4160.8219825012
 31
0.0
  0
LINE
  5
CA
330
1F
100
AcDbEntity
  8
0
  6
SLD-Plná
 62
     7
370
    25
100
AcDbLine
 10
6165.4041386781
 20
4135.8219825012
 30
0.0
 11
6166.9041386781
 21
4134.3219825012
 31
0.0
  0
LINE
  5
CB
330
1F
100
AcDbEntity
  8
0
  6
SLD-Plná
 62
     7
370
    25
100
AcDbLine
 10
6167.4041386781
 20
4162.3219825012
 30
0.0
 11
6166.9041386781
 21
4162.3219825012
 31
0.0
  0
LINE
  5
CC
330
1F
100
AcDbEntity
  8
0
  6
SLD-Plná
 62
     7
370
    25
100
AcDbLine
 10
6166.9041386781
 20
4134.3219825012
 30
0.0
 11
6167.4041386781
 21
4134.3219825012
 31
0.0
  0
LINE
  5
CD
330
1F
100
AcDbEntity
  8
0
  6
SLD-Plná
 62
     7
370
    25
100
AcDbLine
 10
6527.4041386781
 20
4248.3219825012
 30
0.0
 11
6527.4041386781
 21
4328.3219825012
 31
0.0
  0
LINE
  5
CE
330
1F
100
AcDbEntity
  8
0
  6
SLD-Plná
 62
     7
370
    25
100
AcDbLine
 10
6167.4041386781
 20
4248.3219825012
 30
0.0
 11
6527.4041386781
 21
4248.3219825012
 31
0.0
  0
LINE
  5
CF
330
1F
100
AcDbEntity
  8
0
  6
SLD-Plná
 62
     7
370
    25
100
AcDbLine
 10
6167.4041386781
 20
4328.3219825012
 30
0.0
 11
6167.4041386781
 21
4248.3219825012
 31
0.0
  0
LINE
  5
D0
330
1F
100
AcDbEntity
  8
0
  6
SLD-Plná
 62
     7
370
    25
100
AcDbLine
 10
6527.4041386781
 20
4328.3219825012
 30
0.0
 11
6167.4041386781
 21
4328.3219825012
 31
0.0
  0
ARC
  5
D1
330
1F
100
AcDbEntity
  8
0
  6
SLD-Plná
 62
     7
370
    25
100
AcDbCircle
 10
6347.4041386781
 20
4068.3219825012
 30
0.0
 40
180.0
100
AcDbArc
 50
180.0
 51
0.0
  0
CIRCLE
  5
D2
330
1F
100
AcDbEntity
  8
0
  6
SLD-Plná
 62
     7
370
    25
100
AcDbCircle
 10
6347.4041386781
 20
4068.3219825012
 30
0.0
 40
156.5
  0
LINE
  5
D3
330
1F
100
AcDbEntity
  8
0
  6
SLD-Plná
 62
     7
370
    25
100
AcDbLine
 10
6167.4041386781
 20
4248.3219825012
 30
0.0
 11
6167.4041386781
 21
4068.3219825012
 31
0.0
  0
LINE
  5
D4
330
1F
100
AcDbEntity
  8
0
  6
SLD-Plná
 62
     7
370
    25
100
AcDbLine
 10
6527.4041386781
 20
4068.3219825012
 30
0.0
 11
6527.4041386781
 21
4248.3219825012
 31
0.0
  0
SPLINE
  5
D5
330
1F
100
AcDbEntity
  8
0
  6
SLD-Plná
 62
     7
370
    25
100
AcDbSpline
210
0.0
220
0.0
230
1.0
 70
    11
 71
     3
 72
    26
 73
    22
 74
     0
 42
0.00000001
 43
0.00000001
 40
0.0
 40
0.0
 40
0.0
 40
0.0
 40
0.0533991136302388
 40
0.1068025368232532
 40
0.1601205639837948
 40
0.2134760584794185
 40
0.2670143704306985
 40
0.3208012840636589
 40
0.3747943751533749
 40
0.4288603372095333
 40
0.482833002204303
 40
0.5365875882915045
 40
0.590096380305843
 40
0.6434395269445384
 40
0.6967680029604946
 40
0.7502379262423873
 40
0.80394456322645
 40
0.8578815636640341
 40
0.9119418291023691
 40
0.965962265299339
 40
0.9999999999999999
 40
0.9999999999999999
 40
0.9999999999999999
 40
0.9999999999999999
 10
6344.910291625486
 20
4087.271295935332
 30
0.0
 10
6345.357124448461
 20
4087.509544538456
 30
0.0
 10
6346.250826155949
 20
4087.986060972501
 30
0.0
 10
6347.796312166378
 20
4088.089501546192
 30
0.0
 10
6349.276749929442
 20
4087.712002431573
 30
0.0
 10
6350.552702235394
 20
4086.858947903876
 30
0.0
 10
6351.476547493686
 20
4085.633891111194
 30
0.0
 10
6351.945357455123
 20
4084.167790761384
 30
0.0
 10
6351.901701788379
 20
4082.624828857186
 30
0.0
 10
6351.346889712942
 20
4081.181240076347
 30
0.0
 10
6350.343552925134
 20
4080.004327582854
 30
0.0
 10
6349.008709722276
 20
4079.229043956716
 30
0.0
 10
6347.496835501721
 20
4078.940698462137
 30
0.0
 10
6345.978690968235
 20
4079.167341389676
 30
0.0
 10
6344.621851489674
 20
4079.880756149772
 30
0.0
 10
6343.575082146865
 20
4081.002314672206
 30
0.0
 10
6342.955930414453
 20
4082.409311987999
 30
0.0
 10
6342.83619176471
 20
4083.948397970507
 30
0.0
 10
6343.238405701732
 20
4085.436425973486
 30
0.0
 10
6343.995440399927
 20
4086.574511636718
 30
0.0
 10
6344.655250613639
 20
4087.077047332288
 30
0.0
 10
6344.910291625486
 20
4087.271295935332
 30
0.0
  0
SPLINE
  5
D6
330
1F
100
AcDbEntity
  8
0
  6
SLD-Plná
 62
     7
370
    25
100
AcDbSpline
210
0.0
220
0.0
230
1.0
 70
    11
 71
     3
 72
    26
 73
    22
 74
     0
 42
0.00000001
 43
0.00000001
 40
0.0
 40
0.0
 40
0.0
 40
0.0
 40
0.053462701468918
 40
0.1069194299512086
 40
0.1605334789547993
 40
0.2143928937092046
 40
0.2684234628092309
 40
0.3224752598477972
 40
0.376388444135674
 40
0.4300649062519222
 40
0.4835115777916977
 40
0.5368355486569287
 40
0.5901957650058294
 40
0.6437346945349082
 40
0.6975182073985459
 40
0.7515067439350936
 40
0.8055702747356953
 40
0.8595437931486067
 40
0.9133010604831872
 40
0.9668121046085106
 40
1.0
 40
1.0
 40
1.0
 40
1.0
 10
6334.301498460733
 20
4082.876437709423
 30
0.0
 10
6334.749104990943
 20
4083.115249299763
 30
0.0
 10
6335.644268043645
 20
4083.592845799815
 30
0.0
 10
6337.190379783342
 20
4083.696022768601
 30
0.0
 10
6338.673681767144
 20
4083.317782127406
 30
0.0
 10
6339.95488242261
 20
4082.458817477884
 30
0.0
 10
6340.880366694416
 20
4081.222728206589
 30
0.0
 10
6341.34321845272
 20
4079.746629809625
 30
0.0
 10
6341.288874684059
 20
4078.201740117451
 30
0.0
 10
6340.726046536165
 20
4076.765775838051
 30
0.0
 10
6339.722612441128
 20
4075.600577274538
 30
0.0
 10
6338.393960664489
 20
4074.833671846412
 30
0.0
 10
6336.887848275423
 20
4074.54760296259
 30
0.0
 10
6335.369694889101
 20
4074.774265769212
 30
0.0
 10
6334.008041970316
 20
4075.49156535514
 30
0.0
 10
6332.957868136661
 20
4076.622919036848
 30
0.0
 10
6332.342239057642
 20
4078.041068528143
 30
0.0
 10
6332.232399929689
 20
4079.585162045293
 30
0.0
 10
6332.644191579011
 20
4081.068382920254
 30
0.0
 10
6333.401234023861
 20
4082.192037805996
 30
0.0
 10
6334.052281088547
 20
4082.686977437007
 30
0.0
 10
6334.301498460733
 20
4082.876437709423
 30
0.0
  0
SPLINE
  5
D7
330
1F
100
AcDbEntity
  8
0
  6
SLD-Plná
 62
     7
370
    25
100
AcDbSpline
210
0.0
220
0.0
230
1.0
 70
    11
 71
     3
 72
    26
 73
    22
 74
     0
 42
0.00000001
 43
0.00000001
 40
0.0
 40
0.0
 40
0.0
 40
0.0
 40
0.0538573038561359
 40
0.1077083385265809
 40
0.1617004997508536
 40
0.2157561855638947
 40
0.269713869561903
 40
0.3234556183358358
 40
0.3769595375945545
 40
0.4303079922275108
 40
0.4836497536517217
 40
0.5371353943596789
 40
0.5908536174185213
 40
0.6447931867137663
 40
0.6988459377084025
 40
0.7528521820721218
 40
0.8066713751131189
 40
0.8602459726461025
 40
0.913627209317367
 40
0.966950987366993
 40
1.0
 40
1.0
 40
1.0
 40
1.0
 10
6329.216192538408
 20
4071.701538432761
 30
0.0
 10
6329.609772174988
 20
4072.025649485872
 30
0.0
 10
6330.396885634052
 20
4072.673833864391
 30
0.0
 10
6331.900346808368
 20
4073.079367161882
 30
0.0
 10
6333.436398209114
 20
4072.995659109275
 30
0.0
 10
6334.864321671004
 20
4072.396884572845
 30
0.0
 10
6336.010479725509
 20
4071.35977388257
 30
0.0
 10
6336.746032279159
 20
4070.002792320331
 30
0.0
 10
6336.989697381859
 20
4068.483307037261
 30
0.0
 10
6336.718531442349
 20
4066.972497780306
 30
0.0
 10
6335.965394312039
 20
4065.637081198253
 30
0.0
 10
6334.813366616749
 20
4064.623700050295
 30
0.0
 10
6333.388058181843
 20
4064.04608300479
 30
0.0
 10
6331.847418877742
 20
4063.972703452691
 30
0.0
 10
6330.366540448816
 20
4064.415916107851
 30
0.0
 10
6329.11649960707
 20
4065.326924294977
 30
0.0
 10
6328.241801059091
 20
4066.599412807732
 30
0.0
 10
6327.838465025045
 20
4068.087554334176
 30
0.0
 10
6327.953842967986
 20
4069.614922007045
 30
0.0
 10
6328.473297344141
 20
4070.857746485128
 30
0.0
 10
6329.010602336462
 20
4071.468025875065
 30
0.0
 10
6329.216192538408
 20
4071.701538432761
 30
0.0
  0
SPLINE
  5
D8
330
1F
100
AcDbEntity
  8
0
  6
SLD-Plná
 62
     7
370
    25
100
AcDbSpline
210
0.0
220
0.0
230
1.0
 70
    11
 71
     3
 72
    26
 73
    22
 74
     0
 42
0.00000001
 43
0.00000001
 40
0.0
 40
0.0
 40
0.0
 40
0.0
 40
0.0539982024503051
 40
0.108000041893428
 40
0.1618946212863477
 40
0.2155592989399141
 40
0.269005970854119
 40
0.3223415150766506
 40
0.3757197274583094
 40
0.4292752703891355
 40
0.4830667690818381
 40
0.5370510040297712
 40
0.5910995960916231
 40
0.6450539996668458
 40
0.6987964229978648
 40
0.7523034152273819
 40
0.805655869522235
 40
0.8590018114651954
 40
0.9124910558144519
 40
0.9662107591823423
 40
1.0
 40
1.0
 40
1.0
 40
1.0
 10
6333.587165512407
 20
4061.072267005817
 30
0.0
 10
6333.978716391198
 20
4061.399425608748
 30
0.0
 10
6334.761844521284
 20
4062.053764850039
 30
0.0
 10
6336.265832194578
 20
4062.470055907405
 30
0.0
 10
6337.803325568529
 20
4062.394848973292
 30
0.0
 10
6339.230695586876
 20
4061.806277587807
 30
0.0
 10
6340.37819103126
 20
4060.783678780151
 30
0.0
 10
6341.122579895337
 20
4059.442003162951
 30
0.0
 10
6341.382977829507
 20
4057.930983808013
 30
0.0
 10
6341.13033484367
 20
4056.416586622837
 30
0.0
 10
6340.389593189248
 20
4055.067223037217
 30
0.0
 10
6339.240386537901
 20
4054.036705128248
 30
0.0
 10
6337.811628101368
 20
4053.445428091593
 30
0.0
 10
6336.267642340493
 20
4053.362856639193
 30
0.0
 10
6334.786653214996
 20
4053.796963178731
 30
0.0
 10
6333.536582818356
 20
4054.694751345889
 30
0.0
 10
6332.65581202762
 20
4055.951385664021
 30
0.0
 10
6332.237778109572
 20
4057.428028084761
 30
0.0
 10
6332.334348379064
 20
4058.955050987339
 30
0.0
 10
6332.841567174539
 20
4060.211122187633
 30
0.0
 10
6333.37946906756
 20
4060.832383534851
 30
0.0
 10
6333.587165512407
 20
4061.072267005817
 30
0.0
  0
SPLINE
  5
D9
330
1F
100
AcDbEntity
  8
0
  6
SLD-Plná
 62
     7
370
    25
100
AcDbSpline
210
0.0
220
0.0
230
1.0
 70
    11
 71
     3
 72
    26
 73
    22
 74
     0
 42
0.00000001
 43
0.00000001
 40
0.0
 40
0.0
 40
0.0
 40
0.0
 40
0.0534200676889445
 40
0.1068442726853325
 40
0.1601857701718716
 40
0.2135575932946048
 40
0.2670970638822969
 40
0.3208696022512474
 40
0.3748401380355483
 40
0.4288863279522183
 40
0.4828507394791148
 40
0.5366110880046402
 40
0.5901358466280855
 40
0.6434979919337055
 40
0.6968413025577709
 40
0.7503167227020624
 40
0.8040173351466244
 40
0.8579383235623637
 40
0.9119782383063408
 40
0.9659826069950721
 40
1.0
 40
1.0
 40
1.0
 40
1.0
 10
6344.872327232894
 20
4057.24574049504
 30
0.0
 10
6345.316852366785
 20
4057.488578195366
 30
0.0
 10
6346.205937062397
 20
4057.974272403452
 30
0.0
 10
6347.750729484176
 20
4058.093235371246
 30
0.0
 10
6349.235286318901
 20
4057.730365971032
 30
0.0
 10
6350.519914986036
 20
4056.889667687909
 30
0.0
 10
6351.455786326141
 20
4055.673523995961
 30
0.0
 10
6351.938826180255
 20
4054.212167401774
 30
0.0
 10
6351.910308766423
 20
4052.669206742284
 30
0.0
 10
6351.369969209708
 20
4051.220590110983
 30
0.0
 10
6350.37863504109
 20
4050.033938960223
 30
0.0
 10
6349.051690149561
 20
4049.245329990076
 30
0.0
 10
6347.542608066529
 20
4048.94181942857
 30
0.0
 10
6346.021971878459
 20
4049.153380268999
 30
0.0
 10
6344.657868617429
 20
4049.853501439795
 30
0.0
 10
6343.600001998989
 20
4050.964876265227
 30
0.0
 10
6342.967102347234
 20
4052.365750823595
 30
0.0
 10
6342.83228528228
 20
4053.903384085875
 30
0.0
 10
6343.219688906584
 20
4055.394979315595
 30
0.0
 10
6343.965062776367
 20
4056.540104314395
 30
0.0
 10
6344.619434858695
 20
4057.049050315279
 30
0.0
 10
6344.872327232894
 20
4057.24574049504
 30
0.0
  0
SPLINE
  5
DA
330
1F
100
AcDbEntity
  8
0
  6
SLD-Plná
 62
     7
370
    25
100
AcDbSpline
210
0.0
220
0.0
230
1.0
 70
    11
 71
     3
 72
    26
 73
    22
 74
     0
 42
0.00000001
 43
0.00000001
 40
0.0
 40
0.0
 40
0.0
 40
0.0
 40
0.0536886945033726
 40
0.1073773901323472
 40
0.1610660607160364
 40
0.2147547207154922
 40
0.2684433994475976
 40
0.3221321180185207
 40
0.3758208800731722
 40
0.4295096701986343
 40
0.483198460680507
 40
0.5368872236497536
 40
0.590575943295874
 40
0.6442646227944746
 40
0.697953282914567
 40
0.7516419529169197
 40
0.8053306577318223
 40
0.8590194070342676
 40
0.9127081910033421
 40
0.9663969846247947
 40
1.0
 40
1.0
 40
1.0
 40
1.0
 10
6344.222871958124
 20
4071.708228897864
 30
0.0
 10
6344.615933128516
 20
4072.030767157175
 30
0.0
 10
6345.402055477542
 20
4072.67584368256
 30
0.0
 10
6346.903062295002
 20
4073.079396443341
 30
0.0
 10
6348.434810492652
 20
4072.995298592072
 30
0.0
 10
6349.857257966405
 20
4072.400366522084
 30
0.0
 10
6351.001286498224
 20
4071.370426890255
 30
0.0
 10
6351.740260114129
 20
4070.019251590879
 30
0.0
 10
6351.990236595766
 20
4068.499803112883
 30
0.0
 10
6351.723200455178
 20
4066.983219419599
 30
0.0
 10
6350.969212637276
 20
4065.640529422862
 30
0.0
 10
6349.813291376337
 20
4064.623100585979
 30
0.0
 10
6348.385757864693
 20
4064.04564090942
 30
0.0
 10
6346.847548521784
 20
4063.973263173321
 30
0.0
 10
6345.372116039565
 20
4064.414089271348
 30
0.0
 10
6344.125684962506
 20
4065.318559614849
 30
0.0
 10
6343.249222822831
 20
4066.584178517735
 30
0.0
 10
6342.83989302024
 20
4068.070213828831
 30
0.0
 10
6342.95000773428
 20
4069.601826653873
 30
0.0
 10
6343.470060954439
 20
4070.855035548313
 30
0.0
 10
6344.013626278146
 20
4071.471081696634
 30
0.0
 10
6344.222871958124
 20
4071.708228897864
 30
0.0
  0
SPLINE
  5
DB
330
1F
100
AcDbEntity
  8
0
  6
SLD-Plná
 62
     7
370
    25
100
AcDbSpline
210
0.0
220
0.0
230
1.0
 70
    11
 71
     3
 72
    26
 73
    22
 74
     0
 42
0.00000001
 43
0.00000001
 40
0.0
 40
0.0
 40
0.0
 40
0.0
 40
0.0539989987907638
 40
0.1080021876756991
 40
0.1618845176415422
 40
0.2155225577051517
 40
0.2689392587210576
 40
0.3222551117323068
 40
0.3756336526605241
 40
0.429210240883829
 40
0.4830341188363911
 40
0.5370467397905206
 40
0.5911061439764149
 40
0.6450490871092148
 40
0.6987641167925294
 40
0.7522410788864411
 40
0.8055739464764983
 40
0.8589179755041092
 40
0.9124225827557033
 40
0.9661682632420755
 40
1.0
 40
1.0
 40
1.0
 40
1.0
 10
6354.856147379762
 20
4082.341270756804
 30
0.0
 10
6355.253352067934
 20
4082.661504350724
 30
0.0
 10
6356.047792265684
 20
4083.301996387338
 30
0.0
 10
6357.558884861302
 20
4083.691889651359
 30
0.0
 10
6359.094733107057
 20
4083.589727569
 30
0.0
 10
6360.511238424922
 20
4082.976435660931
 30
0.0
 10
6361.640371716043
 20
4081.934451025105
 30
0.0
 10
6362.36128216046
 20
4080.580613143231
 30
0.0
 10
6362.59571328553
 20
4079.065582614387
 30
0.0
 10
6362.317134047027
 20
4077.555558931546
 30
0.0
 10
6361.55301588859
 20
4076.218703961245
 30
0.0
 10
6360.385636780904
 20
4075.207893884024
 30
0.0
 10
6358.946374272739
 20
4074.641540408571
 30
0.0
 10
6357.401145995382
 20
4074.586062570527
 30
0.0
 10
6355.928307790453
 20
4075.04591445409
 30
0.0
 10
6354.694465229929
 20
4075.964978880257
 30
0.0
 10
6353.835780303317
 20
4077.236232947533
 30
0.0
 10
6353.443224166765
 20
4078.719631181285
 30
0.0
 10
6353.566006453722
 20
4080.244887728153
 30
0.0
 10
6354.095006274945
 20
4081.492583545366
 30
0.0
 10
6354.64404866525
 20
4082.104776543801
 30
0.0
 10
6354.856147379762
 20
4082.341270756804
 30
0.0
  0
SPLINE
  5
DC
330
1F
100
AcDbEntity
  8
0
  6
SLD-Plná
 62
     7
370
    25
100
AcDbSpline
210
0.0
220
0.0
230
1.0
 70
    11
 71
     3
 72
    26
 73
    22
 74
     0
 42
0.00000001
 43
0.00000001
 40
0.0
 40
0.0
 40
0.0
 40
0.0
 40
0.0537486043672618
 40
0.10749012946499
 40
0.1613990620802042
 40
0.2154438149793702
 40
0.2694684137407653
 40
0.3233243136411514
 40
0.3769376034441667
 40
0.4303423816942217
 40
0.4836643688423389
 40
0.5370644037688894
 40
0.5906685853199771
 40
0.6445142731967091
 40
0.6985334351093627
 40
0.7525812469071216
 40
0.806499691279612
 40
0.8601883313683784
 40
0.9136487307835658
 40
0.9669820486910897
 40
0.9999999999999999
 40
0.9999999999999999
 40
0.9999999999999999
 40
0.9999999999999999
 10
6358.684200614088
 20
4071.057739478289
 30
0.0
 10
6359.010649473839
 20
4071.44854177137
 30
0.0
 10
6359.663504196516
 20
4072.230094884665
 30
0.0
 10
6361.063758548082
 20
4072.906435403551
 30
0.0
 10
6362.586685751847
 20
4073.109472185419
 30
0.0
 10
6364.100150123571
 20
4072.78735766933
 30
0.0
 10
6365.419859860139
 20
4071.981749928726
 30
0.0
 10
6366.396134377604
 20
4070.784004701577
 30
0.0
 10
6366.918301914448
 20
4069.334079141935
 30
0.0
 10
6366.931505885354
 20
4067.797507467176
 30
0.0
 10
6366.438070994206
 20
4066.345471202617
 30
0.0
 10
6365.493912279383
 20
4065.137290202342
 30
0.0
 10
6364.201932243915
 20
4064.306633139611
 30
0.0
 10
6362.703754362439
 20
4063.948805080812
 30
0.0
 10
6361.167571075173
 20
4064.108415311187
 30
0.0
 10
6359.769676925413
 20
4064.770518005212
 30
0.0
 10
6358.672414990458
 20
4065.858825534006
 30
0.0
 10
6357.998728083335
 20
4067.248033158375
 30
0.0
 10
6357.828918600132
 20
4068.772287216901
 30
0.0
 10
6358.109859563163
 20
4070.090933801196
 30
0.0
 10
6358.525335834954
 20
4070.790317586524
 30
0.0
 10
6358.684200614088
 20
4071.057739478289
 30
0.0
  0
SPLINE
  5
DD
330
1F
100
AcDbEntity
  8
0
  6
SLD-Plná
 62
     7
370
    25
100
AcDbSpline
210
0.0
220
0.0
230
1.0
 70
    11
 71
     3
 72
    26
 73
    22
 74
     0
 42
0.00000001
 43
0.00000001
 40
0.0
 40
0.0
 40
0.0
 40
0.0
 40
0.0534843940057698
 40
0.1069629256877392
 40
0.1605948439749493
 40
0.2144599147826245
 40
0.2684826575147939
 40
0.3225172352187053
 40
0.376410873940827
 40
0.4300728108561157
 40
0.4835154736012352
 40
0.5368479946805146
 40
0.5902267863117155
 40
0.6437872181151002
 40
0.6975855896383268
 40
0.7515745366672997
 40
0.8056226248179792
 40
0.8595717152845788
 40
0.9133076256293164
 40
0.9668109454037667
 40
1.0
 40
1.0
 40
1.0
 40
1.0
 10
6355.528927901453
 20
4061.672678724405
 30
0.0
 10
6355.97756724913
 20
4061.909843447524
 30
0.0
 10
6356.874796769966
 20
4062.384146898585
 30
0.0
 10
6358.421742511735
 20
4062.481269313279
 30
0.0
 10
6359.903894418684
 20
4062.096957762234
 30
0.0
 10
6361.181759646813
 20
4061.232600507364
 30
0.0
 10
6362.10212133704
 20
4059.992700307429
 30
0.0
 10
6362.558842248408
 20
4058.514942435664
 30
0.0
 10
6362.498288829939
 20
4056.970652569321
 30
0.0
 10
6361.929939456056
 20
4055.537253907404
 30
0.0
 10
6360.92214990616
 20
4054.376115965605
 30
0.0
 10
6359.590558752328
 20
4053.614320208471
 30
0.0
 10
6358.083117055266
 20
4053.334040296766
 30
0.0
 10
6356.56549078497
 20
4053.566752409359
 30
0.0
 10
6355.206425380135
 20
4054.289721293842
 30
0.0
 10
6354.160795915549
 20
4055.425507404882
 30
0.0
 10
6353.551060844969
 20
4056.846065617473
 30
0.0
 10
6353.447508405739
 20
4058.390217941705
 30
0.0
 10
6353.865036247743
 20
4059.871381534707
 30
0.0
 10
6354.626214130068
 20
4060.991816279484
 30
0.0
 10
6355.279012490022
 20
4061.48418263246
 30
0.0
 10
6355.528927901453
 20
4061.672678724405
 30
0.0
  0
CIRCLE
  5
DE
330
1F
100
AcDbEntity
  8
0
  6
SLD-Plná
 62
     7
370
    25
100
AcDbCircle
 10
6347.4041386781
 20
4288.3219825012
 30
0.0
 40
12.5
  0
LINE
  5
DF
330
1F
100
AcDbEntity
  8
0
  6
SLD-Plná
 62
     7
370
    25
100
AcDbLine
 10
6352.7369353463
 20
4280.5908058185
 30
0.0
 11
6353.6995455864
 21
4285.5107228827
 31
0.0
  0
ARC
  5
E0
330
1F
100
AcDbEntity
  8
0
  6
SLD-Plná
 62
     7
370
    25
100
AcDbCircle
 10
6353.5991719603
 20
4288.8296982033
 30
0.0
 40
3.320492741054295
100
AcDbArc
 50
271.7322312681
 51
0.0
  0
LINE
  5
E1
330
1F
100
AcDbEntity
  8
0
  6
SLD-Plná
 62
     7
370
    25
100
AcDbLine
 10
6356.9196647014
 20
4288.8296982033
 30
0.0
 11
6356.9196647014
 21
4290.5726495958
 31
0.0
  0
LINE
  5
E2
330
1F
100
AcDbEntity
  8
0
  6
SLD-Plná
 62
     7
370
    25
100
AcDbLine
 10
6356.9196647014
 20
4290.5726495958
 30
0.0
 11
6346.2203368754
 21
4290.5726495958
 31
0.0
  0
ARC
  5
E3
330
1F
100
AcDbEntity
  8
0
  6
SLD-Plná
 62
     7
370
    25
100
AcDbCircle
 10
6346.2203368754
 20
4290.8726495958
 30
0.0
 40
0.3000000000001819
100
AcDbArc
 50
180.0
 51
270.0
  0
LINE
  5
E4
330
1F
100
AcDbEntity
  8
0
  6
SLD-Plná
 62
     7
370
    25
100
AcDbLine
 10
6345.9203368754
 20
4290.8726495958
 30
0.0
 11
6345.9203368754
 21
4295.3519530179
 31
0.0
  0
ARC
  5
E5
330
1F
100
AcDbEntity
  8
0
  6
SLD-Plná
 62
     7
370
    25
100
AcDbCircle
 10
6344.6203368754
 20
4295.3519530179
 30
0.0
 40
1.300000000000182
100
AcDbArc
 50
0.0
 51
90.0
  0
LINE
  5
E6
330
1F
100
AcDbEntity
  8
0
  6
SLD-Plná
 62
     7
370
    25
100
AcDbLine
 10
6344.6203368754
 20
4296.6519530179
 30
0.0
 11
6341.8851064878
 21
4296.6519530179
 31
0.0
  0
ARC
  5
E7
330
1F
100
AcDbEntity
  8
0
  6
SLD-Plná
 62
     7
370
    25
100
AcDbCircle
 10
6341.8851064878
 20
4295.3519530179
 30
0.0
 40
1.300000000000182
100
AcDbArc
 50
90.0
 51
180.0
  0
LINE
  5
E8
330
1F
100
AcDbEntity
  8
0
  6
SLD-Plná
 62
     7
370
    25
100
AcDbLine
 10
6340.5851064878
 20
4295.3519530179
 30
0.0
 11
6340.5851064878
 21
4280.5908058185
 31
0.0
  0
LINE
  5
E9
330
1F
100
AcDbEntity
  8
0
  6
SLD-Plná
 62
     7
370
    25
100
AcDbLine
 10
6340.5851064878
 20
4280.5908058185
 30
0.0
 11
6352.7369353463
 21
4280.5908058185
 31
0.0
  0
CIRCLE
  5
EA
330
1F
100
AcDbEntity
  8
0
  6
SLD-Plná
 62
     7
370
    25
100
AcDbCircle
 10
6347.4041386781
 20
4288.3219825012
 30
0.0
 40
14.0
  0
ARC
  5
EB
330
1F
100
AcDbEntity
  8
0
  6
SLD-Plná
 62
     7
370
    25
100
AcDbCircle
 10
6346.2203368754
 20
4290.8726495958
 30
0.0
 40
0.7999999999992724
100
AcDbArc
 50
180.0
 51
270.0
  0
LINE
  5
EC
330
1F
100
AcDbEntity
  8
0
  6
SLD-Plná
 62
     7
370
    25
100
AcDbLine
 10
6356.4196647014
 20
4290.0726495958
 30
0.0
 11
6346.2203368754
 21
4290.0726495958
 31
0.0
  0
LINE
  5
ED
330
1F
100
AcDbEntity
  8
0
  6
SLD-Plná
 62
     7
370
    25
100
AcDbLine
 10
6356.4196647014
 20
4288.8296982033
 30
0.0
 11
6356.4196647014
 21
4290.0726495958
 31
0.0
  0
ARC
  5
EE
330
1F
100
AcDbEntity
  8
0
  6
SLD-Plná
 62
     7
370
    25
100
AcDbCircle
 10
6353.5991719603
 20
4288.8296982033
 30
0.0
 40
2.820492741054295
100
AcDbArc
 50
263.7252404237
 51
0.0
  0
LINE
  5
EF
330
1F
100
AcDbEntity
  8
0
  6
SLD-Plná
 62
     7
370
    25
100
AcDbLine
 10
6352.325282821
 20
4281.0908058185
 30
0.0
 11
6353.2909021663
 21
4286.0261024699
 31
0.0
  0
LINE
  5
F0
330
1F
100
AcDbEntity
  8
0
  6
SLD-Plná
 62
     7
370
    25
100
AcDbLine
 10
6341.0851064878
 20
4281.0908058185
 30
0.0
 11
6352.325282821
 21
4281.0908058185
 31
0.0
  0
LINE
  5
F1
330
1F
100
AcDbEntity
  8
0
  6
SLD-Plná
 62
     7
370
    25
100
AcDbLine
 10
6345.4203368754
 20
4290.8726495958
 30
0.0
 11
6345.4203368754
 21
4295.3519530179
 31
0.0
  0
ARC
  5
F2
330
1F
100
AcDbEntity
  8
0
  6
SLD-Plná
 62
     7
370
    25
100
AcDbCircle
 10
6344.6203368754
 20
4295.3519530179
 30
0.0
 40
0.8000000000010914
100
AcDbArc
 50
0.0
 51
90.0
  0
LINE
  5
F3
330
1F
100
AcDbEntity
  8
0
  6
SLD-Plná
 62
     7
370
    25
100
AcDbLine
 10
6344.6203368754
 20
4296.1519530179
 30
0.0
 11
6341.8851064878
 21
4296.1519530179
 31
0.0
  0
ARC
  5
F4
330
1F
100
AcDbEntity
  8
0
  6
SLD-Plná
 62
     7
370
    25
100
AcDbCircle
 10
6341.8851064878
 20
4295.3519530179
 30
0.0
 40
0.8000000000001819
100
AcDbArc
 50
90.0
 51
180.0
  0
LINE
  5
F5
330
1F
100
AcDbEntity
  8
0
  6
SLD-Plná
 62
     7
370
    25
100
AcDbLine
 10
6341.0851064878
 20
4295.3519530179
 30
0.0
 11
6341.0851064878
 21
4281.0908058185
 31
0.0
  0
LINE
  5
F6
330
1F
100
AcDbEntity
  8
0
  6
SLD-Plná
 62
     7
370
    25
100
AcDbLine
 10
6165.1041386781
 20
4129.7721637361
 30
0.0
 11
6165.1041386781
 21
4131.7219825012
 31
0.0
  0
LINE
  5
F7
330
1F
100
AcDbEntity
  8
0
  6
SLD-Plná
 62
     7
370
    25
100
AcDbLine
 10
6165.1041386781
 20
4127.9219825012
 30
0.0
 11
6165.1041386781
 21
4129.7721637361
 31
0.0
  0
LINE
  5
F8
330
1F
100
AcDbEntity
  8
0
  6
SLD-Plná
 62
     7
370
    25
100
AcDbLine
 10
6166.9241386781
 20
4129.7223449711
 30
0.0
 11
6166.9241386781
 21
4133.6219825012
 31
0.0
  0
LINE
  5
F9
330
1F
100
AcDbEntity
  8
0
  6
SLD-Plná
 62
     7
370
    25
100
AcDbLine
 10
6166.9241386781
 20
4126.0219825012
 30
0.0
 11
6166.9241386781
 21
4129.7223449711
 31
0.0
  0
LINE
  5
FA
330
1F
100
AcDbEntity
  8
0
  6
SLD-Plná
 62
     7
370
    25
100
AcDbLine
 10
6166.9241386781
 20
4291.7223449711
 30
0.0
 11
6166.9241386781
 21
4295.6219825012
 31
0.0
  0
LINE
  5
FB
330
1F
100
AcDbEntity
  8
0
  6
SLD-Plná
 62
     7
370
    25
100
AcDbLine
 10
6166.9241386781
 20
4288.0219825012
 30
0.0
 11
6166.9241386781
 21
4291.7223449711
 31
0.0
  0
LINE
  5
FC
330
1F
100
AcDbEntity
  8
0
  6
SLD-Plná
 62
     7
370
    25
100
AcDbLine
 10
6165.1041386781
 20
4291.7721637361
 30
0.0
 11
6165.1041386781
 21
4293.7219825012
 31
0.0
  0
LINE
  5
FD
330
1F
100
AcDbEntity
  8
0
  6
SLD-Plná
 62
     7
370
    25
100
AcDbLine
 10
6165.1041386781
 20
4289.9219825012
 30
0.0
 11
6165.1041386781
 21
4291.7721637361
 31
0.0
  0
LINE
  5
FE
330
1F
100
AcDbEntity
  8
0
  6
SLD-Plná
 62
     7
370
    25
100
AcDbLine
 10
6165.4041386781
 20
4135.8219825012
 30
0.0
 11
6165.4041386781
 21
4160.8219825012
 31
0.0
  0
LINE
  5
FF
330
1F
100
AcDbEntity
  8
0
  6
SLD-Plná
 62
     7
370
    25
100
AcDbLine
 10
6166.9041386781
 20
4162.3219825012
 30
0.0
 11
6166.9041386781
 21
4134.3219825012
 31
0.0
  0
LINE
  5
100
330
1F
100
AcDbEntity
  8
0
  6
SLD-Plná
 62
     7
370
    25
100
AcDbLine
 10
6167.4041386781
 20
4298.3219825012
 30
0.0
 11
6167.3041386781
 21
4298.3219825012
 31
0.0
  0
LINE
  5
101
330
1F
100
AcDbEntity
  8
0
  6
SLD-Plná
 62
     7
370
    25
100
AcDbLine
 10
6167.4041386781
 20
4123.3219825012
 30
0.0
 11
6167.3041386781
 21
4123.3219825012
 31
0.0
  0
LINE
  5
102
330
1F
100
AcDbEntity
  8
0
  6
SLD-Plná
 62
     7
370
    25
100
AcDbLine
 10
6167.3041386781
 20
4298.3219825012
 30
0.0
 11
6167.3041386781
 21
4162.3219825012
 31
0.0
  0
LINE
  5
103
330
1F
100
AcDbEntity
  8
0
  6
SLD-Plná
 62
     7
370
    25
100
AcDbLine
 10
6167.3041386781
 20
4134.3219825012
 30
0.0
 11
6167.3041386781
 21
4123.3219825012
 31
0.0
  0
CIRCLE
  5
104
330
1F
100
AcDbEntity
  8
0
  6
SLD-Plná
 62
     7
370
    25
100
AcDbCircle
 10
6204.9041386781
 20
4210.8219825012
 30
0.0
 40
22.49999999999994
  0
LWPOLYLINE
  5
105
330
1F
100
AcDbEntity
  8
0
  6
SLD-Plná
 62
     7
370
    25
100
AcDbPolyline
 90
       17
 70
   128
 43
0.0
 10
6214.8344785656
 20
4200.8916426137
 10
6215.6061242751
 20
4201.4729871545
 10
6216.4505950891
 20
4201.7755260901
 10
6217.2393279812
 20
4201.7532006102
 10
6217.8522455186
 20
4201.4094095666
 10
6218.1960365621
 20
4200.7964920293
 10
6218.2183620421
 20
4200.0077591372
 10
6217.9158231064
 20
4199.1632883232
 10
6217.3344785656
 20
4198.3916426137
 10
6216.5628328561
 20
4197.8102980728
 10
6215.7183620421
 20
4197.5077591372
 10
6214.92962915
 20
4197.5300846171
 10
6214.3167116126
 20
4197.8738756607
 10
6213.972920569
 20
4198.486793198
 10
6213.9505950891
 20
4199.2755260901
 10
6214.2531340248
 20
4200.1199969041
 10
6214.8344785656
 20
4200.8916426137
  0
LINE
  5
106
330
1F
100
AcDbEntity
  8
0
  6
SLD-Plná
 62
     7
370
    25
100
AcDbLine
 10
6347.4041234362
 20
3813.7635260321
 30
0.0
 11
6347.4041278885
 21
3888.1219758577
 31
0.0
  0
LINE
  5
107
330
1F
100
AcDbEntity
  8
0
  6
SLD-Plná
 62
     7
370
    25
100
AcDbLine
 10
6179.4669686803
 20
3645.8263712762
 30
0.0
 11
6347.4041234362
 21
3813.7635260321
 31
0.0
  0
ARC
  5
108
330
1F
100
AcDbEntity
  8
0
  6
SLD-Plná
 62
     7
370
    25
100
AcDbCircle
 10
5988.8460143611
 20
3836.3897798616
 30
0.0
 40
269.538050963586
100
AcDbArc
 50
304.9235557162
 51
315.0086496928
  0
ARC
  5
109
330
1F
100
AcDbEntity
  8
0
  6
SLD-Plná
 62
     7
370
    25
100
AcDbCircle
 10
5977.1575005217
 20
3853.0112839729
 30
0.0
 40
289.8577814004374
100
AcDbArc
 50
285.5203336162
 51
304.9370125252
  0
ARC
  5
10A
330
1F
100
AcDbEntity
  8
0
  6
SLD-Plná
 62
     7
370
    25
100
AcDbCircle
 10
6010.8213108333
 20
3731.7391546564
 30
0.0
 40
164.0000000000013
100
AcDbArc
 50
164.4748592676
 51
285.5251407323
  0
ARC
  5
10B
330
1F
100
AcDbEntity
  8
0
  6
SLD-Plná
 62
     7
370
    25
100
AcDbCircle
 10
6132.0934401427
 20
3698.0753443481
 30
0.0
 40
289.8577813926643
100
AcDbArc
 50
145.0629874745
 51
164.4796663841
  0
ARC
  5
10C
330
1F
100
AcDbEntity
  8
0
  6
SLD-Plná
 62
     7
370
    25
100
AcDbCircle
 10
6115.4719360385
 20
3709.7638581841
 30
0.0
 40
269.5380509635841
100
AcDbArc
 50
134.9913503072
 51
145.0764442838
  0
LINE
  5
10D
330
1F
100
AcDbEntity
  8
0
  6
SLD-Plná
 62
     7
370
    25
100
AcDbLine
 10
6092.8456822091
 20
4068.3219672593
 30
0.0
 11
5924.9085274531
 21
3900.3848125033
 31
0.0
  0
ARC
  5
10E
330
1F
100
AcDbEntity
  8
0
  6
SLD-Plná
 62
     7
370
    25
100
AcDbCircle
 10
6347.4041386781
 20
4068.3219825012
 30
0.0
 40
180.2000066435024
100
AcDbArc
 50
180.0000034306
 51
269.9999965694
  0
ARC
  5
10F
330
1F
100
AcDbEntity
  8
0
  6
SLD-Plná
 62
     7
370
    25
100
AcDbCircle
 10
6029.2059697496
 20
3750.1238135727
 30
0.0
 40
129.9999929273934
100
AcDbArc
 50
137.4415424905
 51
312.5584575084
  0
LINE
  5
110
330
1F
100
AcDbEntity
  8
0
  6
SLD-Plná
 62
     7
370
    25
100
AcDbLine
 10
6117.1304356547
 20
3654.3674223686
 30
0.0
 11
6160.3168652544
 21
3694.0215277931
 31
0.0
  0
ARC
  5
111
330
1F
100
AcDbEntity
  8
0
  6
SLD-Plná
 62
     7
370
    25
100
AcDbCircle
 10
6070.7019945147
 20
3791.6198383377
 30
0.0
 40
132.5000199202252
100
AcDbArc
 50
312.5581823968
 51
137.4418176032
  0
LINE
  5
112
330
1F
100
AcDbEntity
  8
0
  6
SLD-Plná
 62
     7
370
    25
100
AcDbLine
 10
5973.1036839701
 20
3881.2347090775
 30
0.0
 11
5933.4495785474
 21
3838.0482794797
 31
0.0
  0
LINE
  5
113
330
1F
100
AcDbEntity
  8
0
  6
SLD-Plná
 62
     7
370
    25
100
AcDbLine
 10
6167.2041320346
 20
4068.3219717116
 30
0.0
 11
6092.8456822091
 21
4068.3219672593
 31
0.0
  0
LINE
  5
114
330
1F
100
AcDbEntity
  8
0
  6
SLD-Plná
 62
     7
370
    25
100
AcDbLine
 10
6347.4041278885
 20
3888.1219758577
 30
0.0
 11
6345.8369862959
 21
3888.3288047598
 31
0.0
  0
LINE
  5
115
330
1F
100
AcDbEntity
  8
0
  6
SLD-Plná
 62
     7
370
    25
100
AcDbLine
 10
6167.2041320346
 20
4068.3219717116
 30
0.0
 11
6167.4109609368
 21
4066.754830119
 31
0.0
  0
CIRCLE
  5
116
330
1F
100
AcDbEntity
  8
0
  6
SLD-Plná
 62
     7
370
    25
100
AcDbCircle
 10
6072.6912828065
 20
3793.6127126931
 30
0.0
 40
37.49988928370127
  0
LINE
  5
117
330
1F
100
AcDbEntity
  8
0
  6
SLD-Plná
 62
     7
370
    25
100
AcDbLine
 10
7406.2409002545
 20
5108.7572457042
 30
0.0
 11
7406.2409002545
 21
5559.7572457042
 31
0.0
  0
LINE
  5
118
330
1F
100
AcDbEntity
  8
0
  6
SLD-Plná
 62
     7
370
    25
100
AcDbLine
 10
7020.2409002545
 20
5583.2572457042
 30
0.0
 11
7018.7409002545
 21
5584.7572457042
 31
0.0
  0
LINE
  5
119
330
1F
100
AcDbEntity
  8
0
  6
SLD-Plná
 62
     7
370
    25
100
AcDbLine
 10
6993.7409002545
 20
5584.7572457042
 30
0.0
 11
6992.2409002545
 21
5583.2572457042
 31
0.0
  0
LINE
  5
11A
330
1F
100
AcDbEntity
  8
0
  6
SLD-Plná
 62
     7
370
    25
100
AcDbLine
 10
7020.2409002545
 20
5582.7572457042
 30
0.0
 11
7020.2409002545
 21
5583.2572457042
 31
0.0
  0
LINE
  5
11B
330
1F
100
AcDbEntity
  8
0
  6
SLD-Plná
 62
     7
370
    25
100
AcDbLine
 10
6992.2409002545
 20
5583.2572457042
 30
0.0
 11
6992.2409002545
 21
5582.7572457042
 31
0.0
  0
LINE
  5
11C
330
1F
100
AcDbEntity
  8
0
  6
SLD-Plná
 62
     7
370
    25
100
AcDbLine
 10
7061.2409002545
 20
5562.2572457042
 30
0.0
 11
7061.2409002545
 21
5559.7572457042
 31
0.0
  0
LINE
  5
11D
330
1F
100
AcDbEntity
  8
0
  6
SLD-Plná
 62
     7
370
    25
100
AcDbLine
 10
7106.2409002545
 20
5559.7572457042
 30
0.0
 11
7106.2409002545
 21
5562.2572457042
 31
0.0
  0
ARC
  5
11E
330
1F
100
AcDbEntity
  8
0
  6
SLD-Plná
 62
     7
370
    25
100
AcDbCircle
 10
7083.7409002545
 20
5562.2572457042
 30
0.0
 40
22.5
100
AcDbArc
 50
0.0
 51
180.0
  0
SPLINE
  5
11F
330
1F
100
AcDbEntity
  8
0
  6
SLD-Plná
 62
     7
370
    25
100
AcDbSpline
210
0.0
220
0.0
230
1.0
 70
     8
 71
     3
 72
    35
 73
    31
 74
     0
 42
0.00000001
 43
0.00000001
 40
0.0
 40
0.0
 40
0.0
 40
0.0
 40
0.0529774496658222
 40
0.1033306242188707
 40
0.1510481958001771
 40
0.1961194817471352
 40
0.2385344906487051
 40
0.2782839656450052
 40
0.315359414272583
 40
0.3497531421188848
 40
0.3783464294101309
 40
0.404767470405829
 40
0.4290125341668739
 40
0.4510785732373418
 40
0.4709633176228517
 40
0.488665425773508
 40
0.504860384239089
 40
0.52763803402939
 40
0.5533382468510597
 40
0.5819621898477836
 40
0.6135111404365406
 40
0.6479864871056359
 40
0.685389729655112
 40
0.7257224790801737
 40
0.7652691257746825
 40
0.8072802253751268
 40
0.8517572628824335
 40
0.8987018000458329
 40
0.9481154746558134
 40
1.0
 40
1.0
 40
1.0
 40
1.0
 10
7611.457142782125
 20
4709.757245704188
 30
0.0
 10
7613.443938194602
 20
4716.827944710662
 30
0.0
 10
7617.319111715817
 20
4730.619090690912
 30
0.0
 10
7623.026173466914
 20
4750.750547456091
 30
0.0
 10
7628.455881443619
 20
4769.811211286205
 30
0.0
 10
7633.602731254103
 20
4787.799042277317
 30
0.0
 10
7638.458863020133
 20
4804.714549519394
 30
0.0
 10
7643.019024273632
 20
4820.55760963842
 30
0.0
 10
7647.279021280498
 20
4835.328254609623
 30
0.0
 10
7651.116452379702
 20
4848.613320808069
 30
0.0
 10
7654.548730137184
 20
4860.482337421473
 30
0.0
 10
7657.594114543585
 20
4871.004395214557
 30
0.0
 10
7660.391220482377
 20
4880.661727676336
 30
0.0
 10
7662.939433329047
 20
4889.454330044457
 30
0.0
 10
7665.238292847841
 20
4897.382273580106
 30
0.0
 10
7667.313431502138
 20
4904.535301570791
 30
0.0
 10
7669.503338479926
 20
4912.081192204514
 30
0.0
 10
7672.002974654682
 20
4920.690583348015
 30
0.0
 10
7674.984431682137
 20
4930.954228965172
 30
0.0
 10
7678.306516651073
 20
4942.384256439525
 30
0.0
 10
7681.969738245248
 20
4954.980823604696
 30
0.0
 10
7685.974544737209
 20
4968.743882890291
 30
0.0
 10
7690.321389391656
 20
4983.673450176857
 30
0.0
 10
7694.866630155206
 20
4999.275021560201
 30
0.0
 10
7699.592279655604
 20
5015.486601109128
 30
0.0
 10
7704.480298873009
 20
5032.246222129718
 30
0.0
 10
7709.656858892917
 20
5049.986050270662
 30
0.0
 10
7715.122118979328
 20
5068.705983424278
 30
0.0
 10
7720.876102243177
 20
5088.406433908742
 30
0.0
 10
7724.80873701174
 20
5101.864221648641
 30
0.0
 10
7726.823016519285
 20
5108.757245704188
 30
0.0
  0
LINE
  5
120
330
1F
100
AcDbEntity
  8
0
  6
SLD-Plná
 62
     7
370
    25
100
AcDbLine
 10
6966.2409002545
 20
4709.7572457042
 30
0.0
 11
6966.2409002545
 21
5582.7572457042
 31
0.0
  0
LINE
  5
121
330
1F
100
AcDbEntity
  8
0
  6
SLD-Plná
 62
     7
370
    25
100
AcDbLine
 10
6966.2409002545
 20
5582.7572457042
 30
0.0
 11
7046.2409002545
 21
5582.7572457042
 31
0.0
  0
LINE
  5
122
330
1F
100
AcDbEntity
  8
0
  6
SLD-Plná
 62
     7
370
    25
100
AcDbLine
 10
7046.2409002545
 20
5582.7572457042
 30
0.0
 11
7046.2409002545
 21
5559.7572457042
 31
0.0
  0
LINE
  5
123
330
1F
100
AcDbEntity
  8
0
  6
SLD-Plná
 62
     7
370
    25
100
AcDbLine
 10
7046.2409002545
 20
5559.7572457042
 30
0.0
 11
7226.2409002545
 21
5559.7572457042
 31
0.0
  0
LINE
  5
124
330
1F
100
AcDbEntity
  8
0
  6
SLD-Plná
 62
     7
370
    25
100
AcDbLine
 10
7226.2409002545
 20
4709.7572457042
 30
0.0
 11
7226.2409002545
 21
5559.7572457042
 31
0.0
  0
LINE
  5
125
330
1F
100
AcDbEntity
  8
0
  6
SLD-Plná
 62
     7
370
    25
100
AcDbLine
 10
6966.2409002545
 20
4709.7572457042
 30
0.0
 11
7226.2409002545
 21
4709.7572457042
 31
0.0
  0
LINE
  5
126
330
1F
100
AcDbEntity
  8
0
  6
SLD-Plná
 62
     7
370
    25
100
AcDbLine
 10
7226.2409002545
 20
5559.7572457042
 30
0.0
 11
7406.2409002545
 21
5559.7572457042
 31
0.0
  0
LINE
  5
127
330
1F
100
AcDbEntity
  8
0
  6
SLD-Plná
 62
     7
370
    25
100
AcDbLine
 10
7226.2409002545
 20
4709.7572457042
 30
0.0
 11
7406.2409002545
 21
4709.7572457042
 31
0.0
  0
LINE
  5
128
330
1F
100
AcDbEntity
  8
0
  6
SLD-Plná
 62
     7
370
    25
100
AcDbLine
 10
6993.7409002545
 20
5584.7572457042
 30
0.0
 11
7018.7409002545
 21
5584.7572457042
 31
0.0
  0
LINE
  5
129
330
1F
100
AcDbEntity
  8
0
  6
SLD-Plná
 62
     7
370
    25
100
AcDbLine
 10
7020.2409002545
 20
5583.2572457042
 30
0.0
 11
6992.2409002545
 21
5583.2572457042
 31
0.0
  0
CIRCLE
  5
12A
330
1F
100
AcDbEntity
  8
0
  6
SLD-Plná
 62
     7
370
    25
100
AcDbCircle
 10
7002.7409002545
 20
4901.2572457042
 30
0.0
 40
1.900000000000163
  0
CIRCLE
  5
12B
330
1F
100
AcDbEntity
  8
0
  6
SLD-Plná
 62
     7
370
    25
100
AcDbCircle
 10
7002.7409002545
 20
4901.2572457042
 30
0.0
 40
3.800000000000303
  0
LINE
  5
12C
330
1F
100
AcDbEntity
  8
0
  6
SLD-Plná
 62
     7
370
    25
100
AcDbLine
 10
7004.1837796749
 20
4901.2193998129
 30
0.0
 11
7003.4295644614
 21
4899.9887525259
 31
0.0
  0
LINE
  5
12D
330
1F
100
AcDbEntity
  8
0
  6
SLD-Plná
 62
     7
370
    25
100
AcDbLine
 10
7002.0522360476
 20
4902.5257388825
 30
0.0
 11
7003.495115468
 21
4902.4878929912
 31
0.0
  0
LINE
  5
12E
330
1F
100
AcDbEntity
  8
0
  6
SLD-Plná
 62
     7
370
    25
100
AcDbLine
 10
7001.2980208341
 20
4901.2950915955
 30
0.0
 11
7002.0522360476
 21
4902.5257388825
 31
0.0
  0
LINE
  5
12F
330
1F
100
AcDbEntity
  8
0
  6
SLD-Plná
 62
     7
370
    25
100
AcDbLine
 10
7003.495115468
 20
4902.4878929912
 30
0.0
 11
7004.1837796749
 21
4901.2193998129
 31
0.0
  0
LINE
  5
130
330
1F
100
AcDbEntity
  8
0
  6
SLD-Plná
 62
     7
370
    25
100
AcDbLine
 10
7001.986685041
 20
4900.0265984172
 30
0.0
 11
7001.2980208341
 21
4901.2950915955
 31
0.0
  0
LINE
  5
131
330
1F
100
AcDbEntity
  8
0
  6
SLD-Plná
 62
     7
370
    25
100
AcDbLine
 10
7003.4295644614
 20
4899.9887525259
 30
0.0
 11
7001.986685041
 21
4900.0265984172
 31
0.0
  0
ARC
  5
132
330
1F
100
AcDbEntity
  8
0
  6
SLD-Plná
 62
     7
370
    25
100
AcDbCircle
 10
7002.7409002545
 20
4901.2572457042
 30
0.0
 40
1.25000000000034
100
AcDbArc
 50
28.4975093954
 51
88.4975093955
  0
ARC
  5
133
330
1F
100
AcDbEntity
  8
0
  6
SLD-Plná
 62
     7
370
    25
100
AcDbCircle
 10
7002.7409002545
 20
4901.2572457042
 30
0.0
 40
1.250000000000422
100
AcDbArc
 50
328.4975093954
 51
28.4975093954
  0
ARC
  5
134
330
1F
100
AcDbEntity
  8
0
  6
SLD-Plná
 62
     7
370
    25
100
AcDbCircle
 10
7002.7409002545
 20
4901.2572457042
 30
0.0
 40
1.25000000000066
100
AcDbArc
 50
268.4975093955
 51
328.4975093954
  0
ARC
  5
135
330
1F
100
AcDbEntity
  8
0
  6
SLD-Plná
 62
     7
370
    25
100
AcDbCircle
 10
7002.7409002545
 20
4901.2572457042
 30
0.0
 40
1.25000000000066
100
AcDbArc
 50
208.4975093954
 51
268.4975093955
  0
ARC
  5
136
330
1F
100
AcDbEntity
  8
0
  6
SLD-Plná
 62
     7
370
    25
100
AcDbCircle
 10
7002.7409002545
 20
4901.2572457042
 30
0.0
 40
1.25000000000034
100
AcDbArc
 50
148.4975093955
 51
208.4975093954
  0
ARC
  5
137
330
1F
100
AcDbEntity
  8
0
  6
SLD-Plná
 62
     7
370
    25
100
AcDbCircle
 10
7002.7409002545
 20
4901.2572457042
 30
0.0
 40
1.24999999999975
100
AcDbArc
 50
88.4975093955
 51
148.4975093955
  0
CIRCLE
  5
138
330
1F
100
AcDbEntity
  8
0
  6
SLD-Plná
 62
     7
370
    25
100
AcDbCircle
 10
7002.7409002545
 20
5218.2572457042
 30
0.0
 40
1.900000000000163
  0
CIRCLE
  5
139
330
1F
100
AcDbEntity
  8
0
  6
SLD-Plná
 62
     7
370
    25
100
AcDbCircle
 10
7002.7409002545
 20
5218.2572457042
 30
0.0
 40
3.800000000000279
  0
LINE
  5
13A
330
1F
100
AcDbEntity
  8
0
  6
SLD-Plná
 62
     7
370
    25
100
AcDbLine
 10
7001.2980208341
 20
5218.2950915955
 30
0.0
 11
7002.0522360476
 21
5219.5257388825
 31
0.0
  0
LINE
  5
13B
330
1F
100
AcDbEntity
  8
0
  6
SLD-Plná
 62
     7
370
    25
100
AcDbLine
 10
7001.986685041
 20
5217.0265984172
 30
0.0
 11
7001.2980208341
 21
5218.2950915955
 31
0.0
  0
LINE
  5
13C
330
1F
100
AcDbEntity
  8
0
  6
SLD-Plná
 62
     7
370
    25
100
AcDbLine
 10
7003.495115468
 20
5219.4878929912
 30
0.0
 11
7004.1837796749
 21
5218.2193998129
 31
0.0
  0
LINE
  5
13D
330
1F
100
AcDbEntity
  8
0
  6
SLD-Plná
 62
     7
370
    25
100
AcDbLine
 10
7002.0522360476
 20
5219.5257388825
 30
0.0
 11
7003.495115468
 21
5219.4878929912
 31
0.0
  0
LINE
  5
13E
330
1F
100
AcDbEntity
  8
0
  6
SLD-Plná
 62
     7
370
    25
100
AcDbLine
 10
7004.1837796749
 20
5218.2193998129
 30
0.0
 11
7003.4295644614
 21
5216.9887525259
 31
0.0
  0
LINE
  5
13F
330
1F
100
AcDbEntity
  8
0
  6
SLD-Plná
 62
     7
370
    25
100
AcDbLine
 10
7003.4295644614
 20
5216.9887525259
 30
0.0
 11
7001.986685041
 21
5217.0265984172
 31
0.0
  0
ARC
  5
140
330
1F
100
AcDbEntity
  8
0
  6
SLD-Plná
 62
     7
370
    25
100
AcDbCircle
 10
7002.7409002545
 20
5218.2572457042
 30
0.0
 40
1.25000000000034
100
AcDbArc
 50
328.4975093955
 51
28.4975093954
  0
ARC
  5
141
330
1F
100
AcDbEntity
  8
0
  6
SLD-Plná
 62
     7
370
    25
100
AcDbCircle
 10
7002.7409002545
 20
5218.2572457042
 30
0.0
 40
1.25000000000066
100
AcDbArc
 50
28.4975093954
 51
88.4975093955
  0
ARC
  5
142
330
1F
100
AcDbEntity
  8
0
  6
SLD-Plná
 62
     7
370
    25
100
AcDbCircle
 10
7002.7409002545
 20
5218.2572457042
 30
0.0
 40
1.24999999999975
100
AcDbArc
 50
268.4975093955
 51
328.4975093955
  0
ARC
  5
143
330
1F
100
AcDbEntity
  8
0
  6
SLD-Plná
 62
     7
370
    25
100
AcDbCircle
 10
7002.7409002545
 20
5218.2572457042
 30
0.0
 40
1.25000000000066
100
AcDbArc
 50
88.4975093955
 51
148.4975093954
  0
ARC
  5
144
330
1F
100
AcDbEntity
  8
0
  6
SLD-Plná
 62
     7
370
    25
100
AcDbCircle
 10
7002.7409002545
 20
5218.2572457042
 30
0.0
 40
1.250000000000422
100
AcDbArc
 50
148.4975093954
 51
208.4975093954
  0
ARC
  5
145
330
1F
100
AcDbEntity
  8
0
  6
SLD-Plná
 62
     7
370
    25
100
AcDbCircle
 10
7002.7409002545
 20
5218.2572457042
 30
0.0
 40
1.249999999999906
100
AcDbArc
 50
208.4975093954
 51
268.4975093955
  0
CIRCLE
  5
146
330
1F
100
AcDbEntity
  8
0
  6
SLD-Plná
 62
     7
370
    25
100
AcDbCircle
 10
7002.7409002545
 20
5051.2572457042
 30
0.0
 40
1.900000000000163
  0
CIRCLE
  5
147
330
1F
100
AcDbEntity
  8
0
  6
SLD-Plná
 62
     7
370
    25
100
AcDbCircle
 10
7002.7409002545
 20
5051.2572457042
 30
0.0
 40
3.800000000000279
  0
LINE
  5
148
330
1F
100
AcDbEntity
  8
0
  6
SLD-Plná
 62
     7
370
    25
100
AcDbLine
 10
7001.2980208341
 20
5051.2950915955
 30
0.0
 11
7002.0522360476
 21
5052.5257388825
 31
0.0
  0
LINE
  5
149
330
1F
100
AcDbEntity
  8
0
  6
SLD-Plná
 62
     7
370
    25
100
AcDbLine
 10
7001.986685041
 20
5050.0265984172
 30
0.0
 11
7001.2980208341
 21
5051.2950915955
 31
0.0
  0
LINE
  5
14A
330
1F
100
AcDbEntity
  8
0
  6
SLD-Plná
 62
     7
370
    25
100
AcDbLine
 10
7004.1837796749
 20
5051.2193998129
 30
0.0
 11
7003.4295644614
 21
5049.9887525259
 31
0.0
  0
LINE
  5
14B
330
1F
100
AcDbEntity
  8
0
  6
SLD-Plná
 62
     7
370
    25
100
AcDbLine
 10
7003.4295644614
 20
5049.9887525259
 30
0.0
 11
7001.986685041
 21
5050.0265984172
 31
0.0
  0
LINE
  5
14C
330
1F
100
AcDbEntity
  8
0
  6
SLD-Plná
 62
     7
370
    25
100
AcDbLine
 10
7002.0522360476
 20
5052.5257388825
 30
0.0
 11
7003.495115468
 21
5052.4878929912
 31
0.0
  0
LINE
  5
14D
330
1F
100
AcDbEntity
  8
0
  6
SLD-Plná
 62
     7
370
    25
100
AcDbLine
 10
7003.495115468
 20
5052.4878929912
 30
0.0
 11
7004.1837796749
 21
5051.2193998129
 31
0.0
  0
ARC
  5
14E
330
1F
100
AcDbEntity
  8
0
  6
SLD-Plná
 62
     7
370
    25
100
AcDbCircle
 10
7002.7409002545
 20
5051.2572457042
 30
0.0
 40
1.250000000000773
100
AcDbArc
 50
328.4975093955
 51
28.4975093955
  0
ARC
  5
14F
330
1F
100
AcDbEntity
  8
0
  6
SLD-Plná
 62
     7
370
    25
100
AcDbCircle
 10
7002.7409002545
 20
5051.2572457042
 30
0.0
 40
1.25000000000066
100
AcDbArc
 50
88.4975093955
 51
148.4975093954
  0
ARC
  5
150
330
1F
100
AcDbEntity
  8
0
  6
SLD-Plná
 62
     7
370
    25
100
AcDbCircle
 10
7002.7409002545
 20
5051.2572457042
 30
0.0
 40
1.250000000000773
100
AcDbArc
 50
28.4975093955
 51
88.4975093955
  0
ARC
  5
151
330
1F
100
AcDbEntity
  8
0
  6
SLD-Plná
 62
     7
370
    25
100
AcDbCircle
 10
7002.7409002545
 20
5051.2572457042
 30
0.0
 40
1.24999999999975
100
AcDbArc
 50
268.4975093955
 51
328.4975093955
  0
ARC
  5
152
330
1F
100
AcDbEntity
  8
0
  6
SLD-Plná
 62
     7
370
    25
100
AcDbCircle
 10
7002.7409002545
 20
5051.2572457042
 30
0.0
 40
1.25000000000034
100
AcDbArc
 50
208.4975093954
 51
268.4975093955
  0
ARC
  5
153
330
1F
100
AcDbEntity
  8
0
  6
SLD-Plná
 62
     7
370
    25
100
AcDbCircle
 10
7002.7409002545
 20
5051.2572457042
 30
0.0
 40
1.250000000000422
100
AcDbArc
 50
148.4975093954
 51
208.4975093954
  0
CIRCLE
  5
154
330
1F
100
AcDbEntity
  8
0
  6
SLD-Plná
 62
     7
370
    25
100
AcDbCircle
 10
7164.7409002545
 20
4901.2572457042
 30
0.0
 40
1.900000000000163
  0
CIRCLE
  5
155
330
1F
100
AcDbEntity
  8
0
  6
SLD-Plná
 62
     7
370
    25
100
AcDbCircle
 10
7164.7409002545
 20
4901.2572457042
 30
0.0
 40
3.800000000000303
  0
LINE
  5
156
330
1F
100
AcDbEntity
  8
0
  6
SLD-Plná
 62
     7
370
    25
100
AcDbLine
 10
7165.4295644614
 20
4899.9887525259
 30
0.0
 11
7163.986685041
 21
4900.0265984172
 31
0.0
  0
LINE
  5
157
330
1F
100
AcDbEntity
  8
0
  6
SLD-Plná
 62
     7
370
    25
100
AcDbLine
 10
7166.1837796749
 20
4901.2193998129
 30
0.0
 11
7165.4295644614
 21
4899.9887525259
 31
0.0
  0
LINE
  5
158
330
1F
100
AcDbEntity
  8
0
  6
SLD-Plná
 62
     7
370
    25
100
AcDbLine
 10
7165.495115468
 20
4902.4878929912
 30
0.0
 11
7166.1837796749
 21
4901.2193998129
 31
0.0
  0
LINE
  5
159
330
1F
100
AcDbEntity
  8
0
  6
SLD-Plná
 62
     7
370
    25
100
AcDbLine
 10
7164.0522360476
 20
4902.5257388825
 30
0.0
 11
7165.495115468
 21
4902.4878929912
 31
0.0
  0
LINE
  5
15A
330
1F
100
AcDbEntity
  8
0
  6
SLD-Plná
 62
     7
370
    25
100
AcDbLine
 10
7163.986685041
 20
4900.0265984172
 30
0.0
 11
7163.2980208341
 21
4901.2950915955
 31
0.0
  0
LINE
  5
15B
330
1F
100
AcDbEntity
  8
0
  6
SLD-Plná
 62
     7
370
    25
100
AcDbLine
 10
7163.2980208341
 20
4901.2950915955
 30
0.0
 11
7164.0522360476
 21
4902.5257388825
 31
0.0
  0
ARC
  5
15C
330
1F
100
AcDbEntity
  8
0
  6
SLD-Plná
 62
     7
370
    25
100
AcDbCircle
 10
7164.7409002545
 20
4901.2572457042
 30
0.0
 40
1.25000000000034
100
AcDbArc
 50
28.4975093954
 51
88.4975093955
  0
ARC
  5
15D
330
1F
100
AcDbEntity
  8
0
  6
SLD-Plná
 62
     7
370
    25
100
AcDbCircle
 10
7164.7409002545
 20
4901.2572457042
 30
0.0
 40
1.250000000000422
100
AcDbArc
 50
328.4975093954
 51
28.4975093954
  0
ARC
  5
15E
330
1F
100
AcDbEntity
  8
0
  6
SLD-Plná
 62
     7
370
    25
100
AcDbCircle
 10
7164.7409002545
 20
4901.2572457042
 30
0.0
 40
1.25000000000066
100
AcDbArc
 50
268.4975093955
 51
328.4975093954
  0
ARC
  5
15F
330
1F
100
AcDbEntity
  8
0
  6
SLD-Plná
 62
     7
370
    25
100
AcDbCircle
 10
7164.7409002545
 20
4901.2572457042
 30
0.0
 40
1.25000000000066
100
AcDbArc
 50
208.4975093954
 51
268.4975093955
  0
ARC
  5
160
330
1F
100
AcDbEntity
  8
0
  6
SLD-Plná
 62
     7
370
    25
100
AcDbCircle
 10
7164.7409002545
 20
4901.2572457042
 30
0.0
 40
1.25000000000034
100
AcDbArc
 50
148.4975093955
 51
208.4975093954
  0
ARC
  5
161
330
1F
100
AcDbEntity
  8
0
  6
SLD-Plná
 62
     7
370
    25
100
AcDbCircle
 10
7164.7409002545
 20
4901.2572457042
 30
0.0
 40
1.24999999999975
100
AcDbArc
 50
88.4975093955
 51
148.4975093955
  0
CIRCLE
  5
162
330
1F
100
AcDbEntity
  8
0
  6
SLD-Plná
 62
     7
370
    25
100
AcDbCircle
 10
7164.7409002545
 20
5368.2572457042
 30
0.0
 40
1.900000000000163
  0
CIRCLE
  5
163
330
1F
100
AcDbEntity
  8
0
  6
SLD-Plná
 62
     7
370
    25
100
AcDbCircle
 10
7164.7409002545
 20
5368.2572457042
 30
0.0
 40
3.800000000000303
  0
LINE
  5
164
330
1F
100
AcDbEntity
  8
0
  6
SLD-Plná
 62
     7
370
    25
100
AcDbLine
 10
7163.2980208341
 20
5368.2950915955
 30
0.0
 11
7164.0522360476
 21
5369.5257388825
 31
0.0
  0
LINE
  5
165
330
1F
100
AcDbEntity
  8
0
  6
SLD-Plná
 62
     7
370
    25
100
AcDbLine
 10
7163.986685041
 20
5367.0265984172
 30
0.0
 11
7163.2980208341
 21
5368.2950915955
 31
0.0
  0
LINE
  5
166
330
1F
100
AcDbEntity
  8
0
  6
SLD-Plná
 62
     7
370
    25
100
AcDbLine
 10
7165.4295644614
 20
5366.9887525259
 30
0.0
 11
7163.986685041
 21
5367.0265984172
 31
0.0
  0
LINE
  5
167
330
1F
100
AcDbEntity
  8
0
  6
SLD-Plná
 62
     7
370
    25
100
AcDbLine
 10
7166.1837796749
 20
5368.2193998129
 30
0.0
 11
7165.4295644614
 21
5366.9887525259
 31
0.0
  0
LINE
  5
168
330
1F
100
AcDbEntity
  8
0
  6
SLD-Plná
 62
     7
370
    25
100
AcDbLine
 10
7165.495115468
 20
5369.4878929912
 30
0.0
 11
7166.1837796749
 21
5368.2193998129
 31
0.0
  0
LINE
  5
169
330
1F
100
AcDbEntity
  8
0
  6
SLD-Plná
 62
     7
370
    25
100
AcDbLine
 10
7164.0522360476
 20
5369.5257388825
 30
0.0
 11
7165.495115468
 21
5369.4878929912
 31
0.0
  0
ARC
  5
16A
330
1F
100
AcDbEntity
  8
0
  6
SLD-Plná
 62
     7
370
    25
100
AcDbCircle
 10
7164.7409002545
 20
5368.2572457042
 30
0.0
 40
1.25000000000034
100
AcDbArc
 50
28.4975093954
 51
88.4975093955
  0
ARC
  5
16B
330
1F
100
AcDbEntity
  8
0
  6
SLD-Plná
 62
     7
370
    25
100
AcDbCircle
 10
7164.7409002545
 20
5368.2572457042
 30
0.0
 40
1.25000000000034
100
AcDbArc
 50
328.4975093955
 51
28.4975093954
  0
ARC
  5
16C
330
1F
100
AcDbEntity
  8
0
  6
SLD-Plná
 62
     7
370
    25
100
AcDbCircle
 10
7164.7409002545
 20
5368.2572457042
 30
0.0
 40
1.249999999999947
100
AcDbArc
 50
268.4975093955
 51
328.4975093955
  0
ARC
  5
16D
330
1F
100
AcDbEntity
  8
0
  6
SLD-Plná
 62
     7
370
    25
100
AcDbCircle
 10
7164.7409002545
 20
5368.2572457042
 30
0.0
 40
1.250000000000773
100
AcDbArc
 50
208.4975093955
 51
268.4975093955
  0
ARC
  5
16E
330
1F
100
AcDbEntity
  8
0
  6
SLD-Plná
 62
     7
370
    25
100
AcDbCircle
 10
7164.7409002545
 20
5368.2572457042
 30
0.0
 40
1.250000000000773
100
AcDbArc
 50
148.4975093955
 51
208.4975093955
  0
ARC
  5
16F
330
1F
100
AcDbEntity
  8
0
  6
SLD-Plná
 62
     7
370
    25
100
AcDbCircle
 10
7164.7409002545
 20
5368.2572457042
 30
0.0
 40
1.24999999999975
100
AcDbArc
 50
88.4975093955
 51
148.4975093955
  0
CIRCLE
  5
170
330
1F
100
AcDbEntity
  8
0
  6
SLD-Plná
 62
     7
370
    25
100
AcDbCircle
 10
7164.7409002545
 20
5051.2572457042
 30
0.0
 40
1.900000000000163
  0
CIRCLE
  5
171
330
1F
100
AcDbEntity
  8
0
  6
SLD-Plná
 62
     7
370
    25
100
AcDbCircle
 10
7164.7409002545
 20
5051.2572457042
 30
0.0
 40
3.800000000000303
  0
LINE
  5
172
330
1F
100
AcDbEntity
  8
0
  6
SLD-Plná
 62
     7
370
    25
100
AcDbLine
 10
7165.4295644614
 20
5049.9887525259
 30
0.0
 11
7163.986685041
 21
5050.0265984172
 31
0.0
  0
LINE
  5
173
330
1F
100
AcDbEntity
  8
0
  6
SLD-Plná
 62
     7
370
    25
100
AcDbLine
 10
7166.1837796749
 20
5051.2193998129
 30
0.0
 11
7165.4295644614
 21
5049.9887525259
 31
0.0
  0
LINE
  5
174
330
1F
100
AcDbEntity
  8
0
  6
SLD-Plná
 62
     7
370
    25
100
AcDbLine
 10
7165.495115468
 20
5052.4878929912
 30
0.0
 11
7166.1837796749
 21
5051.2193998129
 31
0.0
  0
LINE
  5
175
330
1F
100
AcDbEntity
  8
0
  6
SLD-Plná
 62
     7
370
    25
100
AcDbLine
 10
7164.0522360476
 20
5052.5257388825
 30
0.0
 11
7165.495115468
 21
5052.4878929912
 31
0.0
  0
LINE
  5
176
330
1F
100
AcDbEntity
  8
0
  6
SLD-Plná
 62
     7
370
    25
100
AcDbLine
 10
7163.2980208341
 20
5051.2950915955
 30
0.0
 11
7164.0522360476
 21
5052.5257388825
 31
0.0
  0
LINE
  5
177
330
1F
100
AcDbEntity
  8
0
  6
SLD-Plná
 62
     7
370
    25
100
AcDbLine
 10
7163.986685041
 20
5050.0265984172
 30
0.0
 11
7163.2980208341
 21
5051.2950915955
 31
0.0
  0
ARC
  5
178
330
1F
100
AcDbEntity
  8
0
  6
SLD-Plná
 62
     7
370
    25
100
AcDbCircle
 10
7164.7409002545
 20
5051.2572457042
 30
0.0
 40
1.250000000000422
100
AcDbArc
 50
148.4975093954
 51
208.4975093954
  0
ARC
  5
179
330
1F
100
AcDbEntity
  8
0
  6
SLD-Plná
 62
     7
370
    25
100
AcDbCircle
 10
7164.7409002545
 20
5051.2572457042
 30
0.0
 40
1.250000000000773
100
AcDbArc
 50
28.4975093955
 51
88.4975093955
  0
ARC
  5
17A
330
1F
100
AcDbEntity
  8
0
  6
SLD-Plná
 62
     7
370
    25
100
AcDbCircle
 10
7164.7409002545
 20
5051.2572457042
 30
0.0
 40
1.250000000000773
100
AcDbArc
 50
328.4975093955
 51
28.4975093955
  0
ARC
  5
17B
330
1F
100
AcDbEntity
  8
0
  6
SLD-Plná
 62
     7
370
    25
100
AcDbCircle
 10
7164.7409002545
 20
5051.2572457042
 30
0.0
 40
1.24999999999975
100
AcDbArc
 50
268.4975093955
 51
328.4975093955
  0
ARC
  5
17C
330
1F
100
AcDbEntity
  8
0
  6
SLD-Plná
 62
     7
370
    25
100
AcDbCircle
 10
7164.7409002545
 20
5051.2572457042
 30
0.0
 40
1.25000000000034
100
AcDbArc
 50
208.4975093954
 51
268.4975093955
  0
ARC
  5
17D
330
1F
100
AcDbEntity
  8
0
  6
SLD-Plná
 62
     7
370
    25
100
AcDbCircle
 10
7164.7409002545
 20
5051.2572457042
 30
0.0
 40
1.25000000000066
100
AcDbArc
 50
88.4975093955
 51
148.4975093954
  0
CIRCLE
  5
17E
330
1F
100
AcDbEntity
  8
0
  6
SLD-Plná
 62
     7
370
    25
100
AcDbCircle
 10
7164.7409002545
 20
5218.2572457042
 30
0.0
 40
1.899999999999254
  0
CIRCLE
  5
17F
330
1F
100
AcDbEntity
  8
0
  6
SLD-Plná
 62
     7
370
    25
100
AcDbCircle
 10
7164.7409002545
 20
5218.2572457042
 30
0.0
 40
3.799999999999393
  0
LINE
  5
180
330
1F
100
AcDbEntity
  8
0
  6
SLD-Plná
 62
     7
370
    25
100
AcDbLine
 10
7163.2980208341
 20
5218.2950915955
 30
0.0
 11
7164.0522360476
 21
5219.5257388825
 31
0.0
  0
LINE
  5
181
330
1F
100
AcDbEntity
  8
0
  6
SLD-Plná
 62
     7
370
    25
100
AcDbLine
 10
7163.986685041
 20
5217.0265984172
 30
0.0
 11
7163.2980208341
 21
5218.2950915955
 31
0.0
  0
LINE
  5
182
330
1F
100
AcDbEntity
  8
0
  6
SLD-Plná
 62
     7
370
    25
100
AcDbLine
 10
7165.4295644614
 20
5216.9887525259
 30
0.0
 11
7163.986685041
 21
5217.0265984172
 31
0.0
  0
LINE
  5
183
330
1F
100
AcDbEntity
  8
0
  6
SLD-Plná
 62
     7
370
    25
100
AcDbLine
 10
7166.1837796749
 20
5218.2193998129
 30
0.0
 11
7165.4295644614
 21
5216.9887525259
 31
0.0
  0
LINE
  5
184
330
1F
100
AcDbEntity
  8
0
  6
SLD-Plná
 62
     7
370
    25
100
AcDbLine
 10
7165.495115468
 20
5219.4878929912
 30
0.0
 11
7166.1837796749
 21
5218.2193998129
 31
0.0
  0
LINE
  5
185
330
1F
100
AcDbEntity
  8
0
  6
SLD-Plná
 62
     7
370
    25
100
AcDbLine
 10
7164.0522360476
 20
5219.5257388825
 30
0.0
 11
7165.495115468
 21
5219.4878929912
 31
0.0
  0
ARC
  5
186
330
1F
100
AcDbEntity
  8
0
  6
SLD-Plná
 62
     7
370
    25
100
AcDbCircle
 10
7164.7409002545
 20
5218.2572457042
 30
0.0
 40
1.25000000000034
100
AcDbArc
 50
148.4975093955
 51
208.4975093954
  0
ARC
  5
187
330
1F
100
AcDbEntity
  8
0
  6
SLD-Plná
 62
     7
370
    25
100
AcDbCircle
 10
7164.7409002545
 20
5218.2572457042
 30
0.0
 40
1.249999999999906
100
AcDbArc
 50
28.4975093954
 51
88.4975093955
  0
ARC
  5
188
330
1F
100
AcDbEntity
  8
0
  6
SLD-Plná
 62
     7
370
    25
100
AcDbCircle
 10
7164.7409002545
 20
5218.2572457042
 30
0.0
 40
1.249999999999947
100
AcDbArc
 50
328.4975093955
 51
28.4975093954
  0
ARC
  5
189
330
1F
100
AcDbEntity
  8
0
  6
SLD-Plná
 62
     7
370
    25
100
AcDbCircle
 10
7164.7409002545
 20
5218.2572457042
 30
0.0
 40
1.25000000000066
100
AcDbArc
 50
268.4975093955
 51
328.4975093955
  0
ARC
  5
18A
330
1F
100
AcDbEntity
  8
0
  6
SLD-Plná
 62
     7
370
    25
100
AcDbCircle
 10
7164.7409002545
 20
5218.2572457042
 30
0.0
 40
1.25000000000066
100
AcDbArc
 50
208.4975093954
 51
268.4975093955
  0
ARC
  5
18B
330
1F
100
AcDbEntity
  8
0
  6
SLD-Plná
 62
     7
370
    25
100
AcDbCircle
 10
7164.7409002545
 20
5218.2572457042
 30
0.0
 40
1.249999999999947
100
AcDbArc
 50
88.4975093955
 51
148.4975093955
  0
CIRCLE
  5
18C
330
1F
100
AcDbEntity
  8
0
  6
SLD-Plná
 62
     7
370
    25
100
AcDbCircle
 10
7002.7409002545
 20
5368.2572457042
 30
0.0
 40
1.900000000000163
  0
CIRCLE
  5
18D
330
1F
100
AcDbEntity
  8
0
  6
SLD-Plná
 62
     7
370
    25
100
AcDbCircle
 10
7002.7409002545
 20
5368.2572457042
 30
0.0
 40
3.800000000000303
  0
LINE
  5
18E
330
1F
100
AcDbEntity
  8
0
  6
SLD-Plná
 62
     7
370
    25
100
AcDbLine
 10
7003.495115468
 20
5369.4878929912
 30
0.0
 11
7004.1837796749
 21
5368.2193998129
 31
0.0
  0
LINE
  5
18F
330
1F
100
AcDbEntity
  8
0
  6
SLD-Plná
 62
     7
370
    25
100
AcDbLine
 10
7002.0522360476
 20
5369.5257388825
 30
0.0
 11
7003.495115468
 21
5369.4878929912
 31
0.0
  0
LINE
  5
190
330
1F
100
AcDbEntity
  8
0
  6
SLD-Plná
 62
     7
370
    25
100
AcDbLine
 10
7004.1837796749
 20
5368.2193998129
 30
0.0
 11
7003.4295644614
 21
5366.9887525259
 31
0.0
  0
LINE
  5
191
330
1F
100
AcDbEntity
  8
0
  6
SLD-Plná
 62
     7
370
    25
100
AcDbLine
 10
7003.4295644614
 20
5366.9887525259
 30
0.0
 11
7001.986685041
 21
5367.0265984172
 31
0.0
  0
LINE
  5
192
330
1F
100
AcDbEntity
  8
0
  6
SLD-Plná
 62
     7
370
    25
100
AcDbLine
 10
7001.2980208341
 20
5368.2950915955
 30
0.0
 11
7002.0522360476
 21
5369.5257388825
 31
0.0
  0
LINE
  5
193
330
1F
100
AcDbEntity
  8
0
  6
SLD-Plná
 62
     7
370
    25
100
AcDbLine
 10
7001.986685041
 20
5367.0265984172
 30
0.0
 11
7001.2980208341
 21
5368.2950915955
 31
0.0
  0
ARC
  5
194
330
1F
100
AcDbEntity
  8
0
  6
SLD-Plná
 62
     7
370
    25
100
AcDbCircle
 10
7002.7409002545
 20
5368.2572457042
 30
0.0
 40
1.25000000000034
100
AcDbArc
 50
328.4975093955
 51
28.4975093954
  0
ARC
  5
195
330
1F
100
AcDbEntity
  8
0
  6
SLD-Plná
 62
     7
370
    25
100
AcDbCircle
 10
7002.7409002545
 20
5368.2572457042
 30
0.0
 40
1.250000000000773
100
AcDbArc
 50
148.4975093955
 51
208.4975093955
  0
ARC
  5
196
330
1F
100
AcDbEntity
  8
0
  6
SLD-Plná
 62
     7
370
    25
100
AcDbCircle
 10
7002.7409002545
 20
5368.2572457042
 30
0.0
 40
1.250000000000773
100
AcDbArc
 50
208.4975093955
 51
268.4975093955
  0
ARC
  5
197
330
1F
100
AcDbEntity
  8
0
  6
SLD-Plná
 62
     7
370
    25
100
AcDbCircle
 10
7002.7409002545
 20
5368.2572457042
 30
0.0
 40
1.24999999999975
100
AcDbArc
 50
88.4975093955
 51
148.4975093955
  0
ARC
  5
198
330
1F
100
AcDbEntity
  8
0
  6
SLD-Plná
 62
     7
370
    25
100
AcDbCircle
 10
7002.7409002545
 20
5368.2572457042
 30
0.0
 40
1.25000000000034
100
AcDbArc
 50
28.4975093954
 51
88.4975093955
  0
ARC
  5
199
330
1F
100
AcDbEntity
  8
0
  6
SLD-Plná
 62
     7
370
    25
100
AcDbCircle
 10
7002.7409002545
 20
5368.2572457042
 30
0.0
 40
1.249999999999947
100
AcDbArc
 50
268.4975093955
 51
328.4975093955
  0
CIRCLE
  5
19A
330
1F
100
AcDbEntity
  8
0
  6
SLD-Plná
 62
     7
370
    25
100
AcDbCircle
 10
7146.2409002545
 20
5509.7572457042
 30
0.0
 40
12.5
  0
CIRCLE
  5
19B
330
1F
100
AcDbEntity
  8
0
  6
SLD-Plná
 62
     7
370
    25
100
AcDbCircle
 10
7146.2409002545
 20
5509.7572457042
 30
0.0
 40
14.0
  0
LINE
  5
19C
330
1F
100
AcDbEntity
  8
0
  6
SLD-Plná
 62
     7
370
    25
100
AcDbLine
 10
7143.5460357928
 20
5517.5782737274
 30
0.0
 11
7143.5460357928
 21
5505.5652604331
 31
0.0
  0
ARC
  5
19D
330
1F
100
AcDbEntity
  8
0
  6
SLD-Plná
 62
     7
370
    25
100
AcDbCircle
 10
7146.2409002545
 20
5503.1782737274
 30
0.0
 40
3.600000000000844
100
AcDbArc
 50
138.4669573769
 51
44.9677748391
  0
LINE
  5
19E
330
1F
100
AcDbEntity
  8
0
  6
SLD-Plná
 62
     7
370
    25
100
AcDbLine
 10
7148.7879158022
 20
5517.5782732744
 30
0.0
 11
7148.7879159902
 21
5505.722426011
 31
0.0
  0
ARC
  5
19F
330
1F
100
AcDbEntity
  8
0
  6
SLD-Plná
 62
     7
370
    25
100
AcDbCircle
 10
7146.1669757975
 20
5517.5782737274
 30
0.0
 40
2.620940004722836
100
AcDbArc
 50
359.9999900972
 51
180.0
  0
ARC
  5
1A0
330
1F
100
AcDbEntity
  8
0
  6
SLD-Plná
 62
     7
370
    25
100
AcDbCircle
 10
7146.240900205
 20
5505.5782737274
 30
0.0
 40
0.6000000000003801
100
AcDbArc
 50
359.9999866396
 51
179.9999866397
  0
LINE
  5
1A1
330
1F
100
AcDbEntity
  8
0
  6
SLD-Plná
 62
     7
370
    25
100
AcDbLine
 10
7145.6409007772
 20
5504.8753300297
 30
0.0
 11
7145.640900205
 21
5505.5782738673
 31
0.0
  0
ARC
  5
1A2
330
1F
100
AcDbEntity
  8
0
  6
SLD-Plná
 62
     7
370
    25
100
AcDbCircle
 10
7146.2409002545
 20
5503.1782737274
 30
0.0
 40
2.399999711432332
100
AcDbArc
 50
128.5253030379
 51
55.85724084
  0
ARC
  5
1A3
330
1F
100
AcDbEntity
  8
0
  6
SLD-Plná
 62
     7
370
    25
100
AcDbCircle
 10
7145.1623542052
 20
5509.8982735017
 30
0.0
 40
0.6000000000003638
100
AcDbArc
 50
270.0
 51
90.0
  0
LINE
  5
1A4
330
1F
100
AcDbEntity
  8
0
  6
SLD-Plná
 62
     7
370
    25
100
AcDbLine
 10
7144.7460356128
 20
5510.4982724097
 30
0.0
 11
7145.1623542052
 21
5510.4982735017
 31
0.0
  0
LINE
  5
1A5
330
1F
100
AcDbEntity
  8
0
  6
SLD-Plná
 62
     7
370
    25
100
AcDbLine
 10
7144.7460356128
 20
5512.2582724002
 30
0.0
 11
7144.7460356128
 21
5510.4982724097
 31
0.0
  0
LINE
  5
1A6
330
1F
100
AcDbEntity
  8
0
  6
SLD-Plná
 62
     7
370
    25
100
AcDbLine
 10
7144.7460356128
 20
5512.2582724002
 30
0.0
 11
7145.1623542052
 21
5512.2582735017
 31
0.0
  0
LINE
  5
1A7
330
1F
100
AcDbEntity
  8
0
  6
SLD-Plná
 62
     7
370
    25
100
AcDbLine
 10
7144.7460356128
 20
5515.2182748225
 30
0.0
 11
7145.1623542052
 21
5515.2182748225
 31
0.0
  0
LINE
  5
1A8
330
1F
100
AcDbEntity
  8
0
  6
SLD-Plná
 62
     7
370
    25
100
AcDbLine
 10
7144.7460356128
 20
5509.2982729581
 30
0.0
 11
7145.1623542052
 21
5509.2982735017
 31
0.0
  0
LINE
  5
1A9
330
1F
100
AcDbEntity
  8
0
  6
SLD-Plná
 62
     7
370
    25
100
AcDbLine
 10
7147.5879160761
 20
5517.5782737274
 30
0.0
 11
7147.5879164365
 21
5505.1646135826
 31
0.0
  0
LINE
  5
1AA
330
1F
100
AcDbEntity
  8
0
  6
SLD-Plná
 62
     7
370
    25
100
AcDbLine
 10
7144.7460355189
 20
5517.5782732744
 30
0.0
 11
7144.7460355189
 21
5516.4182742741
 31
0.0
  0
LINE
  5
1AB
330
1F
100
AcDbEntity
  8
0
  6
SLD-Plná
 62
     7
370
    25
100
AcDbLine
 10
7144.7460356128
 20
5507.5382729676
 30
0.0
 11
7145.1623542052
 21
5507.5382735017
 31
0.0
  0
LINE
  5
1AC
330
1F
100
AcDbEntity
  8
0
  6
SLD-Plná
 62
     7
370
    25
100
AcDbLine
 10
7144.7460356128
 20
5509.2982729581
 30
0.0
 11
7144.7460356128
 21
5507.5382729676
 31
0.0
  0
LINE
  5
1AD
330
1F
100
AcDbEntity
  8
0
  6
SLD-Plná
 62
     7
370
    25
100
AcDbLine
 10
7144.7460355189
 20
5516.4182742741
 30
0.0
 11
7145.162354685
 21
5516.4182742741
 31
0.0
  0
LINE
  5
1AE
330
1F
100
AcDbEntity
  8
0
  6
SLD-Plná
 62
     7
370
    25
100
AcDbLine
 10
7144.7460356128
 20
5515.2182748225
 30
0.0
 11
7144.7460356128
 21
5513.458274832
 31
0.0
  0
LINE
  5
1AF
330
1F
100
AcDbEntity
  8
0
  6
SLD-Plná
 62
     7
370
    25
100
AcDbLine
 10
7146.840900205
 20
5504.8753298624
 30
0.0
 11
7146.840900205
 21
5505.5782735875
 31
0.0
  0
ARC
  5
1B0
330
1F
100
AcDbEntity
  8
0
  6
SLD-Plná
 62
     7
370
    25
100
AcDbCircle
 10
7146.1669757975
 20
5517.5782737274
 30
0.0
 40
1.420940278590024
100
AcDbArc
 50
0.0
 51
180.0000182659
  0
ARC
  5
1B1
330
1F
100
AcDbEntity
  8
0
  6
SLD-Plná
 62
     7
370
    25
100
AcDbCircle
 10
7145.1623542052
 20
5512.8582735017
 30
0.0
 40
0.6000000000003638
100
AcDbArc
 50
270.0
 51
90.0
  0
LINE
  5
1B2
330
1F
100
AcDbEntity
  8
0
  6
SLD-Plná
 62
     7
370
    25
100
AcDbLine
 10
7144.7460356128
 20
5506.338273516
 30
0.0
 11
7144.7460359725
 21
5505.0558730972
 31
0.0
  0
ARC
  5
1B3
330
1F
100
AcDbEntity
  8
0
  6
SLD-Plná
 62
     7
370
    25
100
AcDbCircle
 10
7145.1623542052
 20
5506.9382735088
 30
0.0
 40
0.5999999928482893
100
AcDbArc
 50
270.0000458203
 51
90.0
  0
ARC
  5
1B4
330
1F
100
AcDbEntity
  8
0
  6
SLD-Plná
 62
     7
370
    25
100
AcDbCircle
 10
7145.1623542052
 20
5515.8182745483
 30
0.0
 40
0.5999997258188259
100
AcDbArc
 50
270.0
 51
89.9999541798
  0
ARC
  5
1B5
330
1F
100
AcDbEntity
  8
0
  6
SLD-Plná
 62
     7
370
    25
100
AcDbCircle
 10
7146.2409002545
 20
5503.1782737274
 30
0.0
 40
1.799999851605351
100
AcDbArc
 50
109.4712046558
 51
70.5287793655
  0
LINE
  5
1B6
330
1F
100
AcDbEntity
  8
0
  6
SLD-Plná
 62
     7
370
    25
100
AcDbLine
 10
7144.7460356128
 20
5513.458274832
 30
0.0
 11
7145.1623542052
 21
5513.4582735017
 31
0.0
  0
LINE
  5
1B7
330
1F
100
AcDbEntity
  8
0
  6
SLD-Plná
 62
     7
370
    25
100
AcDbLine
 10
7144.7460356128
 20
5506.338273516
 30
0.0
 11
7145.162354685
 21
5506.338273516
 31
0.0
  0
CIRCLE
  5
1B8
330
1F
100
AcDbEntity
  8
0
  6
SLD-Plná
 62
     7
370
    25
100
AcDbCircle
 10
7146.2409002545
 20
5459.7572457042
 30
0.0
 40
12.5
  0
LINE
  5
1B9
330
1F
100
AcDbEntity
  8
0
  6
SLD-Plná
 62
     7
370
    25
100
AcDbLine
 10
7148.7879159902
 20
5455.8854276799
 30
0.0
 11
7148.7879166963
 21
5467.7412749434
 31
0.0
  0
ARC
  5
1BA
330
1F
100
AcDbEntity
  8
0
  6
SLD-Plná
 62
     7
370
    25
100
AcDbCircle
 10
7146.1669762445
 20
5467.7412753964
 30
0.0
 40
2.620940451757633
100
AcDbArc
 50
359.9999900972
 51
180.0
  0
LINE
  5
1BB
330
1F
100
AcDbEntity
  8
0
  6
SLD-Plná
 62
     7
370
    25
100
AcDbLine
 10
7143.5460357928
 20
5467.7412753964
 30
0.0
 11
7143.5460357928
 21
5455.728262102
 31
0.0
  0
ARC
  5
1BC
330
1F
100
AcDbEntity
  8
0
  6
SLD-Plná
 62
     7
370
    25
100
AcDbCircle
 10
7146.2409002545
 20
5453.3412753964
 30
0.0
 40
3.599999999999823
100
AcDbArc
 50
138.4669573769
 51
44.9677748391
  0
CIRCLE
  5
1BD
330
1F
100
AcDbEntity
  8
0
  6
SLD-Plná
 62
     7
370
    25
100
AcDbCircle
 10
7146.2409002545
 20
5459.7572457042
 30
0.0
 40
14.0
  0
ARC
  5
1BE
330
1F
100
AcDbEntity
  8
0
  6
SLD-Plná
 62
     7
370
    25
100
AcDbCircle
 10
7145.1623533105
 20
5463.0212755544
 30
0.0
 40
0.6000005507467107
100
AcDbArc
 50
269.9999889019
 51
322.8993464632
  0
LINE
  5
1BF
330
1F
100
AcDbEntity
  8
0
  6
SLD-Plná
 62
     7
370
    25
100
AcDbLine
 10
7145.6408999788
 20
5460.4232042383
 30
0.0
 11
7145.6408999788
 21
5462.6593449711
 31
0.0
  0
ARC
  5
1C0
330
1F
100
AcDbEntity
  8
0
  6
SLD-Plná
 62
     7
370
    25
100
AcDbCircle
 10
7145.1623539044
 20
5460.0612753211
 30
0.0
 40
0.5999990720183744
100
AcDbArc
 50
37.1005608464
 51
90.000011098
  0
LINE
  5
1C1
330
1F
100
AcDbEntity
  8
0
  6
SLD-Plná
 62
     7
370
    25
100
AcDbLine
 10
7144.746036206
 20
5460.6612743931
 30
0.0
 11
7145.1623537882
 21
5460.6612743931
 31
0.0
  0
LINE
  5
1C2
330
1F
100
AcDbEntity
  8
0
  6
SLD-Plná
 62
     7
370
    25
100
AcDbLine
 10
7144.746036206
 20
5462.4212750037
 30
0.0
 11
7144.746036206
 21
5460.6612743931
 31
0.0
  0
LINE
  5
1C3
330
1F
100
AcDbEntity
  8
0
  6
SLD-Plná
 62
     7
370
    25
100
AcDbLine
 10
7145.1623531943
 20
5462.4212750037
 30
0.0
 11
7144.746036206
 21
5462.4212750037
 31
0.0
  0
ARC
  5
1C4
330
1F
100
AcDbEntity
  8
0
  6
SLD-Plná
 62
     7
370
    25
100
AcDbCircle
 10
7146.2409002545
 20
5453.3412753964
 30
0.0
 40
2.400000198144384
100
AcDbArc
 50
128.5252852376
 51
55.8572514081
  0
LINE
  5
1C5
330
1F
100
AcDbEntity
  8
0
  6
SLD-Plná
 62
     7
370
    25
100
AcDbLine
 10
7144.7460362527
 20
5456.5012752565
 30
0.0
 11
7144.7460362527
 21
5455.2188756113
 31
0.0
  0
LINE
  5
1C6
330
1F
100
AcDbEntity
  8
0
  6
SLD-Plná
 62
     7
370
    25
100
AcDbLine
 10
7145.1623540749
 20
5456.5012752565
 30
0.0
 11
7144.7460362527
 21
5456.5012752565
 31
0.0
  0
ARC
  5
1C7
330
1F
100
AcDbEntity
  8
0
  6
SLD-Plná
 62
     7
370
    25
100
AcDbCircle
 10
7145.1623540749
 20
5457.1012752565
 30
0.0
 40
0.6000000000004804
100
AcDbArc
 50
270.0
 51
322.8993464632
  0
LINE
  5
1C8
330
1F
100
AcDbEntity
  8
0
  6
SLD-Plná
 62
     7
370
    25
100
AcDbLine
 10
7145.6409003039
 20
5455.0383315313
 30
0.0
 11
7145.6409003039
 21
5456.7393450053
 31
0.0
  0
ARC
  5
1C9
330
1F
100
AcDbEntity
  8
0
  6
SLD-Plná
 62
     7
370
    25
100
AcDbCircle
 10
7146.2408999217
 20
5465.1461915391
 30
0.0
 40
0.6000003822045984
100
AcDbArc
 50
359.9999991327
 51
179.9999991329
  0
LINE
  5
1CA
330
1F
100
AcDbEntity
  8
0
  6
SLD-Plná
 62
     7
370
    25
100
AcDbLine
 10
7145.6408995395
 20
5463.3832058056
 30
0.0
 11
7145.6408995395
 21
5465.1461915482
 31
0.0
  0
ARC
  5
1CB
330
1F
100
AcDbEntity
  8
0
  6
SLD-Plná
 62
     7
370
    25
100
AcDbCircle
 10
7145.1623533105
 20
5463.0212755544
 30
0.0
 40
0.6000000000003638
100
AcDbArc
 50
37.1006535369
 51
90.0
  0
LINE
  5
1CC
330
1F
100
AcDbEntity
  8
0
  6
SLD-Plná
 62
     7
370
    25
100
AcDbLine
 10
7144.7460356122
 20
5463.6212768848
 30
0.0
 11
7145.1623533105
 21
5463.6212755544
 31
0.0
  0
LINE
  5
1CD
330
1F
100
AcDbEntity
  8
0
  6
SLD-Plná
 62
     7
370
    25
100
AcDbLine
 10
7144.7460356122
 20
5465.3812768753
 30
0.0
 11
7144.7460356122
 21
5463.6212768848
 31
0.0
  0
LINE
  5
1CE
330
1F
100
AcDbEntity
  8
0
  6
SLD-Plná
 62
     7
370
    25
100
AcDbLine
 10
7145.1623533105
 20
5465.3812755544
 30
0.0
 11
7144.7460356122
 21
5465.3812768753
 31
0.0
  0
ARC
  5
1CF
330
1F
100
AcDbEntity
  8
0
  6
SLD-Plná
 62
     7
370
    25
100
AcDbCircle
 10
7145.1623533105
 20
5465.9812755544
 30
0.0
 40
0.6000000000003638
100
AcDbArc
 50
270.0
 51
90.0
  0
LINE
  5
1D0
330
1F
100
AcDbEntity
  8
0
  6
SLD-Plná
 62
     7
370
    25
100
AcDbLine
 10
7144.7460366801
 20
5466.5812763269
 30
0.0
 11
7145.1623533105
 21
5466.5812755544
 31
0.0
  0
LINE
  5
1D1
330
1F
100
AcDbEntity
  8
0
  6
SLD-Plná
 62
     7
370
    25
100
AcDbLine
 10
7146.8409003039
 20
5465.14619153
 30
0.0
 11
7146.8408997317
 21
5455.0383316986
 31
0.0
  0
ARC
  5
1D2
330
1F
100
AcDbEntity
  8
0
  6
SLD-Plná
 62
     7
370
    25
100
AcDbCircle
 10
7146.2409002545
 20
5453.3412753964
 30
0.0
 40
1.799999851604494
100
AcDbArc
 50
109.4712206345
 51
70.5287953441
  0
LINE
  5
1D3
330
1F
100
AcDbEntity
  8
0
  6
SLD-Plná
 62
     7
370
    25
100
AcDbLine
 10
7147.5879163432
 20
5455.3276159028
 30
0.0
 11
7147.5879163432
 21
5467.7412753964
 31
0.0
  0
LINE
  5
1D4
330
1F
100
AcDbEntity
  8
0
  6
SLD-Plná
 62
     7
370
    25
100
AcDbLine
 10
7144.7460361458
 20
5467.7412753964
 30
0.0
 11
7144.7460366801
 21
5466.5812763269
 31
0.0
  0
ARC
  5
1D5
330
1F
100
AcDbEntity
  8
0
  6
SLD-Plná
 62
     7
370
    25
100
AcDbCircle
 10
7146.1669762445
 20
5467.7412753964
 30
0.0
 40
1.420940098719257
100
AcDbArc
 50
0.0
 51
180.0
  0
ARC
  5
1D6
330
1F
100
AcDbEntity
  8
0
  6
SLD-Plná
 62
     7
370
    25
100
AcDbCircle
 10
7145.1623540749
 20
5457.1012752565
 30
0.0
 40
0.5999995192341997
100
AcDbArc
 50
37.1006033378
 51
90.000011098
  0
LINE
  5
1D7
330
1F
100
AcDbEntity
  8
0
  6
SLD-Plná
 62
     7
370
    25
100
AcDbLine
 10
7144.7460363766
 20
5459.461274938
 30
0.0
 11
7144.7460363766
 21
5457.7012747757
 31
0.0
  0
LINE
  5
1D8
330
1F
100
AcDbEntity
  8
0
  6
SLD-Plná
 62
     7
370
    25
100
AcDbLine
 10
7145.1623537882
 20
5459.461274938
 30
0.0
 11
7144.7460363766
 21
5459.461274938
 31
0.0
  0
ARC
  5
1D9
330
1F
100
AcDbEntity
  8
0
  6
SLD-Plná
 62
     7
370
    25
100
AcDbCircle
 10
7145.1623539044
 20
5460.0612753211
 30
0.0
 40
0.6000003830886383
100
AcDbArc
 50
269.999988902
 51
322.8993145851
  0
LINE
  5
1DA
330
1F
100
AcDbEntity
  8
0
  6
SLD-Plná
 62
     7
370
    25
100
AcDbLine
 10
7145.6409002376
 20
5457.4632047983
 30
0.0
 11
7145.6409002376
 21
5459.6993445726
 31
0.0
  0
LINE
  5
1DB
330
1F
100
AcDbEntity
  8
0
  6
SLD-Plná
 62
     7
370
    25
100
AcDbLine
 10
7144.7460363766
 20
5457.7012747757
 30
0.0
 11
7145.1623539587
 21
5457.7012747757
 31
0.0
  0
LINE
  5
1DC
330
1F
100
AcDbEntity
  8
0
  6
SLD-Plná
 62
     7
370
    25
100
AcDbLine
 10
7171.2409002545
 20
4864.7572457042
 30
0.0
 11
6996.2409002545
 21
4864.7572457042
 31
0.0
  0
LINE
  5
1DD
330
1F
100
AcDbEntity
  8
0
  6
SLD-Plná
 62
     7
370
    25
100
AcDbLine
 10
6996.2409002545
 20
4864.7572457042
 30
0.0
 11
6996.2409002545
 21
5404.7572457042
 31
0.0
  0
LINE
  5
1DE
330
1F
100
AcDbEntity
  8
0
  6
SLD-Plná
 62
     7
370
    25
100
AcDbLine
 10
6996.2409002545
 20
5404.7572457042
 30
0.0
 11
7171.2409002545
 21
5404.7572457042
 31
0.0
  0
LINE
  5
1DF
330
1F
100
AcDbEntity
  8
0
  6
SLD-Plná
 62
     7
370
    25
100
AcDbLine
 10
7171.2409002545
 20
5404.7572457042
 30
0.0
 11
7171.2409002545
 21
4864.7572457042
 31
0.0
  0
LINE
  5
1E0
330
1F
100
AcDbEntity
  8
0
  6
SLD-Plná
 62
     7
370
    25
100
AcDbLine
 10
7457.8176805591
 20
4709.7572457042
 30
0.0
 11
7611.4558188766
 21
4709.7572457042
 31
0.0
  0
LINE
  5
1E1
330
1F
100
AcDbEntity
  8
0
  6
SLD-Plná
 62
     7
370
    25
100
AcDbLine
 10
7272.9916029156
 20
4709.7572457042
 30
0.0
 11
7457.8176805591
 21
4709.7572457042
 31
0.0
  0
LINE
  5
1E2
330
1F
100
AcDbEntity
  8
0
  6
SLD-Plná
 62
     7
370
    25
100
AcDbLine
 10
7272.9916029156
 20
4709.7572457042
 30
0.0
 11
7226.2409154963
 21
5108.7572457042
 31
0.0
  0
LINE
  5
1E3
330
1F
100
AcDbEntity
  8
0
  6
SLD-Plná
 62
     7
370
    25
100
AcDbLine
 10
7518.9272945213
 20
5108.7572457042
 30
0.0
 11
7726.796833614
 21
5108.7572457042
 31
0.0
  0
LINE
  5
1E4
330
1F
100
AcDbEntity
  8
0
  6
SLD-Plná
 62
     7
370
    25
100
AcDbLine
 10
7430.4930698831
 20
5108.7572457042
 30
0.0
 11
7518.9272945213
 21
5108.7572457042
 31
0.0
  0
LINE
  5
1E5
330
1F
100
AcDbEntity
  8
0
  6
SLD-Plná
 62
     7
370
    25
100
AcDbLine
 10
7394.1780702523
 20
5108.7572457042
 30
0.0
 11
7430.4930698831
 21
5108.7572457042
 31
0.0
  0
LINE
  5
1E6
330
1F
100
AcDbEntity
  8
0
  6
SLD-Plná
 62
     7
370
    25
100
AcDbLine
 10
7226.2409154963
 20
5108.7572457042
 30
0.0
 11
7394.1780702523
 21
5108.7572457042
 31
0.0
  0
LINE
  5
1E7
330
1F
100
AcDbEntity
  8
0
  6
SLD-Plná
 62
     7
370
    25
100
AcDbLine
 10
7226.2409110441
 20
5108.7572457042
 30
0.0
 11
7227.8080526366
 21
5095.3822672726
 31
0.0
  0
LINE
  5
1E8
330
1F
100
AcDbEntity
  8
0
  6
SLD-Plná
 62
     7
370
    25
100
AcDbLine
 10
7271.424461323
 20
4723.1322241358
 30
0.0
 11
7272.9916029156
 21
4709.7572457042
 31
0.0
  0
LINE
  5
1E9
330
1F
100
AcDbEntity
  8
0
  6
SLD-Plná
 62
     8
370
    25
100
AcDbLine
 10
7061.2409002545
 20
5562.2572457042
 30
0.0
 11
7106.2409002545
 21
5562.2572457042
 31
0.0
  0
ENDSEC
  0
SECTION
  2
OBJECTS
  0
DICTIONARY
  5
C
330
0
100
AcDbDictionary
281
     1
  3
ACAD_GROUP
350
D
  3
ACAD_LAYOUT
350
1A
  3
ACAD_MLINESTYLE
350
17
  3
ACAD_PLOTSETTINGS
350
19
  3
ACAD_PLOTSTYLENAME
350
E
  3
ACAD_SCALELIST
350
47
  3
DWGPROPS
350
1EA
  0
DICTIONARY
  5
D
102
{ACAD_REACTORS
330
C
102
}
330
C
100
AcDbDictionary
281
     1
  0
DICTIONARY
  5
1A
102
{ACAD_REACTORS
330
C
102
}
330
C
100
AcDbDictionary
281
     1
  3
Layout1
350
1E
  3
Layout2
350
26
  3
Model
350
22
  0
DICTIONARY
  5
17
102
{ACAD_REACTORS
330
C
102
}
330
C
100
AcDbDictionary
281
     1
  3
Standard
350
18
  0
DICTIONARY
  5
19
102
{ACAD_REACTORS
330
C
102
}
330
C
100
AcDbDictionary
281
     1
  0
ACDBDICTIONARYWDFLT
  5
E
102
{ACAD_REACTORS
330
C
102
}
330
C
100
AcDbDictionary
281
     1
  3
Normal
350
F
100
AcDbDictionaryWithDefault
340
F
  0
DICTIONARY
  5
47
102
{ACAD_REACTORS
330
C
102
}
330
C
100
AcDbDictionary
281
     1
  3
A0
350
48
  3
A1
350
49
  3
A2
350
4A
  3
A3
350
4B
  3
A4
350
4C
  3
A5
350
4D
  3
A6
350
4E
  3
A7
350
4F
  3
A8
350
50
  3
A9
350
51
  3
B0
350
52
  3
B1
350
53
  3
B2
350
54
  3
B3
350
55
  3
B4
350
56
  3
B5
350
57
  3
B6
350
58
  3
B7
350
59
  3
B8
350
5A
  3
B9
350
5B
  3
C0
350
5C
  3
C1
350
5D
  3
C2
350
5E
  3
C3
350
5F
  3
C4
350
60
  3
C5
350
61
  3
C6
350
62
  3
C7
350
63
  3
C8
350
64
  3
C9
350
65
  3
D0
350
66
  3
D1
350
67
  3
D2
350
68
  0
XRECORD
  5
1EA
102
{ACAD_REACTORS
330
C
102
}
330
C
100
AcDbXrecord
280
     1
  1
DWGPROPS COOKIE
  2

  3

  4

  6

  7

  8
radek.stransky
  9

300
=
301
=
302
=
303
=
304
=
305
=
306
=
307
=
308
=
309
=
 40
0.0
 41
2460823.288933391
 42
2460823.288933901
  1

 90
        0
  0
LAYOUT
  5
1E
102
{ACAD_REACTORS
330
1A
102
}
330
1A
100
AcDbPlotSettings
  1

  2
none_device
  4

  6

 40
0.0
 41
0.0
 42
0.0
 43
0.0
 44
0.0
 45
0.0
 46
0.0
 47
0.0
 48
0.0
 49
0.0
140
0.0
141
0.0
142
1.0
143
1.0
 70
   688
 72
     1
 73
     0
 74
     5
  7

 75
    16
147
1.0
148
0.0
149
0.0
100
AcDbLayout
  1
Layout1
 70
     1
 71
     1
 10
0.0
 20
0.0
 11
420.0
 21
297.0
 12
0.0
 22
0.0
 32
0.0
 14
1.0000000000E+20
 24
1.0000000000E+20
 34
1.0000000000E+20
 15
-1.0000000000E+20
 25
-1.0000000000E+20
 35
-1.0000000000E+20
146
0.0
 13
0.0
 23
0.0
 33
0.0
 16
1.0
 26
0.0
 36
0.0
 17
0.0
 27
1.0
 37
0.0
 76
     0
330
1B
  0
LAYOUT
  5
26
102
{ACAD_REACTORS
330
1A
102
}
330
1A
100
AcDbPlotSettings
  1

  2
none_device
  4

  6

 40
0.0
 41
0.0
 42
0.0
 43
0.0
 44
0.0
 45
0.0
 46
0.0
 47
0.0
 48
0.0
 49
0.0
140
0.0
141
0.0
142
1.0
143
1.0
 70
   688
 72
     1
 73
     0
 74
     5
  7

 75
    16
147
1.0
148
0.0
149
0.0
100
AcDbLayout
  1
Layout2
 70
     1
 71
     2
 10
0.0
 20
0.0
 11
0.0
 21
0.0
 12
0.0
 22
0.0
 32
0.0
 14
0.0
 24
0.0
 34
0.0
 15
0.0
 25
0.0
 35
0.0
146
0.0
 13
0.0
 23
0.0
 33
0.0
 16
1.0
 26
0.0
 36
0.0
 17
0.0
 27
1.0
 37
0.0
 76
     0
330
23
  0
LAYOUT
  5
22
102
{ACAD_REACTORS
330
1A
102
}
330
1A
100
AcDbPlotSettings
  1

  2
none_device
  4
Letter_(8.50_x_11.00_Inches)
  6

 40
6.35
 41
6.35
 42
6.35000508
 43
6.35000508
 44
215.9
 45
279.4
 46
0.0
 47
0.0
 48
0.0
 49
0.0
140
0.0
141
0.0
142
1.0
143
1.0
 70
  1712
 72
     1
 73
     0
 74
     0
  7

 75
     0
147
1.0
148
0.0
149
0.0
100
AcDbLayout
  1
Model
 70
     1
 71
     0
 10
0.0
 20
0.0
 11
20000.0
 21
10000.0
 12
0.0
 22
0.0
 32
0.0
 14
0.0
 24
0.0
 34
0.0
 15
20000.0
 25
10000.0
 35
0.0
146
0.0
 13
0.0
 23
0.0
 33
0.0
 16
1.0
 26
0.0
 36
0.0
 17
0.0
 27
1.0
 37
0.0
 76
     0
330
1F
331
29
  0
MLINESTYLE
  5
18
102
{ACAD_REACTORS
330
17
102
}
330
17
100
AcDbMlineStyle
  2
Standard
 70
     0
  3

 62
   256
 51
90.0
 52
90.0
 71
     2
 49
0.5
 62
   256
  6
BYLAYER
 49
-0.5
 62
   256
  6
BYLAYER
  0
ACDBPLACEHOLDER
  5
F
102
{ACAD_REACTORS
330
E
102
}
330
E
  0
SCALE
  5
48
102
{ACAD_REACTORS
330
47
102
}
330
47
100
AcDbScale
 70
     0
300
1:1
140
1.0
141
1.0
290
     1
  0
SCALE
  5
49
102
{ACAD_REACTORS
330
47
102
}
330
47
100
AcDbScale
 70
     0
300
1:2
140
1.0
141
2.0
290
     0
  0
SCALE
  5
4A
102
{ACAD_REACTORS
330
47
102
}
330
47
100
AcDbScale
 70
     0
300
1:4
140
1.0
141
4.0
290
     0
  0
SCALE
  5
4B
102
{ACAD_REACTORS
330
47
102
}
330
47
100
AcDbScale
 70
     0
300
1:5
140
1.0
141
5.0
290
     0
  0
SCALE
  5
4C
102
{ACAD_REACTORS
330
47
102
}
330
47
100
AcDbScale
 70
     0
300
1:8
140
1.0
141
8.0
290
     0
  0
SCALE
  5
4D
102
{ACAD_REACTORS
330
47
102
}
330
47
100
AcDbScale
 70
     0
300
1:10
140
1.0
141
10.0
290
     0
  0
SCALE
  5
4E
102
{ACAD_REACTORS
330
47
102
}
330
47
100
AcDbScale
 70
     0
300
1:16
140
1.0
141
16.0
290
     0
  0
SCALE
  5
4F
102
{ACAD_REACTORS
330
47
102
}
330
47
100
AcDbScale
 70
     0
300
1:20
140
1.0
141
20.0
290
     0
  0
SCALE
  5
50
102
{ACAD_REACTORS
330
47
102
}
330
47
100
AcDbScale
 70
     0
300
1:30
140
1.0
141
30.0
290
     0
  0
SCALE
  5
51
102
{ACAD_REACTORS
330
47
102
}
330
47
100
AcDbScale
 70
     0
300
1:40
140
1.0
141
40.0
290
     0
  0
SCALE
  5
52
102
{ACAD_REACTORS
330
47
102
}
330
47
100
AcDbScale
 70
     0
300
1:50
140
1.0
141
50.0
290
     0
  0
SCALE
  5
53
102
{ACAD_REACTORS
330
47
102
}
330
47
100
AcDbScale
 70
     0
300
1:100
140
1.0
141
100.0
290
     0
  0
SCALE
  5
54
102
{ACAD_REACTORS
330
47
102
}
330
47
100
AcDbScale
 70
     0
300
2:1
140
2.0
141
1.0
290
     0
  0
SCALE
  5
55
102
{ACAD_REACTORS
330
47
102
}
330
47
100
AcDbScale
 70
     0
300
4:1
140
4.0
141
1.0
290
     0
  0
SCALE
  5
56
102
{ACAD_REACTORS
330
47
102
}
330
47
100
AcDbScale
 70
     0
300
8:1
140
8.0
141
1.0
290
     0
  0
SCALE
  5
57
102
{ACAD_REACTORS
330
47
102
}
330
47
100
AcDbScale
 70
     0
300
10:1
140
10.0
141
1.0
290
     0
  0
SCALE
  5
58
102
{ACAD_REACTORS
330
47
102
}
330
47
100
AcDbScale
 70
     0
300
100:1
140
100.0
141
1.0
290
     0
  0
SCALE
  5
59
102
{ACAD_REACTORS
330
47
102
}
330
47
100
AcDbScale
 70
     0
300
1/128" = 1'-0"
140
0.0078125
141
12.0
290
     0
  0
SCALE
  5
5A
102
{ACAD_REACTORS
330
47
102
}
330
47
100
AcDbScale
 70
     0
300
1/64" = 1'-0"
140
0.015625
141
12.0
290
     0
  0
SCALE
  5
5B
102
{ACAD_REACTORS
330
47
102
}
330
47
100
AcDbScale
 70
     0
300
1/32" = 1'-0"
140
0.03125
141
12.0
290
     0
  0
SCALE
  5
5C
102
{ACAD_REACTORS
330
47
102
}
330
47
100
AcDbScale
 70
     0
300
1/16" = 1'-0"
140
0.0625
141
12.0
290
     0
  0
SCALE
  5
5D
102
{ACAD_REACTORS
330
47
102
}
330
47
100
AcDbScale
 70
     0
300
3/32" = 1'-0"
140
0.09375
141
12.0
290
     0
  0
SCALE
  5
5E
102
{ACAD_REACTORS
330
47
102
}
330
47
100
AcDbScale
 70
     0
300
1/8" = 1'-0"
140
0.125
141
12.0
290
     0
  0
SCALE
  5
5F
102
{ACAD_REACTORS
330
47
102
}
330
47
100
AcDbScale
 70
     0
300
3/16" = 1'-0"
140
0.1875
141
12.0
290
     0
  0
SCALE
  5
60
102
{ACAD_REACTORS
330
47
102
}
330
47
100
AcDbScale
 70
     0
300
1/4" = 1'-0"
140
0.25
141
12.0
290
     0
  0
SCALE
  5
61
102
{ACAD_REACTORS
330
47
102
}
330
47
100
AcDbScale
 70
     0
300
3/8" = 1'-0"
140
0.375
141
12.0
290
     0
  0
SCALE
  5
62
102
{ACAD_REACTORS
330
47
102
}
330
47
100
AcDbScale
 70
     0
300
1/2" = 1'-0"
140
0.5
141
12.0
290
     0
  0
SCALE
  5
63
102
{ACAD_REACTORS
330
47
102
}
330
47
100
AcDbScale
 70
     0
300
3/4" = 1'-0"
140
0.75
141
12.0
290
     0
  0
SCALE
  5
64
102
{ACAD_REACTORS
330
47
102
}
330
47
100
AcDbScale
 70
     0
300
1" = 1'-0"
140
1.0
141
12.0
290
     0
  0
SCALE
  5
65
102
{ACAD_REACTORS
330
47
102
}
330
47
100
AcDbScale
 70
     0
300
1-1/2" = 1'-0"
140
1.5
141
12.0
290
     0
  0
SCALE
  5
66
102
{ACAD_REACTORS
330
47
102
}
330
47
100
AcDbScale
 70
     0
300
3" = 1'-0"
140
3.0
141
12.0
290
     0
  0
SCALE
  5
67
102
{ACAD_REACTORS
330
47
102
}
330
47
100
AcDbScale
 70
     0
300
6" = 1'-0"
140
6.0
141
12.0
290
     0
  0
SCALE
  5
68
102
{ACAD_REACTORS
330
47
102
}
330
47
100
AcDbScale
 70
     0
300
1'-0" = 1'-0"
140
12.0
141
12.0
290
     0
  0
ENDSEC
  0
EOF
