  0
SECTION
  2
HEADER
  9
$ACADVER
  1
AC1015
  9
$ACADMAINTVER
 70
     6
  9
$DWGCODEPAGE
  3
ANSI_1250
  9
$INSBASE
 10
0.0
 20
0.0
 30
0.0
  9
$EXTMIN
 10
0.0
 20
0.0
 30
0.0
  9
$EXTMAX
 10
20000.0
 20
10000.0
 30
0.0
  9
$LIMMIN
 10
0.0
 20
0.0
  9
$LIMMAX
 10
20000.0
 20
10000.0
  9
$ORTHOMODE
 70
     0
  9
$REGENMODE
 70
     1
  9
$FILLMODE
 70
     1
  9
$QTEXTMODE
 70
     0
  9
$MIRRTEXT
 70
     1
  9
$LTSCALE
 40
1.0
  9
$ATTMODE
 70
     1
  9
$TEXTSIZE
 40
2.0
  9
$TRACEWID
 40
1.0
  9
$TEXTSTYLE
  7
STANDARD
  9
$CLAYER
  8
0
  9
$CELTYPE
  6
ByLayer
  9
$CECOLOR
 62
   256
  9
$CELTSCALE
 40
1.0
  9
$DISPSILH
 70
     0
  9
$DIMSCALE
 40
1.0
  9
$DIMASZ
 40
2.0
  9
$DIMEXO
 40
1.0
  9
$DIMDLI
 40
3.75
  9
$DIMRND
 40
0.0
  9
$DIMDLE
 40
0.0
  9
$DIMEXE
 40
1.0
  9
$DIMTP
 40
0.0
  9
$DIMTM
 40
0.0
  9
$DIMTXT
 40
2.0
  9
$DIMCEN
 40
2.5
  9
$DIMTSZ
 40
0.0
  9
$DIMTOL
 70
     0
  9
$DIMLIM
 70
     0
  9
$DIMTIH
 70
     1
  9
$DIMTOH
 70
     1
  9
$DIMSE1
 70
     0
  9
$DIMSE2
 70
     0
  9
$DIMTAD
 70
     1
  9
$DIMZIN
 70
     0
  9
$DIMBLK
  1

  9
$DIMASO
 70
     1
  9
$DIMSHO
 70
     1
  9
$DIMPOST
  1

  9
$DIMAPOST
  1

  9
$DIMALT
 70
     0
  9
$DIMALTD
 70
     3
  9
$DIMALTF
 40
0.0393700787
  9
$DIMLFAC
 40
1.0
  9
$DIMTOFL
 70
     1
  9
$DIMTVP
 40
0.0
  9
$DIMTIX
 70
     0
  9
$DIMSOXD
 70
     0
  9
$DIMSAH
 70
     0
  9
$DIMBLK1
  1

  9
$DIMBLK2
  1

  9
$DIMSTYLE
  2
ISO-25
  9
$DIMCLRD
 70
     0
  9
$DIMCLRE
 70
     0
  9
$DIMCLRT
 70
     0
  9
$DIMTFAC
 40
1.0
  9
$DIMGAP
 40
1.524
  9
$DIMJUST
 70
     0
  9
$DIMSD1
 70
     0
  9
$DIMSD2
 70
     0
  9
$DIMTOLJ
 70
     0
  9
$DIMTZIN
 70
     0
  9
$DIMALTZ
 70
     0
  9
$DIMALTTZ
 70
     0
  9
$DIMUPT
 70
     0
  9
$DIMDEC
 70
     2
  9
$DIMTDEC
 70
     0
  9
$DIMALTU
 70
     2
  9
$DIMALTTD
 70
     3
  9
$DIMTXSTY
  7
STANDARD
  9
$DIMAUNIT
 70
     0
  9
$DIMADEC
 70
     2
  9
$DIMALTRND
 40
0.0
  9
$DIMAZIN
 70
     0
  9
$DIMDSEP
 70
    44
  9
$DIMATFIT
 70
     3
  9
$DIMFRAC
 70
     0
  9
$DIMLDRBLK
  1

  9
$DIMLUNIT
 70
     2
  9
$DIMLWD
 70
    -2
  9
$DIMLWE
 70
    -2
  9
$DIMTMOVE
 70
     0
  9
$LUNITS
 70
     2
  9
$LUPREC
 70
     3
  9
$SKETCHINC
 40
1.0
  9
$FILLETRAD
 40
10.0
  9
$AUNITS
 70
     0
  9
$AUPREC
 70
     2
  9
$MENU
  1
.
  9
$ELEVATION
 40
0.0
  9
$PELEVATION
 40
0.0
  9
$THICKNESS
 40
0.0
  9
$LIMCHECK
 70
     0
  9
$CHAMFERA
 40
0.0
  9
$CHAMFERB
 40
0.0
  9
$CHAMFERC
 40
0.0
  9
$CHAMFERD
 40
0.0
  9
$SKPOLY
 70
     0
  9
$TDCREATE
 40
2460859.376639861
  9
$TDUCREATE
 40
2460859.293306528
  9
$TDUPDATE
 40
2460859.376640752
  9
$TDUUPDATE
 40
2460859.293307419
  9
$TDINDWG
 40
0.0000000116
  9
$TDUSRTIMER
 40
0.0000000116
  9
$USRTIMER
 70
     1
  9
$ANGBASE
 50
0.0
  9
$ANGDIR
 70
     0
  9
$PDMODE
 70
     0
  9
$PDSIZE
 40
-1.0
  9
$PLINEWID
 40
0.0
  9
$SPLFRAME
 70
     0
  9
$SPLINETYPE
 70
     6
  9
$SPLINESEGS
 70
     8
  9
$HANDSEED
  5
1F1
  9
$SURFTAB1
 70
     6
  9
$SURFTAB2
 70
     6
  9
$SURFTYPE
 70
     6
  9
$SURFU
 70
     6
  9
$SURFV
 70
     6
  9
$UCSBASE
  2

  9
$UCSNAME
  2

  9
$UCSORG
 10
0.0
 20
0.0
 30
0.0
  9
$UCSXDIR
 10
1.0
 20
0.0
 30
0.0
  9
$UCSYDIR
 10
0.0
 20
1.0
 30
0.0
  9
$UCSORTHOREF
  2

  9
$UCSORTHOVIEW
 70
     0
  9
$UCSORGTOP
 10
0.0
 20
0.0
 30
0.0
  9
$UCSORGBOTTOM
 10
0.0
 20
0.0
 30
0.0
  9
$UCSORGLEFT
 10
0.0
 20
0.0
 30
0.0
  9
$UCSORGRIGHT
 10
0.0
 20
0.0
 30
0.0
  9
$UCSORGFRONT
 10
0.0
 20
0.0
 30
0.0
  9
$UCSORGBACK
 10
0.0
 20
0.0
 30
0.0
  9
$PUCSBASE
  2

  9
$PUCSNAME
  2

  9
$PUCSORG
 10
0.0
 20
0.0
 30
0.0
  9
$PUCSXDIR
 10
1.0
 20
0.0
 30
0.0
  9
$PUCSYDIR
 10
0.0
 20
1.0
 30
0.0
  9
$PUCSORTHOREF
  2

  9
$PUCSORTHOVIEW
 70
     0
  9
$PUCSORGTOP
 10
0.0
 20
0.0
 30
0.0
  9
$PUCSORGBOTTOM
 10
0.0
 20
0.0
 30
0.0
  9
$PUCSORGLEFT
 10
0.0
 20
0.0
 30
0.0
  9
$PUCSORGRIGHT
 10
0.0
 20
0.0
 30
0.0
  9
$PUCSORGFRONT
 10
0.0
 20
0.0
 30
0.0
  9
$PUCSORGBACK
 10
0.0
 20
0.0
 30
0.0
  9
$USERI1
 70
     0
  9
$USERI2
 70
     0
  9
$USERI3
 70
     0
  9
$USERI4
 70
     0
  9
$USERI5
 70
     0
  9
$USERR1
 40
0.0
  9
$USERR2
 40
0.0
  9
$USERR3
 40
0.0
  9
$USERR4
 40
0.0
  9
$USERR5
 40
0.0
  9
$WORLDVIEW
 70
     1
  9
$SHADEDGE
 70
     3
  9
$SHADEDIF
 70
    70
  9
$TILEMODE
 70
     1
  9
$MAXACTVP
 70
    64
  9
$PINSBASE
 10
0.0
 20
0.0
 30
0.0
  9
$PLIMCHECK
 70
     0
  9
$PEXTMIN
 10
1.0000000000E+20
 20
1.0000000000E+20
 30
1.0000000000E+20
  9
$PEXTMAX
 10
-1.0000000000E+20
 20
-1.0000000000E+20
 30
-1.0000000000E+20
  9
$PLIMMIN
 10
0.0
 20
0.0
  9
$PLIMMAX
 10
420.0
 20
297.0
  9
$UNITMODE
 70
     0
  9
$VISRETAIN
 70
     1
  9
$PLINEGEN
 70
     0
  9
$PSLTSCALE
 70
     1
  9
$TREEDEPTH
 70
  3020
  9
$CMLSTYLE
  2
Standard
  9
$CMLJUST
 70
     0
  9
$CMLSCALE
 40
20.0
  9
$PROXYGRAPHICS
 70
     1
  9
$MEASUREMENT
 70
     1
  9
$CELWEIGHT
370
    -1
  9
$ENDCAPS
280
     0
  9
$JOINSTYLE
280
     0
  9
$LWDISPLAY
290
     1
  9
$INSUNITS
 70
     4
  9
$HYPERLINKBASE
  1

  9
$STYLESHEET
  1

  9
$XEDIT
290
     1
  9
$CEPSNTYPE
380
     0
  9
$PSTYLEMODE
290
     1
  9
$FINGERPRINTGUID
  2
{17e47e55-528f-403e-a136-2f231f844ec4}
  9
$VERSIONGUID
  2
{FAEB1C32-E019-11D5-929B-00C0DF256EC4}
  9
$EXTNAMES
290
     1
  9
$PSVPSCALE
 40
0.0
  9
$OLESTARTUP
290
     0
  0
ENDSEC
  0
SECTION
  2
CLASSES
  0
CLASS
  1
ACDBDICTIONARYWDFLT
  2
AcDbDictionaryWithDefault
  3
ObjectDBX Classes
 90
        0
280
     0
281
     0
  0
CLASS
  1
VISUALSTYLE
  2
AcDbVisualStyle
  3
ObjectDBX Classes
 90
     4095
280
     0
281
     0
  0
CLASS
  1
MATERIAL
  2
AcDbMaterial
  3
ObjectDBX Classes
 90
     1153
280
     0
281
     0
  0
CLASS
  1
SCALE
  2
AcDbScale
  3
ObjectDBX Classes
 90
     1153
280
     0
281
     0
  0
CLASS
  1
TABLESTYLE
  2
AcDbTableStyle
  3
ObjectDBX Classes
 90
     4095
280
     0
281
     0
  0
CLASS
  1
MLEADERSTYLE
  2
AcDbMLeaderStyle
  3
ACDB_MLEADERSTYLE_CLASS
 90
     4095
280
     0
281
     0
  0
CLASS
  1
SUN
  2
AcDbSun
  3
SCENEOE
 90
     1153
280
     0
281
     0
  0
CLASS
  1
ACDBPLACEHOLDER
  2
AcDbPlaceHolder
  3
ObjectDBX Classes
 90
        0
280
     0
281
     0
  0
CLASS
  1
LAYOUT
  2
AcDbLayout
  3
ObjectDBX Classes
 90
        0
280
     0
281
     0
  0
ENDSEC
  0
SECTION
  2
TABLES
  0
TABLE
  2
VPORT
  5
8
330
0
100
AcDbSymbolTable
 70
     1
  0
VPORT
  5
29
330
8
100
AcDbSymbolTableRecord
100
AcDbViewportTableRecord
  2
*Active
 70
     0
 10
0.0
 20
0.0
 11
1.0
 21
1.0
 12
10000.0
 22
5000.0
 13
0.0
 23
0.0
 14
10.0
 24
10.0
 15
10.0
 25
10.0
 16
0.0
 26
0.0
 36
1.0
 17
0.0
 27
0.0
 37
0.0
 40
10000.0
 41
2.0
 42
50.0
 43
0.0
 44
0.0
 50
0.0
 51
0.0
 71
     0
 72
  2000
 73
     1
 74
     3
 75
     0
 76
     0
 77
     0
 78
     0
281
     0
 65
     1
110
0.0
120
0.0
130
0.0
111
1.0
121
0.0
131
0.0
112
0.0
122
1.0
132
0.0
 79
     0
146
0.0
  0
ENDTAB
  0
TABLE
  2
LTYPE
  5
5
330
0
100
AcDbSymbolTable
 70
    10
  0
LTYPE
  5
14
330
5
100
AcDbSymbolTableRecord
100
AcDbLinetypeTableRecord
  2
ByBlock
 70
     0
  3

 72
    65
 73
     0
 40
0.0
  0
LTYPE
  5
15
330
5
100
AcDbSymbolTableRecord
100
AcDbLinetypeTableRecord
  2
ByLayer
 70
     0
  3

 72
    65
 73
     0
 40
0.0
  0
LTYPE
  5
16
330
5
100
AcDbSymbolTableRecord
100
AcDbLinetypeTableRecord
  2
Continuous
 70
     0
  3
Solid line
 72
    65
 73
     0
 40
0.0
  0
LTYPE
  5
6E
330
5
100
AcDbSymbolTableRecord
100
AcDbLinetypeTableRecord
  2
SLD-Plná
 70
     0
  3
SolidWorks Line Style
 72
    65
 73
     0
 40
0.0
  0
LTYPE
  5
6F
330
5
100
AcDbSymbolTableRecord
100
AcDbLinetypeTableRecord
  2
SLD-Čárkovaná
 70
     0
  3
SolidWorks Line Style
 72
    65
 73
     2
 40
1.905
 49
1.27
 74
     0
 49
-0.635
 74
     0
  0
LTYPE
  5
70
330
5
100
AcDbSymbolTableRecord
100
AcDbLinetypeTableRecord
  2
SLD-Dvojitě-čerchovaná
 70
     0
  3
SolidWorks Line Style
 72
    65
 73
     6
 40
12.7
 49
6.35
 74
     0
 49
-1.27
 74
     0
 49
1.27
 74
     0
 49
-1.27
 74
     0
 49
1.27
 74
     0
 49
-1.27
 74
     0
  0
LTYPE
  5
71
330
5
100
AcDbSymbolTableRecord
100
AcDbLinetypeTableRecord
  2
SLD-Čerchovaná
 70
     0
  3
SolidWorks Line Style
 72
    65
 73
     4
 40
10.16
 49
6.35
 74
     0
 49
-1.27
 74
     0
 49
1.27
 74
     0
 49
-1.27
 74
     0
  0
LTYPE
  5
72
330
5
100
AcDbSymbolTableRecord
100
AcDbLinetypeTableRecord
  2
SLD-Osa
 70
     0
  3
SolidWorks Line Style
 72
    65
 73
     4
 40
19.05
 49
15.24
 74
     0
 49
-1.27
 74
     0
 49
1.27
 74
     0
 49
-1.27
 74
     0
  0
LTYPE
  5
73
330
5
100
AcDbSymbolTableRecord
100
AcDbLinetypeTableRecord
  2
SLD-Tečkovaná
 70
     0
  3
SolidWorks Line Style
 72
    65
 73
     2
 40
0.635
 49
0.0
 74
     0
 49
-0.635
 74
     0
  0
LTYPE
  5
74
330
5
100
AcDbSymbolTableRecord
100
AcDbLinetypeTableRecord
  2
SLD-Hrubá-tenká-čerchovaná
 70
     0
  3
SolidWorks Line Style
 72
    65
 73
     4
 40
10.16
 49
6.35
 74
     0
 49
-1.27
 74
     0
 49
1.27
 74
     0
 49
-1.27
 74
     0
  0
LTYPE
  5
75
330
5
100
AcDbSymbolTableRecord
100
AcDbLinetypeTableRecord
  2
SLD-Řez-1
 70
     0
  3
SolidWorks Line Style
 72
    65
 73
     4
 40
8.128
 49
5.08
 74
     0
 49
-1.016
 74
     0
 49
1.016
 74
     0
 49
-1.016
 74
     0
  0
LTYPE
  5
76
330
5
100
AcDbSymbolTableRecord
100
AcDbLinetypeTableRecord
  2
SLD-Řez-2
 70
     0
  3
SolidWorks Line Style
 72
    65
 73
     2
 40
5080.0
 49
0.0
 74
     0
 49
-5080.0
 74
     0
  0
ENDTAB
  0
TABLE
  2
LAYER
  5
2
330
0
100
AcDbSymbolTable
 70
    13
  0
LAYER
  5
10
330
2
100
AcDbSymbolTableRecord
100
AcDbLayerTableRecord
  2
0
 70
     0
 62
     7
  6
Continuous
370
    -3
390
F
  0
LAYER
  5
77
330
2
100
AcDbSymbolTableRecord
100
AcDbLayerTableRecord
  2
FORMAT
 70
     0
 62
     7
  6
SLD-Plná
370
    -3
390
F
  0
LAYER
  5
78
330
2
100
AcDbSymbolTableRecord
100
AcDbLayerTableRecord
  2
OSA
 70
     0
 62
     7
  6
SLD-Hrubá-tenká-čerchovaná
370
    -3
390
F
  0
LAYER
  5
79
330
2
100
AcDbSymbolTableRecord
100
AcDbLayerTableRecord
  2
0_35
 70
     0
 62
     7
  6
SLD-Plná
370
    35
390
F
  0
LAYER
  5
7A
330
2
100
AcDbSymbolTableRecord
100
AcDbLayerTableRecord
  2
0_5
 70
     0
 62
     7
  6
SLD-Plná
370
    50
390
F
  0
LAYER
  5
7B
330
2
100
AcDbSymbolTableRecord
100
AcDbLayerTableRecord
  2
0_25
 70
     0
 62
     7
  6
SLD-Plná
370
    25
390
F
  0
LAYER
  5
7C
330
2
100
AcDbSymbolTableRecord
100
AcDbLayerTableRecord
  2
0_18
 70
     0
 62
     7
  6
SLD-Plná
370
    -3
390
F
  0
LAYER
  5
7D
330
2
100
AcDbSymbolTableRecord
100
AcDbLayerTableRecord
  2
SLD-0
 70
     0
 62
   179
  6
SLD-Plná
370
    -3
390
F
  0
LAYER
  5
7E
330
2
100
AcDbSymbolTableRecord
100
AcDbLayerTableRecord
  2
KOTY
 70
     0
 62
     7
  6
SLD-Plná
370
    -3
390
F
  0
LAYER
  5
7F
330
2
100
AcDbSymbolTableRecord
100
AcDbLayerTableRecord
  2
SILNA
 70
     0
 62
   179
  6
SLD-Plná
370
    -3
390
F
  0
LAYER
  5
80
330
2
100
AcDbSymbolTableRecord
100
AcDbLayerTableRecord
  2
0_18_1
 70
     0
 62
   179
  6
SLD-Plná
370
    -3
390
F
  0
LAYER
  5
81
330
2
100
AcDbSymbolTableRecord
100
AcDbLayerTableRecord
  2
0_35_1
 70
     0
 62
   179
  6
SLD-Plná
370
    35
390
F
  0
LAYER
  5
82
330
2
100
AcDbSymbolTableRecord
100
AcDbLayerTableRecord
  2
0_5_1
 70
     0
 62
   179
  6
SLD-Plná
370
    50
390
F
  0
ENDTAB
  0
TABLE
  2
STYLE
  5
3
330
0
100
AcDbSymbolTable
 70
     1
  0
STYLE
  5
11
330
3
100
AcDbSymbolTableRecord
100
AcDbTextStyleTableRecord
  2
STANDARD
 70
     0
 40
0.0
 41
1.0
 50
0.0
 71
     0
 42
2.0
  3
SWISOP1.TTF
  4

1001
ACAD
1000
SWISOP1
1071
        2
  0
ENDTAB
  0
TABLE
  2
VIEW
  5
6
330
0
100
AcDbSymbolTable
 70
     0
  0
ENDTAB
  0
TABLE
  2
UCS
  5
7
330
0
100
AcDbSymbolTable
 70
     0
  0
ENDTAB
  0
TABLE
  2
APPID
  5
9
330
0
100
AcDbSymbolTable
 70
     1
  0
APPID
  5
12
330
9
100
AcDbSymbolTableRecord
100
AcDbRegAppTableRecord
  2
ACAD
 70
     0
  0
ENDTAB
  0
TABLE
  2
DIMSTYLE
  5
A
330
0
100
AcDbSymbolTable
 70
     1
100
AcDbDimStyleTable
  0
DIMSTYLE
105
27
330
A
100
AcDbSymbolTableRecord
100
AcDbDimStyleTableRecord
  2
ISO-25
 70
     0
 41
2.5
 42
0.625
 43
3.75
 44
1.25
 73
     0
 74
     0
 77
     1
 78
     8
140
2.5
141
2.5
143
0.0393700787
147
0.625
171
     3
172
     1
178
     0
271
     2
272
     2
274
     3
278
    44
283
     0
284
     8
340
11
  0
ENDTAB
  0
TABLE
  2
BLOCK_RECORD
  5
1
330
0
100
AcDbSymbolTable
 70
     1
  0
BLOCK_RECORD
  5
1F
330
1
100
AcDbSymbolTableRecord
100
AcDbBlockTableRecord
  2
*Model_Space
340
22
  0
BLOCK_RECORD
  5
1B
330
1
100
AcDbSymbolTableRecord
100
AcDbBlockTableRecord
  2
*Paper_Space
340
1E
  0
BLOCK_RECORD
  5
23
330
1
100
AcDbSymbolTableRecord
100
AcDbBlockTableRecord
  2
*Paper_Space0
340
26
  0
ENDTAB
  0
ENDSEC
  0
SECTION
  2
BLOCKS
  0
BLOCK
  5
20
330
1F
100
AcDbEntity
  8
0
100
AcDbBlockBegin
  2
*Model_Space
 70
     0
 10
0.0
 20
0.0
 30
0.0
  3
*Model_Space
  1

  0
ENDBLK
  5
21
330
1F
100
AcDbEntity
  8
0
100
AcDbBlockEnd
  0
BLOCK
  5
1C
330
1B
100
AcDbEntity
 67
     1
  8
0
100
AcDbBlockBegin
  2
*Paper_Space
 70
     0
 10
0.0
 20
0.0
 30
0.0
  3
*Paper_Space
  1

  0
ENDBLK
  5
1D
330
1B
100
AcDbEntity
 67
     1
  8
0
100
AcDbBlockEnd
  0
BLOCK
  5
24
330
23
100
AcDbEntity
  8
0
100
AcDbBlockBegin
  2
*Paper_Space0
 70
     0
 10
0.0
 20
0.0
 30
0.0
  3
*Paper_Space0
  1

  0
ENDBLK
  5
25
330
23
100
AcDbEntity
  8
0
100
AcDbBlockEnd
  0
ENDSEC
  0
SECTION
  2
ENTITIES
  0
LINE
  5
83
330
1F
100
AcDbEntity
  8
0
  6
SLD-Plná
 62
     7
370
    25
100
AcDbLine
 10
6433.4691269735
 20
5302.7603703612
 30
0.0
 11
6435.5627011969
 21
5310.6886185505
 31
0.0
  0
LINE
  5
84
330
1F
100
AcDbEntity
  8
0
  6
SLD-Plná
 62
     7
370
    25
100
AcDbLine
 10
6429.5152554607
 20
5297.5791600354
 30
0.0
 11
6429.5677120335
 21
5297.777810135
 31
0.0
  0
SPLINE
  5
85
330
1F
100
AcDbEntity
  8
0
  6
SLD-Plná
 62
     7
370
    25
100
AcDbSpline
210
0.0
220
0.0
230
1.0
 70
     8
 71
     3
 72
    10
 73
     6
 74
     0
 42
0.00000001
 43
0.00000001
 40
0.0
 40
0.0
 40
0.0
 40
0.0
 40
0.0723406910658673
 40
0.5670060687521878
 40
1.0
 40
1.0
 40
1.0
 40
1.0
 10
6411.514472750167
 20
5318.576686471632
 30
0.0
 10
6411.479446584058
 20
5318.563462992426
 30
0.0
 10
6411.204911623765
 20
5318.459817411362
 30
0.0
 10
6410.819491962154
 20
5318.12966203489
 30
0.0
 10
6410.590469645178
 20
5317.697764381431
 30
0.0
 10
6410.483571269432
 20
5317.496171985315
 30
0.0
  0
SPLINE
  5
86
330
1F
100
AcDbEntity
  8
0
  6
SLD-Plná
 62
     7
370
    25
100
AcDbSpline
210
0.0
220
0.0
230
1.0
 70
     8
 71
     3
 72
    10
 73
     6
 74
     0
 42
0.00000001
 43
0.00000001
 40
0.0
 40
0.0
 40
0.0
 40
0.0
 40
0.2408196631176834
 40
0.6708102980947238
 40
1.0
 40
1.0
 40
1.0
 40
1.0
 10
6435.526995518899
 20
5310.690426222476
 30
0.0
 10
6435.566087445731
 20
5310.822378664247
 30
0.0
 10
6435.674979164751
 20
5311.189936095614
 30
0.0
 10
6435.555179506712
 20
5311.753526003542
 30
0.0
 10
6435.3536196958
 20
5312.100623391879
 30
0.0
 10
6435.26622094369
 20
5312.251128983563
 30
0.0
  0
ARC
  5
87
330
1F
100
AcDbEntity
  8
0
  6
SLD-Plná
 62
     7
370
    25
100
AcDbCircle
 10
6418.3952648511
 20
5296.5942725507
 30
0.0
 40
23.12499999999943
100
AcDbArc
 50
45.3298026252
 51
105.0858606631
  0
LINE
  5
88
330
1F
100
AcDbEntity
  8
0
  6
SLD-Plná
 62
     7
370
    25
100
AcDbLine
 10
6395.1500369026
 20
5263.0369953889
 30
0.0
 11
6395.1500369026
 21
5262.0369953889
 31
0.0
  0
LINE
  5
89
330
1F
100
AcDbEntity
  8
0
  6
SLD-Plná
 62
     7
370
    25
100
AcDbLine
 10
6429.3675513238
 20
5262.0369953889
 30
0.0
 11
6429.3675513238
 21
5263.0369953889
 31
0.0
  0
LINE
  5
8A
330
1F
100
AcDbEntity
  8
0
  6
SLD-Plná
 62
     7
370
    25
100
AcDbLine
 10
6395.5796129358
 20
5296.3415589972
 30
0.0
 11
6395.9591047598
 21
5295.4977747173
 31
0.0
  0
LINE
  5
8B
330
1F
100
AcDbEntity
  8
0
  6
SLD-Plná
 62
     7
370
    25
100
AcDbLine
 10
6406.9031872163
 20
5300.4198737804
 30
0.0
 11
6406.5236953923
 21
5301.2636580603
 31
0.0
  0
LWPOLYLINE
  5
8C
330
1F
100
AcDbEntity
  8
0
  6
SLD-Plná
 62
     7
370
    25
100
AcDbPolyline
 90
        3
 70
   128
 43
0.0
 10
6429.3680734413
 20
5263.0369953889
 10
6430.6131045287
 20
5283.2775768724
 10
6431.3587240922
 20
5295.3854095559
  0
SPLINE
  5
8D
330
1F
100
AcDbEntity
  8
0
  6
SLD-Plná
 62
     7
370
    25
100
AcDbSpline
210
0.0
220
0.0
230
1.0
 70
     8
 71
     3
 72
    14
 73
    10
 74
     0
 42
0.00000001
 43
0.00000001
 40
0.0
 40
0.0
 40
0.0
 40
0.0
 40
0.1463003805444182
 40
0.2877873898603721
 40
0.3948127615303151
 40
0.4966057988360928
 40
0.631382687159429
 40
0.7992199110183542
 40
1.0
 40
1.0
 40
1.0
 40
1.0
 10
6394.399426010032
 20
5295.649198866903
 30
0.0
 10
6394.445764730034
 20
5294.057421627913
 30
0.0
 10
6394.536917598053
 20
5290.92623758626
 30
0.0
 10
6394.643026570906
 20
5286.620644687611
 30
0.0
 10
6394.733235732647
 20
5282.80595664369
 30
0.0
 10
6394.817190857781
 20
5279.081170580217
 30
0.0
 10
6394.912379622323
 20
5274.692302361286
 30
0.0
 10
6395.026301549492
 20
5269.227365830649
 30
0.0
 10
6395.10632090635
 20
5265.21983486822
 30
0.0
 10
6395.149906199365
 20
5263.036995388891
 30
0.0
  0
SPLINE
  5
8E
330
1F
100
AcDbEntity
  8
0
  6
SLD-Plná
 62
     7
370
    25
100
AcDbSpline
210
0.0
220
0.0
230
1.0
 70
     8
 71
     3
 72
     9
 73
     5
 74
     0
 42
0.00000001
 43
0.00000001
 40
0.0
 40
0.0
 40
0.0
 40
0.0
 40
0.1114025490393044
 40
0.9999999999999999
 40
0.9999999999999999
 40
0.9999999999999999
 40
0.9999999999999999
 10
6417.361884577999
 20
5303.106661434789
 30
0.0
 10
6416.972304267739
 20
5303.92255140645
 30
0.0
 10
6413.475254033067
 20
5311.246351253916
 30
0.0
 10
6409.971905055831
 20
5318.56989572079
 30
0.0
 10
6406.858838084834
 20
5325.077578666052
 30
0.0
  0
ARC
  5
8F
330
1F
100
AcDbEntity
  8
0
  6
SLD-Plná
 62
     7
370
    25
100
AcDbCircle
 10
6406.4099232769
 20
5324.8619137965
 30
0.0
 40
0.5000000000004523
100
AcDbArc
 50
25.5633153251
 51
90.0
  0
LINE
  5
90
330
1F
100
AcDbEntity
  8
0
  6
SLD-Plná
 62
     7
370
    25
100
AcDbLine
 10
6406.4099232769
 20
5325.3619137965
 30
0.0
 11
6394.1029377756
 21
5325.3619137965
 31
0.0
  0
ARC
  5
91
330
1F
100
AcDbEntity
  8
0
  6
SLD-Plná
 62
     7
370
    25
100
AcDbCircle
 10
6392.1923688329
 20
5323.1342672088
 30
0.0
 40
0.4999999999998472
100
AcDbArc
 50
132.136835308
 51
204.0178301468
  0
SPLINE
  5
92
330
1F
100
AcDbEntity
  8
0
  6
SLD-Plná
 62
     7
370
    25
100
AcDbSpline
210
0.0
220
0.0
230
1.0
 70
     8
 71
     3
 72
     9
 73
     5
 74
     0
 42
0.00000001
 43
0.00000001
 40
0.0
 40
0.0
 40
0.0
 40
0.0
 40
0.0518394579314534
 40
1.0
 40
1.0
 40
1.0
 40
1.0
 10
6391.735847309365
 20
5322.930756066366
 30
0.0
 10
6391.888477167364
 20
5322.588092989358
 30
0.0
 10
6394.832756758436
 20
5315.978010811022
 30
0.0
 10
6397.785170845725
 20
5309.367884599493
 30
0.0
 10
6400.58453338714
 20
5303.100423747629
 30
0.0
  0
SPLINE
  5
93
330
1F
100
AcDbEntity
  8
0
  6
SLD-Plná
 62
     7
370
    25
100
AcDbSpline
210
0.0
220
0.0
230
1.0
 70
     8
 71
     3
 72
     9
 73
     5
 74
     0
 42
0.00000001
 43
0.00000001
 40
0.0
 40
0.0
 40
0.0
 40
0.0
 40
0.1455945016986708
 40
1.0
 40
1.0
 40
1.0
 40
1.0
 10
6393.767701984817
 20
5325.232855241736
 30
0.0
 10
6393.674916894629
 20
5325.149002074537
 30
0.0
 10
6393.037632594014
 20
5324.573065715534
 30
0.0
 10
6392.401069170772
 20
5323.997125283474
 30
0.0
 10
6391.857185881937
 20
5323.505038611627
 30
0.0
  0
ARC
  5
94
330
1F
100
AcDbEntity
  8
0
  6
SLD-Plná
 62
     7
370
    25
100
AcDbCircle
 10
6394.1029377756
 20
5324.8619137965
 30
0.0
 40
0.5000000000002432
100
AcDbArc
 50
90.0
 51
132.1079312312
  0
ARC
  5
95
330
1F
100
AcDbEntity
  8
0
  6
SLD-Plná
 62
     7
370
    25
100
AcDbCircle
 10
6401.0453219594
 20
5275.490570498
 30
0.0
 40
3.523663516656451
100
AcDbArc
 50
110.7766160378
 51
187.3957821652
  0
ARC
  5
96
330
1F
100
AcDbEntity
  8
0
  6
SLD-Plná
 62
     7
370
    25
100
AcDbCircle
 10
6400.9592678558
 20
5274.5970237481
 30
0.0
 40
3.436575101562579
100
AcDbArc
 50
172.6444513623
 51
257.8843280032
  0
LINE
  5
97
330
1F
100
AcDbEntity
  8
0
  6
SLD-Plná
 62
     7
370
    25
100
AcDbLine
 10
6400.237978833
 20
5273.3049445813
 30
0.0
 11
6401.2986390048
 21
5274.1709699851
 31
0.0
  0
LINE
  5
98
330
1F
100
AcDbEntity
  8
0
  6
SLD-Plná
 62
     7
370
    25
100
AcDbLine
 10
6401.2986390048
 20
5274.1709699851
 30
0.0
 11
6401.2986390048
 21
5275.9030207927
 31
0.0
  0
LINE
  5
99
330
1F
100
AcDbEntity
  8
0
  6
SLD-Plná
 62
     7
370
    25
100
AcDbLine
 10
6401.2986390048
 20
5275.9030207927
 30
0.0
 11
6400.237978833
 21
5276.7690461965
 31
0.0
  0
LINE
  5
9A
330
1F
100
AcDbEntity
  8
0
  6
SLD-Plná
 62
     7
370
    25
100
AcDbLine
 10
6400.237978833
 20
5276.7690461965
 30
0.0
 11
6399.1773186612
 21
5275.9030207927
 31
0.0
  0
LINE
  5
9B
330
1F
100
AcDbEntity
  8
0
  6
SLD-Plná
 62
     7
370
    25
100
AcDbLine
 10
6399.1773186612
 20
5275.9030207927
 30
0.0
 11
6399.1773186612
 21
5274.1709699851
 31
0.0
  0
LINE
  5
9C
330
1F
100
AcDbEntity
  8
0
  6
SLD-Plná
 62
     7
370
    25
100
AcDbLine
 10
6399.1773186612
 20
5274.1709699851
 30
0.0
 11
6400.237978833
 21
5273.3049445813
 31
0.0
  0
LINE
  5
9D
330
1F
100
AcDbEntity
  8
0
  6
SLD-Plná
 62
     7
370
    25
100
AcDbLine
 10
6401.2986390048
 20
5274.1709699851
 30
0.0
 11
6399.1773186612
 21
5274.1709699851
 31
0.0
  0
LINE
  5
9E
330
1F
100
AcDbEntity
  8
0
  6
SLD-Plná
 62
     7
370
    25
100
AcDbLine
 10
6401.2986390048
 20
5275.9030207927
 30
0.0
 11
6399.1773186612
 21
5275.9030207927
 31
0.0
  0
LWPOLYLINE
  5
9F
330
1F
100
AcDbEntity
  8
0
  6
SLD-Plná
 62
     7
370
    25
100
AcDbPolyline
 90
       19
 70
   128
 43
0.0
 10
6430.3236729206
 20
5301.5508942044
 10
6431.5045544835
 20
5301.6706216934
 10
6432.4786886366
 20
5301.914516631
 10
6433.1369855049
 20
5302.2720200171
 10
6433.4614884659
 20
5302.7333800914
 10
6433.4433459248
 20
5303.2860121537
 10
6433.0830527627
 20
5303.9148418418
 10
6432.390436838
 20
5304.6027163213
 10
6431.3843909076
 20
5305.3308721693
 10
6430.0923572817
 20
5306.0794471926
 10
6428.5495792698
 20
5306.8280222159
 10
6426.7981398342
 20
5307.556178064
 10
6424.8858136771
 20
5308.2440525434
 10
6422.8647640709
 20
5308.8728822316
 10
6420.7901199805
 20
5309.4255142939
 10
6418.7184722884
 20
5309.8868743681
 10
6416.7063301434
 20
5310.2443777543
 10
6414.8085795378
 20
5310.4882726919
 10
6413.769582446
 20
5310.5756667406
  0
LWPOLYLINE
  5
A0
330
1F
100
AcDbEntity
  8
0
  6
SLD-Plná
 62
     7
370
    25
100
AcDbPolyline
 90
       18
 70
   128
 43
0.0
 10
6430.4349898299
 20
5301.972445098
 10
6431.2717925944
 20
5302.1344791857
 10
6432.0267099597
 20
5302.4437450114
 10
6432.4435469353
 20
5302.863479808
 10
6432.5096381404
 20
5303.3809301463
 10
6432.2229754273
 20
5303.9803735596
 10
6431.5922688974
 20
5304.643596263
 10
6430.6366822496
 20
5305.3504465703
 10
6429.3852505005
 20
5306.0794471926
 10
6427.8759977707
 20
5306.808447815
 10
6426.1547819405
 20
5307.5152981223
 10
6424.2739012821
 20
5308.1785208257
 10
6422.2905054023
 20
5308.7779642389
 10
6420.2648587815
 20
5309.2954145772
 10
6418.2585096671
 20
5309.7151493739
 10
6416.3324199618
 20
5310.0244151996
 10
6414.5451129265
 20
5310.2138151686
 10
6413.8716857269
 20
5310.2550540596
  0
ARC
  5
A1
330
1F
100
AcDbEntity
  8
0
  6
SLD-Plná
 62
     7
370
    25
100
AcDbCircle
 10
6418.5575581435
 20
5286.1143103365
 30
0.0
 40
16.56421496106433
100
AcDbArc
 50
50.4911914609
 51
73.8290211514
  0
LINE
  5
A2
330
1F
100
AcDbEntity
  8
0
  6
SLD-Plná
 62
     7
370
    25
100
AcDbLine
 10
6430.7762271445
 20
5305.258261768
 30
0.0
 11
6429.0956593719
 21
5298.8940458493
 31
0.0
  0
LINE
  5
A3
330
1F
100
AcDbEntity
  8
0
  6
SLD-Plná
 62
     7
370
    25
100
AcDbLine
 10
6429.4817600279
 20
5298.3626172891
 30
0.0
 11
6431.2195524769
 21
5304.9435398486
 31
0.0
  0
LWPOLYLINE
  5
A4
330
1F
100
AcDbEntity
  8
0
  6
SLD-Plná
 62
     7
370
    25
100
AcDbPolyline
 90
        3
 70
   128
 43
0.0
 10
6429.5677120335
 20
5297.777810135
 10
6429.5829152233
 20
5298.0441322542
 10
6429.4817600279
 20
5298.3626172891
  0
LINE
  5
A5
330
1F
100
AcDbEntity
  8
0
  6
SLD-Plná
 62
     7
370
    25
100
AcDbLine
 10
6414.4476858888
 20
5309.2049230773
 30
0.0
 11
6414.710687427
 21
5310.2008951546
 31
0.0
  0
ARC
  5
A6
330
1F
100
AcDbEntity
  8
0
  6
SLD-Plná
 62
     7
370
    25
100
AcDbCircle
 10
6409.5626914759
 20
5263.1598489159
 30
0.0
 40
41.17652696459479
100
AcDbArc
 50
73.0831564074
 51
79.4687109281
  0
LINE
  5
A7
330
1F
100
AcDbEntity
  8
0
  6
SLD-Plná
 62
     7
370
    25
100
AcDbLine
 10
6423.1242718693
 20
5308.5375512288
 30
0.0
 11
6421.5443798207
 21
5302.5545886317
 31
0.0
  0
LINE
  5
A8
330
1F
100
AcDbEntity
  8
0
  6
SLD-Plná
 62
     7
370
    25
100
AcDbLine
 10
6423.170769323
 20
5302.0231600715
 30
0.0
 11
6424.7539659912
 21
5308.018637078
 31
0.0
  0
LWPOLYLINE
  5
A9
330
1F
100
AcDbEntity
  8
0
  6
SLD-Plná
 62
     7
370
    25
100
AcDbPolyline
 90
       17
 70
   128
 43
0.0
 10
6435.1473706992
 20
5312.4337336424
 10
6434.7050970926
 20
5312.9873637113
 10
6433.8775251401
 20
5313.689089709
 10
6432.7428197904
 20
5314.4226233314
 10
6431.3336244503
 20
5315.1668621517
 10
6429.6904791041
 20
5315.9003957741
 10
6427.8606540517
 20
5316.6021217718
 10
6425.8967900283
 20
5317.2518527655
 10
6423.8553838263
 20
5317.8308971774
 10
6421.7951629853
 20
5318.3225969542
 10
6419.7753963079
 20
5318.7128067884
 10
6417.8541888041
 20
5318.9903010535
 10
6416.0868101156
 20
5319.1470967449
 10
6414.5241045097
 20
5319.1786831359
 10
6413.2110281813
 20
5319.0841515436
 10
6412.1853559457
 20
5318.8662214697
 10
6411.6843528525
 20
5318.6597334939
  0
LINE
  5
AA
330
1F
100
AcDbEntity
  8
0
  6
SLD-Plná
 62
     7
370
    25
100
AcDbLine
 10
6418.6227551439
 20
5262.0369953889
 30
0.0
 11
6418.6227551439
 21
5263.0369953889
 31
0.0
  0
LINE
  5
AB
330
1F
100
AcDbEntity
  8
0
  6
SLD-Plná
 62
     7
370
    25
100
AcDbLine
 10
6418.6227551439
 20
5263.0369953889
 30
0.0
 11
6395.1500369026
 21
5263.0369953889
 31
0.0
  0
LINE
  5
AC
330
1F
100
AcDbEntity
  8
0
  6
SLD-Plná
 62
     7
370
    25
100
AcDbLine
 10
6425.3402695651
 20
5262.0369953889
 30
0.0
 11
6425.3402695651
 21
5263.0369953889
 31
0.0
  0
LINE
  5
AD
330
1F
100
AcDbEntity
  8
0
  6
SLD-Plná
 62
     7
370
    25
100
AcDbLine
 10
6425.3402695651
 20
5263.0369953889
 30
0.0
 11
6418.6227551439
 21
5263.0369953889
 31
0.0
  0
LINE
  5
AE
330
1F
100
AcDbEntity
  8
0
  6
SLD-Plná
 62
     7
370
    25
100
AcDbLine
 10
6429.3675513238
 20
5263.0369953889
 30
0.0
 11
6425.3402695651
 21
5263.0369953889
 31
0.0
  0
LWPOLYLINE
  5
AF
330
1F
100
AcDbEntity
  8
0
  6
SLD-Plná
 62
     7
370
    25
100
AcDbPolyline
 90
       16
 70
   128
 43
0.0
 10
6395.8300724124
 20
5296.0139245376
 10
6396.462723826
 20
5295.7011336538
 10
6397.3837146097
 20
5295.5832198428
 10
6398.5351755253
 20
5295.6675920631
 10
6399.8447560488
 20
5295.9489488976
 10
6401.2301704195
 20
5296.4096116618
 10
6402.6043679573
 20
5297.02063522
 10
6403.8810027771
 20
5297.7436267149
 10
6404.9798592178
 20
5298.5331579317
 10
6405.8318920881
 20
5299.3396197205
 10
6406.3835650292
 20
5300.1123391212
 10
6406.6002144011
 20
5300.8027633319
 10
6406.4682273273
 20
5301.3675104602
 10
6405.9958970408
 20
5301.7710953672
 10
6405.2129017907
 20
5301.9881593288
 10
6404.4613881048
 20
5302.0201972998
  0
LWPOLYLINE
  5
B0
330
1F
100
AcDbEntity
  8
0
  6
SLD-Plná
 62
     7
370
    25
100
AcDbPolyline
 90
        5
 70
   128
 43
0.0
 10
6396.3819648199
 20
5298.3864781699
 10
6395.9553942378
 20
5297.8718987118
 10
6395.5681797796
 20
5297.1345123947
 10
6395.5255121838
 20
5296.5019386926
 10
6395.8300724124
 20
5296.0139245376
  0
LINE
  5
B1
330
1F
100
AcDbEntity
  8
0
  6
SLD-Plná
 62
     7
370
    25
100
AcDbLine
 10
6400.3174483656
 20
5296.7110955354
 30
0.0
 11
6404.2336346794
 21
5298.8026085288
 31
0.0
  0
LINE
  5
B2
330
1F
100
AcDbEntity
  8
0
  6
SLD-Plná
 62
     7
370
    25
100
AcDbLine
 10
6404.2336346794
 20
5298.8026085288
 30
0.0
 11
6404.9678404778
 21
5300.8941215221
 31
0.0
  0
LINE
  5
B3
330
1F
100
AcDbEntity
  8
0
  6
SLD-Plná
 62
     7
370
    25
100
AcDbLine
 10
6397.1354678503
 20
5296.7110955354
 30
0.0
 11
6400.3174483656
 21
5296.7110955354
 31
0.0
  0
LINE
  5
B4
330
1F
100
AcDbEntity
  8
0
  6
SLD-Plná
 62
     7
370
    25
100
AcDbLine
 10
6404.0191109178
 20
5303.0035822219
 30
0.0
 11
6400.8371304024
 21
5303.0035822219
 31
0.0
  0
LINE
  5
B5
330
1F
100
AcDbEntity
  8
0
  6
SLD-Plná
 62
     7
370
    25
100
AcDbLine
 10
6403.2849051194
 20
5300.9120692285
 30
0.0
 11
6404.0191109178
 21
5303.0035822219
 31
0.0
  0
LINE
  5
B6
330
1F
100
AcDbEntity
  8
0
  6
SLD-Plná
 62
     7
370
    25
100
AcDbLine
 10
6399.3687188056
 20
5298.8205562352
 30
0.0
 11
6403.2849051194
 21
5300.9120692285
 31
0.0
  0
LINE
  5
B7
330
1F
100
AcDbEntity
  8
0
  6
SLD-Plná
 62
     7
370
    25
100
AcDbLine
 10
6396.1867382903
 20
5298.8205562352
 30
0.0
 11
6399.3687188056
 21
5298.8205562352
 31
0.0
  0
LINE
  5
B8
330
1F
100
AcDbEntity
  8
0
  6
SLD-Plná
 62
     7
370
    25
100
AcDbLine
 10
6396.9209440887
 20
5300.9120692285
 30
0.0
 11
6396.1867382903
 21
5298.8205562352
 31
0.0
  0
LINE
  5
B9
330
1F
100
AcDbEntity
  8
0
  6
SLD-Plná
 62
     7
370
    25
100
AcDbLine
 10
6400.8371304024
 20
5303.0035822219
 30
0.0
 11
6396.9209440887
 21
5300.9120692285
 31
0.0
  0
LWPOLYLINE
  5
BA
330
1F
100
AcDbEntity
  8
0
  6
SLD-Plná
 62
     7
370
    25
100
AcDbPolyline
 90
       18
 70
   128
 43
0.0
 10
6397.7096996345
 20
5299.6339223992
 10
6398.1832902757
 20
5299.4536587022
 10
6398.9161381699
 20
5299.4703614281
 10
6399.8092681483
 20
5299.6817747812
 10
6400.7420580583
 20
5300.0593462167
 10
6401.5885294537
 20
5300.55208262
 10
6402.2343616821
 20
5301.0934372096
 10
6402.5923315224
 20
5301.6102970484
 10
6402.6140931642
 20
5302.0328573511
 10
6402.296707577
 20
5302.3040490073
 10
6401.6830394431
 20
5302.3872460811
 10
6400.8559680445
 20
5302.2712123468
 10
6399.9271939565
 20
5301.9716188031
 10
6399.0221532662
 20
5301.5289272182
 10
6398.2630767339
 20
5301.0029255436
 10
6397.7524818513
 20
5300.4646532203
 10
6397.5593272868
 20
5299.986806908
 10
6397.7096996345
 20
5299.6339223992
  0
LINE
  5
BB
330
1F
100
AcDbEntity
  8
0
  6
SLD-Plná
 62
     7
370
    25
100
AcDbLine
 10
6400.3174483656
 20
5296.7110955354
 30
0.0
 11
6399.3687188056
 21
5298.8205562352
 31
0.0
  0
LINE
  5
BC
330
1F
100
AcDbEntity
  8
0
  6
SLD-Plná
 62
     7
370
    25
100
AcDbLine
 10
6397.1354678503
 20
5296.7110955354
 30
0.0
 11
6396.1867382903
 21
5298.8205562352
 31
0.0
  0
LINE
  5
BD
330
1F
100
AcDbEntity
  8
0
  6
SLD-Plná
 62
     7
370
    25
100
AcDbLine
 10
6404.2336346794
 20
5298.8026085288
 30
0.0
 11
6403.2849051194
 21
5300.9120692285
 31
0.0
  0
LINE
  5
BE
330
1F
100
AcDbEntity
  8
0
  6
SLD-Plná
 62
     7
370
    25
100
AcDbLine
 10
6404.9678404778
 20
5300.8941215221
 30
0.0
 11
6404.0191109178
 21
5303.0035822219
 31
0.0
  0
SPLINE
  5
BF
330
1F
100
AcDbEntity
  8
0
  6
SLD-Plná
 62
     7
370
    25
100
AcDbSpline
210
0.0
220
0.0
230
1.0
 70
     8
 71
     3
 72
     9
 73
     5
 74
     0
 42
0.00000001
 43
0.00000001
 40
0.0
 40
0.0
 40
0.0
 40
0.0
 40
0.2745176487106464
 40
1.0
 40
1.0
 40
1.0
 40
1.0
 10
6413.837715441269
 20
5303.03699538889
 30
0.0
 10
6413.815207310439
 20
5303.041620155315
 30
0.0
 10
6413.733215748385
 20
5303.058467037278
 30
0.0
 10
6413.664207094966
 20
5303.119812648383
 30
0.0
 10
6413.614142534823
 20
5303.164317806568
 30
0.0
  0
LINE
  5
C0
330
1F
100
AcDbEntity
  8
0
  6
SLD-Plná
 62
     7
370
    25
100
AcDbLine
 10
6413.8377154413
 20
5303.0369953889
 30
0.0
 11
6417.0948483211
 21
5303.0369953889
 31
0.0
  0
SPLINE
  5
C1
330
1F
100
AcDbEntity
  8
0
  6
SLD-Plná
 62
     7
370
    25
100
AcDbSpline
210
0.0
220
0.0
230
1.0
 70
     8
 71
     3
 72
    14
 73
    10
 74
     0
 42
0.00000001
 43
0.00000001
 40
0.0
 40
0.0
 40
0.0
 40
0.0
 40
0.2638750683509851
 40
0.5488124146961153
 40
0.6682181204224957
 40
0.7889153793170609
 40
0.8691421855411943
 40
0.9492569129257612
 40
0.9999999999999999
 40
0.9999999999999999
 40
0.9999999999999999
 40
0.9999999999999999
 10
6417.149381701062
 20
5303.27672000814
 30
0.0
 10
6417.153408446107
 20
5303.251832118442
 30
0.0
 10
6417.161783347476
 20
5303.200069809378
 30
0.0
 10
6417.164131147338
 20
5303.135523707729
 30
0.0
 10
6417.155687749751
 20
5303.086742923597
 30
0.0
 10
6417.143402283064
 20
5303.059644490681
 30
0.0
 10
6417.125540541046
 20
5303.043559478395
 30
0.0
 10
6417.109315923441
 20
5303.037669741811
 30
0.0
 10
6417.098890871568
 20
5303.03718381719
 30
0.0
 10
6417.094848321131
 20
5303.03699538889
 30
0.0
  0
SPLINE
  5
C2
330
1F
100
AcDbEntity
  8
0
  6
SLD-Plná
 62
     7
370
    25
100
AcDbSpline
210
0.0
220
0.0
230
1.0
 70
     8
 71
     3
 72
    15
 73
    11
 74
     0
 42
0.00000001
 43
0.00000001
 40
0.0
 40
0.0
 40
0.0
 40
0.0
 40
0.0295044629456713
 40
0.4406843821135059
 40
0.539340896118945
 40
0.6401404393324208
 40
0.7391251377879894
 40
0.8415750696715609
 40
0.9321270944592259
 40
0.9999999999999999
 40
0.9999999999999999
 40
0.9999999999999999
 40
0.9999999999999999
 10
6417.149381701062
 20
5303.27672000814
 30
0.0
 10
6417.335627019193
 20
5303.196808630998
 30
0.0
 10
6420.117423220441
 20
5302.003236800041
 30
0.0
 10
6423.518510031608
 20
5300.545055825663
 30
0.0
 10
6427.321937470509
 20
5298.879308891668
 30
0.0
 10
6428.866560568109
 20
5298.046391548074
 30
0.0
 10
6430.104937238774
 20
5297.220040519647
 30
0.0
 10
6430.911774328589
 20
5296.467118055373
 30
0.0
 10
6431.335180206619
 20
5295.842684677247
 30
0.0
 10
6431.325259681588
 20
5295.524089430777
 30
0.0
 10
6431.32100949914
 20
5295.387595856031
 30
0.0
  0
SPLINE
  5
C3
330
1F
100
AcDbEntity
  8
0
  6
SLD-Plná
 62
     7
370
    25
100
AcDbSpline
210
0.0
220
0.0
230
1.0
 70
     8
 71
     3
 72
     9
 73
     5
 74
     0
 42
0.00000001
 43
0.00000001
 40
0.0
 40
0.0
 40
0.0
 40
0.0
 40
0.2100715338977018
 40
1.0
 40
1.0
 40
1.0
 40
1.0
 10
6400.579934458063
 20
5303.164317806566
 30
0.0
 10
6400.540136314566
 20
5303.121883822596
 30
0.0
 10
6400.350685879474
 20
5302.919886040305
 30
0.0
 10
6400.155807499352
 20
5302.717424497618
 30
0.0
 10
6400.001867519465
 20
5302.557494361758
 30
0.0
  0
SPLINE
  5
C4
330
1F
100
AcDbEntity
  8
0
  6
SLD-Plná
 62
     7
370
    25
100
AcDbSpline
210
0.0
220
0.0
230
1.0
 70
     8
 71
     3
 72
    20
 73
    16
 74
     0
 42
0.00000001
 43
0.00000001
 40
0.0
 40
0.0
 40
0.0
 40
0.0
 40
0.0305682763705089
 40
0.1149353036938852
 40
0.1992514267911658
 40
0.2837449540637546
 40
0.3634275345022854
 40
0.4388930072377861
 40
0.5135070492170353
 40
0.5907055665840238
 40
0.6725237984619792
 40
0.7522355432839057
 40
0.8325948716891076
 40
0.9930841475579922
 40
1.0
 40
1.0
 40
1.0
 40
1.0
 10
6396.278893175596
 20
5298.663424501036
 30
0.0
 10
6396.095440566251
 20
5298.475350312599
 30
0.0
 10
6395.40566724986
 20
5297.76820007282
 30
0.0
 10
6394.491531701017
 20
5296.556806059434
 30
0.0
 10
6394.279937736068
 20
5295.258539961967
 30
0.0
 10
6394.978674843907
 20
5294.360868570913
 30
0.0
 10
6396.505309172053
 20
5293.991546315966
 30
0.0
 10
6398.576258170147
 20
5294.145940653162
 30
0.0
 10
6400.963727311423
 20
5294.759851456688
 30
0.0
 10
6403.490003289677
 20
5295.777479745168
 30
0.0
 10
6405.906926830698
 20
5297.106963043631
 30
0.0
 10
6407.874633063626
 20
5298.598938558402
 30
0.0
 10
6410.254685577579
 20
5300.575282675721
 30
0.0
 10
6412.241071060013
 20
5302.094542976594
 30
0.0
 10
6413.559668542817
 20
5303.12187653049
 30
0.0
 10
6413.614142534823
 20
5303.164317806568
 30
0.0
  0
LINE
  5
C5
330
1F
100
AcDbEntity
  8
0
  6
SLD-Plná
 62
     7
370
    25
100
AcDbLine
 10
6418.6227551439
 20
5263.0369953889
 30
0.0
 11
6395.1500369026
 21
5263.0369953889
 31
0.0
  0
LINE
  5
C6
330
1F
100
AcDbEntity
  8
0
  6
SLD-Plná
 62
     7
370
    25
100
AcDbLine
 10
6425.3402695651
 20
5263.0369953889
 30
0.0
 11
6429.3675513238
 21
5263.0369953889
 31
0.0
  0
SPLINE
  5
C7
330
1F
100
AcDbEntity
  8
0
  6
SLD-Plná
 62
     7
370
    25
100
AcDbSpline
210
0.0
220
0.0
230
1.0
 70
    11
 71
     3
 72
    31
 73
    27
 74
     0
 42
0.00000001
 43
0.00000001
 40
0.0
 40
0.0
 40
0.0
 40
0.0
 40
0.0302097299014319
 40
0.0607814190922801
 40
0.0915836391000755
 40
0.1228445813323607
 40
0.1859596338493733
 40
0.2498986092185463
 40
0.3139721447263807
 40
0.3772043118112019
 40
0.4083553921470975
 40
0.4392497344946428
 40
0.469747022871321
 40
0.5000858777246212
 40
0.5303353899933015
 40
0.5606440833814369
 40
0.6221362150433283
 40
0.6852545313956916
 40
0.7173944480393802
 40
0.749936985836005
 40
0.7823530090026677
 40
0.8147409913109527
 40
0.8780079086940432
 40
0.9394997318978421
 40
0.9698536100702042
 40
1.0
 40
1.0
 40
1.0
 40
1.0
 10
6402.431918980119
 20
5275.06878578408
 30
0.0
 10
6402.435723988232
 20
5274.772837138982
 30
0.0
 10
6402.44337959434
 20
5274.177393926275
 30
0.0
 10
6402.214518429134
 20
5273.314899368805
 30
0.0
 10
6401.836035403076
 20
5272.521839438225
 30
0.0
 10
6401.152020383048
 20
5271.59507394284
 30
0.0
 10
6400.054525621333
 20
5270.744796212167
 30
0.0
 10
6398.644311366347
 20
5270.377414040991
 30
0.0
 10
6397.389770526506
 20
5270.722993282518
 30
0.0
 10
6396.606406267392
 20
5271.559324057564
 30
0.0
 10
6396.162842488564
 20
5272.477065521497
 30
0.0
 10
6395.916070530019
 20
5273.263716877585
 30
0.0
 10
6395.75057081115
 20
5274.12314147056
 30
0.0
 10
6395.662210386433
 20
5275.016913530452
 30
0.0
 10
6395.648359909961
 20
5275.90075339884
 30
0.0
 10
6395.729010262564
 20
5277.014590227905
 30
0.0
 10
6396.027551539603
 20
5278.215330514789
 30
0.0
 10
6396.643560994594
 20
5279.013950186828
 30
0.0
 10
6397.35094155316
 20
5279.358389703149
 30
0.0
 10
6397.98472464153
 20
5279.451445342832
 30
0.0
 10
6398.694095619381
 20
5279.369247138802
 30
0.0
 10
6399.675780649554
 20
5279.037413442837
 30
0.0
 10
6400.889684870961
 20
5278.249733882037
 30
0.0
 10
6401.837178940107
 20
5277.05754521662
 30
0.0
 10
6402.308294733099
 20
5275.950481986893
 30
0.0
 10
6402.39080522219
 20
5275.362011790496
 30
0.0
 10
6402.431918980119
 20
5275.06878578408
 30
0.0
  0
SPLINE
  5
C8
330
1F
100
AcDbEntity
  8
0
  6
SLD-Plná
 62
     7
370
    25
100
AcDbSpline
210
0.0
220
0.0
230
1.0
 70
     8
 71
     3
 72
    10
 73
     6
 74
     0
 42
0.00000001
 43
0.00000001
 40
0.0
 40
0.0
 40
0.0
 40
0.0
 40
0.4848451888665574
 40
0.9696904335421522
 40
1.0
 40
1.0
 40
1.0
 40
1.0
 10
6400.73918510952
 20
5303.03699538889
 30
0.0
 10
6400.70382973962
 20
5303.040398530885
 30
0.0
 10
6400.63311899575
 20
5303.047204815266
 30
0.0
 10
6400.584343735253
 20
5303.074508529204
 30
0.0
 10
6400.583509906235
 20
5303.098597478089
 30
0.0
 10
6400.583460847203
 20
5303.100014771651
 30
0.0
  0
LINE
  5
C9
330
1F
100
AcDbEntity
  8
0
  6
SLD-Plná
 62
     7
370
    25
100
AcDbLine
 10
6400.7391851095
 20
5303.0369953889
 30
0.0
 11
6413.1717957856
 21
5303.0369953889
 31
0.0
  0
SPLINE
  5
CA
330
1F
100
AcDbEntity
  8
0
  6
SLD-Plná
 62
     7
370
    25
100
AcDbSpline
210
0.0
220
0.0
230
1.0
 70
     8
 71
     3
 72
    10
 73
     6
 74
     0
 42
0.00000001
 43
0.00000001
 40
0.0
 40
0.0
 40
0.0
 40
0.0
 40
0.3315932038060135
 40
0.6631863364246714
 40
1.0
 40
1.0
 40
1.0
 40
1.0
 10
6413.614142534823
 20
5303.164317806568
 30
0.0
 10
6413.563243189857
 20
5303.140321475703
 30
0.0
 10
6413.461444510851
 20
5303.092328819125
 30
0.0
 10
6413.302313369079
 20
5303.0463189447
 30
0.0
 10
6413.215527590916
 20
5303.040119381204
 30
0.0
 10
6413.171795785591
 20
5303.03699538889
 30
0.0
  0
LWPOLYLINE
  5
CB
330
1F
100
AcDbEntity
  8
0
  6
SLD-Plná
 62
     7
370
    25
100
AcDbPolyline
 90
       20
 70
   128
 43
0.0
 10
6405.921183704
 20
5301.8057907291
 10
6406.0750144021
 20
5301.7751212891
 10
6406.7698510185
 20
5301.4980967945
 10
6407.1666474137
 20
5301.0530135153
 10
6407.2440121911
 20
5300.4638660063
 10
6406.9977745957
 20
5299.7624153622
 10
6406.44120936
 20
5298.9864769688
 10
6405.6043210599
 20
5298.1778818658
 10
6404.5322265602
 20
5297.3802216244
 10
6403.282722753
 20
5296.6364983147
 10
6401.9231707119
 20
5295.9868062529
 10
6400.5268642393
 20
5295.4661705062
 10
6399.1690785786
 20
5295.1026586823
 10
6397.9230123063
 20
5294.915867798
 10
6396.8558411776
 20
5294.915867798
 10
6396.0250966642
 20
5295.1026586823
 10
6395.475564418
 20
5295.4661705062
 10
6395.2368698645
 20
5295.9868062529
 10
6395.321881089
 20
5296.6364983147
 10
6395.5737827895
 20
5297.1520490772
  0
SPLINE
  5
CC
330
1F
100
AcDbEntity
  8
0
  6
SLD-Plná
 62
     7
370
    25
100
AcDbSpline
210
0.0
220
0.0
230
1.0
 70
     8
 71
     3
 72
    10
 73
     6
 74
     0
 42
0.00000001
 43
0.00000001
 40
0.0
 40
0.0
 40
0.0
 40
0.0
 40
0.5016917126543169
 40
0.899730462999374
 40
1.0
 40
1.0
 40
1.0
 40
1.0
 10
6417.094848321131
 20
5303.03699538889
 30
0.0
 10
6415.367414442916
 20
5306.688864529867
 30
0.0
 10
6412.269446420235
 20
5313.23810150179
 30
0.0
 10
6408.821251189771
 20
5320.517826109143
 30
0.0
 10
6407.101621299501
 20
5324.145294442061
 30
0.0
 10
6406.755597568232
 20
5324.87521320814
 30
0.0
  0
SPLINE
  5
CD
330
1F
100
AcDbEntity
  8
0
  6
SLD-Plná
 62
     7
370
    25
100
AcDbSpline
210
0.0
220
0.0
230
1.0
 70
     8
 71
     3
 72
    10
 73
     6
 74
     0
 42
0.00000001
 43
0.00000001
 40
0.0
 40
0.0
 40
0.0
 40
0.0
 40
0.4843056922161003
 40
0.9172394406311262
 40
1.0
 40
1.0
 40
1.0
 40
1.0
 10
6404.830290188859
 20
5323.135044640186
 30
0.0
 10
6406.286312415962
 20
5319.890289201386
 30
0.0
 10
6409.043911664947
 20
5313.744960514351
 30
0.0
 10
6412.043654939087
 20
5307.045727948903
 30
0.0
 10
6413.589614107565
 20
5303.591364594049
 30
0.0
 10
6413.837715441269
 20
5303.03699538889
 30
0.0
  0
SPLINE
  5
CE
330
1F
100
AcDbEntity
  8
0
  6
SLD-Plná
 62
     7
370
    25
100
AcDbSpline
210
0.0
220
0.0
230
1.0
 70
     8
 71
     3
 72
     9
 73
     5
 74
     0
 42
0.00000001
 43
0.00000001
 40
0.0
 40
0.0
 40
0.0
 40
0.0
 40
0.4999269137913486
 40
0.9999999999999999
 40
0.9999999999999999
 40
0.9999999999999999
 40
0.9999999999999999
 10
6406.755597568232
 20
5324.87521320814
 30
0.0
 10
6406.434840083307
 20
5324.585352166548
 30
0.0
 10
6405.793231327953
 20
5324.005545331596
 30
0.0
 10
6405.151301846019
 20
5323.42523981221
 30
0.0
 10
6404.830290188859
 20
5323.135044640186
 30
0.0
  0
SPLINE
  5
CF
330
1F
100
AcDbEntity
  8
0
  6
SLD-Plná
 62
     7
370
    25
100
AcDbSpline
210
0.0
220
0.0
230
1.0
 70
     8
 71
     3
 72
    11
 73
     7
 74
     0
 42
0.00000001
 43
0.00000001
 40
0.0
 40
0.0
 40
0.0
 40
0.0
 40
0.0731661441439762
 40
0.5106287378182015
 40
0.948091332132641
 40
1.0
 40
1.0
 40
1.0
 40
1.0
 10
6413.171795785591
 20
5303.03699538889
 30
0.0
 10
6412.952729757919
 20
5303.520598588375
 30
0.0
 10
6411.423861310395
 20
5306.895679976724
 30
0.0
 10
6408.583625569633
 20
5313.162232320804
 30
0.0
 10
6405.804654549989
 20
5319.288267478119
 30
0.0
 10
6404.3365447115
 20
5322.522829029362
 30
0.0
 10
6404.180819126677
 20
5322.865925966667
 30
0.0
  0
ARC
  5
D0
330
1F
100
AcDbEntity
  8
0
  6
SLD-Plná
 62
     7
370
    25
100
AcDbCircle
 10
6404.0966974752
 20
5323.9871909274
 30
0.0
 40
1.124416099313069
100
AcDbArc
 50
274.2905140826
 51
310.7243871145
  0
ARC
  5
D1
330
1F
100
AcDbEntity
  8
0
  6
SLD-Plná
 62
     7
370
    25
100
AcDbCircle
 10
6404.7495122568
 20
5323.1301244375
 30
0.0
 40
0.6270667494050147
100
AcDbArc
 50
137.202507828
 51
204.918225519
  0
ARC
  5
D2
330
1F
100
AcDbEntity
  8
0
  6
SLD-Plná
 62
     7
370
    25
100
AcDbCircle
 10
6404.1903934596
 20
5322.8710682018
 30
0.0
 40
0.6922076163896104
100
AcDbArc
 50
22.4176041945
 51
81.7771093179
  0
SPLINE
  5
D3
330
1F
100
AcDbEntity
  8
0
  6
SLD-Plná
 62
     7
370
    25
100
AcDbSpline
210
0.0
220
0.0
230
1.0
 70
     8
 71
     3
 72
    10
 73
     6
 74
     0
 42
0.00000001
 43
0.00000001
 40
0.0
 40
0.0
 40
0.0
 40
0.0
 40
0.5000680325356656
 40
0.8992594687800499
 40
1.0
 40
1.0
 40
1.0
 40
1.0
 10
6404.289396007761
 20
5323.556159348784
 30
0.0
 10
6404.61135238626
 20
5323.844139232034
 30
0.0
 10
6405.190318253029
 20
5324.362006042111
 30
0.0
 10
6405.833760942719
 20
5324.93788877217
 30
0.0
 10
6406.155370343212
 20
5325.22579116311
 30
0.0
 10
6406.220177364886
 20
5325.2838059365
 30
0.0
  0
ARC
  5
D4
330
1F
100
AcDbEntity
  8
0
  6
SLD-Plná
 62
     7
370
    25
100
AcDbCircle
 10
6406.1232687644
 20
5324.6017129643
 30
0.0
 40
0.6889427403848224
100
AcDbArc
 50
23.3898591551
 51
81.9137997792
  0
SPLINE
  5
D5
330
1F
100
AcDbEntity
  8
0
  6
SLD-Plná
 62
     7
370
    25
100
AcDbSpline
210
0.0
220
0.0
230
1.0
 70
     8
 71
     3
 72
    11
 73
     7
 74
     0
 42
0.00000001
 43
0.00000001
 40
0.0
 40
0.0
 40
0.0
 40
0.0
 40
0.0518421197658221
 40
0.4893712621816739
 40
0.926900403956869
 40
1.0
 40
1.0
 40
1.0
 40
1.0
 10
6391.894046039852
 20
5322.865925966667
 30
0.0
 10
6392.046740008165
 20
5322.523268887538
 30
0.0
 10
6393.488117026292
 20
5319.288707336685
 30
0.0
 10
6396.219708247524
 20
5313.162232321844
 30
0.0
 10
6399.016430557156
 20
5306.89524011683
 30
0.0
 10
6400.523446632297
 20
5303.520158728217
 30
0.0
 10
6400.73918510952
 20
5303.03699538889
 30
0.0
  0
LINE
  5
D6
330
1F
100
AcDbEntity
  8
0
  6
SLD-Plná
 62
     7
370
    25
100
AcDbLine
 10
6404.1808191267
 20
5322.8659259667
 30
0.0
 11
6391.8940460399
 21
5322.8659259667
 31
0.0
  0
LINE
  5
D7
330
1F
100
AcDbEntity
  8
0
  6
SLD-Plná
 62
     7
370
    25
100
AcDbLine
 10
6392.0026229209
 20
5323.5561593488
 30
0.0
 11
6404.2893960078
 21
5323.5561593488
 31
0.0
  0
ARC
  5
D8
330
1F
100
AcDbEntity
  8
0
  6
SLD-Plná
 62
     7
370
    25
100
AcDbCircle
 10
6392.4627391699
 20
5323.1301244375
 30
0.0
 40
0.627066749404298
100
AcDbArc
 50
137.2025078278
 51
204.9182255189
  0
SPLINE
  5
D9
330
1F
100
AcDbEntity
  8
0
  6
SLD-Plná
 62
     7
370
    25
100
AcDbSpline
210
0.0
220
0.0
230
1.0
 70
     8
 71
     3
 72
    10
 73
     6
 74
     0
 42
0.00000001
 43
0.00000001
 40
0.0
 40
0.0
 40
0.0
 40
0.0
 40
0.4999319656265476
 40
0.8991841286566252
 40
1.0
 40
1.0
 40
1.0
 40
1.0
 10
6393.913191863626
 20
5325.2838059365
 30
0.0
 10
6393.59469297856
 20
5324.99590363785
 30
0.0
 10
6393.02183674584
 20
5324.478078822976
 30
0.0
 10
6392.38511066721
 20
5323.902197036355
 30
0.0
 10
6392.066796441065
 20
5323.614217304169
 30
0.0
 10
6392.002622920936
 20
5323.556159348784
 30
0.0
  0
LINE
  5
DA
330
1F
100
AcDbEntity
  8
0
  6
SLD-Plná
 62
     7
370
    25
100
AcDbLine
 10
6406.2201773649
 20
5325.2838059365
 30
0.0
 11
6393.9131918636
 21
5325.2838059365
 31
0.0
  0
ARC
  5
DB
330
1F
100
AcDbEntity
  8
0
  6
SLD-Plná
 62
     7
370
    25
100
AcDbCircle
 10
6396.9844469651
 20
5296.0314385243
 30
0.0
 40
1.155908169723025
100
AcDbArc
 50
207.495798474
 51
248.54321229
  0
ARC
  5
DC
330
1F
100
AcDbEntity
  8
0
  6
SLD-Plná
 62
     7
370
    25
100
AcDbCircle
 10
6405.8421234967
 20
5300.0069751636
 30
0.0
 40
1.13856992963563
100
AcDbArc
 50
339.5614558672
 51
21.2628275819
  0
SPLINE
  5
DD
330
1F
100
AcDbEntity
  8
0
  6
SLD-Plná
 62
     7
370
    25
100
AcDbSpline
210
0.0
220
0.0
230
1.0
 70
    11
 71
     3
 72
    32
 73
    28
 74
     0
 42
0.00000001
 43
0.00000001
 40
0.0
 40
0.0
 40
0.0
 40
0.0
 40
0.0312081936375439
 40
0.0625707504755665
 40
0.1253192951901075
 40
0.1880081985287743
 40
0.219396985065516
 40
0.2505336662319759
 40
0.2818033673201771
 40
0.3129731347483471
 40
0.3755708655357446
 40
0.4383615317127696
 40
0.4696872464267174
 40
0.5009997607374966
 40
0.5322782115271366
 40
0.563472428447037
 40
0.62562655954997
 40
0.6879020553911463
 40
0.719163070489769
 40
0.7504261681134254
 40
0.7815264928422115
 40
0.8128349537779517
 40
0.875032469987002
 40
0.9063513957805241
 40
0.937556089960268
 40
0.9688430363721158
 40
1.0
 40
1.0
 40
1.0
 40
1.0
 10
6402.381051369204
 20
5275.11509186198
 30
0.0
 10
6402.342043982535
 20
5275.377952038376
 30
0.0
 10
6402.26383626932
 20
5275.90497256056
 30
0.0
 10
6401.846464210874
 20
5276.893174742425
 30
0.0
 10
6401.029325701646
 20
5277.957844040883
 30
0.0
 10
6399.978190645365
 20
5278.68275075259
 30
0.0
 10
6399.136972544042
 20
5278.987813275703
 30
0.0
 10
6398.539554000913
 20
5279.063600910595
 30
0.0
 10
6398.013629356855
 20
5278.979266754057
 30
0.0
 10
6397.433968707493
 20
5278.664377859572
 30
0.0
 10
6396.953060874746
 20
5277.93145592718
 30
0.0
 10
6396.74347757553
 20
5276.860688048459
 30
0.0
 10
6396.696750368495
 20
5275.866986168479
 30
0.0
 10
6396.718313244628
 20
5275.076866406283
 30
0.0
 10
6396.796066851957
 20
5274.278289070849
 30
0.0
 10
6396.977751324988
 20
5273.258444178588
 30
0.0
 10
6397.366538337045
 20
5272.138361392648
 30
0.0
 10
6398.008374288067
 20
5271.392627771735
 30
0.0
 10
6398.660804910699
 20
5271.085977128612
 30
0.0
 10
6399.206859273709
 20
5271.010489738599
 30
0.0
 10
6399.788901483023
 20
5271.094540107619
 30
0.0
 10
6400.571873486436
 20
5271.410432338665
 30
0.0
 10
6401.319760963675
 20
5272.02045179042
 30
0.0
 10
6401.895666396407
 20
5272.842329503492
 30
0.0
 10
6402.213886427651
 20
5273.550069021117
 30
0.0
 10
6402.401396518356
 20
5274.320165248388
 30
0.0
 10
6402.387823667873
 20
5274.850484293524
 30
0.0
 10
6402.381051369204
 20
5275.11509186198
 30
0.0
  0
LINE
  5
DE
330
1F
100
AcDbEntity
  8
0
  6
SLD-Plná
 62
     7
370
    25
100
AcDbLine
 10
6449.0187553361
 20
5260.5369953889
 30
0.0
 11
6099.0187553361
 21
5260.5369953889
 31
0.0
  0
ARC
  5
DF
330
1F
100
AcDbEntity
  8
0
  6
SLD-Plná
 62
     7
370
    25
100
AcDbCircle
 10
6100.5187553361
 20
5260.5369953889
 30
0.0
 40
1.5
100
AcDbArc
 50
90.0
 51
180.0
  0
LINE
  5
E0
330
1F
100
AcDbEntity
  8
0
  6
SLD-Plná
 62
     7
370
    25
100
AcDbLine
 10
6100.5187553361
 20
5262.0369953889
 30
0.0
 11
6447.5187553361
 21
5262.0369953889
 31
0.0
  0
ARC
  5
E1
330
1F
100
AcDbEntity
  8
0
  6
SLD-Plná
 62
     7
370
    25
100
AcDbCircle
 10
6447.5187553361
 20
5260.5369953889
 30
0.0
 40
1.5
100
AcDbArc
 50
0.0
 51
90.0
  0
LINE
  5
E2
330
1F
100
AcDbEntity
  8
0
  6
SLD-Plná
 62
     7
370
    25
100
AcDbLine
 10
6099.0187553361
 20
5103.5369953889
 30
0.0
 11
6449.0187553361
 21
5103.5369953889
 31
0.0
  0
LINE
  5
E3
330
1F
100
AcDbEntity
  8
0
  6
SLD-Plná
 62
     7
370
    25
100
AcDbLine
 10
6099.0187553361
 20
5260.5369953889
 30
0.0
 11
6099.0187553361
 21
5103.5369953889
 31
0.0
  0
LINE
  5
E4
330
1F
100
AcDbEntity
  8
0
  6
SLD-Plná
 62
     7
370
    25
100
AcDbLine
 10
6449.0187553361
 20
5260.5369953889
 30
0.0
 11
6449.0187553361
 21
5103.5369953889
 31
0.0
  0
LINE
  5
E5
330
1F
100
AcDbEntity
  8
0
  6
SLD-Plná
 62
     7
370
    25
100
AcDbLine
 10
6447.5187553361
 20
5102.0369953889
 30
0.0
 11
6100.5187553361
 21
5102.0369953889
 31
0.0
  0
ARC
  5
E6
330
1F
100
AcDbEntity
  8
0
  6
SLD-Plná
 62
     7
370
    25
100
AcDbCircle
 10
6100.5187553361
 20
5103.5369953889
 30
0.0
 40
1.5
100
AcDbArc
 50
180.0
 51
270.0
  0
ARC
  5
E7
330
1F
100
AcDbEntity
  8
0
  6
SLD-Plná
 62
     7
370
    25
100
AcDbCircle
 10
6447.5187553361
 20
5103.5369953889
 30
0.0
 40
1.5
100
AcDbArc
 50
270.0
 51
0.0
  0
LINE
  5
E8
330
1F
100
AcDbEntity
  8
0
  6
SLD-Plná
 62
     7
370
    25
100
AcDbLine
 10
6100.6187553361
 20
5263.5369953889
 30
0.0
 11
6100.6187553361
 21
5262.0369953889
 31
0.0
  0
LINE
  5
E9
330
1F
100
AcDbEntity
  8
0
  6
SLD-Plná
 62
     7
370
    25
100
AcDbLine
 10
6447.4187553361
 20
5263.5369953889
 30
0.0
 11
6447.4187553361
 21
5262.0369953889
 31
0.0
  0
LINE
  5
EA
330
1F
100
AcDbEntity
  8
0
  6
SLD-Plná
 62
     7
370
    25
100
AcDbLine
 10
6449.0187553361
 20
5304.4839598248
 30
0.0
 11
6433.924266922
 21
5304.4839598248
 31
0.0
  0
LINE
  5
EB
330
1F
100
AcDbEntity
  8
0
  6
SLD-Plná
 62
     7
370
    25
100
AcDbLine
 10
6399.9671135553
 20
5304.4839598248
 30
0.0
 11
6099.0187553361
 21
5304.4839598248
 31
0.0
  0
LINE
  5
EC
330
1F
100
AcDbEntity
  8
0
  6
SLD-Plná
 62
     7
370
    25
100
AcDbLine
 10
6449.0187553361
 20
5302.9869953889
 30
0.0
 11
6449.0187553361
 21
5304.4839598248
 31
0.0
  0
LINE
  5
ED
330
1F
100
AcDbEntity
  8
0
  6
SLD-Plná
 62
     7
370
    25
100
AcDbLine
 10
6099.0187553361
 20
5302.9869953889
 30
0.0
 11
6099.0187553361
 21
5304.4839598248
 31
0.0
  0
LINE
  5
EE
330
1F
100
AcDbEntity
  8
0
  6
SLD-Plná
 62
     7
370
    25
100
AcDbLine
 10
6099.0187553361
 20
5262.0369953889
 30
0.0
 11
6099.0187553361
 21
5302.9869953889
 31
0.0
  0
LINE
  5
EF
330
1F
100
AcDbEntity
  8
0
  6
SLD-Plná
 62
     7
370
    25
100
AcDbLine
 10
6449.0187553361
 20
5262.0369953889
 30
0.0
 11
6449.0187553361
 21
5302.9869953889
 31
0.0
  0
LINE
  5
F0
330
1F
100
AcDbEntity
  8
0
  6
SLD-Plná
 62
     7
370
    25
100
AcDbLine
 10
6100.5187553361
 20
5262.0369953889
 30
0.0
 11
6099.0187553361
 21
5262.0369953889
 31
0.0
  0
LINE
  5
F1
330
1F
100
AcDbEntity
  8
0
  6
SLD-Plná
 62
     7
370
    25
100
AcDbLine
 10
6449.0187553361
 20
5262.0369953889
 30
0.0
 11
6447.5187553361
 21
5262.0369953889
 31
0.0
  0
LWPOLYLINE
  5
F2
330
1F
100
AcDbEntity
  8
0
  6
SLD-Plná
 62
     8
370
    25
100
AcDbPolyline
 90
       21
 70
   128
 43
0.0
 10
6435.5627011969
 20
5310.6886185505
 10
6435.5369201482
 20
5311.214260343
 10
6435.1766269862
 20
5311.8430900311
 10
6434.4840110615
 20
5312.5309645106
 10
6433.477965131
 20
5313.2591203586
 10
6432.1859315052
 20
5314.0076953819
 10
6430.6431534932
 20
5314.7562704052
 10
6428.8917140576
 20
5315.4844262533
 10
6426.9793879005
 20
5316.1723007327
 10
6424.9583382943
 20
5316.8011304209
 10
6422.8836942039
 20
5317.3537624832
 10
6420.8120465119
 20
5317.8151225574
 10
6418.7999043668
 20
5318.1726259436
 10
6416.9021537612
 20
5318.4165208812
 10
6415.1705603845
 20
5318.5401545521
 10
6413.6523575901
 20
5318.5401545521
 10
6412.3889579925
 20
5318.4165208812
 10
6411.4148238395
 20
5318.1726259436
 10
6410.7565269711
 20
5317.8151225574
 10
6410.4320240101
 20
5317.3537624832
 10
6410.4243855026
 20
5317.3267722134
  0
LWPOLYLINE
  5
F3
330
1F
100
AcDbEntity
  8
0
  6
SLD-Plná
 62
     8
370
    25
100
AcDbPolyline
 90
        6
 70
   128
 43
0.0
 10
6406.7555975682
 20
5324.8752132081
 10
6406.8075419023
 20
5324.9274506791
 10
6406.8441276887
 20
5324.9771567008
 10
6406.8639417528
 20
5325.0224113123
 10
6406.8662187501
 20
5325.061466494
 10
6406.8606125359
 20
5325.0784186773
  0
ARC
  5
F4
330
1F
100
AcDbEntity
  8
0
  6
SLD-Plná
 62
     8
370
    25
100
AcDbCircle
 10
6406.4155783378
 20
5325.0786491015
 30
0.0
 40
0.2833211378592419
100
AcDbArc
 50
91.1436938465
 51
133.6047975554
  0
ARC
  5
F5
330
1F
100
AcDbEntity
  8
0
  6
SLD-Plná
 62
     8
370
    25
100
AcDbCircle
 10
6394.1085928366
 20
5325.0786491015
 30
0.0
 40
0.2833211378558737
100
AcDbArc
 50
91.1436938466
 51
133.6047975558
  0
ARC
  5
F6
330
1F
100
AcDbEntity
  8
0
  6
SLD-Plná
 62
     8
370
    25
100
AcDbCircle
 10
6391.8655638774
 20
5323.022232626
 30
0.0
 40
0.1588804749808189
100
AcDbArc
 50
215.1523664534
 51
280.3271175124
  0
ARC
  5
F7
330
1F
100
AcDbEntity
  8
0
  6
SLD-Plná
 62
     8
370
    25
100
AcDbCircle
 10
6391.9946043135
 20
5323.3458034065
 30
0.0
 40
0.210508718373807
100
AcDbArc
 50
87.816985725
 51
130.8490946245
  0
ARC
  5
F8
330
1F
100
AcDbEntity
  8
0
  6
SLD-Plná
 62
     8
370
    25
100
AcDbCircle
 10
6393.905161645
 20
5325.0734427262
 30
0.0
 40
0.2105164236898351
100
AcDbArc
 50
87.8139031513
 51
130.7294350763
  0
LINE
  5
F9
330
1F
100
AcDbEntity
  8
0
  6
SLD-Plná
 62
     8
370
    25
100
AcDbLine
 10
6100.6187553361
 20
5263.5369953889
 30
0.0
 11
6395.1398428985
 21
5263.5369953889
 31
0.0
  0
LINE
  5
FA
330
1F
100
AcDbEntity
  8
0
  6
SLD-Plná
 62
     8
370
    25
100
AcDbLine
 10
6429.3988292545
 20
5263.5369953889
 30
0.0
 11
6447.4187553361
 21
5263.5369953889
 31
0.0
  0
LINE
  5
FB
330
1F
100
AcDbEntity
  8
0
  6
SLD-Plná
 62
     8
370
    25
100
AcDbLine
 10
6449.0187553361
 20
5302.9869953889
 30
0.0
 11
6433.5289707504
 21
5302.9869953889
 31
0.0
  0
LINE
  5
FC
330
1F
100
AcDbEntity
  8
0
  6
SLD-Plná
 62
     8
370
    25
100
AcDbLine
 10
6400.4124973648
 20
5302.9869953889
 30
0.0
 11
6099.0187553361
 21
5302.9869953889
 31
0.0
  0
LINE
  5
FD
330
1F
100
AcDbEntity
  8
0
  6
SLD-Plná
 62
     7
370
    25
100
AcDbLine
 10
6686.8615137507
 20
5310.6886185505
 30
0.0
 11
6688.9550879741
 21
5302.7603703612
 31
0.0
  0
LINE
  5
FE
330
1F
100
AcDbEntity
  8
0
  6
SLD-Plná
 62
     7
370
    25
100
AcDbLine
 10
6692.8565029141
 20
5297.777810135
 30
0.0
 11
6692.9080078825
 21
5297.5827637078
 31
0.0
  0
SPLINE
  5
FF
330
1F
100
AcDbEntity
  8
0
  6
SLD-Plná
 62
     7
370
    25
100
AcDbSpline
210
0.0
220
0.0
230
1.0
 70
     8
 71
     3
 72
    11
 73
     7
 74
     0
 42
0.00000001
 43
0.00000001
 40
0.0
 40
0.0
 40
0.0
 40
0.0
 40
0.0375827886673621
 40
0.4578996992614632
 40
0.8714605349270005
 40
1.0
 40
1.0
 40
1.0
 40
1.0
 10
6711.994464303015
 20
5317.299633421792
 30
0.0
 10
6711.993039155295
 20
5317.321626275681
 30
0.0
 10
6711.975675496699
 20
5317.589581942059
 30
0.0
 10
6711.650160890694
 20
5318.036412980624
 30
0.0
 10
6711.273468764338
 20
5318.408684947457
 30
0.0
 10
6710.992760132413
 20
5318.533374262586
 30
0.0
 10
6710.926200240562
 20
5318.562939820556
 30
0.0
  0
SPLINE
  5
100
330
1F
100
AcDbEntity
  8
0
  6
SLD-Plná
 62
     7
370
    25
100
AcDbSpline
210
0.0
220
0.0
230
1.0
 70
     8
 71
     3
 72
    13
 73
     9
 74
     0
 42
0.00000001
 43
0.00000001
 40
0.0
 40
0.0
 40
0.0
 40
0.0
 40
0.1035938550951917
 40
0.3054989226570755
 40
0.5116338650267281
 40
0.7270257560099527
 40
0.8752053284393934
 40
1.0
 40
1.0
 40
1.0
 40
1.0
 10
6690.4783877836
 20
5314.891951408777
 30
0.0
 10
6690.247590285355
 20
5314.766626936364
 30
0.0
 10
6689.566967028301
 20
5314.397044288145
 30
0.0
 10
6688.605052868947
 20
5313.772528390256
 30
0.0
 10
6687.683066476647
 20
5313.006358014197
 30
0.0
 10
6687.101359567794
 20
5312.270965956567
 30
0.0
 10
6686.784350645738
 20
5311.518203550706
 30
0.0
 10
6686.823925942401
 20
5311.043064263055
 30
0.0
 10
6686.842018441079
 20
5310.825846512102
 30
0.0
  0
ARC
  5
101
330
1F
100
AcDbEntity
  8
0
  6
SLD-Plná
 62
     7
370
    25
100
AcDbCircle
 10
6704.0289500965
 20
5296.5942725507
 30
0.0
 40
23.12500000000045
100
AcDbArc
 50
74.9141393369
 51
134.6701973748
  0
LINE
  5
102
330
1F
100
AcDbEntity
  8
0
  6
SLD-Plná
 62
     7
370
    25
100
AcDbLine
 10
6727.274178045
 20
5262.0369953889
 30
0.0
 11
6727.274178045
 21
5263.0369953889
 31
0.0
  0
LINE
  5
103
330
1F
100
AcDbEntity
  8
0
  6
SLD-Plná
 62
     7
370
    25
100
AcDbLine
 10
6693.0566636237
 20
5263.0369953889
 30
0.0
 11
6693.0566636237
 21
5262.0369953889
 31
0.0
  0
LINE
  5
104
330
1F
100
AcDbEntity
  8
0
  6
SLD-Plná
 62
     7
370
    25
100
AcDbLine
 10
6714.8253814196
 20
5301.2636580603
 30
0.0
 11
6714.4458895956
 21
5300.4198737804
 31
0.0
  0
LINE
  5
105
330
1F
100
AcDbEntity
  8
0
  6
SLD-Plná
 62
     7
370
    25
100
AcDbLine
 10
6725.389972052
 20
5295.4977747173
 30
0.0
 11
6725.769463876
 21
5296.3415589972
 31
0.0
  0
SPLINE
  5
106
330
1F
100
AcDbEntity
  8
0
  6
SLD-Plná
 62
     7
370
    25
100
AcDbSpline
210
0.0
220
0.0
230
1.0
 70
     8
 71
     3
 72
     9
 73
     5
 74
     0
 42
0.00000001
 43
0.00000001
 40
0.0
 40
0.0
 40
0.0
 40
0.0
 40
0.6519773460769717
 40
1.0
 40
1.0
 40
1.0
 40
1.0
 10
6727.274262644473
 20
5263.036995388891
 30
0.0
 10
6727.405844551914
 20
5270.118888016437
 30
0.0
 10
6727.60766430567
 20
5280.981063934296
 30
0.0
 10
6727.94226249959
 20
5291.847055286092
 30
0.0
 10
6728.058710251035
 20
5295.628666433849
 30
0.0
  0
LWPOLYLINE
  5
107
330
1F
100
AcDbEntity
  8
0
  6
SLD-Plná
 62
     7
370
    25
100
AcDbPolyline
 90
        3
 70
   128
 43
0.0
 10
6691.0654126803
 20
5295.3866283786
 10
6691.8111093961
 20
5283.2775768724
 10
6693.0561352045
 20
5263.0369953889
  0
SPLINE
  5
108
330
1F
100
AcDbEntity
  8
0
  6
SLD-Plná
 62
     7
370
    25
100
AcDbSpline
210
0.0
220
0.0
230
1.0
 70
     8
 71
     3
 72
     9
 73
     5
 74
     0
 42
0.00000001
 43
0.00000001
 40
0.0
 40
0.0
 40
0.0
 40
0.0
 40
0.0993377351883725
 40
0.9999999999999999
 40
0.9999999999999999
 40
0.9999999999999999
 40
0.9999999999999999
 10
6715.563477365905
 20
5325.077658278288
 30
0.0
 10
6715.21539660016
 20
5324.350120270722
 30
0.0
 10
6711.71138309427
 20
5317.026236691271
 30
0.0
 10
6708.213761361581
 20
5309.702090669216
 30
0.0
 10
6705.063585450364
 20
5303.10550872518
 30
0.0
  0
ARC
  5
109
330
1F
100
AcDbEntity
  8
0
  6
SLD-Plná
 62
     7
370
    25
100
AcDbCircle
 10
6716.0142916707
 20
5324.8619137965
 30
0.0
 40
0.5000000000004523
100
AcDbArc
 50
90.0
 51
154.4366846749
  0
LINE
  5
10A
330
1F
100
AcDbEntity
  8
0
  6
SLD-Plná
 62
     7
370
    25
100
AcDbLine
 10
6728.3212771719
 20
5325.3619137965
 30
0.0
 11
6716.0142916707
 21
5325.3619137965
 31
0.0
  0
ARC
  5
10B
330
1F
100
AcDbEntity
  8
0
  6
SLD-Plná
 62
     7
370
    25
100
AcDbCircle
 10
6730.2318461146
 20
5323.1342672088
 30
0.0
 40
0.5000000000009095
100
AcDbArc
 50
335.9821698533
 51
0.0
  0
ARC
  5
10C
330
1F
100
AcDbEntity
  8
0
  6
SLD-Plná
 62
     7
370
    25
100
AcDbCircle
 10
6730.2318461146
 20
5323.1342672088
 30
0.0
 40
0.5000000000009095
100
AcDbArc
 50
0.0
 51
47.8631646919
  0
SPLINE
  5
10D
330
1F
100
AcDbEntity
  8
0
  6
SLD-Plná
 62
     7
370
    25
100
AcDbSpline
210
0.0
220
0.0
230
1.0
 70
     8
 71
     3
 72
     9
 73
     5
 74
     0
 42
0.00000001
 43
0.00000001
 40
0.0
 40
0.0
 40
0.0
 40
0.0
 40
0.0732147705491152
 40
1.0
 40
1.0
 40
1.0
 40
1.0
 10
6721.842560998089
 20
5303.100429335366
 30
0.0
 10
6722.058740460369
 20
5303.584388241667
 30
0.0
 10
6725.011416001932
 20
5310.194514896036
 30
0.0
 10
6727.956106780699
 20
5316.804603917632
 30
0.0
 10
6730.685202699761
 20
5322.930736788203
 30
0.0
  0
SPLINE
  5
10E
330
1F
100
AcDbEntity
  8
0
  6
SLD-Plná
 62
     7
370
    25
100
AcDbSpline
210
0.0
220
0.0
230
1.0
 70
     8
 71
     3
 72
     9
 73
     5
 74
     0
 42
0.00000001
 43
0.00000001
 40
0.0
 40
0.0
 40
0.0
 40
0.0
 40
0.1457859569358178
 40
1.0
 40
1.0
 40
1.0
 40
1.0
 10
6730.567259214994
 20
5323.505039226168
 30
0.0
 10
6730.474465031411
 20
5323.589003290709
 30
0.0
 10
6729.837955277436
 20
5324.164943980099
 30
0.0
 10
6729.200683931977
 20
5324.740880451594
 30
0.0
 10
6728.656317799443
 20
5325.23285347346
 30
0.0
  0
ARC
  5
10F
330
1F
100
AcDbEntity
  8
0
  6
SLD-Plná
 62
     7
370
    25
100
AcDbCircle
 10
6728.3212771719
 20
5324.8619137965
 30
0.0
 40
0.5
100
AcDbArc
 50
47.8920687689
 51
90.0
  0
LINE
  5
110
330
1F
100
AcDbEntity
  8
0
  6
SLD-Plná
 62
     7
370
    25
100
AcDbLine
 10
6994.9054596115
 20
5103.5369953889
 30
0.0
 11
6994.9054596115
 21
5260.5369953889
 31
0.0
  0
ARC
  5
111
330
1F
100
AcDbEntity
  8
0
  6
SLD-Plná
 62
     7
370
    25
100
AcDbCircle
 10
6993.4054596115
 20
5103.5369953889
 30
0.0
 40
1.5
100
AcDbArc
 50
270.0
 51
0.0
  0
ARC
  5
112
330
1F
100
AcDbEntity
  8
0
  6
SLD-Plná
 62
     7
370
    25
100
AcDbCircle
 10
6993.4054596115
 20
5260.5369953889
 30
0.0
 40
1.5
100
AcDbArc
 50
0.0
 51
90.0
  0
LWPOLYLINE
  5
113
330
1F
100
AcDbEntity
  8
0
  6
SLD-Plná
 62
     7
370
    25
100
AcDbPolyline
 90
       11
 70
   128
 43
0.0
 10
6722.6310495025
 20
5278.7845655483
 10
6723.016566561
 20
5278.6510101508
 10
6723.7656184781
 20
5278.1112599675
 10
6724.3600694453
 20
5277.2705793476
 10
6724.74173046
 20
5276.2112599675
 10
6724.8732418831
 20
5275.0369953889
 10
6724.74173046
 20
5273.8627308103
 10
6724.3600694453
 20
5272.8034114302
 10
6723.7656184781
 20
5271.9627308103
 10
6723.016566561
 20
5271.422980627
 10
6722.1862361146
 20
5271.2369953889
  0
LINE
  5
114
330
1F
100
AcDbEntity
  8
0
  6
SLD-Plná
 62
     7
370
    25
100
AcDbLine
 10
6722.1862361146
 20
5273.3049445813
 30
0.0
 11
6723.2468962863
 21
5274.1709699851
 31
0.0
  0
LINE
  5
115
330
1F
100
AcDbEntity
  8
0
  6
SLD-Plná
 62
     7
370
    25
100
AcDbLine
 10
6723.2468962863
 20
5274.1709699851
 30
0.0
 11
6723.2468962863
 21
5275.9030207927
 31
0.0
  0
LINE
  5
116
330
1F
100
AcDbEntity
  8
0
  6
SLD-Plná
 62
     7
370
    25
100
AcDbLine
 10
6723.2468962863
 20
5275.9030207927
 30
0.0
 11
6722.1862361146
 21
5276.7690461965
 31
0.0
  0
LINE
  5
117
330
1F
100
AcDbEntity
  8
0
  6
SLD-Plná
 62
     7
370
    25
100
AcDbLine
 10
6722.1862361146
 20
5276.7690461965
 30
0.0
 11
6721.1255759428
 21
5275.9030207927
 31
0.0
  0
LINE
  5
118
330
1F
100
AcDbEntity
  8
0
  6
SLD-Plná
 62
     7
370
    25
100
AcDbLine
 10
6721.1255759428
 20
5275.9030207927
 30
0.0
 11
6721.1255759428
 21
5274.1709699851
 31
0.0
  0
LINE
  5
119
330
1F
100
AcDbEntity
  8
0
  6
SLD-Plná
 62
     7
370
    25
100
AcDbLine
 10
6721.1255759428
 20
5274.1709699851
 30
0.0
 11
6722.1862361146
 21
5273.3049445813
 31
0.0
  0
LINE
  5
11A
330
1F
100
AcDbEntity
  8
0
  6
SLD-Plná
 62
     7
370
    25
100
AcDbLine
 10
6721.1255759428
 20
5275.9030207927
 30
0.0
 11
6723.2468962863
 21
5275.9030207927
 31
0.0
  0
LINE
  5
11B
330
1F
100
AcDbEntity
  8
0
  6
SLD-Plná
 62
     7
370
    25
100
AcDbLine
 10
6721.1255759428
 20
5274.1709699851
 30
0.0
 11
6723.2468962863
 21
5274.1709699851
 31
0.0
  0
LWPOLYLINE
  5
11C
330
1F
100
AcDbEntity
  8
0
  6
SLD-Plná
 62
     7
370
    25
100
AcDbPolyline
 90
       10
 70
   128
 43
0.0
 10
6692.3318576658
 20
5306.0794471926
 10
6691.03982404
 20
5305.3308721693
 10
6690.0337781095
 20
5304.6027163213
 10
6689.3411621848
 20
5303.9148418418
 10
6688.9808690228
 20
5303.2860121537
 10
6688.9627264817
 20
5302.7333800914
 10
6689.2872294427
 20
5302.2720200171
 10
6689.945526311
 20
5301.914516631
 10
6690.9196604641
 20
5301.6706216934
 10
6692.100542027
 20
5301.5508942044
  0
ARC
  5
11D
330
1F
100
AcDbEntity
  8
0
  6
SLD-Plná
 62
     7
370
    25
100
AcDbCircle
 10
6712.2516521056
 20
5265.6364966909
 30
0.0
 40
45.08248502248979
100
AcDbArc
 50
94.5396965682
 51
116.222117561
  0
LWPOLYLINE
  5
11E
330
1F
100
AcDbEntity
  8
0
  6
SLD-Plná
 62
     7
370
    25
100
AcDbPolyline
 90
        9
 70
   128
 43
0.0
 10
6693.038964447
 20
5306.0794471926
 10
6691.787532698
 20
5305.3504465703
 10
6690.8319460502
 20
5304.643596263
 10
6690.2012395203
 20
5303.9803735596
 10
6689.9145768072
 20
5303.3809301463
 10
6689.9806680123
 20
5302.863479808
 10
6690.3975049878
 20
5302.4437450114
 10
6691.1524223532
 20
5302.1344791857
 10
6691.9892251177
 20
5301.972445098
  0
ARC
  5
11F
330
1F
100
AcDbEntity
  8
0
  6
SLD-Plná
 62
     7
370
    25
100
AcDbCircle
 10
6711.3186239635
 20
5269.0819846043
 30
0.0
 40
41.26691398706178
100
AcDbArc
 50
93.9163554923
 51
116.2929980655
  0
LINE
  5
120
330
1F
100
AcDbEntity
  8
0
  6
SLD-Plná
 62
     7
370
    25
100
AcDbLine
 10
6686.8475160988
 20
5310.7519739998
 30
0.0
 11
6686.8615137507
 21
5310.6886185505
 31
0.0
  0
LWPOLYLINE
  5
121
330
1F
100
AcDbEntity
  8
0
  6
SLD-Plná
 62
     7
370
    25
100
AcDbPolyline
 90
        3
 70
   128
 43
0.0
 10
6692.9424549197
 20
5298.3626172891
 10
6692.8412997243
 20
5298.0441322542
 10
6692.8565029141
 20
5297.777810135
  0
LINE
  5
122
330
1F
100
AcDbEntity
  8
0
  6
SLD-Plná
 62
     7
370
    25
100
AcDbLine
 10
6691.2046624707
 20
5304.9435398486
 30
0.0
 11
6692.9424549197
 21
5298.3626172891
 31
0.0
  0
LINE
  5
123
330
1F
100
AcDbEntity
  8
0
  6
SLD-Plná
 62
     7
370
    25
100
AcDbLine
 10
6693.3285555757
 20
5298.8940458493
 30
0.0
 11
6691.6479878031
 21
5305.258261768
 31
0.0
  0
ARC
  5
124
330
1F
100
AcDbEntity
  8
0
  6
SLD-Plná
 62
     7
370
    25
100
AcDbCircle
 10
6703.866656804
 20
5286.1143103365
 30
0.0
 40
16.56421496102757
100
AcDbArc
 50
106.1709788486
 51
129.5088085392
  0
LINE
  5
125
330
1F
100
AcDbEntity
  8
0
  6
SLD-Plná
 62
     7
370
    25
100
AcDbLine
 10
6697.6702489564
 20
5308.018637078
 30
0.0
 11
6699.2534456246
 21
5302.0231600715
 31
0.0
  0
LINE
  5
126
330
1F
100
AcDbEntity
  8
0
  6
SLD-Plná
 62
     7
370
    25
100
AcDbLine
 10
6700.8798351268
 20
5302.5545886317
 30
0.0
 11
6699.2999430783
 21
5308.5375512288
 31
0.0
  0
ARC
  5
127
330
1F
100
AcDbEntity
  8
0
  6
SLD-Plná
 62
     7
370
    25
100
AcDbCircle
 10
6712.8987598205
 20
5263.0080386526
 30
0.0
 40
41.33260415269577
100
AcDbArc
 50
100.5649413101
 51
106.904992562
  0
LINE
  5
128
330
1F
100
AcDbEntity
  8
0
  6
SLD-Plná
 62
     7
370
    25
100
AcDbLine
 10
6707.7135275206
 20
5310.2008951546
 30
0.0
 11
6707.9770419607
 21
5309.2029807464
 31
0.0
  0
ARC
  5
129
330
1F
100
AcDbEntity
  8
0
  6
SLD-Plná
 62
     7
370
    25
100
AcDbCircle
 10
6694.9550132034
 20
5305.2456001903
 30
0.0
 40
10.59976656991399
100
AcDbArc
 50
115.725709143
 51
132.6645534429
  0
LWPOLYLINE
  5
12A
330
1F
100
AcDbEntity
  8
0
  6
SLD-Plná
 62
     7
370
    25
100
AcDbPolyline
 90
       14
 70
   128
 43
0.0
 10
6710.7491519006
 20
5318.6547287377
 10
6710.6343498074
 20
5318.7128067884
 10
6709.7639975255
 20
5318.9903010535
 10
6708.5903953282
 20
5319.1470967449
 10
6707.1473056138
 20
5319.1786831359
 10
6705.476243446
 20
5319.0841515436
 10
6703.6252822409
 20
5318.8662214697
 10
6701.6476707823
 20
5318.5311623658
 10
6699.6003013513
 20
5318.0886132721
 10
6697.5420730388
 20
5317.5513055205
 10
6695.5321973258
 20
5316.9346964765
 10
6693.6284946773
 20
5316.2565248598
 10
6691.8857311524
 20
5315.536300433
 10
6690.3540428847
 20
5314.7947427415
  0
LINE
  5
12B
330
1F
100
AcDbEntity
  8
0
  6
SLD-Plná
 62
     7
370
    25
100
AcDbLine
 10
6703.8014598037
 20
5262.0369953889
 30
0.0
 11
6703.8014598037
 21
5263.0369953889
 31
0.0
  0
LINE
  5
12C
330
1F
100
AcDbEntity
  8
0
  6
SLD-Plná
 62
     7
370
    25
100
AcDbLine
 10
6727.274178045
 20
5263.0369953889
 30
0.0
 11
6703.8014598037
 21
5263.0369953889
 31
0.0
  0
LINE
  5
12D
330
1F
100
AcDbEntity
  8
0
  6
SLD-Plná
 62
     7
370
    25
100
AcDbLine
 10
6697.0839453824
 20
5262.0369953889
 30
0.0
 11
6697.0839453824
 21
5263.0369953889
 31
0.0
  0
LINE
  5
12E
330
1F
100
AcDbEntity
  8
0
  6
SLD-Plná
 62
     7
370
    25
100
AcDbLine
 10
6703.8014598037
 20
5263.0369953889
 30
0.0
 11
6697.0839453824
 21
5263.0369953889
 31
0.0
  0
LINE
  5
12F
330
1F
100
AcDbEntity
  8
0
  6
SLD-Plná
 62
     7
370
    25
100
AcDbLine
 10
6697.0839453824
 20
5263.0369953889
 30
0.0
 11
6693.0566636237
 21
5263.0369953889
 31
0.0
  0
LWPOLYLINE
  5
130
330
1F
100
AcDbEntity
  8
0
  6
SLD-Plná
 62
     7
370
    25
100
AcDbPolyline
 90
        9
 70
   128
 43
0.0
 10
6721.2763637124
 20
5296.0139245376
 10
6722.6044926408
 20
5295.7011336538
 10
6723.7876598768
 20
5295.5832198428
 10
6724.7515226715
 20
5295.6675920631
 10
6725.4355179806
 20
5295.9489488976
 10
6725.7966678634
 20
5296.4096116618
 10
6725.8122799445
 20
5297.02063522
 10
6725.4813732595
 20
5297.7436267149
 10
6724.967111992
 20
5298.3864781699
  0
LWPOLYLINE
  5
131
330
1F
100
AcDbEntity
  8
0
  6
SLD-Plná
 62
     7
370
    25
100
AcDbPolyline
 90
       12
 70
   128
 43
0.0
 10
6716.887688707
 20
5302.0201972998
 10
6716.2936833412
 20
5302.0050634179
 10
6715.4632057252
 20
5301.8207454886
 10
6714.9364797375
 20
5301.4467869141
 10
6714.746601509
 20
5300.9066848871
 10
6714.9055017872
 20
5300.2343760043
 10
6715.4031962831
 20
5299.4721039053
 10
6716.2084130212
 20
5298.6677649495
 10
6717.2705572725
 20
5297.8718987118
 10
6718.5228906073
 20
5297.1345123947
 10
6719.8867243166
 20
5296.5019386926
 10
6721.2763637124
 20
5296.0139245376
  0
LINE
  5
132
330
1F
100
AcDbEntity
  8
0
  6
SLD-Plná
 62
     7
370
    25
100
AcDbLine
 10
6716.3812363341
 20
5300.8941215221
 30
0.0
 11
6717.1154421325
 21
5298.8026085288
 31
0.0
  0
LINE
  5
133
330
1F
100
AcDbEntity
  8
0
  6
SLD-Plná
 62
     7
370
    25
100
AcDbLine
 10
6717.1154421325
 20
5298.8026085288
 30
0.0
 11
6721.0316284462
 21
5296.7110955354
 31
0.0
  0
LINE
  5
134
330
1F
100
AcDbEntity
  8
0
  6
SLD-Plná
 62
     7
370
    25
100
AcDbLine
 10
6721.0316284462
 20
5296.7110955354
 30
0.0
 11
6724.2136089616
 21
5296.7110955354
 31
0.0
  0
LINE
  5
135
330
1F
100
AcDbEntity
  8
0
  6
SLD-Plná
 62
     7
370
    25
100
AcDbLine
 10
6720.5119464094
 20
5303.0035822219
 30
0.0
 11
6717.3299658941
 21
5303.0035822219
 31
0.0
  0
LINE
  5
136
330
1F
100
AcDbEntity
  8
0
  6
SLD-Plná
 62
     7
370
    25
100
AcDbLine
 10
6724.4281327232
 20
5300.9120692285
 30
0.0
 11
6720.5119464094
 21
5303.0035822219
 31
0.0
  0
LINE
  5
137
330
1F
100
AcDbEntity
  8
0
  6
SLD-Plná
 62
     7
370
    25
100
AcDbLine
 10
6725.1623385216
 20
5298.8205562352
 30
0.0
 11
6724.4281327232
 21
5300.9120692285
 31
0.0
  0
LINE
  5
138
330
1F
100
AcDbEntity
  8
0
  6
SLD-Plná
 62
     7
370
    25
100
AcDbLine
 10
6721.9803580063
 20
5298.8205562352
 30
0.0
 11
6725.1623385216
 21
5298.8205562352
 31
0.0
  0
LINE
  5
139
330
1F
100
AcDbEntity
  8
0
  6
SLD-Plná
 62
     7
370
    25
100
AcDbLine
 10
6718.0641716925
 20
5300.9120692285
 30
0.0
 11
6721.9803580063
 21
5298.8205562352
 31
0.0
  0
LINE
  5
13A
330
1F
100
AcDbEntity
  8
0
  6
SLD-Plná
 62
     7
370
    25
100
AcDbLine
 10
6717.3299658941
 20
5303.0035822219
 30
0.0
 11
6718.0641716925
 21
5300.9120692285
 31
0.0
  0
LWPOLYLINE
  5
13B
330
1F
100
AcDbEntity
  8
0
  6
SLD-Plná
 62
     7
370
    25
100
AcDbPolyline
 90
       18
 70
   128
 43
0.0
 10
6721.6948335291
 20
5299.6339223992
 10
6722.5692329998
 20
5299.4536587022
 10
6723.2649430781
 20
5299.4703614281
 10
6723.6880042629
 20
5299.6817747812
 10
6723.7812797969
 20
5300.0593462167
 10
6723.5321723023
 20
5300.55208262
 10
6722.9743251267
 20
5301.0934372096
 10
6722.1830786223
 20
5301.6102970484
 10
6721.2652950139
 20
5302.0328573511
 10
6720.3449260635
 20
5302.3040490073
 10
6719.5462726978
 20
5302.3872460811
 10
6718.9771974792
 20
5302.2712123468
 10
6718.7145571694
 20
5301.9716188031
 10
6718.7938227977
 20
5301.5289272182
 10
6719.2042891016
 20
5301.0029255436
 10
6719.8905203324
 20
5300.4646532203
 10
6720.7598371597
 20
5299.986806908
 10
6721.6948335291
 20
5299.6339223992
  0
LINE
  5
13C
330
1F
100
AcDbEntity
  8
0
  6
SLD-Plná
 62
     7
370
    25
100
AcDbLine
 10
6721.0316284462
 20
5296.7110955354
 30
0.0
 11
6721.9803580063
 21
5298.8205562352
 31
0.0
  0
LINE
  5
13D
330
1F
100
AcDbEntity
  8
0
  6
SLD-Plná
 62
     7
370
    25
100
AcDbLine
 10
6717.1154421325
 20
5298.8026085288
 30
0.0
 11
6718.0641716925
 21
5300.9120692285
 31
0.0
  0
LINE
  5
13E
330
1F
100
AcDbEntity
  8
0
  6
SLD-Plná
 62
     7
370
    25
100
AcDbLine
 10
6724.2136089616
 20
5296.7110955354
 30
0.0
 11
6725.1623385216
 21
5298.8205562352
 31
0.0
  0
LINE
  5
13F
330
1F
100
AcDbEntity
  8
0
  6
SLD-Plná
 62
     7
370
    25
100
AcDbLine
 10
6716.3812363341
 20
5300.8941215221
 30
0.0
 11
6717.3299658941
 21
5303.0035822219
 31
0.0
  0
SPLINE
  5
140
330
1F
100
AcDbEntity
  8
0
  6
SLD-Plná
 62
     7
370
    25
100
AcDbSpline
210
0.0
220
0.0
230
1.0
 70
     8
 71
     3
 72
    16
 73
    12
 74
     0
 42
0.00000001
 43
0.00000001
 40
0.0
 40
0.0
 40
0.0
 40
0.0
 40
0.0712295648982414
 40
0.1601221936461123
 40
0.2515100804134154
 40
0.34178478836972
 40
0.4346411771997642
 40
0.523384919808888
 40
0.6130710621471778
 40
0.9704845701095687
 40
0.9999999999999999
 40
0.9999999999999999
 40
0.9999999999999999
 40
0.9999999999999999
 10
6691.094727914279
 20
5295.388299866884
 30
0.0
 10
6691.095711198621
 20
5295.532829202037
 30
0.0
 10
6691.097921596029
 20
5295.857727356672
 30
0.0
 10
6691.511932415158
 20
5296.460413801612
 30
0.0
 10
6692.247771462488
 20
5297.155487634417
 30
0.0
 10
6693.326070164606
 20
5297.901331758928
 30
0.0
 10
6694.669186366061
 20
5298.65743344866
 30
0.0
 10
6696.281847759285
 20
5299.405256454389
 30
0.0
 10
6699.660346963796
 20
5300.855988058754
 30
0.0
 10
6702.646604982013
 20
5302.149332993509
 30
0.0
 10
6705.088557976436
 20
5303.196816628561
 30
0.0
 10
6705.274833246523
 20
5303.276720008143
 30
0.0
  0
SPLINE
  5
141
330
1F
100
AcDbEntity
  8
0
  6
SLD-Plná
 62
     7
370
    25
100
AcDbSpline
210
0.0
220
0.0
230
1.0
 70
     8
 71
     3
 72
    13
 73
     9
 74
     0
 42
0.00000001
 43
0.00000001
 40
0.0
 40
0.0
 40
0.0
 40
0.0
 40
0.0898926087860832
 40
0.1805364647375682
 40
0.2610890131239706
 40
0.3840270411469041
 40
0.6244246110817958
 40
1.0
 40
1.0
 40
1.0
 40
1.0
 10
6705.329366626449
 20
5303.03699538889
 30
0.0
 10
6705.322179622277
 20
5303.037568723203
 30
0.0
 10
6705.307745550968
 20
5303.038720183275
 30
0.0
 10
6705.289131875958
 20
5303.050626598542
 30
0.0
 10
6705.274129967879
 20
5303.071890769926
 30
0.0
 10
6705.262088993784
 20
5303.111774714676
 30
0.0
 10
6705.260076707264
 20
5303.182964159809
 30
0.0
 10
6705.269243813607
 20
5303.241207479398
 30
0.0
 10
6705.274833246523
 20
5303.276720008143
 30
0.0
  0
LINE
  5
142
330
1F
100
AcDbEntity
  8
0
  6
SLD-Plná
 62
     7
370
    25
100
AcDbLine
 10
6705.3293666264
 20
5303.0369953889
 30
0.0
 11
6708.5864995063
 21
5303.0369953889
 31
0.0
  0
SPLINE
  5
143
330
1F
100
AcDbEntity
  8
0
  6
SLD-Plná
 62
     7
370
    25
100
AcDbSpline
210
0.0
220
0.0
230
1.0
 70
     8
 71
     3
 72
     9
 73
     5
 74
     0
 42
0.00000001
 43
0.00000001
 40
0.0
 40
0.0
 40
0.0
 40
0.0
 40
0.6938190639124711
 40
1.0
 40
1.0
 40
1.0
 40
1.0
 10
6708.81007241276
 20
5303.164317806566
 30
0.0
 10
6708.762307953903
 20
5303.121897466311
 30
0.0
 10
6708.693465136889
 20
5303.060757116527
 30
0.0
 10
6708.61157324303
 20
5303.042565358417
 30
0.0
 10
6708.58649950631
 20
5303.03699538889
 30
0.0
  0
SPLINE
  5
144
330
1F
100
AcDbEntity
  8
0
  6
SLD-Plná
 62
     7
370
    25
100
AcDbSpline
210
0.0
220
0.0
230
1.0
 70
     8
 71
     3
 72
    20
 73
    16
 74
     0
 42
0.00000001
 43
0.00000001
 40
0.0
 40
0.0
 40
0.0
 40
0.0
 40
0.0063999920862905
 40
0.2541942650331026
 40
0.332268271346201
 40
0.4102951704303777
 40
0.4884862409348641
 40
0.56222521794488
 40
0.6320616455363013
 40
0.7011101514437696
 40
0.7725503541330269
 40
0.8482656822040454
 40
0.9220316481969093
 40
0.9963968938654111
 40
1.0
 40
1.0
 40
1.0
 40
1.0
 10
6708.81007241276
 20
5303.164317806566
 30
0.0
 10
6708.864601197397
 20
5303.121879864567
 30
0.0
 10
6711.030370177555
 20
5301.436333799749
 30
0.0
 10
6713.605189954762
 20
5299.215367608386
 30
0.0
 10
6717.400697239174
 20
5296.556099531565
 30
0.0
 10
6720.091606222811
 20
5295.258730110401
 30
0.0
 10
6722.782072530393
 20
5294.360820541229
 30
0.0
 10
6725.130919804865
 20
5293.991558692248
 30
0.0
 10
6726.858368286163
 20
5294.145935492558
 30
0.0
 10
6727.880713075452
 20
5294.759860246873
 30
0.0
 10
6728.145053616567
 20
5295.777447885905
 30
0.0
 10
6727.603022943239
 20
5297.107087466715
 30
0.0
 10
6726.264121546603
 20
5298.598487060217
 30
0.0
 10
6725.206455370076
 20
5299.610842864424
 30
0.0
 10
6724.717510679677
 20
5300.128184826885
 30
0.0
 10
6724.694915362823
 20
5300.152092450369
 30
0.0
  0
SPLINE
  5
145
330
1F
100
AcDbEntity
  8
0
  6
SLD-Plná
 62
     7
370
    25
100
AcDbSpline
210
0.0
220
0.0
230
1.0
 70
     8
 71
     3
 72
     9
 73
     5
 74
     0
 42
0.00000001
 43
0.00000001
 40
0.0
 40
0.0
 40
0.0
 40
0.0
 40
0.9277480470028068
 40
1.0
 40
1.0
 40
1.0
 40
1.0
 10
6723.512617159448
 20
5301.401017542984
 30
0.0
 10
6722.99444269614
 20
5301.94651356365
 30
0.0
 10
6722.435913400411
 20
5302.534492188265
 30
0.0
 10
6721.884146710464
 20
5303.121878032182
 30
0.0
 10
6721.844280489515
 20
5303.164317806568
 30
0.0
  0
LINE
  5
146
330
1F
100
AcDbEntity
  8
0
  6
SLD-Plná
 62
     7
370
    25
100
AcDbLine
 10
6703.8014598037
 20
5263.0369953889
 30
0.0
 11
6727.274178045
 21
5263.0369953889
 31
0.0
  0
LINE
  5
147
330
1F
100
AcDbEntity
  8
0
  6
SLD-Plná
 62
     7
370
    25
100
AcDbLine
 10
6693.0572218908
 20
5263.0369953889
 30
0.0
 11
6697.0839453824
 21
5263.0369953889
 31
0.0
  0
SPLINE
  5
148
330
1F
100
AcDbEntity
  8
0
  6
SLD-Plná
 62
     7
370
    25
100
AcDbSpline
210
0.0
220
0.0
230
1.0
 70
    11
 71
     3
 72
    31
 73
    27
 74
     0
 42
0.00000001
 43
0.00000001
 40
0.0
 40
0.0
 40
0.0
 40
0.0
 40
0.0302097299014319
 40
0.0607814190922801
 40
0.0915836391000755
 40
0.1228445813323607
 40
0.1859596338493733
 40
0.2498986092185463
 40
0.3139721447263807
 40
0.3772043118112019
 40
0.4083553921470975
 40
0.4392497344946428
 40
0.469747022871321
 40
0.5000858777246212
 40
0.5303353899933015
 40
0.5606440833814369
 40
0.6221362150433283
 40
0.6852545313956916
 40
0.7173944480393802
 40
0.749936985836005
 40
0.7823530090026677
 40
0.8147409913109527
 40
0.8780079086940432
 40
0.9394997318978421
 40
0.9698536100702042
 40
1.0
 40
1.0
 40
1.0
 40
1.0
 10
6726.752544082526
 20
5275.06878578408
 30
0.0
 10
6726.729953944984
 20
5274.772837138982
 30
0.0
 10
6726.684503005115
 20
5274.177393926275
 30
0.0
 10
6726.519785121942
 20
5273.314899368805
 30
0.0
 10
6726.278867404579
 20
5272.521839438225
 30
0.0
 10
6725.841981132502
 20
5271.59507394284
 30
0.0
 10
6725.06806725574
 20
5270.744796212167
 30
0.0
 10
6723.822361776898
 20
5270.377414040991
 30
0.0
 10
6722.412727676138
 20
5270.722993282518
 30
0.0
 10
6721.308324352648
 20
5271.559324057564
 30
0.0
 10
6720.616288329641
 20
5272.477065521497
 30
0.0
 10
6720.226460036169
 20
5273.263716877585
 30
0.0
 10
6719.997649554231
 20
5274.12314147056
 30
0.0
 10
6719.956019540532
 20
5275.016913530452
 30
0.0
 10
6720.10990654612
 20
5275.90075339884
 30
0.0
 10
6720.555478015972
 20
5277.014590227905
 30
0.0
 10
6721.498514677494
 20
5278.215330514789
 30
0.0
 10
6722.70354723703
 20
5279.013950186828
 30
0.0
 10
6723.684729633324
 20
5279.358389703149
 30
0.0
 10
6724.395849389047
 20
5279.451445342832
 30
0.0
 10
6725.036759472302
 20
5279.369247138802
 30
0.0
 10
6725.754000582062
 20
5279.037413442837
 30
0.0
 10
6726.382172226526
 20
5278.249733882037
 30
0.0
 10
6726.686251514208
 20
5277.05754521662
 30
0.0
 10
6726.777627783118
 20
5275.950481986893
 30
0.0
 10
6726.760886177373
 20
5275.362011790496
 30
0.0
 10
6726.752544082525
 20
5275.06878578408
 30
0.0
  0
SPLINE
  5
149
330
1F
100
AcDbEntity
  8
0
  6
SLD-Plná
 62
     7
370
    25
100
AcDbSpline
210
0.0
220
0.0
230
1.0
 70
     8
 71
     3
 72
    10
 73
     6
 74
     0
 42
0.00000001
 43
0.00000001
 40
0.0
 40
0.0
 40
0.0
 40
0.0
 40
0.3315960478319595
 40
0.6631921338329195
 40
1.0
 40
1.0
 40
1.0
 40
1.0
 10
6709.252419161988
 20
5303.03699538889
 30
0.0
 10
6709.20942237462
 20
5303.040025521681
 30
0.0
 10
6709.123428794934
 20
5303.046085787611
 30
0.0
 10
6708.96447215502
 20
5303.091632532175
 30
0.0
 10
6708.861805835287
 20
5303.139963763246
 30
0.0
 10
6708.81007241276
 20
5303.164317806566
 30
0.0
  0
LINE
  5
14A
330
1F
100
AcDbEntity
  8
0
  6
SLD-Plná
 62
     7
370
    25
100
AcDbLine
 10
6709.252419162
 20
5303.0369953889
 30
0.0
 11
6721.6850298381
 21
5303.0369953889
 31
0.0
  0
SPLINE
  5
14B
330
1F
100
AcDbEntity
  8
0
  6
SLD-Plná
 62
     7
370
    25
100
AcDbSpline
210
0.0
220
0.0
230
1.0
 70
     8
 71
     3
 72
    10
 73
     6
 74
     0
 42
0.00000001
 43
0.00000001
 40
0.0
 40
0.0
 40
0.0
 40
0.0
 40
0.0302188897078636
 40
0.5113222509352712
 40
1.0
 40
1.0
 40
1.0
 40
1.0
 10
6721.841203237903
 20
5303.100945964969
 30
0.0
 10
6721.841162478461
 20
5303.099518725779
 30
0.0
 10
6721.840472803588
 20
5303.075368958445
 30
0.0
 10
6721.792110048085
 20
5303.047429608711
 30
0.0
 10
6721.720908612197
 20
5303.040491525256
 30
0.0
 10
6721.685029838058
 20
5303.03699538889
 30
0.0
  0
LWPOLYLINE
  5
14C
330
1F
100
AcDbEntity
  8
0
  6
SLD-Plná
 62
     7
370
    25
100
AcDbPolyline
 90
       20
 70
   128
 43
0.0
 10
6725.7756119244
 20
5297.1515328189
 10
6726.0271957229
 20
5296.6364983147
 10
6726.1122069474
 20
5295.9868062529
 10
6725.8735123939
 20
5295.4661705062
 10
6725.3239801477
 20
5295.1026586823
 10
6724.4932356343
 20
5294.915867798
 10
6723.4260645056
 20
5294.915867798
 10
6722.1799982332
 20
5295.1026586823
 10
6720.8222125726
 20
5295.4661705062
 10
6719.4259061
 20
5295.9868062529
 10
6718.0663540589
 20
5296.6364983147
 10
6716.8168502516
 20
5297.3802216244
 10
6715.744755752
 20
5298.1778818658
 10
6714.9078674518
 20
5298.9864769688
 10
6714.3513022161
 20
5299.7624153622
 10
6714.1050646208
 20
5300.4638660063
 10
6714.1824293982
 20
5301.0530135153
 10
6714.5792257933
 20
5301.4980967945
 10
6715.2740624098
 20
5301.7751212891
 10
6715.4272994202
 20
5301.8056866404
  0
SPLINE
  5
14D
330
1F
100
AcDbEntity
  8
0
  6
SLD-Plná
 62
     7
370
    25
100
AcDbSpline
210
0.0
220
0.0
230
1.0
 70
     8
 71
     3
 72
    10
 73
     6
 74
     0
 42
0.00000001
 43
0.00000001
 40
0.0
 40
0.0
 40
0.0
 40
0.0
 40
0.4983082795349648
 40
0.8964072645436749
 40
1.0
 40
1.0
 40
1.0
 40
1.0
 10
6715.668617379349
 20
5324.87521320814
 30
0.0
 10
6713.949586084411
 20
5321.247712305767
 30
0.0
 10
6710.857218961393
 20
5314.722197289118
 30
0.0
 10
6707.413033538254
 20
5307.44279724387
 30
0.0
 10
6705.685980369065
 20
5303.791036008257
 30
0.0
 10
6705.329366626449
 20
5303.03699538889
 30
0.0
  0
SPLINE
  5
14E
330
1F
100
AcDbEntity
  8
0
  6
SLD-Plná
 62
     7
370
    25
100
AcDbSpline
210
0.0
220
0.0
230
1.0
 70
     8
 71
     3
 72
     9
 73
     5
 74
     0
 42
0.00000001
 43
0.00000001
 40
0.0
 40
0.0
 40
0.0
 40
0.0
 40
0.500073086208588
 40
0.9999999999999999
 40
0.9999999999999999
 40
0.9999999999999999
 40
0.9999999999999999
 10
6717.59392475872
 20
5323.135044640186
 30
0.0
 10
6717.27291310156
 20
5323.42523981221
 30
0.0
 10
6716.630983619625
 20
5324.005545331596
 30
0.0
 10
6715.989374864273
 20
5324.585352166548
 30
0.0
 10
6715.668617379349
 20
5324.87521320814
 30
0.0
  0
SPLINE
  5
14F
330
1F
100
AcDbEntity
  8
0
  6
SLD-Plná
 62
     7
370
    25
100
AcDbSpline
210
0.0
220
0.0
230
1.0
 70
     8
 71
     3
 72
    10
 73
     6
 74
     0
 42
0.00000001
 43
0.00000001
 40
0.0
 40
0.0
 40
0.0
 40
0.0
 40
0.515694298914522
 40
0.9486944957959937
 40
1.0
 40
1.0
 40
1.0
 40
1.0
 10
6708.58649950631
 20
5303.03699538889
 30
0.0
 10
6710.132940985985
 20
5306.491537959757
 30
0.0
 10
6712.977844493597
 20
5312.846670311176
 30
0.0
 10
6715.982805375273
 20
5319.546568119487
 30
0.0
 10
6717.439597717979
 20
5322.791309118224
 30
0.0
 10
6717.593924758721
 20
5323.135044640186
 30
0.0
  0
ARC
  5
150
330
1F
100
AcDbEntity
  8
0
  6
SLD-Plná
 62
     7
370
    25
100
AcDbCircle
 10
6718.3275174724
 20
5323.9871909274
 30
0.0
 40
1.124416099318985
100
AcDbArc
 50
229.2756128856
 51
265.7094859174
  0
SPLINE
  5
151
330
1F
100
AcDbEntity
  8
0
  6
SLD-Plná
 62
     7
370
    25
100
AcDbSpline
210
0.0
220
0.0
230
1.0
 70
     8
 71
     3
 72
    11
 73
     7
 74
     0
 42
0.00000001
 43
0.00000001
 40
0.0
 40
0.0
 40
0.0
 40
0.0
 40
0.0518421197658221
 40
0.4893712621816739
 40
0.926900403956869
 40
1.0
 40
1.0
 40
1.0
 40
1.0
 10
6718.243395820902
 20
5322.865925966667
 30
0.0
 10
6718.087869873141
 20
5322.523268887538
 30
0.0
 10
6716.619759971333
 20
5319.288707336685
 30
0.0
 10
6713.840589180249
 20
5313.162232321844
 30
0.0
 10
6711.000154316914
 20
5306.89524011683
 30
0.0
 10
6709.471285929977
 20
5303.520158728217
 30
0.0
 10
6709.252419161988
 20
5303.03699538889
 30
0.0
  0
ARC
  5
152
330
1F
100
AcDbEntity
  8
0
  6
SLD-Plná
 62
     7
370
    25
100
AcDbCircle
 10
6717.6747026908
 20
5323.1301244375
 30
0.0
 40
0.6270667494030621
100
AcDbArc
 50
335.0817744808
 51
42.797492172
  0
ARC
  5
153
330
1F
100
AcDbEntity
  8
0
  6
SLD-Plná
 62
     7
370
    25
100
AcDbCircle
 10
6718.233821488
 20
5322.8710682018
 30
0.0
 40
0.6922076163895577
100
AcDbArc
 50
98.222890682
 51
157.5823958055
  0
SPLINE
  5
154
330
1F
100
AcDbEntity
  8
0
  6
SLD-Plná
 62
     7
370
    25
100
AcDbSpline
210
0.0
220
0.0
230
1.0
 70
     8
 71
     3
 72
    10
 73
     6
 74
     0
 42
0.00000001
 43
0.00000001
 40
0.0
 40
0.0
 40
0.0
 40
0.0
 40
0.4999319656265476
 40
0.8991841286566252
 40
1.0
 40
1.0
 40
1.0
 40
1.0
 10
6716.204037582695
 20
5325.2838059365
 30
0.0
 10
6716.525677478964
 20
5324.99590363785
 30
0.0
 10
6717.104183175245
 20
5324.478078822976
 30
0.0
 10
6717.74790628653
 20
5323.902197036355
 30
0.0
 10
6718.069903011959
 20
5323.614217304169
 30
0.0
 10
6718.13481893982
 20
5323.556159348784
 30
0.0
  0
ARC
  5
155
330
1F
100
AcDbEntity
  8
0
  6
SLD-Plná
 62
     7
370
    25
100
AcDbCircle
 10
6716.3009461832
 20
5324.6017129643
 30
0.0
 40
0.6889427403808739
100
AcDbArc
 50
98.0862002206
 51
156.610140845
  0
LINE
  5
156
330
1F
100
AcDbEntity
  8
0
  6
SLD-Plná
 62
     7
370
    25
100
AcDbLine
 10
6730.5301689077
 20
5322.8659259667
 30
0.0
 11
6718.2433958209
 21
5322.8659259667
 31
0.0
  0
SPLINE
  5
157
330
1F
100
AcDbEntity
  8
0
  6
SLD-Plná
 62
     7
370
    25
100
AcDbSpline
210
0.0
220
0.0
230
1.0
 70
     8
 71
     3
 72
    11
 73
     7
 74
     0
 42
0.00000001
 43
0.00000001
 40
0.0
 40
0.0
 40
0.0
 40
0.0
 40
0.0731661441439762
 40
0.5106287378182015
 40
0.948091332132641
 40
1.0
 40
1.0
 40
1.0
 40
1.0
 10
6721.685029838058
 20
5303.03699538889
 30
0.0
 10
6721.900964709649
 20
5303.520598588375
 30
0.0
 10
6723.407980723966
 20
5306.895679976724
 30
0.0
 10
6726.204506501419
 20
5313.162232320804
 30
0.0
 10
6728.935901842416
 20
5319.288267478119
 30
0.0
 10
6730.377278924208
 20
5322.522829029362
 30
0.0
 10
6730.530168907729
 20
5322.865925966667
 30
0.0
  0
LINE
  5
158
330
1F
100
AcDbEntity
  8
0
  6
SLD-Plná
 62
     7
370
    25
100
AcDbLine
 10
6718.1348189398
 20
5323.5561593488
 30
0.0
 11
6730.4215920266
 21
5323.5561593488
 31
0.0
  0
ARC
  5
159
330
1F
100
AcDbEntity
  8
0
  6
SLD-Plná
 62
     7
370
    25
100
AcDbCircle
 10
6729.9614757776
 20
5323.1301244375
 30
0.0
 40
0.6270667494036306
100
AcDbArc
 50
335.081774481
 51
42.7974921722
  0
SPLINE
  5
15A
330
1F
100
AcDbEntity
  8
0
  6
SLD-Plná
 62
     7
370
    25
100
AcDbSpline
210
0.0
220
0.0
230
1.0
 70
     8
 71
     3
 72
    10
 73
     6
 74
     0
 42
0.00000001
 43
0.00000001
 40
0.0
 40
0.0
 40
0.0
 40
0.0
 40
0.5000680325356656
 40
0.8992594687800499
 40
1.0
 40
1.0
 40
1.0
 40
1.0
 10
6730.421592026644
 20
5323.556159348784
 30
0.0
 10
6730.103237117681
 20
5323.844139232034
 30
0.0
 10
6729.53074768086
 20
5324.362006042111
 30
0.0
 10
6728.893739082943
 20
5324.93788877217
 30
0.0
 10
6728.575209496899
 20
5325.22579116311
 30
0.0
 10
6728.511023083955
 20
5325.2838059365
 30
0.0
  0
LINE
  5
15B
330
1F
100
AcDbEntity
  8
0
  6
SLD-Plná
 62
     7
370
    25
100
AcDbLine
 10
6728.511023084
 20
5325.2838059365
 30
0.0
 11
6716.2040375827
 21
5325.2838059365
 31
0.0
  0
ARC
  5
15C
330
1F
100
AcDbEntity
  8
0
  6
SLD-Plná
 62
     7
370
    25
100
AcDbCircle
 10
6715.5104186195
 20
5300.0063849924
 30
0.0
 40
1.142013581596243
100
AcDbArc
 50
158.7726273933
 51
200.8258010127
  0
ARC
  5
15D
330
1F
100
AcDbEntity
  8
0
  6
SLD-Plná
 62
     7
370
    25
100
AcDbCircle
 10
6724.3618523969
 20
5296.0337786797
 30
0.0
 40
1.159452574656367
100
AcDbArc
 50
291.0708046324
 51
332.4649887831
  0
SPLINE
  5
15E
330
1F
100
AcDbEntity
  8
0
  6
SLD-Plná
 62
     7
370
    25
100
AcDbSpline
210
0.0
220
0.0
230
1.0
 70
    11
 71
     3
 72
    32
 73
    28
 74
     0
 42
0.00000001
 43
0.00000001
 40
0.0
 40
0.0
 40
0.0
 40
0.0
 40
0.0312081936375439
 40
0.0625707504755665
 40
0.1253192951901075
 40
0.1880081985287743
 40
0.219396985065516
 40
0.2505336662319759
 40
0.2818033673201771
 40
0.3129731347483471
 40
0.3755708655357446
 40
0.4383615317127696
 40
0.4696872464267174
 40
0.5009997607374966
 40
0.5322782115271366
 40
0.563472428447037
 40
0.62562655954997
 40
0.6879020553911463
 40
0.719163070489769
 40
0.7504261681134254
 40
0.7815264928422115
 40
0.8128349537779517
 40
0.875032469987002
 40
0.9063513957805241
 40
0.937556089960268
 40
0.9688430363721158
 40
1.0
 40
1.0
 40
1.0
 40
1.0
 10
6725.698939553588
 20
5275.11509186198
 30
0.0
 10
6725.709117737333
 20
5275.377952038376
 30
0.0
 10
6725.729524448559
 20
5275.90497256056
 30
0.0
 10
6725.675270637532
 20
5276.893174742425
 30
0.0
 10
6725.462118205894
 20
5277.957844040883
 30
0.0
 10
6724.972178127303
 20
5278.68275075259
 30
0.0
 10
6724.384739311082
 20
5278.987813275703
 30
0.0
 10
6723.853009033619
 20
5279.063600910595
 30
0.0
 10
6723.254111844342
 20
5278.979266754057
 30
0.0
 10
6722.413058386911
 20
5278.664377859572
 30
0.0
 10
6721.368717981378
 20
5277.93145592718
 30
0.0
 10
6720.553752993698
 20
5276.860688048459
 30
0.0
 10
6720.156548939011
 20
5275.866986168479
 30
0.0
 10
6720.011815880726
 20
5275.076866406283
 30
0.0
 10
6720.035765079208
 20
5274.278289070849
 30
0.0
 10
6720.282952607489
 20
5273.258444178588
 30
0.0
 10
6720.946176029578
 20
5272.138361392648
 30
0.0
 10
6721.881747501603
 20
5271.392627771735
 30
0.0
 10
6722.666578368024
 20
5271.085977128612
 30
0.0
 10
6723.247104066385
 20
5271.010489738599
 30
0.0
 10
6723.79087789183
 20
5271.094540107619
 30
0.0
 10
6724.437700820314
 20
5271.410432338665
 30
0.0
 10
6724.948091678674
 20
5272.02045179042
 30
0.0
 10
6725.302404291561
 20
5272.842329503492
 30
0.0
 10
6725.499562118463
 20
5273.550069021117
 30
0.0
 10
6725.63614548952
 20
5274.320165248388
 30
0.0
 10
6725.678037266103
 20
5274.850484293524
 30
0.0
 10
6725.698939553588
 20
5275.11509186198
 30
0.0
  0
SPLINE
  5
15F
330
1F
100
AcDbEntity
  8
0
  6
SLD-Plná
 62
     7
370
    25
100
AcDbSpline
210
0.0
220
0.0
230
1.0
 70
     8
 71
     3
 72
    40
 73
    36
 74
     0
 42
0.00000001
 43
0.00000001
 40
0.0
 40
0.0
 40
0.0
 40
0.0
 40
0.0244015895676012
 40
0.0560798143166017
 40
0.0873447282400829
 40
0.1181619994440279
 40
0.1499862174110821
 40
0.1805841004153416
 40
0.2121330231909863
 40
0.2435860044645536
 40
0.2742489108418694
 40
0.3060849039950735
 40
0.3368021599857049
 40
0.3681847848393639
 40
0.3997895068767069
 40
0.4303562410737648
 40
0.4621649759547332
 40
0.493059407144067
 40
0.5242398946766693
 40
0.5559589695656144
 40
0.5864884180152061
 40
0.6182310568758836
 40
0.6493531174397575
 40
0.6803030956858238
 40
0.7120983260992003
 40
0.7426496452143729
 40
0.774287822908978
 40
0.8056211465932032
 40
0.8363790707930845
 40
0.8682117157681877
 40
0.8988439035321074
 40
0.9303399961966963
 40
0.961849083142913
 40
0.9924724641348602
 40
1.0
 40
1.0
 40
1.0
 40
1.0
 10
6713.014499924671
 20
5294.754869229844
 30
0.0
 10
6712.917174684858
 20
5295.199815495079
 30
0.0
 10
6712.693501494963
 20
5296.222392481965
 30
0.0
 10
6713.103840122444
 20
5296.75414781541
 30
0.0
 10
6714.377259317642
 20
5297.10511732684
 30
0.0
 10
6716.264439989617
 20
5296.871323904114
 30
0.0
 10
6718.443537225383
 20
5296.162557986851
 30
0.0
 10
6720.57519807718
 20
5295.073705500772
 30
0.0
 10
6722.291549125661
 20
5293.784371237075
 30
0.0
 10
6723.304257343523
 20
5292.502334950022
 30
0.0
 10
6723.456251075525
 20
5291.436216569268
 30
0.0
 10
6722.713925737288
 20
5290.756620519771
 30
0.0
 10
6721.194560398032
 20
5290.574814334122
 30
0.0
 10
6719.153811426059
 20
5290.908885807039
 30
0.0
 10
6716.923713114969
 20
5291.707468029835
 30
0.0
 10
6714.867467085713
 20
5292.836082430519
 30
0.0
 10
6713.329891087746
 20
5294.090334510759
 30
0.0
 10
6712.557907667271
 20
5295.277475655251
 30
0.0
 10
6712.672258780151
 20
5296.189575991432
 30
0.0
 10
6713.661524874718
 20
5296.664877868755
 30
0.0
 10
6715.35993376892
 20
5296.634568967759
 30
0.0
 10
6717.472773304645
 20
5296.090806467715
 30
0.0
 10
6719.666500288688
 20
5295.118719536625
 30
0.0
 10
6721.571819285505
 20
5293.879075112336
 30
0.0
 10
6722.860343495195
 20
5292.571609638585
 30
0.0
 10
6723.335260224946
 20
5291.406129821951
 30
0.0
 10
6722.910796532518
 20
5290.568240616415
 30
0.0
 10
6721.645127319442
 20
5290.199439651977
 30
0.0
 10
6719.757548897839
 20
5290.352710811588
 30
0.0
 10
6717.557168618104
 20
5290.989032513851
 30
0.0
 10
6715.405561879192
 20
5292.031839670396
 30
0.0
 10
6713.604991913526
 20
5293.219967012297
 30
0.0
 10
6712.675037403152
 20
5294.625791062866
 30
0.0
 10
6712.141910916918
 20
5294.926345790678
 30
0.0
 10
6712.684227520631
 20
5295.749647909456
 30
0.0
 10
6712.79123170352
 20
5295.912093185678
 30
0.0
  0
LINE
  5
160
330
1F
100
AcDbEntity
  8
0
  6
SLD-Plná
 62
     7
370
    25
100
AcDbLine
 10
6647.4763293175
 20
5303.4869953889
 30
0.0
 11
6647.5054596115
 21
5303.4869953889
 31
0.0
  0
LINE
  5
161
330
1F
100
AcDbEntity
  8
0
  6
SLD-Plná
 62
     7
370
    25
100
AcDbLine
 10
6648.9054596115
 20
5262.0369953889
 30
0.0
 11
6647.9054596115
 21
5262.0369953889
 31
0.0
  0
LINE
  5
162
330
1F
100
AcDbEntity
  8
0
  6
SLD-Plná
 62
     7
370
    25
100
AcDbLine
 10
6647.9054596115
 20
5303.0869953889
 30
0.0
 11
6647.9054596115
 21
5262.0369953889
 31
0.0
  0
ARC
  5
163
330
1F
100
AcDbEntity
  8
0
  6
SLD-Plná
 62
     7
370
    25
100
AcDbCircle
 10
6647.5054596115
 20
5303.0869953889
 30
0.0
 40
0.4000000000014552
100
AcDbArc
 50
0.0
 51
90.0
  0
LINE
  5
164
330
1F
100
AcDbEntity
  8
0
  6
SLD-Plná
 62
     7
370
    25
100
AcDbLine
 10
6648.9054596115
 20
5262.0369953889
 30
0.0
 11
6648.9054596115
 21
5302.9869953889
 31
0.0
  0
ARC
  5
165
330
1F
100
AcDbEntity
  8
0
  6
SLD-Plná
 62
     7
370
    25
100
AcDbCircle
 10
6647.4054596115
 20
5302.9869953889
 30
0.0
 40
1.5
100
AcDbArc
 50
0.0
 51
86.3542660435
  0
ARC
  5
166
330
1F
100
AcDbEntity
  8
0
  6
SLD-Plná
 62
     7
370
    25
100
AcDbCircle
 10
6647.5962210089
 20
5302.9869953889
 30
0.0
 40
1.499999999999691
100
AcDbArc
 50
93.6457339564
 51
186.8427734126
  0
LINE
  5
167
330
1F
100
AcDbEntity
  8
0
  6
SLD-Plná
 62
     7
370
    25
100
AcDbLine
 10
6646.1069057512
 20
5302.808277558
 30
0.0
 11
6646.8054596115
 21
5296.9869953889
 31
0.0
  0
LINE
  5
168
330
1F
100
AcDbEntity
  8
0
  6
SLD-Plná
 62
     7
370
    25
100
AcDbLine
 10
6646.8054596115
 20
5296.9869953889
 30
0.0
 11
6647.8054596115
 21
5296.9869953889
 31
0.0
  0
LINE
  5
169
330
1F
100
AcDbEntity
  8
0
  6
SLD-Plná
 62
     7
370
    25
100
AcDbLine
 10
6647.8054596115
 20
5296.9869953889
 30
0.0
 11
6647.0791785821
 21
5303.0393373006
 31
0.0
  0
ARC
  5
16A
330
1F
100
AcDbEntity
  8
0
  6
SLD-Plná
 62
     7
370
    25
100
AcDbCircle
 10
6647.4763293175
 20
5303.0869953889
 30
0.0
 40
0.4000000000014552
100
AcDbArc
 50
90.0
 51
186.8427734126
  0
LINE
  5
16B
330
1F
100
AcDbEntity
  8
0
  6
SLD-Plná
 62
     7
370
    25
100
AcDbLine
 10
6819.9054596115
 20
5102.0369953889
 30
0.0
 11
6647.9054596115
 21
5102.0369953889
 31
0.0
  0
LINE
  5
16C
330
1F
100
AcDbEntity
  8
0
  6
SLD-Plná
 62
     7
370
    25
100
AcDbLine
 10
6647.9054596115
 20
5102.0369953889
 30
0.0
 11
6649.4054596115
 21
5103.5369953889
 31
0.0
  0
LINE
  5
16D
330
1F
100
AcDbEntity
  8
0
  6
SLD-Plná
 62
     7
370
    25
100
AcDbLine
 10
6649.4054596115
 20
5103.5369953889
 30
0.0
 11
6819.9054596115
 21
5103.5369953889
 31
0.0
  0
LINE
  5
16E
330
1F
100
AcDbEntity
  8
0
  6
SLD-Plná
 62
     7
370
    25
100
AcDbLine
 10
6819.9054596115
 20
5102.0369953889
 30
0.0
 11
6819.9054596115
 21
5103.5369953889
 31
0.0
  0
LINE
  5
16F
330
1F
100
AcDbEntity
  8
0
  6
SLD-Plná
 62
     7
370
    25
100
AcDbLine
 10
6647.9054596115
 20
5102.0369953889
 30
0.0
 11
6647.9054596115
 21
5262.0369953889
 31
0.0
  0
LINE
  5
170
330
1F
100
AcDbEntity
  8
0
  6
SLD-Plná
 62
     7
370
    25
100
AcDbLine
 10
6647.9054596115
 20
5262.0369953889
 30
0.0
 11
6649.4054596115
 21
5260.5369953889
 31
0.0
  0
LINE
  5
171
330
1F
100
AcDbEntity
  8
0
  6
SLD-Plná
 62
     7
370
    25
100
AcDbLine
 10
6649.4054596115
 20
5260.5369953889
 30
0.0
 11
6649.4054596115
 21
5103.5369953889
 31
0.0
  0
LINE
  5
172
330
1F
100
AcDbEntity
  8
0
  6
SLD-Plná
 62
     7
370
    25
100
AcDbLine
 10
6819.9054596115
 20
5260.5369953889
 30
0.0
 11
6649.4054596115
 21
5260.5369953889
 31
0.0
  0
LINE
  5
173
330
1F
100
AcDbEntity
  8
0
  6
SLD-Plná
 62
     7
370
    25
100
AcDbLine
 10
6819.9054596115
 20
5260.5369953889
 30
0.0
 11
6819.9054596115
 21
5103.5369953889
 31
0.0
  0
LINE
  5
174
330
1F
100
AcDbEntity
  8
0
  6
SLD-Plná
 62
     7
370
    25
100
AcDbLine
 10
6648.9054596115
 20
5262.0369953889
 30
0.0
 11
6819.9054596115
 21
5262.0369953889
 31
0.0
  0
LINE
  5
175
330
1F
100
AcDbEntity
  8
0
  6
SLD-Plná
 62
     7
370
    25
100
AcDbLine
 10
6819.9054596115
 20
5260.5369953889
 30
0.0
 11
6819.9054596115
 21
5262.0369953889
 31
0.0
  0
LINE
  5
176
330
1F
100
AcDbEntity
  8
0
  6
SLD-Plná
 62
     7
370
    25
100
AcDbLine
 10
6993.4054596115
 20
5102.0369953889
 30
0.0
 11
6819.9054596115
 21
5102.0369953889
 31
0.0
  0
LINE
  5
177
330
1F
100
AcDbEntity
  8
0
  6
SLD-Plná
 62
     7
370
    25
100
AcDbLine
 10
6819.9054596115
 20
5262.0369953889
 30
0.0
 11
6993.4054596115
 21
5262.0369953889
 31
0.0
  0
ARC
  5
178
330
1F
100
AcDbEntity
  8
0
  6
SLD-Plná
 62
     7
370
    25
100
AcDbCircle
 10
6650.4054596115
 20
5263.5369953889
 30
0.0
 40
1.5
100
AcDbArc
 50
180.0
 51
270.0
  0
LWPOLYLINE
  5
179
330
1F
100
AcDbEntity
  8
0
  6
SLD-Plná
 62
     8
370
    25
100
AcDbPolyline
 90
        6
 70
   128
 43
0.0
 10
6690.2382834424
 20
5314.0076953819
 10
6688.9462498166
 20
5313.2591203586
 10
6687.9402038861
 20
5312.5309645106
 10
6687.2475879614
 20
5311.8430900311
 10
6686.8872947994
 20
5311.214260343
 10
6686.8475160988
 20
5310.7519739998
  0
LWPOLYLINE
  5
17A
330
1F
100
AcDbEntity
  8
0
  6
SLD-Plná
 62
     8
370
    25
100
AcDbPolyline
 90
       16
 70
   128
 43
0.0
 10
6711.999829445
 20
5317.3267722134
 10
6711.9921909375
 20
5317.3537624832
 10
6711.6676879764
 20
5317.8151225574
 10
6711.0093911081
 20
5318.1726259436
 10
6710.035256955
 20
5318.4165208812
 10
6708.7718573575
 20
5318.5401545521
 10
6707.2536545631
 20
5318.5401545521
 10
6705.5220611864
 20
5318.4165208812
 10
6703.6243105808
 20
5318.1726259436
 10
6701.6121684357
 20
5317.8151225574
 10
6699.5405207437
 20
5317.3537624832
 10
6697.4658766533
 20
5316.8011304209
 10
6695.4448270471
 20
5316.1723007327
 10
6693.53250089
 20
5315.4844262533
 10
6691.7810614544
 20
5314.7562704052
 10
6690.2382834424
 20
5314.0076953819
  0
LWPOLYLINE
  5
17B
330
1F
100
AcDbEntity
  8
0
  6
SLD-Plná
 62
     8
370
    25
100
AcDbPolyline
 90
        6
 70
   128
 43
0.0
 10
6715.5632439763
 20
5325.0776821346
 10
6715.5579961975
 20
5325.061466494
 10
6715.5602731948
 20
5325.0224113123
 10
6715.5800872589
 20
5324.9771567008
 10
6715.6166730453
 20
5324.9274506791
 10
6715.6686173793
 20
5324.8752132081
  0
ARC
  5
17C
330
1F
100
AcDbEntity
  8
0
  6
SLD-Plná
 62
     8
370
    25
100
AcDbCircle
 10
6716.0086366098
 20
5325.0786491015
 30
0.0
 40
0.2833211378610606
100
AcDbArc
 50
46.3952024449
 51
88.8563061535
  0
ARC
  5
17D
330
1F
100
AcDbEntity
  8
0
  6
SLD-Plná
 62
     8
370
    25
100
AcDbCircle
 10
6728.315622111
 20
5325.0786491015
 30
0.0
 40
0.2833211378610969
100
AcDbArc
 50
46.3952024447
 51
88.8563061531
  0
ARC
  5
17E
330
1F
100
AcDbEntity
  8
0
  6
SLD-Plná
 62
     8
370
    25
100
AcDbCircle
 10
6730.5586510701
 20
5323.022232626
 30
0.0
 40
0.1588804749785043
100
AcDbArc
 50
259.6728824868
 51
324.8476335472
  0
ARC
  5
17F
330
1F
100
AcDbEntity
  8
0
  6
SLD-Plná
 62
     8
370
    25
100
AcDbCircle
 10
6730.429610634
 20
5323.3458034065
 30
0.0
 40
0.2105087183847475
100
AcDbArc
 50
49.1509053765
 51
92.1830142736
  0
ARC
  5
180
330
1F
100
AcDbEntity
  8
0
  6
SLD-Plná
 62
     8
370
    25
100
AcDbCircle
 10
6728.5190508423
 20
5325.0734291606
 30
0.0
 40
0.2105298856657468
100
AcDbArc
 50
49.2910391145
 51
92.1852869294
  0
LINE
  5
181
330
1F
100
AcDbEntity
  8
0
  6
SLD-Plná
 62
     8
370
    25
100
AcDbLine
 10
6819.9054596115
 20
5103.5369953889
 30
0.0
 11
6994.9054596115
 21
5103.5369953889
 31
0.0
  0
LINE
  5
182
330
1F
100
AcDbEntity
  8
0
  6
SLD-Plná
 62
     8
370
    25
100
AcDbLine
 10
6994.9054596115
 20
5260.5369953889
 30
0.0
 11
6819.9054596115
 21
5260.5369953889
 31
0.0
  0
LINE
  5
183
330
1F
100
AcDbEntity
  8
0
  6
SLD-Plná
 62
     7
370
    25
100
AcDbLine
 10
6430.0923572817
 20
4838.842293788
 30
0.0
 11
6432.1859315052
 21
4840.9358680114
 31
0.0
  0
LINE
  5
184
330
1F
100
AcDbEntity
  8
0
  6
SLD-Plná
 62
     7
370
    25
100
AcDbLine
 10
6413.8011551943
 20
4859.3206443222
 30
0.0
 11
6411.7075809709
 21
4857.2270700988
 31
0.0
  0
LINE
  5
185
330
1F
100
AcDbEntity
  8
0
  6
SLD-Plná
 62
     7
370
    25
100
AcDbLine
 10
6411.2370863154
 20
4824.8289266916
 30
0.0
 11
6417.1493243066
 21
4830.0466628136
 31
0.0
  0
SPLINE
  5
186
330
1F
100
AcDbEntity
  8
0
  6
SLD-Plná
 62
     7
370
    25
100
AcDbSpline
210
0.0
220
0.0
230
1.0
 70
     8
 71
     3
 72
     9
 73
     5
 74
     0
 42
0.00000001
 43
0.00000001
 40
0.0
 40
0.0
 40
0.0
 40
0.0
 40
0.1732949536812923
 40
1.0
 40
1.0
 40
1.0
 40
1.0
 10
6402.848135964566
 20
4844.215787602061
 30
0.0
 10
6402.551308907312
 20
4843.879962931377
 30
0.0
 10
6400.838465855923
 20
4841.942083820932
 30
0.0
 10
6399.12923526392
 20
4840.000706897234
 30
0.0
 10
6397.71620570819
 20
4838.395760797606
 30
0.0
  0
LINE
  5
187
330
1F
100
AcDbEntity
  8
0
  6
SLD-Plná
 62
     7
370
    25
100
AcDbLine
 10
6402.9099435191
 20
4844.2857313441
 30
0.0
 11
6402.8481359646
 21
4844.2157876021
 31
0.0
  0
LINE
  5
188
330
1F
100
AcDbEntity
  8
0
  6
SLD-Plná
 62
     7
370
    25
100
AcDbLine
 10
6395.8762839493
 20
4836.3143821768
 30
0.0
 11
6391.7869286118
 21
4831.9149835318
 31
0.0
  0
LINE
  5
189
330
1F
100
AcDbEntity
  8
0
  6
SLD-Plná
 62
     7
370
    25
100
AcDbLine
 10
6404.9525407585
 20
4819.0817709101
 30
0.0
 11
6409.1796693597
 21
4823.0109967664
 31
0.0
  0
ARC
  5
18A
330
1F
100
AcDbEntity
  8
0
  6
SLD-Plná
 62
     7
370
    25
100
AcDbCircle
 10
6392.1923688329
 20
4831.6138547368
 30
0.0
 40
0.5000000000007399
100
AcDbArc
 50
135.5284435148
 51
224.9999999999
  0
LINE
  5
18B
330
1F
100
AcDbEntity
  8
0
  6
SLD-Plná
 62
     7
370
    25
100
AcDbLine
 10
6391.8388154423
 20
4831.2603013463
 30
0.0
 11
6404.1255885292
 21
4818.9735282594
 31
0.0
  0
ARC
  5
18C
330
1F
100
AcDbEntity
  8
0
  6
SLD-Plná
 62
     7
370
    25
100
AcDbCircle
 10
6404.4791419198
 20
4819.32708165
 30
0.0
 40
0.5000000000007517
100
AcDbArc
 50
225.0000000001
 51
314.4715564851
  0
LINE
  5
18D
330
1F
100
AcDbEntity
  8
0
  6
SLD-Plná
 62
     7
370
    25
100
AcDbLine
 10
6427.4889702776
 20
4835.8136955508
 30
0.0
 11
6428.5571782541
 21
4837.6015515404
 31
0.0
  0
LINE
  5
18E
330
1F
100
AcDbEntity
  8
0
  6
SLD-Plná
 62
     7
370
    25
100
AcDbLine
 10
6395.2174679661
 20
4837.3987766449
 30
0.0
 11
6395.0154823654
 21
4835.3883170616
 31
0.0
  0
SPLINE
  5
18F
330
1F
100
AcDbEntity
  8
0
  6
SLD-Plná
 62
     7
370
    25
100
AcDbSpline
210
0.0
220
0.0
230
1.0
 70
     8
 71
     3
 72
     9
 73
     5
 74
     0
 42
0.00000001
 43
0.00000001
 40
0.0
 40
0.0
 40
0.0
 40
0.0
 40
0.1082326339617632
 40
1.0
 40
1.0
 40
1.0
 40
1.0
 10
6410.70741150002
 20
4855.83721388482
 30
0.0
 10
6410.635720124286
 20
4855.793065211053
 30
0.0
 10
6409.973337873113
 20
4855.385159830283
 30
0.0
 10
6409.298383520973
 20
4854.988040863293
 30
0.0
 10
6408.69648125617
 20
4854.633903128099
 30
0.0
  0
LINE
  5
190
330
1F
100
AcDbEntity
  8
0
  6
SLD-Plná
 62
     7
370
    25
100
AcDbLine
 10
6408.2424493546
 20
4822.1398264225
 30
0.0
 11
6410.2533413626
 21
4822.3511146742
 31
0.0
  0
LINE
  5
191
330
1F
100
AcDbEntity
  8
0
  6
SLD-Plná
 62
     7
370
    25
100
AcDbLine
 10
6449.0187553361
 20
4903.4627067557
 30
0.0
 11
6099.0187553361
 21
4903.4627067557
 31
0.0
  0
LWPOLYLINE
  5
192
330
1F
100
AcDbEntity
  8
0
  6
SLD-Plná
 62
     7
370
    25
100
AcDbPolyline
 90
       38
 70
   128
 43
0.0
 10
6414.3325782297
 20
4859.2048848799
 10
6415.8642664974
 20
4860.4814340077
 10
6417.6070300223
 20
4861.4661200014
 10
6419.5107326707
 20
4862.1306152377
 10
6421.5206083837
 20
4862.4558033986
 10
6423.5788366963
 20
4862.4323294127
 10
6425.6262061273
 20
4862.0608685839
 10
6427.6038175859
 20
4861.3521071639
 10
6429.454778791
 20
4860.3264349283
 10
6431.1258409588
 20
4859.0133585999
 10
6432.5689306732
 20
4857.450652994
 10
6433.7425328705
 20
4855.6832743056
 10
6434.6128851524
 20
4853.7620668017
 10
6435.1549490682
 20
4851.7423001243
 10
6435.3531304262
 20
4849.6820792833
 10
6435.2017279094
 20
4847.6406730813
 10
6434.7050970926
 20
4845.6768090579
 10
6433.8775251401
 20
4843.8469840055
 10
6432.7428197904
 20
4842.2038386593
 10
6431.3336244503
 20
4840.7946433192
 10
6429.6904791041
 20
4839.6599379695
 10
6427.8606540517
 20
4838.8323660171
 10
6425.8967900283
 20
4838.3357352003
 10
6423.8553838263
 20
4838.1843326835
 10
6421.7951629853
 20
4838.3825140414
 10
6419.7753963079
 20
4838.9245779573
 10
6417.8541888041
 20
4839.7949302391
 10
6416.0868101156
 20
4840.9685324365
 10
6414.5241045097
 20
4842.4116221509
 10
6413.2110281813
 20
4844.0826843187
 10
6412.1853559457
 20
4845.9336455237
 10
6411.4765945257
 20
4847.9112569823
 10
6411.1051336969
 20
4849.9586264133
 10
6411.0816597111
 20
4852.0168547259
 10
6411.4068478719
 20
4854.0267304389
 10
6412.0713431083
 20
4855.9304330874
 10
6413.0560291019
 20
4857.6731966122
 10
6414.3325782297
 20
4859.2048848799
  0
LWPOLYLINE
  5
193
330
1F
100
AcDbEntity
  8
0
  6
SLD-Plná
 62
     7
370
    25
100
AcDbPolyline
 90
       39
 70
   128
 43
0.0
 10
6413.8011551943
 20
4859.3206443222
 10
6415.3439332062
 20
4860.6126779481
 10
6417.0953726418
 20
4861.6187238785
 10
6419.007698799
 20
4862.3113398032
 10
6421.0287484051
 20
4862.6716329653
 10
6423.1033924955
 20
4862.6897755064
 10
6425.1750401876
 20
4862.3652725454
 10
6427.1871823327
 20
4861.7069756771
 10
6429.0849329383
 20
4860.732841524
 10
6430.816526315
 20
4859.4694419265
 10
6432.3347291094
 20
4857.9512391321
 10
6433.5981287069
 20
4856.2196457553
 10
6434.57226286
 20
4854.3218951497
 10
6435.2305597283
 20
4852.3097530047
 10
6435.5550626893
 20
4850.2381053126
 10
6435.5369201482
 20
4848.1634612222
 10
6435.1766269862
 20
4846.1424116161
 10
6434.4840110615
 20
4844.2300854589
 10
6433.477965131
 20
4842.4786460233
 10
6432.1859315052
 20
4840.9358680114
 10
6430.6431534932
 20
4839.6438343856
 10
6428.8917140576
 20
4838.6377884551
 10
6426.9793879005
 20
4837.9451725304
 10
6424.9583382943
 20
4837.5848793683
 10
6422.8836942039
 20
4837.5667368272
 10
6420.8120465119
 20
4837.8912397882
 10
6418.7999043668
 20
4838.5495366565
 10
6416.9021537612
 20
4839.5236708096
 10
6415.1705603845
 20
4840.7870704072
 10
6413.6523575901
 20
4842.3052732016
 10
6412.3889579925
 20
4844.0368665783
 10
6411.4148238395
 20
4845.9346171839
 10
6410.7565269711
 20
4847.9467593289
 10
6410.4320240101
 20
4850.018407021
 10
6410.4501665512
 20
4852.0930511114
 10
6410.8104597133
 20
4854.1141007176
 10
6411.503075638
 20
4856.0264268747
 10
6412.5091215685
 20
4857.7778663103
 10
6413.8011551943
 20
4859.3206443222
  0
LWPOLYLINE
  5
194
330
1F
100
AcDbEntity
  8
0
  6
SLD-Plná
 62
     7
370
    25
100
AcDbPolyline
 90
       20
 70
   128
 43
0.0
 10
6430.0923572817
 20
4838.842293788
 10
6428.5495792698
 20
4837.5502601621
 10
6426.7981398342
 20
4836.5442142317
 10
6424.8858136771
 20
4835.8515983069
 10
6422.8647640709
 20
4835.4913051449
 10
6420.7901199805
 20
4835.4731626038
 10
6418.7184722884
 20
4835.7976655648
 10
6416.7063301434
 20
4836.4559624331
 10
6414.8085795378
 20
4837.4300965862
 10
6413.0769861611
 20
4838.6934961837
 10
6411.5587833667
 20
4840.2116989781
 10
6410.2953837691
 20
4841.9432923548
 10
6409.321249616
 20
4843.8410429605
 10
6408.6629527477
 20
4845.8531851055
 10
6408.3384497867
 20
4847.9248327976
 10
6408.3565923278
 20
4849.999476888
 10
6408.7168854899
 20
4852.0205264941
 10
6409.4095014146
 20
4853.9328526513
 10
6410.4155473451
 20
4855.6842920869
 10
6411.7075809709
 20
4857.2270700988
  0
ARC
  5
195
330
1F
100
AcDbEntity
  8
0
  6
SLD-Plná
 62
     7
370
    25
100
AcDbCircle
 10
6419.7566030516
 20
4846.891315795
 30
0.0
 40
11.02725701777079
100
AcDbArc
 50
189.6566187557
 51
260.3433164789
  0
LINE
  5
196
330
1F
100
AcDbEntity
  8
0
  6
SLD-Plná
 62
     7
370
    25
100
AcDbLine
 10
6399.1773186612
 20
4845.757467961
 30
0.0
 11
6405.8948330825
 21
4852.4749823822
 31
0.0
  0
LWPOLYLINE
  5
197
330
1F
100
AcDbEntity
  8
0
  6
SLD-Plná
 62
     7
370
    25
100
AcDbPolyline
 90
        3
 70
   128
 43
0.0
 10
6405.8948330825
 20
4852.4749823822
 10
6407.6277451121
 20
4853.9426840034
 10
6409.0646429513
 20
4854.8403529833
  0
LWPOLYLINE
  5
198
330
1F
100
AcDbEntity
  8
0
  6
SLD-Plná
 62
     7
370
    25
100
AcDbPolyline
 90
        3
 70
   128
 43
0.0
 10
6427.5239743176
 20
4835.8747942941
 10
6426.8079711863
 20
4834.7624579291
 10
6425.3402695651
 20
4833.0295458996
  0
LINE
  5
199
330
1F
100
AcDbEntity
  8
0
  6
SLD-Plná
 62
     7
370
    25
100
AcDbLine
 10
6425.3402695651
 20
4833.0295458996
 30
0.0
 11
6418.6227551439
 21
4826.3120314783
 31
0.0
  0
ARC
  5
19A
330
1F
100
AcDbEntity
  8
0
  6
SLD-Plná
 62
     7
370
    25
100
AcDbCircle
 10
6408.9000369026
 20
4836.0347497196
 30
0.0
 40
13.75000000000036
100
AcDbArc
 50
268.6950697228
 51
315.0
  0
ARC
  5
19B
330
1F
100
AcDbEntity
  8
0
  6
SLD-Plná
 62
     7
370
    25
100
AcDbCircle
 10
6408.9000369026
 20
4836.0347497196
 30
0.0
 40
13.75000000000039
100
AcDbArc
 50
135.0
 51
181.4026835978
  0
LINE
  5
19C
330
1F
100
AcDbEntity
  8
0
  6
SLD-Plná
 62
     7
370
    25
100
AcDbLine
 10
6394.4012605687
 20
4833.8429588871
 30
0.0
 11
6406.70824607
 21
4821.5359733858
 31
0.0
  0
LINE
  5
19D
330
1F
100
AcDbEntity
  8
0
  6
SLD-Plná
 62
     7
370
    25
100
AcDbLine
 10
6406.70824607
 20
4821.5359733858
 30
0.0
 11
6406.2201773649
 21
4821.0479046807
 31
0.0
  0
LINE
  5
19E
330
1F
100
AcDbEntity
  8
0
  6
SLD-Plná
 62
     7
370
    25
100
AcDbLine
 10
6406.2201773649
 20
4821.0479046807
 30
0.0
 11
6393.9131918636
 21
4833.354890182
 31
0.0
  0
LINE
  5
19F
330
1F
100
AcDbEntity
  8
0
  6
SLD-Plná
 62
     7
370
    25
100
AcDbLine
 10
6394.4012605687
 20
4833.8429588871
 30
0.0
 11
6393.9131918636
 21
4833.354890182
 31
0.0
  0
LWPOLYLINE
  5
1A0
330
1F
100
AcDbEntity
  8
0
  6
SLD-Plná
 62
     7
370
    25
100
AcDbPolyline
 90
        9
 70
   128
 43
0.0
 10
6393.9131918636
 20
4833.354890182
 10
6393.848956096
 20
4833.4256461332
 10
6393.7940628906
 20
4833.5007790581
 10
6393.7505314609
 20
4833.5775252375
 10
6393.719963084
 20
4833.6530616097
 10
6393.7034821992
 20
4833.724609615
 10
6393.7016950458
 20
4833.7895374032
 10
6393.7146673633
 20
4833.8454566452
 10
6393.7419219727
 20
4833.8903103853
  0
ARC
  5
1A1
330
1F
100
AcDbEntity
  8
0
  6
SLD-Plná
 62
     7
370
    25
100
AcDbCircle
 10
6394.0471087585
 20
4833.5257316905
 30
0.0
 40
0.4754540975985785
100
AcDbArc
 50
41.8520086975
 51
129.9325126073
  0
LWPOLYLINE
  5
1A2
330
1F
100
AcDbEntity
  8
0
  6
SLD-Plná
 62
     7
370
    25
100
AcDbPolyline
 90
        9
 70
   128
 43
0.0
 10
6406.7555975682
 20
4820.8766347898
 10
6406.7107438281
 20
4820.8493801804
 10
6406.6548245862
 20
4820.8364078629
 10
6406.5898967979
 20
4820.8381950162
 10
6406.5183487926
 20
4820.854675901
 10
6406.4428124205
 20
4820.885244278
 10
6406.3660662411
 20
4820.9287757077
 10
6406.2909333161
 20
4820.9836689131
 10
6406.2201773649
 20
4821.0479046807
  0
ARC
  5
1A3
330
1F
100
AcDbEntity
  8
0
  6
SLD-Plná
 62
     7
370
    25
100
AcDbCircle
 10
6406.3910188734
 20
4821.1818215756
 30
0.0
 40
0.4754540975955165
100
AcDbArc
 50
320.0674873925
 51
48.1479913029
  0
SPLINE
  5
1A4
330
1F
100
AcDbEntity
  8
0
  6
SLD-Plná
 62
     7
370
    25
100
AcDbSpline
210
0.0
220
0.0
230
1.0
 70
     8
 71
     3
 72
    10
 73
     6
 74
     0
 42
0.00000001
 43
0.00000001
 40
0.0
 40
0.0
 40
0.0
 40
0.0
 40
0.5000680325356656
 40
0.8992594687800499
 40
1.0
 40
1.0
 40
1.0
 40
1.0
 10
6404.289396007761
 20
4819.137335738014
 30
0.0
 10
6404.61135238626
 20
4819.455690646978
 30
0.0
 10
6405.190318253029
 20
4820.028180083799
 30
0.0
 10
6405.833760942719
 20
4820.665188681715
 30
0.0
 10
6406.155370343212
 20
4820.98371826776
 30
0.0
 10
6406.220177364886
 20
4821.047904680704
 30
0.0
  0
LINE
  5
1A5
330
1F
100
AcDbEntity
  8
0
  6
SLD-Plná
 62
     7
370
    25
100
AcDbLine
 10
6392.0026229209
 20
4831.4241088248
 30
0.0
 11
6404.2893960078
 21
4819.137335738
 31
0.0
  0
SPLINE
  5
1A6
330
1F
100
AcDbEntity
  8
0
  6
SLD-Plná
 62
     7
370
    25
100
AcDbSpline
210
0.0
220
0.0
230
1.0
 70
     8
 71
     3
 72
    10
 73
     6
 74
     0
 42
0.00000001
 43
0.00000001
 40
0.0
 40
0.0
 40
0.0
 40
0.0
 40
0.4999319656265476
 40
0.8991841286566252
 40
1.0
 40
1.0
 40
1.0
 40
1.0
 10
6393.913191863626
 20
4833.354890181965
 30
0.0
 10
6393.59469297856
 20
4833.033250285695
 30
0.0
 10
6393.02183674584
 20
4832.454744589414
 30
0.0
 10
6392.38511066721
 20
4831.81102147813
 30
0.0
 10
6392.066796441065
 20
4831.4890247527
 30
0.0
 10
6392.002622920936
 20
4831.42410882484
 30
0.0
  0
LWPOLYLINE
  5
1A7
330
1F
100
AcDbEntity
  8
0
  6
SLD-Plná
 62
     7
370
    25
100
AcDbPolyline
 90
        9
 70
   128
 43
0.0
 10
6392.0026229209
 20
4831.4241088248
 10
6391.9372030753
 20
4831.4962078942
 10
6391.8815276004
 20
4831.5727997076
 10
6391.8377226533
 20
4831.6509593467
 10
6391.8074610746
 20
4831.7277020203
 10
6391.7918985054
 20
4831.8000970489
 10
6391.7916292552
 20
4831.8653797825
 10
6391.8066636063
 20
4831.9210571783
 10
6391.836427421
 20
4831.9650030059
  0
SPLINE
  5
1A8
330
1F
100
AcDbEntity
  8
0
  6
SLD-Plná
 62
     7
370
    25
100
AcDbSpline
210
0.0
220
0.0
230
1.0
 70
     8
 71
     3
 72
     9
 73
     5
 74
     0
 42
0.00000001
 43
0.00000001
 40
0.0
 40
0.0
 40
0.0
 40
0.0
 40
0.500073086208588
 40
0.9999999999999999
 40
0.9999999999999999
 40
0.9999999999999999
 40
0.9999999999999999
 10
6391.83642742103
 20
4831.965003005939
 30
0.0
 10
6392.153861379479
 20
4832.286014663099
 30
0.0
 10
6392.788636509764
 20
4832.927944145034
 30
0.0
 10
6393.42419111858
 20
4833.569552900386
 30
0.0
 10
6393.741921972711
 20
4833.890310385311
 30
0.0
  0
SPLINE
  5
1A9
330
1F
100
AcDbEntity
  8
0
  6
SLD-Plná
 62
     7
370
    25
100
AcDbSpline
210
0.0
220
0.0
230
1.0
 70
     8
 71
     3
 72
     9
 73
     5
 74
     0
 42
0.00000001
 43
0.00000001
 40
0.0
 40
0.0
 40
0.0
 40
0.0
 40
0.4999269137913486
 40
0.9999999999999999
 40
0.9999999999999999
 40
0.9999999999999999
 40
0.9999999999999999
 10
6406.755597568232
 20
4820.876634789791
 30
0.0
 10
6406.434840083307
 20
4820.558903935659
 30
0.0
 10
6405.793231327953
 20
4819.923349326844
 30
0.0
 10
6405.151301846019
 20
4819.288574196559
 30
0.0
 10
6404.830290188859
 20
4818.971140238109
 30
0.0
  0
LWPOLYLINE
  5
1AA
330
1F
100
AcDbEntity
  8
0
  6
SLD-Plná
 62
     7
370
    25
100
AcDbPolyline
 90
        9
 70
   128
 43
0.0
 10
6404.8302901889
 20
4818.9711402381
 10
6404.7863443612
 20
4818.9413764234
 10
6404.7306669654
 20
4818.9263420723
 10
6404.6653842318
 20
4818.9266113224
 10
6404.5929892033
 20
4818.9421738916
 10
6404.5162465296
 20
4818.9724354704
 10
6404.4380868905
 20
4819.0162404175
 10
6404.3614950771
 20
4819.0719158924
 10
6404.2893960078
 20
4819.137335738
  0
SPLINE
  5
1AB
330
1F
100
AcDbEntity
  8
0
  6
SLD-Plná
 62
     7
370
    25
100
AcDbSpline
210
0.0
220
0.0
230
1.0
 70
     8
 71
     3
 72
    13
 73
     9
 74
     0
 42
0.00000001
 43
0.00000001
 40
0.0
 40
0.0
 40
0.0
 40
0.0
 40
0.2960081554816082
 40
0.615643423968811
 40
0.7495896240661709
 40
0.8849846547537413
 40
0.9749809893032362
 40
1.0
 40
1.0
 40
1.0
 40
1.0
 10
6417.149381701062
 20
4830.059892956202
 30
0.0
 10
6417.153411796146
 20
4830.06045923997
 30
0.0
 10
6417.161793664989
 20
4830.061637007784
 30
0.0
 10
6417.164097016465
 20
4830.057736436315
 30
0.0
 10
6417.15573673227
 20
4830.048080247146
 30
0.0
 10
6417.14323884416
 20
4830.037593724353
 30
0.0
 10
6417.129489184238
 20
4830.027311597128
 30
0.0
 10
6417.121667780497
 20
4830.02192522898
 30
0.0
 10
6417.119966409402
 20
4830.020753545306
 30
0.0
  0
SPLINE
  5
1AC
330
1F
100
AcDbEntity
  8
0
  6
SLD-Plná
 62
     7
370
    25
100
AcDbSpline
210
0.0
220
0.0
230
1.0
 70
     8
 71
     3
 72
     9
 73
     5
 74
     0
 42
0.00000001
 43
0.00000001
 40
0.0
 40
0.0
 40
0.0
 40
0.0
 40
0.8167696794045387
 40
1.0
 40
1.0
 40
1.0
 40
1.0
 10
6411.224723868992
 20
4824.815024043492
 30
0.0
 10
6410.08136730125
 20
4823.806358662337
 30
0.0
 10
6408.681515425535
 20
4822.571413969128
 30
0.0
 10
6407.280103547541
 20
4821.338218791322
 30
0.0
 10
6407.023322399849
 20
4821.112260043536
 30
0.0
  0
SPLINE
  5
1AD
330
1F
100
AcDbEntity
  8
0
  6
SLD-Plná
 62
     7
370
    25
100
AcDbSpline
210
0.0
220
0.0
230
1.0
 70
     8
 71
     3
 72
    11
 73
     7
 74
     0
 42
0.00000001
 43
0.00000001
 40
0.0
 40
0.0
 40
0.0
 40
0.0
 40
0.0988512978960056
 40
0.4912601463293804
 40
0.883668994535898
 40
1.0
 40
1.0
 40
1.0
 40
1.0
 10
6406.708246069982
 20
4821.5359733858
 30
0.0
 10
6407.056441723079
 20
4821.84258829635
 30
0.0
 10
6408.786865613636
 20
4823.366368853911
 30
0.0
 10
6411.898164288973
 20
4826.10871889176
 30
0.0
 10
6415.069196696589
 20
4828.907191840376
 30
0.0
 10
6416.858609720112
 20
4830.487867299802
 30
0.0
 10
6417.267785873139
 20
4830.849312474936
 30
0.0
  0
SPLINE
  5
1AE
330
1F
100
AcDbEntity
  8
0
  6
SLD-Plná
 62
     7
370
    25
100
AcDbSpline
210
0.0
220
0.0
230
1.0
 70
     8
 71
     3
 72
    12
 73
     8
 74
     0
 42
0.00000001
 43
0.00000001
 40
0.0
 40
0.0
 40
0.0
 40
0.0
 40
0.1320369842661455
 40
0.2632541655736512
 40
0.4604257936393544
 40
0.7744545124003153
 40
0.9999999999999999
 40
0.9999999999999999
 40
0.9999999999999999
 40
0.9999999999999999
 10
6417.267785873139
 20
4830.849312474936
 30
0.0
 10
6417.292901388234
 20
4830.81782376834
 30
0.0
 10
6417.34297647898
 20
4830.755041865025
 30
0.0
 10
6417.375269702725
 20
4830.618704740319
 30
0.0
 10
6417.362093375165
 20
4830.430777498837
 30
0.0
 10
6417.280767538725
 20
4830.232029491842
 30
0.0
 10
6417.188112220029
 20
4830.110636152555
 30
0.0
 10
6417.149381701062
 20
4830.059892956202
 30
0.0
  0
LINE
  5
1AF
330
1F
100
AcDbEntity
  8
0
  6
SLD-Plná
 62
     7
370
    25
100
AcDbLine
 10
6393.9793467806
 20
4834.1597164886
 30
0.0
 11
6397.7018018502
 21
4838.3835889814
 31
0.0
  0
SPLINE
  5
1B0
330
1F
100
AcDbEntity
  8
0
  6
SLD-Plná
 62
     7
370
    25
100
AcDbSpline
210
0.0
220
0.0
230
1.0
 70
     8
 71
     3
 72
    10
 73
     6
 74
     0
 42
0.00000001
 43
0.00000001
 40
0.0
 40
0.0
 40
0.0
 40
0.0
 40
0.1122699001684018
 40
0.4587269250919114
 40
0.9999999999999999
 40
0.9999999999999999
 40
0.9999999999999999
 40
0.9999999999999999
 10
6402.909847365739
 20
4844.28581744419
 30
0.0
 10
6402.912050798242
 20
4844.288296881624
 30
0.0
 10
6402.921053868662
 20
4844.298427688801
 30
0.0
 10
6402.926522393053
 20
4844.298009986357
 30
0.0
 10
6402.925688553605
 20
4844.289365372958
 30
0.0
 10
6402.92518013912
 20
4844.284094518136
 30
0.0
  0
SPLINE
  5
1B1
330
1F
100
AcDbEntity
  8
0
  6
SLD-Plná
 62
     7
370
    25
100
AcDbSpline
210
0.0
220
0.0
230
1.0
 70
     8
 71
     3
 72
    12
 73
     8
 74
     0
 42
0.00000001
 43
0.00000001
 40
0.0
 40
0.0
 40
0.0
 40
0.0
 40
0.4496854834699601
 40
0.6416850326399437
 40
0.8355940961296995
 40
0.9537803529363552
 40
1.0
 40
1.0
 40
1.0
 40
1.0
 10
6402.92518013912
 20
4844.284094518135
 30
0.0
 10
6403.030501233975
 20
4844.358563027336
 30
0.0
 10
6403.180790653299
 20
4844.464826915128
 30
0.0
 10
6403.419806913329
 20
4844.511997948741
 30
0.0
 10
6403.570374777831
 20
4844.496112672694
 30
0.0
 10
6403.667941707992
 20
4844.445593596245
 30
0.0
 10
6403.704361042619
 20
4844.411955431519
 30
0.0
 10
6403.714599657858
 20
4844.402498690218
 30
0.0
  0
SPLINE
  5
1B2
330
1F
100
AcDbEntity
  8
0
  6
SLD-Plná
 62
     7
370
    25
100
AcDbSpline
210
0.0
220
0.0
230
1.0
 70
     8
 71
     3
 72
    11
 73
     7
 74
     0
 42
0.00000001
 43
0.00000001
 40
0.0
 40
0.0
 40
0.0
 40
0.0
 40
0.1162713110743885
 40
0.5087398536706708
 40
0.901208396493964
 40
1.0
 40
1.0
 40
1.0
 40
1.0
 10
6403.714599657858
 20
4844.402498690218
 30
0.0
 10
6403.353339944827
 20
4843.99353251331
 30
0.0
 10
6401.772664438148
 20
4842.20411953539
 30
0.0
 10
6398.974005935234
 20
4839.03287724055
 30
0.0
 10
6396.231470818866
 20
4835.92136821909
 30
0.0
 10
6394.707690310546
 20
4834.190944281071
 30
0.0
 10
6394.401260568721
 20
4833.84295888706
 30
0.0
  0
LINE
  5
1B3
330
1F
100
AcDbEntity
  8
0
  6
SLD-Plná
 62
     7
370
    25
100
AcDbLine
 10
6403.7145996579
 20
4844.4024986902
 30
0.0
 11
6417.2677858731
 21
4830.8493124749
 31
0.0
  0
LINE
  5
1B4
330
1F
100
AcDbEntity
  8
0
  6
SLD-Plná
 62
     7
370
    25
100
AcDbLine
 10
6404.8302901889
 20
4818.9711402381
 30
0.0
 11
6404.9479339523
 21
4819.0868676417
 31
0.0
  0
SPLINE
  5
1B5
330
1F
100
AcDbEntity
  8
0
  6
SLD-Plná
 62
     7
370
    25
100
AcDbSpline
210
0.0
220
0.0
230
1.0
 70
     8
 71
     3
 72
    11
 73
     7
 74
     0
 42
0.00000001
 43
0.00000001
 40
0.0
 40
0.0
 40
0.0
 40
0.0
 40
0.0505727638907542
 40
0.7553646120591057
 40
0.9244689471649226
 40
1.0
 40
1.0
 40
1.0
 40
1.0
 10
6417.149381701062
 20
4830.059892956202
 30
0.0
 10
6417.335694396842
 20
4830.176198555429
 30
0.0
 10
6420.118496963713
 20
4831.913361547549
 30
0.0
 10
6423.465626416165
 20
4834.089570430237
 30
0.0
 10
6427.000819420949
 20
4836.274348659918
 30
0.0
 10
6427.719109463221
 20
4837.056302241703
 30
0.0
 10
6427.940881152061
 20
4837.297730016307
 30
0.0
  0
SPLINE
  5
1B6
330
1F
100
AcDbEntity
  8
0
  6
SLD-Plná
 62
     7
370
    25
100
AcDbSpline
210
0.0
220
0.0
230
1.0
 70
     8
 71
     3
 72
    12
 73
     8
 74
     0
 42
0.00000001
 43
0.00000001
 40
0.0
 40
0.0
 40
0.0
 40
0.0
 40
0.0513836655802924
 40
0.2002869114862974
 40
0.350771411174125
 40
0.950476020215261
 40
1.0
 40
1.0
 40
1.0
 40
1.0
 10
6410.35007196781
 20
4855.275611107823
 30
0.0
 10
6410.177040719146
 20
4855.127788924069
 30
0.0
 10
6409.502587194002
 20
4854.551597087637
 30
0.0
 10
6408.604081418762
 20
4853.265640867465
 30
0.0
 10
6406.464331303341
 20
4849.912826569727
 30
0.0
 10
6404.566619119612
 20
4846.911990450397
 30
0.0
 10
6403.041516871949
 20
4844.470346234226
 30
0.0
 10
6402.92518013912
 20
4844.284094518136
 30
0.0
  0
SPLINE
  5
1B7
330
1F
100
AcDbEntity
  8
0
  6
SLD-Plná
 62
     7
370
    25
100
AcDbSpline
210
0.0
220
0.0
230
1.0
 70
     8
 71
     3
 72
    12
 73
     8
 74
     0
 42
0.00000001
 43
0.00000001
 40
0.0
 40
0.0
 40
0.0
 40
0.0
 40
0.1729281140926557
 40
0.4456817834889545
 40
0.7040002828153259
 40
0.9594043325628012
 40
1.0
 40
1.0
 40
1.0
 40
1.0
 10
6394.720491956726
 20
4828.378624831876
 30
0.0
 10
6394.832426137831
 20
4827.836274485458
 30
0.0
 10
6395.120910319424
 20
4826.438493269057
 30
0.0
 10
6396.527743258791
 20
4824.417244038431
 30
0.0
 10
6398.569566763135
 20
4822.744817607965
 30
0.0
 10
6400.279164546068
 20
4821.865417948926
 30
0.0
 10
6401.200433997097
 20
4821.783559535182
 30
0.0
 10
6401.326783943002
 20
4821.7723328456
 30
0.0
  0
ARC
  5
1B8
330
1F
100
AcDbEntity
  8
0
  6
SLD-Plná
 62
     7
370
    25
100
AcDbCircle
 10
6408.1088630309
 20
4836.5102332915
 30
0.0
 40
12.85627604939265
100
AcDbArc
 50
134.0051089875
 51
176.1908149732
  0
ARC
  5
1B9
330
1F
100
AcDbEntity
  8
0
  6
SLD-Plná
 62
     7
370
    25
100
AcDbCircle
 10
6409.3723597932
 20
4835.249141606
 30
0.0
 40
12.86241624183899
100
AcDbArc
 50
273.7690911371
 51
315.986839349
  0
LWPOLYLINE
  5
1BA
330
1F
100
AcDbEntity
  8
0
  6
SLD-Plná
 62
     7
370
    25
100
AcDbPolyline
 90
        3
 70
   128
 43
0.0
 10
6425.3402695651
 20
4833.0295458996
 10
6427.0525893685
 20
4835.1119146319
 10
6427.4458179445
 20
4835.8493358576
  0
LWPOLYLINE
  5
1BB
330
1F
100
AcDbEntity
  8
0
  6
SLD-Plná
 62
     7
370
    25
100
AcDbPolyline
 90
        3
 70
   128
 43
0.0
 10
6408.7320068907
 20
4854.589686586
 10
6407.9768437149
 20
4854.1869440857
 10
6405.8948330825
 20
4852.4749823822
  0
ARC
  5
1BC
330
1F
100
AcDbEntity
  8
0
  6
SLD-Plná
 62
     7
370
    25
100
AcDbCircle
 10
6402.7885482662
 20
4830.998399219
 30
0.0
 40
7.67270835992257
100
AcDbArc
 50
215.0558387794
 51
234.9441612206
  0
ARC
  5
1BD
330
1F
100
AcDbEntity
  8
0
  6
SLD-Plná
 62
     7
370
    25
100
AcDbCircle
 10
6419.6772214605
 20
4846.8140281493
 30
0.0
 40
11.40200045112342
100
AcDbArc
 50
174.0838451552
 51
276.6668562133
  0
LINE
  5
1BE
330
1F
100
AcDbEntity
  8
0
  6
SLD-Plná
 62
     7
370
    25
100
AcDbLine
 10
6269.22755246
 20
4730.5534681532
 30
0.0
 11
6278.8099582122
 21
4730.5534681532
 31
0.0
  0
ARC
  5
1BF
330
1F
100
AcDbEntity
  8
0
  6
SLD-Plná
 62
     7
370
    25
100
AcDbCircle
 10
6274.0187553361
 20
4729.6534681532
 30
0.0
 40
4.875000000001161
100
AcDbArc
 50
10.638709315
 51
169.361290685
  0
ARC
  5
1C0
330
1F
100
AcDbEntity
  8
0
  6
SLD-Plná
 62
     7
370
    25
100
AcDbCircle
 10
6274.0187553361
 20
4729.6534681532
 30
0.0
 40
4.87500000000133
100
AcDbArc
 50
190.638709315
 51
349.361290685
  0
LINE
  5
1C1
330
1F
100
AcDbEntity
  8
0
  6
SLD-Plná
 62
     7
370
    25
100
AcDbLine
 10
6278.8099582122
 20
4728.7534681532
 30
0.0
 11
6269.22755246
 21
4728.7534681532
 31
0.0
  0
ARC
  5
1C2
330
1F
100
AcDbEntity
  8
0
  6
SLD-Plná
 62
     7
370
    25
100
AcDbCircle
 10
6274.0187553361
 20
4729.6534681532
 30
0.0
 40
4.562500000000086
100
AcDbArc
 50
348.6232071507
 51
11.3767928492
  0
ARC
  5
1C3
330
1F
100
AcDbEntity
  8
0
  6
SLD-Plná
 62
     7
370
    25
100
AcDbCircle
 10
6274.0187553361
 20
4729.6534681532
 30
0.0
 40
4.562500000000086
100
AcDbArc
 50
168.6232071508
 51
191.3767928493
  0
LINE
  5
1C4
330
1F
100
AcDbEntity
  8
0
  6
SLD-Plná
 62
     7
370
    25
100
AcDbLine
 10
6449.0187553361
 20
4902.0580874545
 30
0.0
 11
6099.0187553361
 21
4902.0580874545
 31
0.0
  0
LINE
  5
1C5
330
1F
100
AcDbEntity
  8
0
  6
SLD-Plná
 62
     7
370
    25
100
AcDbLine
 10
6449.0187553361
 20
4900.6534681532
 30
0.0
 11
6099.0187553361
 21
4900.6534681532
 31
0.0
  0
LINE
  5
1C6
330
1F
100
AcDbEntity
  8
0
  6
SLD-Plná
 62
     7
370
    25
100
AcDbLine
 10
6099.0187553361
 20
4900.6534681532
 30
0.0
 11
6099.0187553361
 21
4902.0580874545
 31
0.0
  0
LINE
  5
1C7
330
1F
100
AcDbEntity
  8
0
  6
SLD-Plná
 62
     7
370
    25
100
AcDbLine
 10
6449.0187553361
 20
4900.6534681532
 30
0.0
 11
6449.0187553361
 21
4902.0580874545
 31
0.0
  0
LINE
  5
1C8
330
1F
100
AcDbEntity
  8
0
  6
SLD-Plná
 62
     7
370
    25
100
AcDbLine
 10
6099.0187553361
 20
4902.0580874545
 30
0.0
 11
6099.0187553361
 21
4903.4627067557
 31
0.0
  0
LINE
  5
1C9
330
1F
100
AcDbEntity
  8
0
  6
SLD-Plná
 62
     7
370
    25
100
AcDbLine
 10
6449.0187553361
 20
4902.0580874545
 30
0.0
 11
6449.0187553361
 21
4903.4627067557
 31
0.0
  0
LINE
  5
1CA
330
1F
100
AcDbEntity
  8
0
  6
SLD-Plná
 62
     7
370
    25
100
AcDbLine
 10
6447.4187553361
 20
4899.1534681532
 30
0.0
 11
6100.6187553361
 21
4899.1534681532
 31
0.0
  0
LINE
  5
1CB
330
1F
100
AcDbEntity
  8
0
  6
SLD-Plná
 62
     7
370
    25
100
AcDbLine
 10
6100.6187553361
 20
4900.6534681532
 30
0.0
 11
6100.6187553361
 21
4899.1534681532
 31
0.0
  0
LINE
  5
1CC
330
1F
100
AcDbEntity
  8
0
  6
SLD-Plná
 62
     7
370
    25
100
AcDbLine
 10
6447.4187553361
 20
4900.6534681532
 30
0.0
 11
6447.4187553361
 21
4899.1534681532
 31
0.0
  0
LINE
  5
1CD
330
1F
100
AcDbEntity
  8
0
  6
SLD-Plná
 62
     7
370
    25
100
AcDbLine
 10
6449.0187553361
 20
4900.1534681532
 30
0.0
 11
6449.0187553361
 21
4729.6534681532
 31
0.0
  0
LINE
  5
1CE
330
1F
100
AcDbEntity
  8
0
  6
SLD-Plná
 62
     7
370
    25
100
AcDbLine
 10
6449.0187553361
 20
4729.6534681532
 30
0.0
 11
6447.5187553361
 21
4729.6534681532
 31
0.0
  0
LINE
  5
1CF
330
1F
100
AcDbEntity
  8
0
  6
SLD-Plná
 62
     7
370
    25
100
AcDbLine
 10
6447.5187553361
 20
4729.6534681532
 30
0.0
 11
6447.5187553361
 21
4900.6534681532
 31
0.0
  0
ARC
  5
1D0
330
1F
100
AcDbEntity
  8
0
  6
SLD-Plná
 62
     7
370
    25
100
AcDbCircle
 10
6447.5187553361
 20
4900.1534681532
 30
0.0
 40
1.500000000000225
100
AcDbArc
 50
0.0
 51
19.4712206345
  0
LINE
  5
1D1
330
1F
100
AcDbEntity
  8
0
  6
SLD-Plná
 62
     7
370
    25
100
AcDbLine
 10
6100.5187553361
 20
4900.6534681532
 30
0.0
 11
6100.5187553361
 21
4729.6534681532
 31
0.0
  0
LINE
  5
1D2
330
1F
100
AcDbEntity
  8
0
  6
SLD-Plná
 62
     7
370
    25
100
AcDbLine
 10
6099.0187553361
 20
4729.6534681532
 30
0.0
 11
6100.5187553361
 21
4729.6534681532
 31
0.0
  0
LINE
  5
1D3
330
1F
100
AcDbEntity
  8
0
  6
SLD-Plná
 62
     7
370
    25
100
AcDbLine
 10
6099.0187553361
 20
4729.6534681532
 30
0.0
 11
6099.0187553361
 21
4900.1534681532
 31
0.0
  0
ARC
  5
1D4
330
1F
100
AcDbEntity
  8
0
  6
SLD-Plná
 62
     7
370
    25
100
AcDbCircle
 10
6100.5187553361
 20
4900.1534681532
 30
0.0
 40
1.500000000000225
100
AcDbArc
 50
160.5287793655
 51
180.0
  0
ARC
  5
1D5
330
1F
100
AcDbEntity
  8
0
  6
SLD-Plná
 62
     7
370
    25
100
AcDbCircle
 10
6274.0187553361
 20
4729.6534681532
 30
0.0
 40
173.5
100
AcDbArc
 50
180.0
 51
0.0
  0
CIRCLE
  5
1D6
330
1F
100
AcDbEntity
  8
0
  6
SLD-Plná
 62
     7
370
    25
100
AcDbCircle
 10
6274.0187553361
 20
4729.6534681532
 30
0.0
 40
144.3225554097489
  0
CIRCLE
  5
1D7
330
1F
100
AcDbEntity
  8
0
  6
SLD-Plná
 62
     7
370
    25
100
AcDbCircle
 10
6274.0187553361
 20
4729.6534681532
 30
0.0
 40
141.8602660434444
  0
ARC
  5
1D8
330
1F
100
AcDbEntity
  8
0
  6
SLD-Plná
 62
     7
370
    25
100
AcDbCircle
 10
6274.0187553361
 20
4729.6534681532
 30
0.0
 40
175.0
100
AcDbArc
 50
180.0
 51
0.0
  0
ARC
  5
1D9
330
1F
100
AcDbEntity
  8
0
  6
SLD-Plná
 62
     7
370
    25
100
AcDbCircle
 10
6274.0187553361
 20
4729.6534681532
 30
0.0
 40
4.600000000000771
100
AcDbArc
 50
168.717175712
 51
191.282824288
  0
ARC
  5
1DA
330
1F
100
AcDbEntity
  8
0
  6
SLD-Plná
 62
     7
370
    25
100
AcDbCircle
 10
6274.0187553361
 20
4729.6534681532
 30
0.0
 40
4.600000000000771
100
AcDbArc
 50
348.717175712
 51
11.282824288
  0
SPLINE
  5
1DB
330
1F
100
AcDbEntity
  8
0
  6
SLD-Plná
 62
     7
370
    25
100
AcDbSpline
210
0.0
220
0.0
230
1.0
 70
    11
 71
     3
 72
    26
 73
    22
 74
     0
 42
0.00000001
 43
0.00000001
 40
0.0
 40
0.0
 40
0.0
 40
0.0
 40
0.0535696648473155
 40
0.1071378406030166
 40
0.1607490568822178
 40
0.2144510879161812
 40
0.268238324495252
 40
0.3220678250395688
 40
0.3758778495403965
 40
0.4296150357974556
 40
0.4832581064467963
 40
0.5368272487212485
 40
0.5903750146117274
 40
0.6439631391414821
 40
0.6976356399715662
 40
0.7513996980887698
 40
0.8052224135027484
 40
0.8590450361222285
 40
0.9128087741867627
 40
0.9664807974787899
 40
1.0
 40
1.0
 40
1.0
 40
1.0
 10
6283.281854170492
 20
4720.390369320484
 30
0.0
 10
6283.639398281553
 20
4720.683966771809
 30
0.0
 10
6284.354476564918
 20
4721.271153513247
 30
0.0
 10
6285.71961375919
 20
4721.639511688345
 30
0.0
 10
6287.113485856636
 20
4721.565024755853
 30
0.0
 10
6288.409846499662
 20
4721.025586903274
 30
0.0
 10
6289.454527111284
 20
4720.088454681616
 30
0.0
 10
6290.130509703686
 20
4718.85646880731
 30
0.0
 10
6290.359703246937
 20
4717.469914134366
 30
0.0
 10
6290.116422337522
 20
4716.086501936481
 30
0.0
 10
6289.429364192871
 20
4714.863059251128
 30
0.0
 10
6288.377384075584
 20
4713.936829332511
 30
0.0
 10
6287.079237153444
 20
4713.410704825921
 30
0.0
 10
6285.680055368597
 20
4713.343068820092
 30
0.0
 10
6284.336173087332
 20
4713.742043260804
 30
0.0
 10
6283.198679805748
 20
4714.564277690524
 30
0.0
 10
6282.397330654519
 20
4715.717658817612
 30
0.0
 10
6282.022454860774
 20
4717.073568145972
 30
0.0
 10
6282.122419237053
 20
4718.471002253143
 30
0.0
 10
6282.596502114689
 20
4719.613419877762
 30
0.0
 10
6283.091543733574
 20
4720.174623870163
 30
0.0
 10
6283.281854170492
 20
4720.390369320484
 30
0.0
  0
SPLINE
  5
1DC
330
1F
100
AcDbEntity
  8
0
  6
SLD-Plná
 62
     7
370
    25
100
AcDbSpline
210
0.0
220
0.0
230
1.0
 70
    11
 71
     3
 72
    26
 73
    22
 74
     0
 42
0.00000001
 43
0.00000001
 40
0.0
 40
0.0
 40
0.0
 40
0.0
 40
0.0537588930341547
 40
0.107515433375714
 40
0.1613243347945539
 40
0.2151542017337949
 40
0.2689430661204251
 40
0.322646902101082
 40
0.376259177480368
 40
0.429813632510087
 40
0.4833692252187357
 40
0.536984257223782
 40
0.5906910324809513
 40
0.6444817868912884
 40
0.698311918486959
 40
0.752119409743876
 40
0.8058521674356481
 40
0.8594910546919295
 40
0.913058170204128
 40
0.9666068712870857
 40
1.0
 40
1.0
 40
1.0
 40
1.0
 10
6288.343166478785
 20
4732.575965154662
 30
0.0
 10
6288.704035713437
 20
4732.867281628948
 30
0.0
 10
6289.42575838974
 20
4733.449901828406
 30
0.0
 10
6290.797452555332
 20
4733.806373429175
 30
0.0
 10
6292.193913222895
 20
4733.71768871306
 30
0.0
 10
6293.487071488137
 20
4733.162949792722
 30
0.0
 10
6294.521868109979
 20
4732.212980097888
 30
0.0
 10
6295.183128601515
 20
4730.974122814011
 30
0.0
 10
6295.396593239493
 20
4729.58791092454
 30
0.0
 10
6295.13988805553
 20
4728.210420212703
 30
0.0
 10
6294.442682309382
 20
4726.995658285657
 30
0.0
 10
6293.382868148451
 20
4726.079212337247
 30
0.0
 10
6292.078399145164
 20
4725.564297605399
 30
0.0
 10
6290.675432914747
 20
4725.510216738402
 30
0.0
 10
6289.332743351221
 20
4725.924460153158
 30
0.0
 10
6288.203116571464
 20
4726.760726312578
 30
0.0
 10
6287.415340618207
 20
4727.923109254513
 30
0.0
 10
6287.056328494956
 20
4729.280867746653
 30
0.0
 10
6287.170591738027
 20
4730.673831890783
 30
0.0
 10
6287.6540488394
 20
4731.807833711528
 30
0.0
 10
6288.151935316075
 20
4732.362807544714
 30
0.0
 10
6288.343166478785
 20
4732.575965154662
 30
0.0
  0
SPLINE
  5
1DD
330
1F
100
AcDbEntity
  8
0
  6
SLD-Plná
 62
     7
370
    25
100
AcDbSpline
210
0.0
220
0.0
230
1.0
 70
    11
 71
     3
 72
    26
 73
    22
 74
     0
 42
0.00000001
 43
0.00000001
 40
0.0
 40
0.0
 40
0.0
 40
0.0
 40
0.0538071611491478
 40
0.1076158643463546
 40
0.1613800744004097
 40
0.2150524772032161
 40
0.2686403342244704
 40
0.3221880260003216
 40
0.3757573634640353
 40
0.4294005703084964
 40
0.4831376074843847
 40
0.5369474167064161
 40
0.5907769476910305
 40
0.6445643720043455
 40
0.698266400199406
 40
0.7518773772603892
 40
0.805431551395735
 40
0.8589878133589198
 40
0.9126039896524311
 40
0.9663118353837313
 40
1.0
 40
1.0
 40
1.0
 40
1.0
 10
6283.306971518427
 20
4744.739744192454
 30
0.0
 10
6283.668061902842
 20
4745.03093721385
 30
0.0
 10
6284.390253020086
 20
4745.613331601877
 30
0.0
 10
6285.763231043129
 20
4745.969120096211
 30
0.0
 10
6287.159832833736
 20
4745.878940035016
 30
0.0
 10
6288.45095474988
 20
4745.323733171574
 30
0.0
 10
6289.483216840486
 20
4744.375675746816
 30
0.0
 10
6290.14376108315
 20
4743.140129445726
 30
0.0
 10
6290.358826627208
 20
4741.756105578844
 30
0.0
 10
6290.104264453922
 20
4740.37795233942
 30
0.0
 10
6289.40740526008
 20
4739.16031837199
 30
0.0
 10
6288.345466539686
 20
4738.241190577776
 30
0.0
 10
6287.038059894832
 20
4737.725728142207
 30
0.0
 10
6285.633820957368
 20
4737.672963188121
 30
0.0
 10
6284.292525777869
 20
4738.088236485009
 30
0.0
 10
6283.16555832814
 20
4738.923341465288
 30
0.0
 10
6282.379231648461
 20
4740.082618158103
 30
0.0
 10
6282.019237637496
 20
4741.437576776868
 30
0.0
 10
6282.131285306181
 20
4742.830249035686
 30
0.0
 10
6282.614171964958
 20
4743.967593830863
 30
0.0
 10
6283.114220108837
 20
4744.524915718811
 30
0.0
 10
6283.306971518427
 20
4744.739744192454
 30
0.0
  0
SPLINE
  5
1DE
330
1F
100
AcDbEntity
  8
0
  6
SLD-Plná
 62
     7
370
    25
100
AcDbSpline
210
0.0
220
0.0
230
1.0
 70
    11
 71
     3
 72
    26
 73
    22
 74
     0
 42
0.00000001
 43
0.00000001
 40
0.0
 40
0.0
 40
0.0
 40
0.0
 40
0.0536194288228279
 40
0.1072412225944929
 40
0.1608105154518535
 40
0.2143581249611382
 40
0.2679457970084712
 40
0.3216177014171797
 40
0.3753812341546221
 40
0.4292036801532209
 40
0.4830263625805877
 40
0.5367904175851479
 40
0.5904628291857363
 40
0.6440509208438497
 40
0.6975988723948126
 40
0.7511681902631102
 40
0.8048109680893876
 40
0.8585473639278309
 40
0.9123567172059089
 40
0.9661862601349728
 40
1.0
 40
1.0
 40
1.0
 40
1.0
 10
6271.132472799939
 20
4749.765404471413
 30
0.0
 10
6271.491384668508
 20
4750.057492396139
 30
0.0
 10
6272.209224235879
 20
4750.641681128478
 30
0.0
 10
6273.57709606867
 20
4751.004048466928
 30
0.0
 10
6274.970850904834
 20
4750.922630945617
 30
0.0
 10
6276.263103330852
 20
4750.377626826511
 30
0.0
 10
6277.301579605116
 20
4749.438265909531
 30
0.0
 10
6277.971973344526
 20
4748.206930095756
 30
0.0
 10
6278.197300052701
 20
4746.821725729371
 30
0.0
 10
6277.950771635898
 20
4745.438691108126
 30
0.0
 10
6277.25934236929
 20
4744.215108719312
 30
0.0
 10
6276.201669406451
 20
4743.290292998671
 30
0.0
 10
6274.898531257647
 20
4742.76864997029
 30
0.0
 10
6273.49776919772
 20
4742.707772332061
 30
0.0
 10
6272.156788491172
 20
4743.113054252784
 30
0.0
 10
6271.025161743205
 20
4743.938635540742
 30
0.0
 10
6270.229825910626
 20
4745.092074510132
 30
0.0
 10
6269.859330103546
 20
4746.446601788964
 30
0.0
 10
6269.96254248882
 20
4747.843263939571
 30
0.0
 10
6270.440459866048
 20
4748.987112912963
 30
0.0
 10
6270.939815802282
 20
4749.548727430262
 30
0.0
 10
6271.132472799939
 20
4749.765404471413
 30
0.0
  0
SPLINE
  5
1DF
330
1F
100
AcDbEntity
  8
0
  6
SLD-Plná
 62
     7
370
    25
100
AcDbSpline
210
0.0
220
0.0
230
1.0
 70
    11
 71
     3
 72
    26
 73
    22
 74
     0
 42
0.00000001
 43
0.00000001
 40
0.0
 40
0.0
 40
0.0
 40
0.0
 40
0.0536047210207998
 40
0.1072071498641628
 40
0.1608698090471752
 40
0.2146252617456374
 40
0.2684443811852602
 40
0.3222700262376476
 40
0.3760420932417421
 40
0.4297240934865699
 40
0.4833192011578361
 40
0.5368686048876307
 40
0.5904332580329934
 40
0.6440673478508685
 40
0.697794869834856
 40
0.7515991064697772
 40
0.8054296199415948
 40
0.8592241700167953
 40
0.9129362080791267
 40
0.9665555647369243
 40
0.9999999999999999
 40
0.9999999999999999
 40
0.9999999999999999
 40
0.9999999999999999
 10
6259.578518675889
 20
4745.224621903798
 30
0.0
 10
6259.986686653418
 20
4745.442931804149
 30
0.0
 10
6260.803005154912
 20
4745.879542269759
 30
0.0
 10
6262.214365506231
 20
4745.974253233291
 30
0.0
 10
6263.567525198338
 20
4745.628669932145
 30
0.0
 10
6264.73410032835
 20
4744.845542910572
 30
0.0
 10
6265.575490612999
 20
4743.721331252983
 30
0.0
 10
6265.996994502996
 20
4742.380473236587
 30
0.0
 10
6265.950012965247
 20
4740.976223543676
 30
0.0
 10
6265.440826622438
 20
4739.66799643596
 30
0.0
 10
6264.528348588492
 20
4738.603276294581
 30
0.0
 10
6263.316226441945
 20
4737.900756869486
 30
0.0
 10
6261.94039343525
 20
4737.638289730729
 30
0.0
 10
6260.554431873591
 20
4737.845369863296
 30
0.0
 10
6259.313719395368
 20
4738.499848620112
 30
0.0
 10
6258.358625461956
 20
4739.529508245902
 30
0.0
 10
6257.798642403748
 20
4740.817988637348
 30
0.0
 10
6257.696811181298
 20
4742.220931664015
 30
0.0
 10
6258.068394873821
 20
4743.571057236753
 30
0.0
 10
6258.75611496926
 20
4744.59746495859
 30
0.0
 10
6259.350278428985
 20
4745.050568145444
 30
0.0
 10
6259.578518675889
 20
4745.224621903798
 30
0.0
  0
SPLINE
  5
1E0
330
1F
100
AcDbEntity
  8
0
  6
SLD-Plná
 62
     7
370
    25
100
AcDbSpline
210
0.0
220
0.0
230
1.0
 70
    11
 71
     3
 72
    26
 73
    22
 74
     0
 42
0.00000001
 43
0.00000001
 40
0.0
 40
0.0
 40
0.0
 40
0.0
 40
0.0537562068349928
 40
0.107510023823836
 40
0.1613172360448485
 40
0.2151474167966092
 40
0.2689384891421702
 40
0.3226456009169222
 40
0.376260907199578
 40
0.4298168132318899
 40
0.483371511355897
 40
0.5369835592148942
 40
0.5906865517167826
 40
0.6444745061411254
 40
0.6983042003893419
 40
0.752113842731902
 40
0.8058502744076965
 40
0.8594925869960682
 40
0.9130613368302068
 40
0.966609282210581
 40
1.0
 40
1.0
 40
1.0
 40
1.0
 10
6253.906819017866
 20
4732.53975068934
 30
0.0
 10
6254.264002825895
 20
4732.835552309856
 30
0.0
 10
6254.97835456259
 20
4733.427142400405
 30
0.0
 10
6256.345426540555
 20
4733.800760016688
 30
0.0
 10
6257.74284895139
 20
4733.729599077555
 30
0.0
 10
6259.042853966855
 20
4733.191138259467
 30
0.0
 10
6260.08950607682
 20
4732.254214990089
 30
0.0
 10
6260.766273359975
 20
4731.023703494635
 30
0.0
 10
6260.997093263388
 20
4729.640215185535
 30
0.0
 10
6260.757633795678
 20
4728.259576417694
 30
0.0
 10
6260.075665922273
 20
4727.036183641126
 30
0.0
 10
6259.027419057889
 20
4726.106576302871
 30
0.0
 10
6257.729553386003
 20
4725.575394646537
 30
0.0
 10
6256.327435580894
 20
4725.503734817878
 30
0.0
 10
6254.979684587196
 20
4725.901088591737
 30
0.0
 10
6253.839641649025
 20
4726.723118208138
 30
0.0
 10
6253.037321131968
 20
4727.875569603852
 30
0.0
 10
6252.661312729961
 20
4729.228783808776
 30
0.0
 10
6252.758141436546
 20
4730.623112882935
 30
0.0
 10
6253.227383389589
 20
4731.763078087102
 30
0.0
 10
6253.718279501257
 20
4732.324228466343
 30
0.0
 10
6253.906819017866
 20
4732.53975068934
 30
0.0
  0
SPLINE
  5
1E1
330
1F
100
AcDbEntity
  8
0
  6
SLD-Plná
 62
     7
370
    25
100
AcDbSpline
210
0.0
220
0.0
230
1.0
 70
    11
 71
     3
 72
    26
 73
    22
 74
     0
 42
0.00000001
 43
0.00000001
 40
0.0
 40
0.0
 40
0.0
 40
0.0
 40
0.0538093119840966
 40
0.1076200900967781
 40
0.1613880879382234
 40
0.2150651672522169
 40
0.2686566289733374
 40
0.3222052237837797
 40
0.3757722233381342
 40
0.4294107677072354
 40
0.4831428917530702
 40
0.5369498406959968
 40
0.5907799501671095
 40
0.6445711209940134
 40
0.6982782670655077
 40
0.7518933516498394
 40
0.80544883876316
 40
0.8590031964734549
 40
0.9126152254084959
 40
0.9663184957404239
 40
0.9999999999999999
 40
0.9999999999999999
 40
0.9999999999999999
 40
0.9999999999999999
 10
6258.932479296825
 20
4720.365251970851
 30
0.0
 10
6259.288505835825
 20
4720.662640035925
 30
0.0
 10
6260.000568614392
 20
4721.257424268929
 30
0.0
 10
6261.367243251809
 20
4721.636833906009
 30
0.0
 10
6262.76524164074
 20
4721.57072917026
 30
0.0
 10
6264.065800897077
 20
4721.037800339364
 30
0.0
 10
6265.11426875064
 20
4720.107578472122
 30
0.0
 10
6265.795959441834
 20
4718.883519248581
 30
0.0
 10
6266.034756028129
 20
4717.503399389849
 30
0.0
 10
6265.803916988285
 20
4716.121135007931
 30
0.0
 10
6265.128144672461
 20
4714.891770692116
 30
0.0
 10
6264.082245839441
 20
4713.954539590649
 30
0.0
 10
6262.783940179072
 20
4713.416630552935
 30
0.0
 10
6261.380785005844
 20
4713.339672082816
 30
0.0
 10
6260.032465606791
 20
4713.731811060029
 30
0.0
 10
6258.891238335263
 20
4714.547460612915
 30
0.0
 10
6258.085085261425
 20
4715.693098755606
 30
0.0
 10
6257.701877820934
 20
4717.041671867485
 30
0.0
 10
6257.789978540536
 20
4718.436011825035
 30
0.0
 10
6258.253193690156
 20
4719.581386731135
 30
0.0
 10
6258.743497184946
 20
4720.147175057436
 30
0.0
 10
6258.932479296825
 20
4720.365251970851
 30
0.0
  0
SPLINE
  5
1E2
330
1F
100
AcDbEntity
  8
0
  6
SLD-Plná
 62
     7
370
    25
100
AcDbSpline
210
0.0
220
0.0
230
1.0
 70
    11
 71
     3
 72
    26
 73
    22
 74
     0
 42
0.00000001
 43
0.00000001
 40
0.0
 40
0.0
 40
0.0
 40
0.0
 40
0.0536224173294015
 40
0.1072472278510902
 40
0.1608186709777156
 40
0.2143662689735139
 40
0.2679516214335271
 40
0.3216198445698427
 40
0.3753800267393343
 40
0.4292010816188007
 40
0.4830250319052776
 40
0.536792385665764
 40
0.5904685134946996
 40
0.6440590117320913
 40
0.6976070716126805
 40
0.7511743151548306
 40
0.8048138479822214
 40
0.8585471995569701
 40
0.9123548911420972
 40
0.9661847720115883
 40
1.0
 40
1.0
 40
1.0
 40
1.0
 10
6271.096258337272
 20
4715.329057013194
 30
0.0
 10
6271.451500450121
 20
4715.625622963821
 30
0.0
 10
6272.162000530431
 20
4716.218768100947
 30
0.0
 10
6273.525292361391
 20
4716.598215395528
 30
0.0
 10
6274.920005181389
 20
4716.534198620094
 30
0.0
 10
6276.218976519852
 20
4716.005343925723
 30
0.0
 10
6277.269073441546
 20
4715.079017105391
 30
0.0
 10
6277.954756152149
 20
4713.856188668229
 30
0.0
 10
6278.197363225306
 20
4712.473970650884
 30
0.0
 10
6277.968164175689
 20
4711.088004454632
 30
0.0
 10
6277.292107549545
 20
4709.855867041271
 30
0.0
 10
6276.246061522523
 20
4708.917864326242
 30
0.0
 10
6274.949489474732
 20
4708.379951022122
 30
0.0
 10
6273.549542939599
 20
4708.301589124904
 30
0.0
 10
6272.203589835276
 20
4708.690119808489
 30
0.0
 10
6271.061767849849
 20
4709.501512888485
 30
0.0
 10
6270.25212462742
 20
4710.644896771143
 30
0.0
 10
6269.864748024062
 20
4711.994634273146
 30
0.0
 10
6269.950479100262
 20
4713.392434962561
 30
0.0
 10
6270.414035312133
 20
4714.542159816136
 30
0.0
 10
6270.90632368261
 20
4715.109980491484
 30
0.0
 10
6271.096258337272
 20
4715.329057013194
 30
0.0
  0
LINE
  5
1E3
330
1F
100
AcDbEntity
  8
0
  6
SLD-Plná
 62
     8
370
    25
100
AcDbLine
 10
6407.0233223998
 20
4821.1122600435
 30
0.0
 11
6406.7555975682
 21
4820.8766347898
 31
0.0
  0
LINE
  5
1E4
330
1F
100
AcDbEntity
  8
0
  6
SLD-Plná
 62
     8
370
    25
100
AcDbLine
 10
6393.7419219727
 20
4833.8903103853
 30
0.0
 11
6393.9793467806
 21
4834.1597164886
 31
0.0
  0
LINE
  5
1E5
330
1F
100
AcDbEntity
  8
0
  6
SLD-Plná
 62
     8
370
    25
100
AcDbLine
 10
6392.0026229209
 20
4831.4241088248
 30
0.0
 11
6391.8388154423
 21
4831.2603013463
 31
0.0
  0
LINE
  5
1E6
330
1F
100
AcDbEntity
  8
0
  6
SLD-Plná
 62
     8
370
    25
100
AcDbLine
 10
6404.2893960078
 20
4819.137335738
 30
0.0
 11
6404.1255885292
 21
4818.9735282594
 31
0.0
  0
LWPOLYLINE
  5
1E7
330
1F
100
AcDbEntity
  8
0
  6
SLD-Plná
 62
     8
370
    25
100
AcDbPolyline
 90
        3
 70
   128
 43
0.0
 10
6274.0187553361
 20
4747.1534681532
 10
6271.5282456663
 20
4746.9753433861
 10
6269.9302055202
 20
4746.6691597466
  0
ARC
  5
1E8
330
1F
100
AcDbEntity
  8
0
  6
SLD-Plná
 62
     8
370
    25
100
AcDbCircle
 10
6274.0187553361
 20
4729.6534681532
 30
0.0
 40
17.49999999999964
100
AcDbArc
 50
121.572213477
 51
148.5268634834
  0
ARC
  5
1E9
330
1F
100
AcDbEntity
  8
0
  6
SLD-Plná
 62
     8
370
    25
100
AcDbCircle
 10
6274.0187553361
 20
4729.6534681532
 30
0.0
 40
17.49999999999993
100
AcDbArc
 50
166.55502634
 51
193.4538588889
  0
ARC
  5
1EA
330
1F
100
AcDbEntity
  8
0
  6
SLD-Plná
 62
     8
370
    25
100
AcDbCircle
 10
6274.0187553361
 20
4729.6534681532
 30
0.0
 40
17.5000000000008
100
AcDbArc
 50
211.5253571458
 51
238.5161311439
  0
ARC
  5
1EB
330
1F
100
AcDbEntity
  8
0
  6
SLD-Plná
 62
     8
370
    25
100
AcDbCircle
 10
6274.0187553361
 20
4729.6534681532
 30
0.0
 40
17.50000000000032
100
AcDbArc
 50
256.5968309034
 51
283.4519032786
  0
ARC
  5
1EC
330
1F
100
AcDbEntity
  8
0
  6
SLD-Plná
 62
     8
370
    25
100
AcDbCircle
 10
6274.0187553361
 20
4729.6534681532
 30
0.0
 40
17.50000000000079
100
AcDbArc
 50
301.540553429
 51
328.4112293439
  0
ARC
  5
1ED
330
1F
100
AcDbEntity
  8
0
  6
SLD-Plná
 62
     8
370
    25
100
AcDbCircle
 10
6274.0187553361
 20
4729.6534681532
 30
0.0
 40
17.50000000000059
100
AcDbArc
 50
346.4961203651
 51
13.6049175702
  0
ARC
  5
1EE
330
1F
100
AcDbEntity
  8
0
  6
SLD-Plná
 62
     8
370
    25
100
AcDbCircle
 10
6274.0187553361
 20
4729.6534681532
 30
0.0
 40
17.50000000000018
100
AcDbArc
 50
31.5530411
 51
58.199366569
  0
LWPOLYLINE
  5
1EF
330
1F
100
AcDbEntity
  8
0
  6
SLD-Plná
 62
     8
370
    25
100
AcDbPolyline
 90
        3
 70
   128
 43
0.0
 10
6278.0971647318
 20
4746.6715931028
 10
6276.5092650059
 20
4746.9753433861
 10
6274.0187553361
 20
4747.1534681532
  0
ENDSEC
  0
SECTION
  2
OBJECTS
  0
DICTIONARY
  5
C
330
0
100
AcDbDictionary
281
     1
  3
ACAD_GROUP
350
D
  3
ACAD_LAYOUT
350
1A
  3
ACAD_MLINESTYLE
350
17
  3
ACAD_PLOTSETTINGS
350
19
  3
ACAD_PLOTSTYLENAME
350
E
  3
ACAD_SCALELIST
350
47
  3
DWGPROPS
350
1F0
  0
DICTIONARY
  5
D
102
{ACAD_REACTORS
330
C
102
}
330
C
100
AcDbDictionary
281
     1
  0
DICTIONARY
  5
1A
102
{ACAD_REACTORS
330
C
102
}
330
C
100
AcDbDictionary
281
     1
  3
Layout1
350
1E
  3
Layout2
350
26
  3
Model
350
22
  0
DICTIONARY
  5
17
102
{ACAD_REACTORS
330
C
102
}
330
C
100
AcDbDictionary
281
     1
  3
Standard
350
18
  0
DICTIONARY
  5
19
102
{ACAD_REACTORS
330
C
102
}
330
C
100
AcDbDictionary
281
     1
  0
ACDBDICTIONARYWDFLT
  5
E
102
{ACAD_REACTORS
330
C
102
}
330
C
100
AcDbDictionary
281
     1
  3
Normal
350
F
100
AcDbDictionaryWithDefault
340
F
  0
DICTIONARY
  5
47
102
{ACAD_REACTORS
330
C
102
}
330
C
100
AcDbDictionary
281
     1
  3
A0
350
48
  3
A1
350
49
  3
A2
350
4A
  3
A3
350
4B
  3
A4
350
4C
  3
A5
350
4D
  3
A6
350
4E
  3
A7
350
4F
  3
A8
350
50
  3
A9
350
51
  3
B0
350
52
  3
B1
350
53
  3
B2
350
54
  3
B3
350
55
  3
B4
350
56
  3
B5
350
57
  3
B6
350
58
  3
B7
350
59
  3
B8
350
5A
  3
B9
350
5B
  3
C0
350
5C
  3
C1
350
5D
  3
C2
350
5E
  3
C3
350
5F
  3
C4
350
60
  3
C5
350
61
  3
C6
350
62
  3
C7
350
63
  3
C8
350
64
  3
C9
350
65
  3
D0
350
66
  3
D1
350
67
  3
D2
350
68
  0
XRECORD
  5
1F0
102
{ACAD_REACTORS
330
C
102
}
330
C
100
AcDbXrecord
280
     1
  1
DWGPROPS COOKIE
  2

  3

  4

  6

  7

  8
radek.stransky
  9

300
=
301
=
302
=
303
=
304
=
305
=
306
=
307
=
308
=
309
=
 40
0.0
 41
2460859.293306528
 42
2460859.293307419
  1

 90
        0
  0
LAYOUT
  5
1E
102
{ACAD_REACTORS
330
1A
102
}
330
1A
100
AcDbPlotSettings
  1

  2
none_device
  4

  6

 40
0.0
 41
0.0
 42
0.0
 43
0.0
 44
0.0
 45
0.0
 46
0.0
 47
0.0
 48
0.0
 49
0.0
140
0.0
141
0.0
142
1.0
143
1.0
 70
   688
 72
     1
 73
     0
 74
     5
  7

 75
    16
147
1.0
148
0.0
149
0.0
100
AcDbLayout
  1
Layout1
 70
     1
 71
     1
 10
0.0
 20
0.0
 11
420.0
 21
297.0
 12
0.0
 22
0.0
 32
0.0
 14
1.0000000000E+20
 24
1.0000000000E+20
 34
1.0000000000E+20
 15
-1.0000000000E+20
 25
-1.0000000000E+20
 35
-1.0000000000E+20
146
0.0
 13
0.0
 23
0.0
 33
0.0
 16
1.0
 26
0.0
 36
0.0
 17
0.0
 27
1.0
 37
0.0
 76
     0
330
1B
  0
LAYOUT
  5
26
102
{ACAD_REACTORS
330
1A
102
}
330
1A
100
AcDbPlotSettings
  1

  2
none_device
  4

  6

 40
0.0
 41
0.0
 42
0.0
 43
0.0
 44
0.0
 45
0.0
 46
0.0
 47
0.0
 48
0.0
 49
0.0
140
0.0
141
0.0
142
1.0
143
1.0
 70
   688
 72
     1
 73
     0
 74
     5
  7

 75
    16
147
1.0
148
0.0
149
0.0
100
AcDbLayout
  1
Layout2
 70
     1
 71
     2
 10
0.0
 20
0.0
 11
0.0
 21
0.0
 12
0.0
 22
0.0
 32
0.0
 14
0.0
 24
0.0
 34
0.0
 15
0.0
 25
0.0
 35
0.0
146
0.0
 13
0.0
 23
0.0
 33
0.0
 16
1.0
 26
0.0
 36
0.0
 17
0.0
 27
1.0
 37
0.0
 76
     0
330
23
  0
LAYOUT
  5
22
102
{ACAD_REACTORS
330
1A
102
}
330
1A
100
AcDbPlotSettings
  1

  2
none_device
  4
Letter_(8.50_x_11.00_Inches)
  6

 40
6.35
 41
6.35
 42
6.35000508
 43
6.35000508
 44
215.9
 45
279.4
 46
0.0
 47
0.0
 48
0.0
 49
0.0
140
0.0
141
0.0
142
1.0
143
1.0
 70
  1712
 72
     1
 73
     0
 74
     0
  7

 75
     0
147
1.0
148
0.0
149
0.0
100
AcDbLayout
  1
Model
 70
     1
 71
     0
 10
0.0
 20
0.0
 11
20000.0
 21
10000.0
 12
0.0
 22
0.0
 32
0.0
 14
0.0
 24
0.0
 34
0.0
 15
20000.0
 25
10000.0
 35
0.0
146
0.0
 13
0.0
 23
0.0
 33
0.0
 16
1.0
 26
0.0
 36
0.0
 17
0.0
 27
1.0
 37
0.0
 76
     0
330
1F
331
29
  0
MLINESTYLE
  5
18
102
{ACAD_REACTORS
330
17
102
}
330
17
100
AcDbMlineStyle
  2
Standard
 70
     0
  3

 62
   256
 51
90.0
 52
90.0
 71
     2
 49
0.5
 62
   256
  6
BYLAYER
 49
-0.5
 62
   256
  6
BYLAYER
  0
ACDBPLACEHOLDER
  5
F
102
{ACAD_REACTORS
330
E
102
}
330
E
  0
SCALE
  5
48
102
{ACAD_REACTORS
330
47
102
}
330
47
100
AcDbScale
 70
     0
300
1:1
140
1.0
141
1.0
290
     1
  0
SCALE
  5
49
102
{ACAD_REACTORS
330
47
102
}
330
47
100
AcDbScale
 70
     0
300
1:2
140
1.0
141
2.0
290
     0
  0
SCALE
  5
4A
102
{ACAD_REACTORS
330
47
102
}
330
47
100
AcDbScale
 70
     0
300
1:4
140
1.0
141
4.0
290
     0
  0
SCALE
  5
4B
102
{ACAD_REACTORS
330
47
102
}
330
47
100
AcDbScale
 70
     0
300
1:5
140
1.0
141
5.0
290
     0
  0
SCALE
  5
4C
102
{ACAD_REACTORS
330
47
102
}
330
47
100
AcDbScale
 70
     0
300
1:8
140
1.0
141
8.0
290
     0
  0
SCALE
  5
4D
102
{ACAD_REACTORS
330
47
102
}
330
47
100
AcDbScale
 70
     0
300
1:10
140
1.0
141
10.0
290
     0
  0
SCALE
  5
4E
102
{ACAD_REACTORS
330
47
102
}
330
47
100
AcDbScale
 70
     0
300
1:16
140
1.0
141
16.0
290
     0
  0
SCALE
  5
4F
102
{ACAD_REACTORS
330
47
102
}
330
47
100
AcDbScale
 70
     0
300
1:20
140
1.0
141
20.0
290
     0
  0
SCALE
  5
50
102
{ACAD_REACTORS
330
47
102
}
330
47
100
AcDbScale
 70
     0
300
1:30
140
1.0
141
30.0
290
     0
  0
SCALE
  5
51
102
{ACAD_REACTORS
330
47
102
}
330
47
100
AcDbScale
 70
     0
300
1:40
140
1.0
141
40.0
290
     0
  0
SCALE
  5
52
102
{ACAD_REACTORS
330
47
102
}
330
47
100
AcDbScale
 70
     0
300
1:50
140
1.0
141
50.0
290
     0
  0
SCALE
  5
53
102
{ACAD_REACTORS
330
47
102
}
330
47
100
AcDbScale
 70
     0
300
1:100
140
1.0
141
100.0
290
     0
  0
SCALE
  5
54
102
{ACAD_REACTORS
330
47
102
}
330
47
100
AcDbScale
 70
     0
300
2:1
140
2.0
141
1.0
290
     0
  0
SCALE
  5
55
102
{ACAD_REACTORS
330
47
102
}
330
47
100
AcDbScale
 70
     0
300
4:1
140
4.0
141
1.0
290
     0
  0
SCALE
  5
56
102
{ACAD_REACTORS
330
47
102
}
330
47
100
AcDbScale
 70
     0
300
8:1
140
8.0
141
1.0
290
     0
  0
SCALE
  5
57
102
{ACAD_REACTORS
330
47
102
}
330
47
100
AcDbScale
 70
     0
300
10:1
140
10.0
141
1.0
290
     0
  0
SCALE
  5
58
102
{ACAD_REACTORS
330
47
102
}
330
47
100
AcDbScale
 70
     0
300
100:1
140
100.0
141
1.0
290
     0
  0
SCALE
  5
59
102
{ACAD_REACTORS
330
47
102
}
330
47
100
AcDbScale
 70
     0
300
1/128" = 1'-0"
140
0.0078125
141
12.0
290
     0
  0
SCALE
  5
5A
102
{ACAD_REACTORS
330
47
102
}
330
47
100
AcDbScale
 70
     0
300
1/64" = 1'-0"
140
0.015625
141
12.0
290
     0
  0
SCALE
  5
5B
102
{ACAD_REACTORS
330
47
102
}
330
47
100
AcDbScale
 70
     0
300
1/32" = 1'-0"
140
0.03125
141
12.0
290
     0
  0
SCALE
  5
5C
102
{ACAD_REACTORS
330
47
102
}
330
47
100
AcDbScale
 70
     0
300
1/16" = 1'-0"
140
0.0625
141
12.0
290
     0
  0
SCALE
  5
5D
102
{ACAD_REACTORS
330
47
102
}
330
47
100
AcDbScale
 70
     0
300
3/32" = 1'-0"
140
0.09375
141
12.0
290
     0
  0
SCALE
  5
5E
102
{ACAD_REACTORS
330
47
102
}
330
47
100
AcDbScale
 70
     0
300
1/8" = 1'-0"
140
0.125
141
12.0
290
     0
  0
SCALE
  5
5F
102
{ACAD_REACTORS
330
47
102
}
330
47
100
AcDbScale
 70
     0
300
3/16" = 1'-0"
140
0.1875
141
12.0
290
     0
  0
SCALE
  5
60
102
{ACAD_REACTORS
330
47
102
}
330
47
100
AcDbScale
 70
     0
300
1/4" = 1'-0"
140
0.25
141
12.0
290
     0
  0
SCALE
  5
61
102
{ACAD_REACTORS
330
47
102
}
330
47
100
AcDbScale
 70
     0
300
3/8" = 1'-0"
140
0.375
141
12.0
290
     0
  0
SCALE
  5
62
102
{ACAD_REACTORS
330
47
102
}
330
47
100
AcDbScale
 70
     0
300
1/2" = 1'-0"
140
0.5
141
12.0
290
     0
  0
SCALE
  5
63
102
{ACAD_REACTORS
330
47
102
}
330
47
100
AcDbScale
 70
     0
300
3/4" = 1'-0"
140
0.75
141
12.0
290
     0
  0
SCALE
  5
64
102
{ACAD_REACTORS
330
47
102
}
330
47
100
AcDbScale
 70
     0
300
1" = 1'-0"
140
1.0
141
12.0
290
     0
  0
SCALE
  5
65
102
{ACAD_REACTORS
330
47
102
}
330
47
100
AcDbScale
 70
     0
300
1-1/2" = 1'-0"
140
1.5
141
12.0
290
     0
  0
SCALE
  5
66
102
{ACAD_REACTORS
330
47
102
}
330
47
100
AcDbScale
 70
     0
300
3" = 1'-0"
140
3.0
141
12.0
290
     0
  0
SCALE
  5
67
102
{ACAD_REACTORS
330
47
102
}
330
47
100
AcDbScale
 70
     0
300
6" = 1'-0"
140
6.0
141
12.0
290
     0
  0
SCALE
  5
68
102
{ACAD_REACTORS
330
47
102
}
330
47
100
AcDbScale
 70
     0
300
1'-0" = 1'-0"
140
12.0
141
12.0
290
     0
  0
ENDSEC
  0
EOF
