  0
SECTION
  2
HEADER
  9
$ACADVER
  1
AC1015
  9
$ACADMAINTVER
 70
     6
  9
$DWGCODEPAGE
  3
ANSI_1250
  9
$INSBASE
 10
0.0
 20
0.0
 30
0.0
  9
$EXTMIN
 10
5994.0187512337
 20
4177.2317485593
 30
0.0
  9
$EXTMAX
 10
7399.7172607263
 20
5406.5597010777
 30
0.0
  9
$LIMMIN
 10
0.0
 20
0.0
  9
$LIMMAX
 10
420.0
 20
297.0
  9
$ORTHOMODE
 70
     0
  9
$REGENMODE
 70
     1
  9
$FILLMODE
 70
     1
  9
$QTEXTMODE
 70
     0
  9
$MIRRTEXT
 70
     1
  9
$LTSCALE
 40
1.0
  9
$ATTMODE
 70
     1
  9
$TEXTSIZE
 40
3.5
  9
$TRACEWID
 40
1.0
  9
$TEXTSTYLE
  7
Standard
  9
$CLAYER
  8
0
  9
$CELTYPE
  6
ByLayer
  9
$CECOLOR
 62
   256
  9
$CELTSCALE
 40
1.0
  9
$DISPSILH
 70
     0
  9
$DIMSCALE
 40
1.0
  9
$DIMASZ
 40
3.302
  9
$DIMEXO
 40
0.0
  9
$DIMDLI
 40
3.75
  9
$DIMRND
 40
0.0
  9
$DIMDLE
 40
0.0
  9
$DIMEXE
 40
1.0
  9
$DIMTP
 40
0.0
  9
$DIMTM
 40
0.0
  9
$DIMTXT
 40
3.5
  9
$DIMCEN
 40
2.5
  9
$DIMTSZ
 40
0.0
  9
$DIMTOL
 70
     0
  9
$DIMLIM
 70
     0
  9
$DIMTIH
 70
     1
  9
$DIMTOH
 70
     1
  9
$DIMSE1
 70
     0
  9
$DIMSE2
 70
     0
  9
$DIMTAD
 70
     1
  9
$DIMZIN
 70
     0
  9
$DIMBLK
  1

  9
$DIMASO
 70
     1
  9
$DIMSHO
 70
     1
  9
$DIMPOST
  1

  9
$DIMAPOST
  1

  9
$DIMALT
 70
     0
  9
$DIMALTD
 70
     3
  9
$DIMALTF
 40
0.0393700787
  9
$DIMLFAC
 40
1.0
  9
$DIMTOFL
 70
     1
  9
$DIMTVP
 40
0.0
  9
$DIMTIX
 70
     0
  9
$DIMSOXD
 70
     0
  9
$DIMSAH
 70
     0
  9
$DIMBLK1
  1

  9
$DIMBLK2
  1

  9
$DIMSTYLE
  2
ISO-25
  9
$DIMCLRD
 70
     0
  9
$DIMCLRE
 70
     0
  9
$DIMCLRT
 70
     0
  9
$DIMTFAC
 40
1.0
  9
$DIMGAP
 40
1.524
  9
$DIMJUST
 70
     0
  9
$DIMSD1
 70
     0
  9
$DIMSD2
 70
     0
  9
$DIMTOLJ
 70
     0
  9
$DIMTZIN
 70
     0
  9
$DIMALTZ
 70
     0
  9
$DIMALTTZ
 70
     0
  9
$DIMUPT
 70
     0
  9
$DIMDEC
 70
     2
  9
$DIMTDEC
 70
     2
  9
$DIMALTU
 70
     2
  9
$DIMALTTD
 70
     3
  9
$DIMTXSTY
  7
Standard
  9
$DIMAUNIT
 70
     0
  9
$DIMADEC
 70
     2
  9
$DIMALTRND
 40
0.0
  9
$DIMAZIN
 70
     0
  9
$DIMDSEP
 70
    44
  9
$DIMATFIT
 70
     3
  9
$DIMFRAC
 70
     0
  9
$DIMLDRBLK
  1

  9
$DIMLUNIT
 70
     2
  9
$DIMLWD
 70
    -2
  9
$DIMLWE
 70
    -2
  9
$DIMTMOVE
 70
     0
  9
$LUNITS
 70
     2
  9
$LUPREC
 70
     2
  9
$SKETCHINC
 40
1.0
  9
$FILLETRAD
 40
10.0
  9
$AUNITS
 70
     0
  9
$AUPREC
 70
     2
  9
$MENU
  1
.
  9
$ELEVATION
 40
0.0
  9
$PELEVATION
 40
0.0
  9
$THICKNESS
 40
0.0
  9
$LIMCHECK
 70
     0
  9
$CHAMFERA
 40
0.0
  9
$CHAMFERB
 40
0.0
  9
$CHAMFERC
 40
0.0
  9
$CHAMFERD
 40
0.0
  9
$SKPOLY
 70
     0
  9
$TDCREATE
 40
2459096.422598472
  9
$TDUCREATE
 40
2459096.339265139
  9
$TDUPDATE
 40
2459096.422628333
  9
$TDUUPDATE
 40
2459096.339295
  9
$TDINDWG
 40
0.0000000116
  9
$TDUSRTIMER
 40
0.0000000116
  9
$USRTIMER
 70
     1
  9
$ANGBASE
 50
0.0
  9
$ANGDIR
 70
     0
  9
$PDMODE
 70
     0
  9
$PDSIZE
 40
-1.0
  9
$PLINEWID
 40
0.0
  9
$SPLFRAME
 70
     0
  9
$SPLINETYPE
 70
     6
  9
$SPLINESEGS
 70
     8
  9
$HANDSEED
  5
66D
  9
$SURFTAB1
 70
     6
  9
$SURFTAB2
 70
     6
  9
$SURFTYPE
 70
     6
  9
$SURFU
 70
     6
  9
$SURFV
 70
     6
  9
$UCSBASE
  2

  9
$UCSNAME
  2

  9
$UCSORG
 10
0.0
 20
0.0
 30
0.0
  9
$UCSXDIR
 10
1.0
 20
0.0
 30
0.0
  9
$UCSYDIR
 10
0.0
 20
1.0
 30
0.0
  9
$UCSORTHOREF
  2

  9
$UCSORTHOVIEW
 70
     0
  9
$UCSORGTOP
 10
0.0
 20
0.0
 30
0.0
  9
$UCSORGBOTTOM
 10
0.0
 20
0.0
 30
0.0
  9
$UCSORGLEFT
 10
0.0
 20
0.0
 30
0.0
  9
$UCSORGRIGHT
 10
0.0
 20
0.0
 30
0.0
  9
$UCSORGFRONT
 10
0.0
 20
0.0
 30
0.0
  9
$UCSORGBACK
 10
0.0
 20
0.0
 30
0.0
  9
$PUCSBASE
  2

  9
$PUCSNAME
  2

  9
$PUCSORG
 10
0.0
 20
0.0
 30
0.0
  9
$PUCSXDIR
 10
1.0
 20
0.0
 30
0.0
  9
$PUCSYDIR
 10
0.0
 20
1.0
 30
0.0
  9
$PUCSORTHOREF
  2

  9
$PUCSORTHOVIEW
 70
     0
  9
$PUCSORGTOP
 10
0.0
 20
0.0
 30
0.0
  9
$PUCSORGBOTTOM
 10
0.0
 20
0.0
 30
0.0
  9
$PUCSORGLEFT
 10
0.0
 20
0.0
 30
0.0
  9
$PUCSORGRIGHT
 10
0.0
 20
0.0
 30
0.0
  9
$PUCSORGFRONT
 10
0.0
 20
0.0
 30
0.0
  9
$PUCSORGBACK
 10
0.0
 20
0.0
 30
0.0
  9
$USERI1
 70
     0
  9
$USERI2
 70
     0
  9
$USERI3
 70
     0
  9
$USERI4
 70
     0
  9
$USERI5
 70
     0
  9
$USERR1
 40
0.0
  9
$USERR2
 40
0.0
  9
$USERR3
 40
0.0
  9
$USERR4
 40
0.0
  9
$USERR5
 40
0.0
  9
$WORLDVIEW
 70
     1
  9
$SHADEDGE
 70
     3
  9
$SHADEDIF
 70
    70
  9
$TILEMODE
 70
     1
  9
$MAXACTVP
 70
    64
  9
$PINSBASE
 10
0.0
 20
0.0
 30
0.0
  9
$PLIMCHECK
 70
     0
  9
$PEXTMIN
 10
1.0000000000E+20
 20
1.0000000000E+20
 30
1.0000000000E+20
  9
$PEXTMAX
 10
-1.0000000000E+20
 20
-1.0000000000E+20
 30
-1.0000000000E+20
  9
$PLIMMIN
 10
0.0
 20
0.0
  9
$PLIMMAX
 10
420.0
 20
297.0
  9
$UNITMODE
 70
     0
  9
$VISRETAIN
 70
     1
  9
$PLINEGEN
 70
     0
  9
$PSLTSCALE
 70
     1
  9
$TREEDEPTH
 70
  3020
  9
$CMLSTYLE
  2
Standard
  9
$CMLJUST
 70
     0
  9
$CMLSCALE
 40
20.0
  9
$PROXYGRAPHICS
 70
     1
  9
$MEASUREMENT
 70
     1
  9
$CELWEIGHT
370
    -1
  9
$ENDCAPS
280
     0
  9
$JOINSTYLE
280
     0
  9
$LWDISPLAY
290
     1
  9
$INSUNITS
 70
     4
  9
$HYPERLINKBASE
  1

  9
$STYLESHEET
  1

  9
$XEDIT
290
     1
  9
$CEPSNTYPE
380
     0
  9
$PSTYLEMODE
290
     1
  9
$FINGERPRINTGUID
  2
{912f7ba6-f1fd-483a-8300-60d76ae80d08}
  9
$VERSIONGUID
  2
{FAEB1C32-E019-11D5-929B-00C0DF256EC4}
  9
$EXTNAMES
290
     1
  9
$PSVPSCALE
 40
0.0
  9
$OLESTARTUP
290
     0
  0
ENDSEC
  0
SECTION
  2
CLASSES
  0
CLASS
  1
ACDBDICTIONARYWDFLT
  2
AcDbDictionaryWithDefault
  3
ObjectDBX Classes
 90
        0
280
     0
281
     0
  0
CLASS
  1
VISUALSTYLE
  2
AcDbVisualStyle
  3
ObjectDBX Classes
 90
     4095
280
     0
281
     0
  0
CLASS
  1
MATERIAL
  2
AcDbMaterial
  3
ObjectDBX Classes
 90
     1153
280
     0
281
     0
  0
CLASS
  1
SCALE
  2
AcDbScale
  3
ObjectDBX Classes
 90
     1153
280
     0
281
     0
  0
CLASS
  1
TABLESTYLE
  2
AcDbTableStyle
  3
ObjectDBX Classes
 90
     4095
280
     0
281
     0
  0
CLASS
  1
MLEADERSTYLE
  2
AcDbMLeaderStyle
  3
ACDB_MLEADERSTYLE_CLASS
 90
     4095
280
     0
281
     0
  0
CLASS
  1
SUN
  2
AcDbSun
  3
SCENEOE
 90
     1153
280
     0
281
     0
  0
CLASS
  1
ACDBPLACEHOLDER
  2
AcDbPlaceHolder
  3
ObjectDBX Classes
 90
        0
280
     0
281
     0
  0
CLASS
  1
LAYOUT
  2
AcDbLayout
  3
ObjectDBX Classes
 90
        0
280
     0
281
     0
  0
ENDSEC
  0
SECTION
  2
TABLES
  0
TABLE
  2
VPORT
  5
8
330
0
100
AcDbSymbolTable
 70
     1
  0
VPORT
  5
29
330
8
100
AcDbSymbolTableRecord
100
AcDbViewportTableRecord
  2
*Active
 70
     0
 10
0.0
 20
0.0
 11
1.0
 21
1.0
 12
6696.86800598
 22
4791.8957248185
 13
0.0
 23
0.0
 14
10.0
 24
10.0
 15
10.0
 25
10.0
 16
0.0
 26
0.0
 36
1.0
 17
0.0
 27
0.0
 37
0.0
 40
1253.9145115687
 41
1.1434690854
 42
50.0
 43
0.0
 44
0.0
 50
0.0
 51
0.0
 71
     0
 72
   100
 73
     1
 74
     3
 75
     0
 76
     0
 77
     0
 78
     0
281
     0
 65
     1
110
0.0
120
0.0
130
0.0
111
1.0
121
0.0
131
0.0
112
0.0
122
1.0
132
0.0
 79
     0
146
0.0
  0
ENDTAB
  0
TABLE
  2
LTYPE
  5
5
330
0
100
AcDbSymbolTable
 70
     6
  0
LTYPE
  5
14
330
5
100
AcDbSymbolTableRecord
100
AcDbLinetypeTableRecord
  2
ByBlock
 70
     0
  3

 72
    65
 73
     0
 40
0.0
  0
LTYPE
  5
15
330
5
100
AcDbSymbolTableRecord
100
AcDbLinetypeTableRecord
  2
ByLayer
 70
     0
  3

 72
    65
 73
     0
 40
0.0
  0
LTYPE
  5
16
330
5
100
AcDbSymbolTableRecord
100
AcDbLinetypeTableRecord
  2
Continuous
 70
     0
  3
Solid line
 72
    65
 73
     0
 40
0.0
  0
LTYPE
  5
6E
330
5
100
AcDbSymbolTableRecord
100
AcDbLinetypeTableRecord
  2
HIDDEN
 70
     0
  3
Hidden __ __ __ __ __ __ __ __ __ __ __ __ __ __
 72
    65
 73
     2
 40
1.905
 49
1.27
 74
     0
 49
-0.635
 74
     0
  0
LTYPE
  5
6F
330
5
100
AcDbSymbolTableRecord
100
AcDbLinetypeTableRecord
  2
PHANTOM
 70
     0
  3
Phantom ______  __  __  ______  __  __  ______
 72
    65
 73
     6
 40
12.7
 49
6.35
 74
     0
 49
-1.27
 74
     0
 49
1.27
 74
     0
 49
-1.27
 74
     0
 49
1.27
 74
     0
 49
-1.27
 74
     0
  0
LTYPE
  5
70
330
5
100
AcDbSymbolTableRecord
100
AcDbLinetypeTableRecord
  2
CENTER
 70
     0
  3
Center ____ _ ____ _ ____ _ ____ _ ____ _ ____
 72
    65
 73
     4
 40
10.16
 49
6.35
 74
     0
 49
-1.27
 74
     0
 49
1.27
 74
     0
 49
-1.27
 74
     0
  0
LTYPE
  5
71
330
5
100
AcDbSymbolTableRecord
100
AcDbLinetypeTableRecord
  2
CENTERX2
 70
     0
  3
Center (2x) ________  __  ________  __  _____
 72
    65
 73
     4
 40
20.32
 49
12.7
 74
     0
 49
-2.54
 74
     0
 49
2.54
 74
     0
 49
-2.54
 74
     0
  0
LTYPE
  5
72
330
5
100
AcDbSymbolTableRecord
100
AcDbLinetypeTableRecord
  2
DOT2
 70
     0
  3
Dot (.5x) ........................................
 72
    65
 73
     2
 40
0.635
 49
0.0
 74
     0
 49
-0.635
 74
     0
  0
ENDTAB
  0
TABLE
  2
LAYER
  5
2
330
0
100
AcDbSymbolTable
 70
     1
  0
LAYER
  5
10
330
2
100
AcDbSymbolTableRecord
100
AcDbLayerTableRecord
  2
0
 70
     0
 62
     7
  6
Continuous
370
    -3
390
F
  0
ENDTAB
  0
TABLE
  2
STYLE
  5
3
330
0
100
AcDbSymbolTable
 70
     1
  0
STYLE
  5
11
330
3
100
AcDbSymbolTableRecord
100
AcDbTextStyleTableRecord
  2
Standard
 70
     0
 40
0.0
 41
1.0
 50
0.0
 71
     0
 42
3.5
  3
txt
  4

  0
ENDTAB
  0
TABLE
  2
VIEW
  5
6
330
0
100
AcDbSymbolTable
 70
     0
  0
ENDTAB
  0
TABLE
  2
UCS
  5
7
330
0
100
AcDbSymbolTable
 70
     0
  0
ENDTAB
  0
TABLE
  2
APPID
  5
9
330
0
100
AcDbSymbolTable
 70
     1
  0
APPID
  5
12
330
9
100
AcDbSymbolTableRecord
100
AcDbRegAppTableRecord
  2
ACAD
 70
     0
  0
ENDTAB
  0
TABLE
  2
DIMSTYLE
  5
A
330
0
100
AcDbSymbolTable
 70
     1
100
AcDbDimStyleTable
  0
DIMSTYLE
105
27
330
A
100
AcDbSymbolTableRecord
100
AcDbDimStyleTableRecord
  2
ISO-25
 70
     0
 41
2.5
 42
0.625
 43
3.75
 44
1.25
 73
     0
 74
     0
 77
     1
 78
     8
140
2.5
141
2.5
143
0.0393700787
147
0.625
171
     3
172
     1
178
     0
271
     2
272
     2
274
     3
278
    44
283
     0
284
     8
340
11
  0
ENDTAB
  0
TABLE
  2
BLOCK_RECORD
  5
1
330
0
100
AcDbSymbolTable
 70
     1
  0
BLOCK_RECORD
  5
1F
330
1
100
AcDbSymbolTableRecord
100
AcDbBlockTableRecord
  2
*Model_Space
340
22
  0
BLOCK_RECORD
  5
1B
330
1
100
AcDbSymbolTableRecord
100
AcDbBlockTableRecord
  2
*Paper_Space
340
1E
  0
BLOCK_RECORD
  5
23
330
1
100
AcDbSymbolTableRecord
100
AcDbBlockTableRecord
  2
*Paper_Space0
340
26
  0
ENDTAB
  0
ENDSEC
  0
SECTION
  2
BLOCKS
  0
BLOCK
  5
20
330
1F
100
AcDbEntity
  8
0
100
AcDbBlockBegin
  2
*Model_Space
 70
     0
 10
0.0
 20
0.0
 30
0.0
  3
*Model_Space
  1

  0
ENDBLK
  5
21
330
1F
100
AcDbEntity
  8
0
100
AcDbBlockEnd
  0
BLOCK
  5
1C
330
1B
100
AcDbEntity
 67
     1
  8
0
100
AcDbBlockBegin
  2
*Paper_Space
 70
     0
 10
0.0
 20
0.0
 30
0.0
  3
*Paper_Space
  1

  0
ENDBLK
  5
1D
330
1B
100
AcDbEntity
 67
     1
  8
0
100
AcDbBlockEnd
  0
BLOCK
  5
24
330
23
100
AcDbEntity
  8
0
100
AcDbBlockBegin
  2
*Paper_Space0
 70
     0
 10
0.0
 20
0.0
 30
0.0
  3
*Paper_Space0
  1

  0
ENDBLK
  5
25
330
23
100
AcDbEntity
  8
0
100
AcDbBlockEnd
  0
ENDSEC
  0
SECTION
  2
ENTITIES
  0
ARC
  5
73
330
1F
100
AcDbEntity
  8
0
  6
Continuous
 62
     7
100
AcDbCircle
 10
6309.0187568262
 20
5250.1249888674
 30
0.0
 40
2.500000000000189
100
AcDbArc
 50
284.3939780655
 51
0.0001115361
  0
ARC
  5
74
330
1F
100
AcDbEntity
  8
0
  6
Continuous
 62
     7
100
AcDbCircle
 10
6239.018753846
 20
5250.1249888674
 30
0.0
 40
2.500000000000189
100
AcDbArc
 50
179.9998884639
 51
255.6060219345
  0
ARC
  5
75
330
1F
100
AcDbEntity
  8
0
  6
Continuous
 62
     7
100
AcDbCircle
 10
6015.5187519982
 20
5361.764246516
 30
0.0
 40
0.5000000000018257
100
AcDbArc
 50
179.9999906104
 51
269.9992623396
  0
ARC
  5
76
330
1F
100
AcDbEntity
  8
0
  6
Continuous
 62
     7
100
AcDbCircle
 10
6021.518751283
 20
5361.764246516
 30
0.0
 40
0.5000000000005115
100
AcDbArc
 50
270.0007376601
 51
0.0000093897
  0
ARC
  5
77
330
1F
100
AcDbEntity
  8
0
  6
Continuous
 62
     7
100
AcDbCircle
 10
6526.5187593892
 20
5361.764246516
 30
0.0
 40
0.5000000000018257
100
AcDbArc
 50
179.9999906104
 51
269.9992623396
  0
ARC
  5
78
330
1F
100
AcDbEntity
  8
0
  6
Continuous
 62
     7
100
AcDbCircle
 10
6532.518758674
 20
5361.764246516
 30
0.0
 40
0.5000000000009162
100
AcDbArc
 50
270.0007376603
 51
0.0000093897
  0
CIRCLE
  5
79
330
1F
100
AcDbEntity
  8
0
  6
Continuous
 62
     7
100
AcDbCircle
 10
6042.0187553361
 20
5273.5597012565
 30
0.0
 40
4.899999999999636
  0
CIRCLE
  5
7A
330
1F
100
AcDbEntity
  8
0
  6
Continuous
 62
     7
100
AcDbCircle
 10
6506.0187553361
 20
5351.5597012565
 30
0.0
 40
4.899999999999636
  0
CIRCLE
  5
7B
330
1F
100
AcDbEntity
  8
0
  6
Continuous
 62
     7
100
AcDbCircle
 10
6506.0187553361
 20
5273.5597012565
 30
0.0
 40
4.900000000000546
  0
CIRCLE
  5
7C
330
1F
100
AcDbEntity
  8
0
  6
Continuous
 62
     7
100
AcDbCircle
 10
6042.0187553361
 20
5351.5597012565
 30
0.0
 40
4.899999999999636
  0
ARC
  5
7D
330
1F
100
AcDbEntity
  8
0
  6
Continuous
 62
     7
100
AcDbCircle
 10
6249.0187544718
 20
5196.8515035436
 30
0.0
 40
3.00000000000004
100
AcDbArc
 50
180.0001684782
 51
270.000009393
  0
ARC
  5
7E
330
1F
100
AcDbEntity
  8
0
  6
Continuous
 62
     7
100
AcDbCircle
 10
6299.0187562004
 20
5196.8515035436
 30
0.0
 40
3.00000000000004
100
AcDbArc
 50
269.999990607
 51
359.9998315218
  0
ARC
  5
7F
330
1F
100
AcDbEntity
  8
0
  6
Continuous
 62
     7
100
AcDbCircle
 10
6249.6891032913
 20
5145.5514966771
 30
0.0
 40
3.000000000000152
100
AcDbArc
 50
90.0000184293
 51
173.3456535524
  0
ARC
  5
80
330
1F
100
AcDbEntity
  8
0
  6
Continuous
 62
     7
100
AcDbCircle
 10
6298.3484073809
 20
5145.5514966771
 30
0.0
 40
3.000000000000152
100
AcDbArc
 50
6.6543464476
 51
89.9999815707
  0
ARC
  5
81
330
1F
100
AcDbEntity
  8
0
  6
Continuous
 62
     7
100
AcDbCircle
 10
6249.8969289124
 20
5021.5514865443
 30
0.0
 40
3.000000000000636
100
AcDbArc
 50
185.8478511557
 51
269.9999626902
  0
ARC
  5
82
330
1F
100
AcDbEntity
  8
0
  6
Continuous
 62
     7
100
AcDbCircle
 10
6298.1405817598
 20
5021.5514865443
 30
0.0
 40
2.999999999999726
100
AcDbArc
 50
270.0000373097
 51
354.1521488443
  0
ARC
  5
83
330
1F
100
AcDbEntity
  8
0
  6
Continuous
 62
     7
100
AcDbCircle
 10
6254.0187552914
 20
5162.0514928624
 30
0.0
 40
3.00000000000004
100
AcDbArc
 50
89.999990609
 51
179.9998315218
  0
ARC
  5
84
330
1F
100
AcDbEntity
  8
0
  6
Continuous
 62
     7
100
AcDbCircle
 10
6294.0187553808
 20
5162.0514928624
 30
0.0
 40
2.999999999999327
100
AcDbArc
 50
0.0001684782
 51
90.000009391
  0
ARC
  5
85
330
1F
100
AcDbEntity
  8
0
  6
Continuous
 62
     7
100
AcDbCircle
 10
6239.2697085754
 20
5257.7949103409
 30
0.0
 40
2.000000000000616
100
AcDbArc
 50
210.000013043
 51
256.0000045638
  0
ARC
  5
86
330
1F
100
AcDbEntity
  8
0
  6
Continuous
 62
     7
100
AcDbCircle
 10
6308.7678020968
 20
5257.7949103409
 30
0.0
 40
2.000000000000098
100
AcDbArc
 50
283.9999954362
 51
329.9999869569
  0
CIRCLE
  5
87
330
1F
100
AcDbEntity
  8
0
  6
Continuous
 62
     7
100
AcDbCircle
 10
6042.0187553361
 20
5273.5597012565
 30
0.0
 40
3.902145562803526
  0
CIRCLE
  5
88
330
1F
100
AcDbEntity
  8
0
  6
Continuous
 62
     7
100
AcDbCircle
 10
6506.0187553361
 20
5351.5597012565
 30
0.0
 40
3.902145562802616
  0
CIRCLE
  5
89
330
1F
100
AcDbEntity
  8
0
  6
Continuous
 62
     7
100
AcDbCircle
 10
6506.0187553361
 20
5273.5597012565
 30
0.0
 40
3.902145562803526
  0
CIRCLE
  5
8A
330
1F
100
AcDbEntity
  8
0
  6
Continuous
 62
     7
100
AcDbCircle
 10
6042.0187553361
 20
5351.5597012565
 30
0.0
 40
3.902145562804435
  0
ARC
  5
8B
330
1F
100
AcDbEntity
  8
0
  6
Continuous
 62
     7
100
AcDbCircle
 10
6541.0187491372
 20
5370.9708566044
 30
0.0
 40
2.000000000000313
100
AcDbArc
 50
272.6030813698
 51
0.000020777
  0
ARC
  5
8C
330
1F
100
AcDbEntity
  8
0
  6
Continuous
 62
     7
100
AcDbCircle
 10
6541.0187491372
 20
5371.5597015001
 30
0.0
 40
1.999999999999602
100
AcDbArc
 50
359.9999972782
 51
89.9998224146
  0
ARC
  5
8D
330
1F
100
AcDbEntity
  8
0
  6
Continuous
 62
     7
100
AcDbCircle
 10
6515.5187590082
 20
5372.5597015001
 30
0.0
 40
1.000000000000147
100
AcDbArc
 50
89.9999167001
 51
180.0000027217
  0
ARC
  5
8E
330
1F
100
AcDbEntity
  8
0
  6
Continuous
 62
     7
100
AcDbCircle
 10
6515.5187590082
 20
5369.0597017721
 30
0.0
 40
1.000000000000913
100
AcDbArc
 50
180.0000044875
 51
213.4012241267
  0
ARC
  5
8F
330
1F
100
AcDbEntity
  8
0
  6
Continuous
 62
     7
100
AcDbCircle
 10
6520.0223624397
 20
5344.5064567498
 30
0.0
 40
0.9963933699713201
100
AcDbArc
 50
269.7929703765
 51
359.7921966119
  0
ARC
  5
90
330
1F
100
AcDbEntity
  8
0
  6
Continuous
 62
     7
100
AcDbCircle
 10
6515.5151543516
 20
5344.5064652856
 30
0.0
 40
0.9964019267517175
100
AcDbArc
 50
180.2082784341
 51
270.2073614628
  0
ARC
  5
91
330
1F
100
AcDbEntity
  8
0
  6
Continuous
 62
     7
100
AcDbCircle
 10
6522.0187522962
 20
5367.1041230008
 30
0.0
 40
0.999996960161347
100
AcDbArc
 50
92.6022135016
 51
179.9999841654
  0
ARC
  5
92
330
1F
100
AcDbEntity
  8
0
  6
Continuous
 62
     7
100
AcDbCircle
 10
6515.5114328535
 20
5266.6452198487
 30
0.0
 40
2.461691788739059
100
AcDbArc
 50
260.1198854883
 51
270.1705500537
  0
ARC
  5
93
330
1F
100
AcDbEntity
  8
0
  6
Continuous
 62
     7
100
AcDbCircle
 10
6520.0187492564
 20
5264.5597018524
 30
0.0
 40
1.000000000000235
100
AcDbArc
 50
270.0007376601
 51
0.0001161204
  0
CIRCLE
  5
94
330
1F
100
AcDbEntity
  8
0
  6
Continuous
 62
     7
100
AcDbCircle
 10
6506.0187553361
 20
5351.5597012565
 30
0.0
 40
5.5
  0
CIRCLE
  5
95
330
1F
100
AcDbEntity
  8
0
  6
Continuous
 62
     7
100
AcDbCircle
 10
6506.0187553361
 20
5273.5597012565
 30
0.0
 40
5.5
  0
ARC
  5
96
330
1F
100
AcDbEntity
  8
0
  6
Continuous
 62
     7
100
AcDbCircle
 10
6497.7806298465
 20
5273.5597038791
 30
0.0
 40
9.000000000000783
100
AcDbArc
 50
192.5288239068
 51
269.999980562
  0
ARC
  5
97
330
1F
100
AcDbEntity
  8
0
  6
Continuous
 62
     7
100
AcDbCircle
 10
6497.7806298465
 20
5273.5597038791
 30
0.0
 40
10.00000298182978
100
AcDbArc
 50
192.5288222872
 51
269.9999825058
  0
ARC
  5
98
330
1F
100
AcDbEntity
  8
0
  6
Continuous
 62
     7
100
AcDbCircle
 10
6007.018761535
 20
5370.9708566044
 30
0.0
 40
2.000000000001304
100
AcDbArc
 50
179.999979223
 51
267.3969186301
  0
ARC
  5
99
330
1F
100
AcDbEntity
  8
0
  6
Continuous
 62
     7
100
AcDbCircle
 10
6032.5187522367
 20
5369.0597026407
 30
0.0
 40
1.000000000000709
100
AcDbArc
 50
326.5987162624
 51
359.9999317904
  0
ARC
  5
9A
330
1F
100
AcDbEntity
  8
0
  6
Continuous
 62
     7
100
AcDbCircle
 10
6032.5187522367
 20
5372.5597012565
 30
0.0
 40
1.000000000001144
100
AcDbArc
 50
359.9999972784
 51
90.0001161157
  0
ARC
  5
9B
330
1F
100
AcDbEntity
  8
0
  6
Continuous
 62
     7
100
AcDbCircle
 10
6007.018761535
 20
5371.5597012565
 30
0.0
 40
1.999999999999602
100
AcDbArc
 50
90.0001775853
 51
180.0000027218
  0
ARC
  5
9C
330
1F
100
AcDbEntity
  8
0
  6
Continuous
 62
     7
100
AcDbCircle
 10
6028.0151482325
 20
5344.5064567498
 30
0.0
 40
0.9963933699726671
100
AcDbArc
 50
180.2078033882
 51
270.2070296234
  0
ARC
  5
9D
330
1F
100
AcDbEntity
  8
0
  6
Continuous
 62
     7
100
AcDbCircle
 10
6032.5223568942
 20
5344.5064652836
 30
0.0
 40
0.9964019267513492
100
AcDbArc
 50
269.7926055523
 51
359.791707678
  0
ARC
  5
9E
330
1F
100
AcDbEntity
  8
0
  6
Continuous
 62
     7
100
AcDbCircle
 10
6026.0187583759
 20
5367.1041230008
 30
0.0
 40
0.9999969601385917
100
AcDbArc
 50
0.0000158318
 51
87.3977864984
  0
ARC
  5
9F
330
1F
100
AcDbEntity
  8
0
  6
Continuous
 62
     7
100
AcDbCircle
 10
6032.5260778187
 20
5266.6452198487
 30
0.0
 40
2.461691788739059
100
AcDbArc
 50
269.8294499463
 51
279.8801145118
  0
ARC
  5
A0
330
1F
100
AcDbEntity
  8
0
  6
Continuous
 62
     7
100
AcDbCircle
 10
6028.0187614158
 20
5264.5597018524
 30
0.0
 40
1.000000000001933
100
AcDbArc
 50
179.9998838797
 51
269.9992623398
  0
CIRCLE
  5
A1
330
1F
100
AcDbEntity
  8
0
  6
Continuous
 62
     7
100
AcDbCircle
 10
6042.0187553361
 20
5351.5597012565
 30
0.0
 40
5.499999999999091
  0
CIRCLE
  5
A2
330
1F
100
AcDbEntity
  8
0
  6
Continuous
 62
     7
100
AcDbCircle
 10
6042.0187553361
 20
5273.5597012565
 30
0.0
 40
5.499999999999091
  0
ARC
  5
A3
330
1F
100
AcDbEntity
  8
0
  6
Continuous
 62
     7
100
AcDbCircle
 10
6050.2568808257
 20
5273.5597038791
 30
0.0
 40
9.000000000000783
100
AcDbArc
 50
270.000019438
 51
347.4711760932
  0
ARC
  5
A4
330
1F
100
AcDbEntity
  8
0
  6
Continuous
 62
     7
100
AcDbCircle
 10
6050.2568808257
 20
5273.5597038791
 30
0.0
 40
10.00000202660022
100
AcDbArc
 50
270.0000174942
 51
347.4711777128
  0
ARC
  5
A5
330
1F
100
AcDbEntity
  8
0
  6
Continuous
 62
     7
100
AcDbCircle
 10
5996.018754144
 20
5404.5597010777
 30
0.0
 40
2.000000000000027
100
AcDbArc
 50
89.9998838872
 51
180.0000093938
  0
ARC
  5
A6
330
1F
100
AcDbEntity
  8
0
  6
Continuous
 62
     7
100
AcDbCircle
 10
6552.0187565282
 20
5404.5597010777
 30
0.0
 40
2.000000000000936
100
AcDbArc
 50
359.9999906062
 51
90.0001161127
  0
ARC
  5
A7
330
1F
100
AcDbEntity
  8
0
  6
Continuous
 62
     7
100
AcDbCircle
 10
6515.5187604621
 20
5368.0597012863
 30
0.0
 40
2.00000348035661
100
AcDbArc
 50
179.9999930216
 51
239.999873252
  0
ARC
  5
A8
330
1F
100
AcDbEntity
  8
0
  6
Continuous
 62
     7
100
AcDbCircle
 10
6032.5187502101
 20
5368.0597012863
 30
0.0
 40
2.000004053100811
100
AcDbArc
 50
300.000126748
 51
0.0
  0
ARC
  5
A9
330
1F
100
AcDbEntity
  8
0
  6
Continuous
 62
     7
100
AcDbCircle
 10
7176.7172683557
 20
5250.1249888674
 30
0.0
 40
2.50000000000038
100
AcDbArc
 50
284.3939780631
 51
0.0001115355
  0
ARC
  5
AA
330
1F
100
AcDbEntity
  8
0
  6
Continuous
 62
     7
100
AcDbCircle
 10
7106.717272826
 20
5250.1249907796
 30
0.0
 40
2.499999999999927
100
AcDbArc
 50
179.999932287
 51
255.6061982234
  0
ARC
  5
AB
330
1F
100
AcDbEntity
  8
0
  6
Continuous
 62
     7
100
AcDbCircle
 10
7100.217271157
 20
5216.1908093021
 30
0.0
 40
0.5000000000006953
100
AcDbArc
 50
179.9990301199
 51
270.0001161237
  0
ARC
  5
AC
330
1F
100
AcDbEntity
  8
0
  6
Continuous
 62
     7
100
AcDbCircle
 10
7100.2172711571
 20
5244.1908084676
 30
0.0
 40
0.499999999999602
100
AcDbArc
 50
89.9998838796
 51
179.9992623399
  0
ARC
  5
AD
330
1F
100
AcDbEntity
  8
0
  6
Continuous
 62
     7
100
AcDbCircle
 10
7053.7172737797
 20
5361.764246516
 30
0.0
 40
0.5000000000010267
100
AcDbArc
 50
179.999990615
 51
270.0001161156
  0
ARC
  5
AE
330
1F
100
AcDbEntity
  8
0
  6
Continuous
 62
     7
100
AcDbCircle
 10
7059.7172730644
 20
5361.764246516
 30
0.0
 40
0.5000000000001172
100
AcDbArc
 50
269.9998838843
 51
0.0000093852
  0
ARC
  5
AF
330
1F
100
AcDbEntity
  8
0
  6
Continuous
 62
     7
100
AcDbCircle
 10
7163.7172806342
 20
5361.764246516
 30
0.0
 40
0.5000000000018257
100
AcDbArc
 50
179.9999906104
 51
269.9992623396
  0
ARC
  5
B0
330
1F
100
AcDbEntity
  8
0
  6
Continuous
 62
     7
100
AcDbCircle
 10
7169.717279919
 20
5361.7642465159
 30
0.0
 40
0.5000000000009162
100
AcDbArc
 50
269.9990301086
 51
0.0000093932
  0
ARC
  5
B1
330
1F
100
AcDbEntity
  8
0
  6
Continuous
 62
     7
100
AcDbCircle
 10
6988.2996606823
 20
5270.2420880995
 30
0.0
 40
1.582386843026377
100
AcDbArc
 50
289.3552919171
 51
338.3214319263
  0
ARC
  5
B2
330
1F
100
AcDbEntity
  8
0
  6
Continuous
 62
     7
100
AcDbCircle
 10
6979.9537823787
 20
5273.5597043584
 30
0.0
 40
10.563492693598
100
AcDbArc
 50
338.3214138204
 51
346.3096664342
  0
ARC
  5
B3
330
1F
100
AcDbEntity
  8
0
  6
Continuous
 62
     7
100
AcDbCircle
 10
7116.7172771771
 20
5196.8515035436
 30
0.0
 40
3.000000000000237
100
AcDbArc
 50
180.000168478
 51
269.9998315239
  0
ARC
  5
B4
330
1F
100
AcDbEntity
  8
0
  6
Continuous
 62
     7
100
AcDbCircle
 10
7166.7172714551
 20
5196.8515035436
 30
0.0
 40
3.000000000001146
100
AcDbArc
 50
270.000168478
 51
359.999831522
  0
ARC
  5
B5
330
1F
100
AcDbEntity
  8
0
  6
Continuous
 62
     7
100
AcDbCircle
 10
7166.0469319488
 20
5145.5514966771
 30
0.0
 40
3.000000000000096
100
AcDbArc
 50
6.6543464472
 51
90.0001950127
  0
ARC
  5
B6
330
1F
100
AcDbEntity
  8
0
  6
Continuous
 62
     7
100
AcDbCircle
 10
7117.5954516177
 20
5021.5514865443
 30
0.0
 40
2.999999999999716
100
AcDbArc
 50
185.8478511557
 51
270.0000338382
  0
ARC
  5
B7
330
1F
100
AcDbEntity
  8
0
  6
Continuous
 62
     7
100
AcDbCircle
 10
7165.8390970145
 20
5021.5514865443
 30
0.0
 40
3.000000000000714
100
AcDbArc
 50
269.9999661637
 51
354.1521488443
  0
ARC
  5
B8
330
1F
100
AcDbEntity
  8
0
  6
Continuous
 62
     7
100
AcDbCircle
 10
7084.7172719319
 20
5149.5514898822
 30
0.0
 40
3.000000000000313
100
AcDbArc
 50
90.000026182
 51
179.9998315218
  0
ARC
  5
B9
330
1F
100
AcDbEntity
  8
0
  6
Continuous
 62
     7
100
AcDbCircle
 10
7084.7172719319
 20
5103.5515037105
 30
0.0
 40
3.000000000000237
100
AcDbArc
 50
180.0001684782
 51
269.999973818
  0
ARC
  5
BA
330
1F
100
AcDbEntity
  8
0
  6
Continuous
 62
     7
100
AcDbCircle
 10
7121.7172724088
 20
5162.0514928624
 30
0.0
 40
3.000000000000237
100
AcDbArc
 50
89.999883888
 51
179.9998315219
  0
ARC
  5
BB
330
1F
100
AcDbEntity
  8
0
  6
Continuous
 62
     7
100
AcDbCircle
 10
7161.7172762235
 20
5162.0514928624
 30
0.0
 40
3.000000000000703
100
AcDbArc
 50
0.0001684781
 51
90.000116114
  0
ARC
  5
BC
330
1F
100
AcDbEntity
  8
0
  6
Continuous
 62
     7
100
AcDbCircle
 10
7368.7216686137
 20
5373.5982758052
 30
0.0
 40
5.000000000000513
100
AcDbArc
 50
181.4705023427
 51
182.8110054508
  0
ARC
  5
BD
330
1F
100
AcDbEntity
  8
0
  6
Continuous
 62
     7
100
AcDbCircle
 10
7106.968226929
 20
5257.7949114259
 30
0.0
 40
2.000000000001163
100
AcDbArc
 50
210.0000489347
 51
256.0001330481
  0
ARC
  5
BE
330
1F
100
AcDbEntity
  8
0
  6
Continuous
 62
     7
100
AcDbCircle
 10
7176.4663217032
 20
5257.7949114259
 30
0.0
 40
2.000000000000943
100
AcDbArc
 50
283.9998669519
 51
329.9999510653
  0
ARC
  5
BF
330
1F
100
AcDbEntity
  8
0
  6
Continuous
 62
     7
100
AcDbCircle
 10
6979.9546182216
 20
5273.5552413516
 30
0.0
 40
10.55081675085698
100
AcDbArc
 50
346.2940227383
 51
356.0521572546
  0
ARC
  5
C0
330
1F
100
AcDbEntity
  8
0
  6
Continuous
 62
     7
100
AcDbCircle
 10
6979.9547753375
 20
5273.5641461175
 30
0.0
 40
10.5506573608561
100
AcDbArc
 50
346.2939708349
 51
355.9936051678
  0
ARC
  5
C1
330
1F
100
AcDbEntity
  8
0
  6
Continuous
 62
     7
100
AcDbCircle
 10
7119.3485324565
 20
5145.6928227909
 30
0.0
 40
2.860458153463204
100
AcDbArc
 50
92.0238222336
 51
175.8639234682
  0
ARC
  5
C2
330
1F
100
AcDbEntity
  8
0
  6
Continuous
 62
     7
100
AcDbCircle
 10
7237.7172643025
 20
5371.5597012564
 30
0.0
 40
2.000000000000002
100
AcDbArc
 50
359.9999972778
 51
89.9997267908
  0
ARC
  5
C3
330
1F
100
AcDbEntity
  8
0
  6
Continuous
 62
     7
100
AcDbCircle
 10
7237.7183280938
 20
5370.3809567892
 30
0.0
 40
1.998945999958484
100
AcDbArc
 50
269.9693923789
 51
359.9710886378
  0
ARC
  5
C4
330
1F
100
AcDbEntity
  8
0
  6
Continuous
 62
     7
100
AcDbCircle
 10
6980.2172738393
 20
5373.0597012564
 30
0.0
 40
0.5000000000000006
100
AcDbArc
 50
89.9999972842
 51
180.0000027273
  0
ARC
  5
C5
330
1F
100
AcDbEntity
  8
0
  6
Continuous
 62
     7
100
AcDbCircle
 10
6980.2170165696
 20
5368.9044810473
 30
0.0
 40
0.4997427969838196
100
AcDbArc
 50
180.0295954149
 51
270.0294988257
  0
ARC
  5
C6
330
1F
100
AcDbEntity
  8
0
  6
Continuous
 62
     7
100
AcDbCircle
 10
6980.2170165696
 20
5368.6028345129
 30
0.0
 40
0.4997427969838196
100
AcDbArc
 50
180.0295954149
 51
270.0294988257
  0
ARC
  5
C7
330
1F
100
AcDbEntity
  8
0
  6
Continuous
 62
     7
100
AcDbCircle
 10
7227.7775016846
 20
5367.0597012564
 30
0.0
 40
1.000000000000697
100
AcDbArc
 50
90.0001967539
 51
96.8929888819
  0
ARC
  5
C8
330
1F
100
AcDbEntity
  8
0
  6
Continuous
 62
     7
100
AcDbCircle
 10
6980.2172738393
 20
5264.0597018525
 30
0.0
 40
0.5000000000010267
100
AcDbArc
 50
179.9998838845
 51
270.0000027158
  0
ARC
  5
C9
330
1F
100
AcDbEntity
  8
0
  6
Continuous
 62
     7
100
AcDbCircle
 10
7025.8172735237
 20
5333.7597024233
 30
0.0
 40
10.8213563766853
100
AcDbArc
 50
96.892881586
 51
157.9036157351
  0
ARC
  5
CA
330
1F
100
AcDbEntity
  8
0
  6
Continuous
 62
     7
100
AcDbCircle
 10
6986.0439871594
 20
5264.5597018525
 30
0.0
 40
0.9999999999995677
100
AcDbArc
 50
270.0000693584
 51
337.9037954245
  0
ARC
  5
CB
330
1F
100
AcDbEntity
  8
0
  6
Continuous
 62
     7
100
AcDbCircle
 10
7025.8172735237
 20
5333.7597024233
 30
0.0
 40
9.821353608884598
100
AcDbArc
 50
96.8928795433
 51
157.9036270987
  0
ARC
  5
CC
330
1F
100
AcDbEntity
  8
0
  6
Continuous
 62
     7
100
AcDbCircle
 10
6981.7172738393
 20
5404.5597010776
 30
0.0
 40
2.000000000000027
100
AcDbArc
 50
89.9999972785
 51
180.0000093936
  0
ARC
  5
CD
330
1F
100
AcDbEntity
  8
0
  6
Continuous
 62
     7
100
AcDbCircle
 10
7397.7172607263
 20
5404.5597010778
 30
0.0
 40
2.000000000000936
100
AcDbArc
 50
359.9999906016
 51
89.9992623397
  0
ARC
  5
CE
330
1F
100
AcDbEntity
  8
0
  6
Continuous
 62
     7
100
AcDbCircle
 10
6274.0187553361
 20
4435.2317382387
 30
0.0
 40
5.250000000000952
100
AcDbArc
 50
98.2132107018
 51
261.7867892982
  0
ARC
  5
CF
330
1F
100
AcDbEntity
  8
0
  6
Continuous
 62
     7
100
AcDbCircle
 10
6274.0187553361
 20
4435.2317382387
 30
0.0
 40
5.249999999999133
100
AcDbArc
 50
278.2132107016
 51
81.7867892984
  0
ARC
  5
D0
330
1F
100
AcDbEntity
  8
0
  6
Continuous
 62
     7
100
AcDbCircle
 10
6274.0187553361
 20
4435.2317382387
 30
0.0
 40
5.250000000000952
100
AcDbArc
 50
81.7867892984
 51
98.2132107018
  0
ARC
  5
D1
330
1F
100
AcDbEntity
  8
0
  6
Continuous
 62
     7
100
AcDbCircle
 10
6274.0187553361
 20
4435.2317382387
 30
0.0
 40
5.250000000000952
100
AcDbArc
 50
261.7867892982
 51
278.2132107016
  0
CIRCLE
  5
D2
330
1F
100
AcDbEntity
  8
0
  6
Continuous
 62
     7
100
AcDbCircle
 10
6274.0187553361
 20
4435.2317382387
 30
0.0
 40
24.49999999999363
  0
CIRCLE
  5
D3
330
1F
100
AcDbEntity
  8
0
  6
Continuous
 62
     7
100
AcDbCircle
 10
6274.0187553361
 20
4435.2317382387
 30
0.0
 40
34.99999999999363
  0
CIRCLE
  5
D4
330
1F
100
AcDbEntity
  8
0
  6
Continuous
 62
     7
100
AcDbCircle
 10
6274.0187553361
 20
4435.2317382387
 30
0.0
 40
22.49999999999363
  0
CIRCLE
  5
D5
330
1F
100
AcDbEntity
  8
0
  6
Continuous
 62
     7
100
AcDbCircle
 10
6274.0187553361
 20
4435.2317382387
 30
0.0
 40
21.49999999999363
  0
CIRCLE
  5
D6
330
1F
100
AcDbEntity
  8
0
  6
Continuous
 62
     7
100
AcDbCircle
 10
6274.0187553361
 20
4435.2317382387
 30
0.0
 40
19.55298992455573
  0
CIRCLE
  5
D7
330
1F
100
AcDbEntity
  8
0
  6
Continuous
 62
     7
100
AcDbCircle
 10
6274.0187553361
 20
4435.2317382387
 30
0.0
 40
6.182050807562518
  0
ARC
  5
D8
330
1F
100
AcDbEntity
  8
0
  6
Continuous
 62
     7
100
AcDbCircle
 10
6274.0187553361
 20
4435.2317382387
 30
0.0
 40
19.50000000008603
100
AcDbArc
 50
258.137318283
 51
284.2379281624
  0
ARC
  5
D9
330
1F
100
AcDbEntity
  8
0
  6
Continuous
 62
     7
100
AcDbCircle
 10
6277.8309660311
 20
4420.2078555974
 30
0.0
 40
4.000000000042178
100
AcDbArc
 50
284.2379281625
 51
104.2379281625
  0
ARC
  5
DA
330
1F
100
AcDbEntity
  8
0
  6
Continuous
 62
     7
100
AcDbCircle
 10
6274.0187553361
 20
4435.2317382387
 30
0.0
 40
11.50000000008311
100
AcDbArc
 50
258.137318283
 51
284.2379281623
  0
ARC
  5
DB
330
1F
100
AcDbEntity
  8
0
  6
Continuous
 62
     7
100
AcDbCircle
 10
6270.8324697428
 20
4420.0627704386
 30
0.0
 40
4.000000000001459
100
AcDbArc
 50
78.137318283
 51
258.137318283
  0
ARC
  5
DC
330
1F
100
AcDbEntity
  8
0
  6
Continuous
 62
     7
100
AcDbCircle
 10
6274.0187553361
 20
4435.2317382387
 30
0.0
 40
19.49999999998077
100
AcDbArc
 50
348.1373182829
 51
14.2379281622
  0
ARC
  5
DD
330
1F
100
AcDbEntity
  8
0
  6
Continuous
 62
     7
100
AcDbCircle
 10
6289.0426379773
 20
4439.0439489336
 30
0.0
 40
3.999999999981613
100
AcDbArc
 50
14.237928162
 51
194.237928162
  0
ARC
  5
DE
330
1F
100
AcDbEntity
  8
0
  6
Continuous
 62
     7
100
AcDbCircle
 10
6274.0187553361
 20
4435.2317382387
 30
0.0
 40
11.49999999999426
100
AcDbArc
 50
348.1373182829
 51
14.2379281623
  0
ARC
  5
DF
330
1F
100
AcDbEntity
  8
0
  6
Continuous
 62
     7
100
AcDbCircle
 10
6289.1877231361
 20
4432.0454526454
 30
0.0
 40
4.000000000002349
100
AcDbArc
 50
168.137318283
 51
348.137318283
  0
ARC
  5
E0
330
1F
100
AcDbEntity
  8
0
  6
Continuous
 62
     7
100
AcDbCircle
 10
6274.0187553361
 20
4435.2317382387
 30
0.0
 40
19.49999999998784
100
AcDbArc
 50
78.137318283
 51
104.2379281625
  0
ARC
  5
E1
330
1F
100
AcDbEntity
  8
0
  6
Continuous
 62
     7
100
AcDbCircle
 10
6270.2065446411
 20
4450.2556208799
 30
0.0
 40
3.999999999993693
100
AcDbArc
 50
104.2379281626
 51
284.2379281626
  0
ARC
  5
E2
330
1F
100
AcDbEntity
  8
0
  6
Continuous
 62
     7
100
AcDbCircle
 10
6274.0187553361
 20
4435.2317382387
 30
0.0
 40
11.50000000000133
100
AcDbArc
 50
78.1373182829
 51
104.2379281623
  0
ARC
  5
E3
330
1F
100
AcDbEntity
  8
0
  6
Continuous
 62
     7
100
AcDbCircle
 10
6277.2050409294
 20
4450.4007060387
 30
0.0
 40
4.000000000000569
100
AcDbArc
 50
258.137318283
 51
78.137318283
  0
ARC
  5
E4
330
1F
100
AcDbEntity
  8
0
  6
Continuous
 62
     7
100
AcDbCircle
 10
6274.0187553361
 20
4435.2317382387
 30
0.0
 40
19.49999999999465
100
AcDbArc
 50
168.1373182829
 51
194.2379281624
  0
ARC
  5
E5
330
1F
100
AcDbEntity
  8
0
  6
Continuous
 62
     7
100
AcDbCircle
 10
6258.9948726949
 20
4431.4195275437
 30
0.0
 40
3.999999999994797
100
AcDbArc
 50
194.2379281627
 51
14.2379281626
  0
ARC
  5
E6
330
1F
100
AcDbEntity
  8
0
  6
Continuous
 62
     7
100
AcDbCircle
 10
6274.0187553361
 20
4435.2317382387
 30
0.0
 40
11.50000000000616
100
AcDbArc
 50
168.1373182829
 51
194.2379281623
  0
ARC
  5
E7
330
1F
100
AcDbEntity
  8
0
  6
Continuous
 62
     7
100
AcDbCircle
 10
6258.8497875361
 20
4438.418023832
 30
0.0
 40
4.000000000000569
100
AcDbArc
 50
348.137318283
 51
168.137318283
  0
CIRCLE
  5
E8
330
1F
100
AcDbEntity
  8
0
  6
Continuous
 62
     7
100
AcDbCircle
 10
6274.0187553361
 20
4435.2317382387
 30
0.0
 40
5.682050807562518
  0
ARC
  5
E9
330
1F
100
AcDbEntity
  8
0
  6
Continuous
 62
     7
100
AcDbCircle
 10
6368.9393857165
 20
4387.5704179142
 30
0.0
 40
125.0218553534741
100
AcDbArc
 50
88.3959714304
 51
95.8068833546
  0
ARC
  5
EA
330
1F
100
AcDbEntity
  8
0
  6
Continuous
 62
     7
100
AcDbCircle
 10
6376.5277627383
 20
4414.416319765
 30
0.0
 40
97.10032954489559
100
AcDbArc
 50
84.3574876132
 51
92.1147940529
  0
ARC
  5
EB
330
1F
100
AcDbEntity
  8
0
  6
Continuous
 62
     7
100
AcDbCircle
 10
6370.3995092476
 20
4431.0272770292
 30
0.0
 40
80.46349803774925
100
AcDbArc
 50
88.187416481
 51
96.0177500356
  0
ARC
  5
EC
330
1F
100
AcDbEntity
  8
0
  6
Continuous
 62
     7
100
AcDbCircle
 10
6274.0187553361
 20
4435.2317382387
 30
0.0
 40
15.00000000000048
100
AcDbArc
 50
275.5808964726
 51
299.1928775621
  0
ARC
  5
ED
330
1F
100
AcDbEntity
  8
0
  6
Continuous
 62
     7
100
AcDbCircle
 10
6274.0187553361
 20
4435.2317382387
 30
0.0
 40
14.99999999999527
100
AcDbArc
 50
333.1823688839
 51
25.394099745
  0
ARC
  5
EE
330
1F
100
AcDbEntity
  8
0
  6
Continuous
 62
     7
100
AcDbCircle
 10
6274.0187553361
 20
4435.2317382387
 30
0.0
 40
15.00000000000239
100
AcDbArc
 50
63.1823688831
 51
119.1928775621
  0
ARC
  5
EF
330
1F
100
AcDbEntity
  8
0
  6
Continuous
 62
     7
100
AcDbCircle
 10
6274.0187553361
 20
4435.2317382387
 30
0.0
 40
15.00000000000609
100
AcDbArc
 50
154.6202837039
 51
209.1928775621
  0
ARC
  5
F0
330
1F
100
AcDbEntity
  8
0
  6
Continuous
 62
     7
100
AcDbCircle
 10
6274.0187553361
 20
4435.2317382387
 30
0.0
 40
15.00000000000341
100
AcDbArc
 50
243.1823688832
 51
265.395749354
  0
ARC
  5
F1
330
1F
100
AcDbEntity
  8
0
  6
Continuous
 62
     7
100
AcDbCircle
 10
6530.0187581478
 20
4596.7317394045
 30
0.0
 40
0.5000000000005116
100
AcDbArc
 50
359.9999972682
 51
89.9992623398
  0
ARC
  5
F2
330
1F
100
AcDbEntity
  8
0
  6
Continuous
 62
     7
100
AcDbCircle
 10
6018.0187467038
 20
4596.7317394045
 30
0.0
 40
0.5000000000005116
100
AcDbArc
 50
90.0007376602
 51
180.0000027318
  0
ARC
  5
F3
330
1F
100
AcDbEntity
  8
0
  6
Continuous
 62
     7
100
AcDbCircle
 10
6414.0187460866
 20
4470.2317520893
 30
0.0
 40
49.98082926726396
100
AcDbArc
 50
15.9292404834
 51
33.6506470019
  0
ARC
  5
F4
330
1F
100
AcDbEntity
  8
0
  6
Continuous
 62
     7
100
AcDbCircle
 10
6414.0187520873
 20
4470.2317412643
 30
0.0
 40
44.98387507319434
100
AcDbArc
 50
15.9292457644
 51
47.5990552313
  0
ARC
  5
F5
330
1F
100
AcDbEntity
  8
0
  6
Continuous
 62
     7
100
AcDbCircle
 10
6134.0187585849
 20
4470.2317412053
 30
0.0
 40
44.98387513216712
100
AcDbArc
 50
132.4009447689
 51
164.0707542356
  0
ARC
  5
F6
330
1F
100
AcDbEntity
  8
0
  6
Continuous
 62
     7
100
AcDbCircle
 10
6134.0187645299
 20
4470.23175205
 30
0.0
 40
49.98082926726358
100
AcDbArc
 50
146.3493529654
 51
164.0707595207
  0
ARC
  5
F7
330
1F
100
AcDbEntity
  8
0
  6
Continuous
 62
     7
100
AcDbCircle
 10
6514.0187495648
 20
4557.2317353513
 30
0.0
 40
38.00000000000183
100
AcDbArc
 50
0.0000014912
 51
90.0000037746
  0
ARC
  5
F8
330
1F
100
AcDbEntity
  8
0
  6
Continuous
 62
     7
100
AcDbCircle
 10
6514.0187495648
 20
4557.2317353513
 30
0.0
 40
40.00000405310313
100
AcDbArc
 50
0.0000014166
 51
90.0000035859
  0
ARC
  5
F9
330
1F
100
AcDbEntity
  8
0
  6
Continuous
 62
     7
100
AcDbCircle
 10
6034.0187552868
 20
4557.2317353513
 30
0.0
 40
38.00000000000092
100
AcDbArc
 50
89.9999962254
 51
179.9999985088
  0
ARC
  5
FA
330
1F
100
AcDbEntity
  8
0
  6
Continuous
 62
     7
100
AcDbCircle
 10
6034.0187552868
 20
4557.2317353513
 30
0.0
 40
40.00000405310222
100
AcDbArc
 50
89.9999964141
 51
179.9999985834
  0
ARC
  5
FB
330
1F
100
AcDbEntity
  8
0
  6
Continuous
 62
     7
100
AcDbCircle
 10
6100.0187578148
 20
4278.2317318298
 30
0.0
 40
69.98082926726413
100
AcDbArc
 50
164.0707444271
 51
270.0000020698
  0
ARC
  5
FC
330
1F
100
AcDbEntity
  8
0
  6
Continuous
 62
     7
100
AcDbCircle
 10
6448.0187528129
 20
4278.2317318298
 30
0.0
 40
69.98082926726445
100
AcDbArc
 50
269.9999979666
 51
15.9292556093
  0
ARC
  5
FD
330
1F
100
AcDbEntity
  8
0
  6
Continuous
 62
     7
100
AcDbCircle
 10
6528.0187385481
 20
4527.2317347533
 30
0.0
 40
20.0
100
AcDbArc
 50
277.1998386205
 51
0.0000011313
  0
ARC
  5
FE
330
1F
100
AcDbEntity
  8
0
  6
Continuous
 62
     7
100
AcDbCircle
 10
6514.0187495648
 20
4557.2317353513
 30
0.0
 40
33.99998898329797
100
AcDbArc
 50
0.0000016666
 51
89.9999993143
  0
ARC
  5
FF
330
1F
100
AcDbEntity
  8
0
  6
Continuous
 62
     7
100
AcDbCircle
 10
6034.0187552868
 20
4557.2317353513
 30
0.0
 40
33.99998898329726
100
AcDbArc
 50
89.999990877
 51
179.9999936279
  0
ARC
  5
100
330
1F
100
AcDbEntity
  8
0
  6
Continuous
 62
     7
100
AcDbCircle
 10
6020.0187663035
 20
4527.231735468
 30
0.0
 40
20.0000000000015
100
AcDbArc
 50
179.9999929168
 51
262.8001780719
  0
ARC
  5
101
330
1F
100
AcDbEntity
  8
0
  6
Continuous
 62
     7
100
AcDbCircle
 10
6454.0187495648
 20
4277.2317228101
 30
0.0
 40
98.00000000000108
100
AcDbArc
 50
270.0000058545
 51
0.0000115695
  0
ARC
  5
102
330
1F
100
AcDbEntity
  8
0
  6
Continuous
 62
     7
100
AcDbCircle
 10
6094.0187552868
 20
4277.2317228101
 30
0.0
 40
98.00000000000017
100
AcDbArc
 50
179.9999884305
 51
269.9999941455
  0
ARC
  5
103
330
1F
100
AcDbEntity
  8
0
  6
Continuous
 62
     7
100
AcDbCircle
 10
6514.0187495648
 20
4557.2317353513
 30
0.0
 40
26.85926313230086
100
AcDbArc
 50
0.0000021097
 51
89.999999132
  0
ARC
  5
104
330
1F
100
AcDbEntity
  8
0
  6
Continuous
 62
     7
100
AcDbCircle
 10
6034.0187552868
 20
4557.2317353513
 30
0.0
 40
26.85926313230111
100
AcDbArc
 50
89.9999884516
 51
179.9999919338
  0
ARC
  5
105
330
1F
100
AcDbEntity
  8
0
  6
Continuous
 62
     7
100
AcDbCircle
 10
6020.0187521208
 20
4527.2317359956
 30
0.0
 40
12.85925996628992
100
AcDbArc
 50
179.9999913339
 51
262.8001695446
  0
ARC
  5
106
330
1F
100
AcDbEntity
  8
0
  6
Continuous
 62
     7
100
AcDbCircle
 10
6528.0187527308
 20
4527.2317352808
 30
0.0
 40
12.85925996628764
100
AcDbArc
 50
277.1998564172
 51
359.9999994092
  0
ARC
  5
107
330
1F
100
AcDbEntity
  8
0
  6
Continuous
 62
     7
100
AcDbCircle
 10
6100.0187578148
 20
4278.2317318298
 30
0.0
 40
64.98387991744043
100
AcDbArc
 50
164.0707439241
 51
270.000002229
  0
ARC
  5
108
330
1F
100
AcDbEntity
  8
0
  6
Continuous
 62
     7
100
AcDbCircle
 10
6448.0187528129
 20
4278.2317318298
 30
0.0
 40
64.98387991744134
100
AcDbArc
 50
269.9999978102
 51
15.9292560759
  0
ARC
  5
109
330
1F
100
AcDbEntity
  8
0
  6
Continuous
 62
     7
100
AcDbCircle
 10
6454.0187536179
 20
4277.2317485593
 30
0.0
 40
100.0000000000002
100
AcDbArc
 50
270.0000034151
 51
359.9999965849
  0
ARC
  5
10A
330
1F
100
AcDbEntity
  8
0
  6
Continuous
 62
     7
100
AcDbCircle
 10
6094.0187512337
 20
4277.2317485593
 30
0.0
 40
100.0000000000011
100
AcDbArc
 50
180.0000034151
 51
269.9999965849
  0
ARC
  5
10B
330
1F
100
AcDbEntity
  8
0
  6
Continuous
 62
     7
100
AcDbCircle
 10
6134.0187585849
 20
4470.2317412053
 30
0.0
 40
44.89657271835784
100
AcDbArc
 50
90.0000049066
 51
126.0063954951
  0
ARC
  5
10C
330
1F
100
AcDbEntity
  8
0
  6
Continuous
 62
     7
100
AcDbCircle
 10
6134.0187585849
 20
4470.2317412053
 30
0.0
 40
44.00000598011889
100
AcDbArc
 50
90.0000050066
 51
164.0707555429
  0
ARC
  5
10D
330
1F
100
AcDbEntity
  8
0
  6
Continuous
 62
     7
100
AcDbCircle
 10
6414.0187520873
 20
4470.2317412643
 30
0.0
 40
44.00000592114446
100
AcDbArc
 50
15.9292444571
 51
89.9999949934
  0
ARC
  5
10E
330
1F
100
AcDbEntity
  8
0
  6
Continuous
 62
     7
100
AcDbCircle
 10
6414.0187520873
 20
4470.2317412643
 30
0.0
 40
44.89657265977092
100
AcDbArc
 50
53.9936045135
 51
89.9999950934
  0
ARC
  5
10F
330
1F
100
AcDbEntity
  8
0
  6
Continuous
 62
     7
100
AcDbCircle
 10
6448.0187476521
 20
4278.2317518285
 30
0.0
 40
63.99999999999915
100
AcDbArc
 50
270.0000023968
 51
15.9292533404
  0
ARC
  5
110
330
1F
100
AcDbEntity
  8
0
  6
Continuous
 62
     7
100
AcDbCircle
 10
6100.0187629756
 20
4278.2317518285
 30
0.0
 40
64.00000000000097
100
AcDbArc
 50
164.0707466596
 51
269.999997643
  0
ARC
  5
111
330
1F
100
AcDbEntity
  8
0
  6
Continuous
 62
     7
100
AcDbCircle
 10
6414.0187520873
 20
4470.2317412643
 30
0.0
 40
45.56340028154085
100
AcDbArc
 50
47.390680669
 51
89.9999951652
  0
ARC
  5
112
330
1F
100
AcDbEntity
  8
0
  6
Continuous
 62
     7
100
AcDbCircle
 10
6134.0187585849
 20
4470.2317412053
 30
0.0
 40
45.56340034051522
100
AcDbArc
 50
90.0000048348
 51
132.6093193309
  0
CIRCLE
  5
113
330
1F
100
AcDbEntity
  8
0
  6
Continuous
 62
     7
100
AcDbCircle
 10
6274.0187553361
 20
4435.2317382387
 30
0.0
 40
35.53625257337626
  0
CIRCLE
  5
114
330
1F
100
AcDbEntity
  8
0
  6
Continuous
 62
     7
100
AcDbCircle
 10
6274.0187553361
 20
4435.2317382387
 30
0.0
 40
36.92264973080455
  0
CIRCLE
  5
115
330
1F
100
AcDbEntity
  8
0
  6
Continuous
 62
     7
100
AcDbCircle
 10
6274.0187553361
 20
4435.2317382387
 30
0.0
 40
35.1439299124122
  0
ARC
  5
116
330
1F
100
AcDbEntity
  8
0
  6
Continuous
 62
     7
100
AcDbCircle
 10
6374.0187531009
 20
4755.4756019935
 30
0.0
 40
244.3609428422929
100
AcDbArc
 50
267.7967646627
 51
272.2032353373
  0
ELLIPSE
  5
117
330
1F
100
AcDbEntity
  8
0
  6
Continuous
 62
     7
100
AcDbEllipse
 10
6520.0187553361
 20
5367.0597012565
 30
0.0
 11
1.0
 21
0.0
 31
0.0
210
0.0
220
0.0
230
1.0
 40
0.9927722554
 41
1.034032311088705
 42
1.570796326794897
  0
ELLIPSE
  5
118
330
1F
100
AcDbEntity
  8
0
  6
Continuous
 62
     7
100
AcDbEllipse
 10
6520.0187553361
 20
5367.0132141862
 30
0.0
 11
0.7498671261655545
 21
0.7249764083671835
 31
0.0
210
0.0
220
0.0
230
1.0
 40
0.9125655047
 41
5.560250195884293
 42
6.594282506996531
  0
ELLIPSE
  5
119
330
1F
100
AcDbEntity
  8
0
  6
Continuous
 62
     7
100
AcDbEllipse
 10
6515.5187559088
 20
5268.6812520921
 30
0.0
 11
0.0
 21
4.940638124692668
 31
0.0
210
0.0
220
0.0
230
1.0
 40
0.2024030044
 41
1.570796326794897
 42
2.697412388999303
  0
ELLIPSE
  5
11A
330
1F
100
AcDbEntity
  8
0
  6
Continuous
 62
     7
100
AcDbEllipse
 10
6515.5187559088
 20
5268.6812520921
 30
0.0
 11
0.0
 21
-5.316805110324822
 31
0.0
210
0.0
220
0.0
230
1.0
 40
0.3761658348
 41
4.712388980384695
 42
5.599409748936271
  0
ELLIPSE
  5
11B
330
1F
100
AcDbEntity
  8
0
  6
Continuous
 62
     7
100
AcDbEllipse
 10
6028.0187553361
 20
5367.0597012565
 30
0.0
 11
0.9999999999990905
 21
0.0
 31
0.0
210
0.0
220
0.0
230
1.0
 40
0.9927722554
 41
1.570796326794897
 42
2.107560342502649
  0
ELLIPSE
  5
11C
330
1F
100
AcDbEntity
  8
0
  6
Continuous
 62
     7
100
AcDbEllipse
 10
6028.0187553361
 20
5367.0132141862
 30
0.0
 11
0.749867126164645
 21
-0.7249764083671834
 31
0.0
210
0.0
220
0.0
230
1.0
 40
0.9125655048
 41
2.830495453806845
 42
3.864527764885657
  0
ELLIPSE
  5
11D
330
1F
100
AcDbEntity
  8
0
  6
Continuous
 62
     7
100
AcDbEllipse
 10
6032.5187547634
 20
5268.6812520921
 30
0.0
 11
0.0
 21
4.940638124692668
 31
0.0
210
0.0
220
0.0
230
1.0
 40
0.2024030044
 41
3.58577291818034
 42
4.712388980384692
  0
ELLIPSE
  5
11E
330
1F
100
AcDbEntity
  8
0
  6
Continuous
 62
     7
100
AcDbEllipse
 10
6032.5187547634
 20
5268.6812520921
 30
0.0
 11
0.0
 21
-5.316805110324822
 31
0.0
210
0.0
220
0.0
230
1.0
 40
0.3761658348
 41
0.6837755582433395
 42
1.570796326794897
  0
ELLIPSE
  5
11F
330
1F
100
AcDbEntity
  8
0
  6
Continuous
 62
     7
100
AcDbEllipse
 10
6515.5187553361
 20
5343.5795160843
 30
0.0
 11
0.0
 21
2.014560730360245
 31
0.0
210
0.0
220
0.0
230
1.0
 40
0.9927722554
 41
0.5235987755976516
 42
1.570796326794897
  0
ELLIPSE
  5
120
330
1F
100
AcDbEntity
  8
0
  6
Continuous
 62
     7
100
AcDbEllipse
 10
6515.5187553361
 20
5340.0540348062
 30
0.0
 11
0.0
 21
-2.014560730360245
 31
0.0
210
0.0
220
0.0
230
1.0
 40
0.9927722554
 41
4.712388980384704
 42
5.759586531581723
  0
ELLIPSE
  5
121
330
1F
100
AcDbEntity
  8
0
  6
Continuous
 62
     7
100
AcDbEllipse
 10
6032.5187553361
 20
5343.5795160843
 30
0.0
 11
0.0
 21
2.014560730360245
 31
0.0
210
0.0
220
0.0
230
1.0
 40
0.9927722554
 41
4.712388980384704
 42
5.759586531581949
  0
ELLIPSE
  5
122
330
1F
100
AcDbEntity
  8
0
  6
Continuous
 62
     7
100
AcDbEllipse
 10
6032.5187553361
 20
5340.0540348062
 30
0.0
 11
0.0
 21
-2.014560730360245
 31
0.0
210
0.0
220
0.0
230
1.0
 40
0.9927722554
 41
0.5235987755978773
 42
1.570796326794897
  0
ELLIPSE
  5
123
330
1F
100
AcDbEntity
  8
0
  6
Continuous
 62
     7
100
AcDbEllipse
 10
7041.4908662921
 20
5371.0617663061
 30
0.0
 11
3.773165023902948
 21
0.1071921881793969
 31
0.0
210
0.0
220
0.0
230
1.0
 40
0.5298452093
 41
3.126541369552633
 42
3.133449507902413
  0
ELLIPSE
  5
124
330
1F
100
AcDbEntity
  8
0
  6
Continuous
 62
     7
100
AcDbEllipse
 10
7038.2908662921
 20
5370.9708572152
 30
0.0
 11
-0.02840312571242976
 21
1.999983422317201
 31
0.0
210
0.0
220
0.0
230
1.0
 40
0.2866981356
 41
1.566724753956421
 42
3.092097801324694
  0
ELLIPSE
  5
125
330
1F
100
AcDbEntity
  8
0
  6
Continuous
 62
     7
100
AcDbEllipse
 10
7018.2908662921
 20
5370.402675397
 30
0.0
 11
-0.02840312571424875
 21
1.99998342231811
 31
0.0
210
0.0
220
0.0
230
1.0
 40
0.2866981356
 41
1.566724753951149
 42
3.092097801321683
  0
ELLIPSE
  5
126
330
1F
100
AcDbEntity
  8
0
  6
Continuous
 62
     7
100
AcDbEllipse
 10
7021.4908662921
 20
5370.4935844879
 30
0.0
 11
3.773165023902039
 21
0.1071921881784874
 31
0.0
210
0.0
220
0.0
230
1.0
 40
0.5298452093
 41
3.126541369553551
 42
3.133449507898917
  0
ELLIPSE
  5
127
330
1F
100
AcDbEntity
  8
0
  6
Continuous
 62
     7
100
AcDbEllipse
 10
7038.2908662921
 20
5371.5597011614
 30
0.0
 11
0.0
 21
1.999999999999091
 31
0.0
210
0.0
220
0.0
230
1.0
 40
0.2867962264
 41
0.0
 42
1.570796326794897
  0
ELLIPSE
  5
128
330
1F
100
AcDbEntity
  8
0
  6
Continuous
 62
     7
100
AcDbEllipse
 10
7018.2908662921
 20
5371.5597011614
 30
0.0
 11
0.0
 21
1.999999999999091
 31
0.0
210
0.0
220
0.0
230
1.0
 40
0.2867962264
 41
0.0
 42
1.570796326794897
  0
ELLIPSE
  5
129
330
1F
100
AcDbEntity
  8
0
  6
Continuous
 62
     7
100
AcDbEllipse
 10
7224.7172738393
 20
5370.3799481242
 30
0.0
 11
15.0
 21
0.0
 31
0.0
210
0.0
220
0.0
230
1.0
 40
0.0393939394
 41
0.0
 42
1.570796326794897
  0
ELLIPSE
  5
12A
330
1F
100
AcDbEntity
  8
0
  6
Continuous
 62
     7
100
AcDbEllipse
 10
7224.7172738393
 20
5368.3820110433
 30
0.0
 11
13.0
 21
0.0
 31
0.0
210
0.0
220
0.0
230
1.0
 40
0.0454545455
 41
0.2664163458661521
 42
1.570796326794897
  0
ELLIPSE
  5
12B
330
1F
100
AcDbEntity
  8
0
  6
Continuous
 62
     7
100
AcDbEllipse
 10
7139.7172738393
 20
5368.4460648928
 30
0.0
 11
4.25
 21
0.0
 31
0.0
210
0.0
220
0.0
230
1.0
 40
0.0454545455
 41
1.570796326794897
 42
4.712388980384691
  0
ELLIPSE
  5
12C
330
1F
100
AcDbEntity
  8
0
  6
Continuous
 62
     7
100
AcDbEllipse
 10
7221.2172738393
 20
5368.4460648928
 30
0.0
 11
4.250000000000909
 21
0.0
 31
0.0
210
0.0
220
0.0
230
1.0
 40
0.0454545455
 41
4.712388980384691
 42
7.853981633974483
  0
ELLIPSE
  5
12D
330
1F
100
AcDbEntity
  8
0
  6
Continuous
 62
     7
100
AcDbEllipse
 10
7043.7172738393
 20
5368.4460648928
 30
0.0
 11
4.249999999999091
 21
0.0
 31
0.0
210
0.0
220
0.0
230
1.0
 40
0.0454545455
 41
1.570796326794897
 42
4.712388980384691
  0
ELLIPSE
  5
12E
330
1F
100
AcDbEntity
  8
0
  6
Continuous
 62
     7
100
AcDbEllipse
 10
7116.2172738393
 20
5368.4460648928
 30
0.0
 11
4.25
 21
0.0
 31
0.0
210
0.0
220
0.0
230
1.0
 40
0.0454545455
 41
4.712388980384691
 42
7.853981633974483
  0
ELLIPSE
  5
12F
330
1F
100
AcDbEntity
  8
0
  6
Continuous
 62
     7
100
AcDbEllipse
 10
7210.7281624733
 20
5368.0121827265
 30
0.0
 11
16.68174597245161
 21
0.004098315587725665
 31
0.0
210
0.0
220
0.0
230
1.0
 40
0.0054440743
 41
0.4922241866816671
 42
1.525699570813534
  0
ELLIPSE
  5
130
330
1F
100
AcDbEntity
  8
0
  6
Continuous
 62
     7
100
AcDbEllipse
 10
7210.7281624801
 20
5367.0132140628
 30
0.0
 11
16.56185510229443
 21
0.9958837193580621
 31
0.0
210
0.0
220
0.0
230
1.0
 40
0.0027516402
 41
0.4911764038635061
 42
1.525208781459778
  0
ELLIPSE
  5
131
330
1F
100
AcDbEntity
  8
0
  6
Continuous
 62
     7
100
AcDbEllipse
 10
7224.7172738393
 20
5368.3820110433
 30
0.0
 11
13.0
 21
0.0
 31
0.0
210
0.0
220
0.0
230
1.0
 40
0.0454545455
 41
0.0
 42
0.2664163458661521
  0
ELLIPSE
  5
132
330
1F
100
AcDbEntity
  8
0
  6
Continuous
 62
     7
100
AcDbEllipse
 10
6414.1588784336
 20
4469.1225180738
 30
0.0
 11
-5.730589065193271
 21
45.36356478401012
 31
0.0
210
0.0
220
0.0
230
1.0
 40
0.9997010104
 41
5.435966120706385
 42
5.545689598455309
  0
ELLIPSE
  5
133
330
1F
100
AcDbEntity
  8
0
  6
Continuous
 62
     7
100
AcDbEllipse
 10
6133.8786321987
 20
4469.1225180583
 30
0.0
 11
5.730589065193271
 21
45.36356478401012
 31
0.0
210
0.0
220
0.0
230
1.0
 40
0.9997010104
 41
0.7374957087242701
 42
0.8472191864731774
  0
ELLIPSE
  5
134
330
1F
100
AcDbEntity
  8
0
  6
Continuous
 62
     7
100
AcDbEllipse
 10
6414.0329625073
 20
4520.1252657002
 30
0.0
 11
7.328551620468715
 21
1.282982822116537
 31
0.0
210
0.0
220
0.0
230
1.0
 40
0.6594199301
 41
2.882093440294643
 42
3.929290991491579
  0
ELLIPSE
  5
135
330
1F
100
AcDbEntity
  8
0
  6
Continuous
 62
     7
100
AcDbEllipse
 10
6134.0045481649
 20
4520.1252657002
 30
0.0
 11
7.328551620468715
 21
-1.282982822116537
 31
0.0
210
0.0
220
0.0
230
1.0
 40
0.6594199301
 41
5.495486969278053
 42
6.542684520474736
  0
LINE
  5
136
330
1F
100
AcDbEntity
  8
0
  6
Continuous
 62
     7
100
AcDbLine
 10
6238.0187568858
 20
5254.7249896452
 30
0.0
 11
6238.0187568858
 21
5254.1249869392
 31
0.0
  0
LINE
  5
137
330
1F
100
AcDbEntity
  8
0
  6
Continuous
 62
     7
100
AcDbLine
 10
6310.0187537864
 20
5254.1249869392
 30
0.0
 11
6310.0187537864
 21
5254.7249896452
 31
0.0
  0
LINE
  5
138
330
1F
100
AcDbEntity
  8
0
  6
Continuous
 62
     7
100
AcDbLine
 10
6311.5187568262
 20
5250.1249937341
 30
0.0
 11
6311.5187568262
 21
5254.1249869392
 31
0.0
  0
LINE
  5
139
330
1F
100
AcDbEntity
  8
0
  6
Continuous
 62
     7
100
AcDbLine
 10
6236.518753846
 20
5254.1249869392
 30
0.0
 11
6236.518753846
 21
5250.1249937341
 31
0.0
  0
LINE
  5
13A
330
1F
100
AcDbEntity
  8
0
  6
Continuous
 62
     7
100
AcDbLine
 10
6238.397283633
 20
5247.7034656331
 30
0.0
 11
6247.0187546357
 21
5245.4908071086
 31
0.0
  0
LINE
  5
13B
330
1F
100
AcDbEntity
  8
0
  6
Continuous
 62
     7
100
AcDbLine
 10
6301.0187560365
 20
5245.4908071086
 30
0.0
 11
6309.6402270392
 21
5247.7034656331
 31
0.0
  0
LINE
  5
13C
330
1F
100
AcDbEntity
  8
0
  6
Continuous
 62
     7
100
AcDbLine
 10
6301.0187560365
 20
5235.4908166453
 30
0.0
 11
6301.0187560365
 21
5245.4908071086
 31
0.0
  0
LINE
  5
13D
330
1F
100
AcDbEntity
  8
0
  6
Continuous
 62
     7
100
AcDbLine
 10
6247.0187546357
 20
5245.4908071086
 30
0.0
 11
6247.0187546357
 21
5235.4908166453
 31
0.0
  0
LINE
  5
13E
330
1F
100
AcDbEntity
  8
0
  6
Continuous
 62
     7
100
AcDbLine
 10
6247.0187546357
 20
5235.4908166453
 30
0.0
 11
6251.0187552914
 21
5216.4908079431
 31
0.0
  0
LINE
  5
13F
330
1F
100
AcDbEntity
  8
0
  6
Continuous
 62
     7
100
AcDbLine
 10
6297.0187553808
 20
5216.4908079431
 30
0.0
 11
6301.0187560365
 21
5235.4908166453
 31
0.0
  0
LINE
  5
140
330
1F
100
AcDbEntity
  8
0
  6
Continuous
 62
     7
100
AcDbLine
 10
6297.0187553808
 20
5207.8515021131
 30
0.0
 11
6297.0187553808
 21
5216.4908079431
 31
0.0
  0
LINE
  5
141
330
1F
100
AcDbEntity
  8
0
  6
Continuous
 62
     7
100
AcDbLine
 10
6251.0187552914
 20
5216.4908079431
 30
0.0
 11
6251.0187552914
 21
5207.8515021131
 31
0.0
  0
LINE
  5
142
330
1F
100
AcDbEntity
  8
0
  6
Continuous
 62
     7
100
AcDbLine
 10
6022.018751283
 20
5361.7642465979
 30
0.0
 11
6022.018751283
 21
5365.2642471716
 31
0.0
  0
LINE
  5
143
330
1F
100
AcDbEntity
  8
0
  6
Continuous
 62
     7
100
AcDbLine
 10
6015.0187519982
 20
5365.2642471716
 30
0.0
 11
6015.0187519982
 21
5361.7642465979
 31
0.0
  0
LINE
  5
144
330
1F
100
AcDbEntity
  8
0
  6
Continuous
 62
     7
100
AcDbLine
 10
6533.018758674
 20
5361.7642465979
 30
0.0
 11
6533.018758674
 21
5365.2642471716
 31
0.0
  0
LINE
  5
145
330
1F
100
AcDbEntity
  8
0
  6
Continuous
 62
     7
100
AcDbLine
 10
6526.0187593892
 20
5365.2642471716
 30
0.0
 11
6526.0187593892
 21
5361.7642465979
 31
0.0
  0
LINE
  5
146
330
1F
100
AcDbEntity
  8
0
  6
Continuous
 62
     7
100
AcDbLine
 10
6244.0187560067
 20
5207.8515021131
 30
0.0
 11
6246.0187544718
 21
5203.8514940068
 31
0.0
  0
LINE
  5
147
330
1F
100
AcDbEntity
  8
0
  6
Continuous
 62
     7
100
AcDbLine
 10
6302.0187562004
 20
5203.8514940068
 30
0.0
 11
6304.0187546655
 21
5207.8515021131
 31
0.0
  0
LINE
  5
148
330
1F
100
AcDbEntity
  8
0
  6
Continuous
 62
     7
100
AcDbLine
 10
6246.0187544718
 20
5203.8514940068
 30
0.0
 11
6246.0187544718
 21
5196.8514947221
 31
0.0
  0
LINE
  5
149
330
1F
100
AcDbEntity
  8
0
  6
Continuous
 62
     7
100
AcDbLine
 10
6302.0187562004
 20
5196.8514947221
 30
0.0
 11
6302.0187562004
 21
5203.8514940068
 31
0.0
  0
LINE
  5
14A
330
1F
100
AcDbEntity
  8
0
  6
Continuous
 62
     7
100
AcDbLine
 10
6258.0187545761
 20
5193.8515035436
 30
0.0
 11
6258.0187545761
 21
5165.0514928624
 31
0.0
  0
LINE
  5
14B
330
1F
100
AcDbEntity
  8
0
  6
Continuous
 62
     7
100
AcDbLine
 10
6258.0187545761
 20
5151.0514942929
 30
0.0
 11
6258.0187545761
 21
5148.5514966771
 31
0.0
  0
LINE
  5
14C
330
1F
100
AcDbEntity
  8
0
  6
Continuous
 62
     7
100
AcDbLine
 10
6290.0187560961
 20
5148.5514966771
 30
0.0
 11
6290.0187560961
 21
5151.0514942929
 31
0.0
  0
LINE
  5
14D
330
1F
100
AcDbEntity
  8
0
  6
Continuous
 62
     7
100
AcDbLine
 10
6290.0187560961
 20
5165.0514928624
 30
0.0
 11
6290.0187560961
 21
5193.8515035436
 31
0.0
  0
LINE
  5
14E
330
1F
100
AcDbEntity
  8
0
  6
Continuous
 62
     7
100
AcDbLine
 10
6308.0187571838
 20
5088.5515091941
 30
0.0
 11
6301.3281972751
 21
5145.8991346881
 31
0.0
  0
LINE
  5
14F
330
1F
100
AcDbEntity
  8
0
  6
Continuous
 62
     7
100
AcDbLine
 10
6246.7093133971
 20
5145.8991346881
 30
0.0
 11
6240.0187534884
 21
5088.5515091941
 31
0.0
  0
LINE
  5
150
330
1F
100
AcDbEntity
  8
0
  6
Continuous
 62
     7
100
AcDbLine
 10
6240.0187534884
 20
5088.5515091941
 30
0.0
 11
6246.9125410214
 21
5021.2458251044
 31
0.0
  0
LINE
  5
151
330
1F
100
AcDbEntity
  8
0
  6
Continuous
 62
     7
100
AcDbLine
 10
6301.1249696508
 20
5021.2458251044
 30
0.0
 11
6308.0187571838
 21
5088.5515091941
 31
0.0
  0
LINE
  5
152
330
1F
100
AcDbEntity
  8
0
  6
Continuous
 62
     7
100
AcDbLine
 10
6299.0187557086
 20
5151.0514942929
 30
0.0
 11
6297.0187553808
 21
5155.0515023992
 31
0.0
  0
LINE
  5
153
330
1F
100
AcDbEntity
  8
0
  6
Continuous
 62
     7
100
AcDbLine
 10
6251.0187552914
 20
5155.0515023992
 30
0.0
 11
6249.0187549636
 21
5151.0514942929
 31
0.0
  0
LINE
  5
154
330
1F
100
AcDbEntity
  8
0
  6
Continuous
 62
     7
100
AcDbLine
 10
6251.0187552914
 20
5162.0515016839
 30
0.0
 11
6251.0187552914
 21
5155.0515023992
 31
0.0
  0
LINE
  5
155
330
1F
100
AcDbEntity
  8
0
  6
Continuous
 62
     7
100
AcDbLine
 10
6297.0187553808
 20
5155.0515023992
 30
0.0
 11
6297.0187553808
 21
5162.0515016839
 31
0.0
  0
LINE
  5
156
330
1F
100
AcDbEntity
  8
0
  6
Continuous
 62
     7
100
AcDbLine
 10
6258.0187545761
 20
5151.0514942929
 30
0.0
 11
6258.0187545761
 21
5148.5514966771
 31
0.0
  0
LINE
  5
157
330
1F
100
AcDbEntity
  8
0
  6
Continuous
 62
     7
100
AcDbLine
 10
6290.0187560961
 20
5148.5514966771
 30
0.0
 11
6290.0187560961
 21
5151.0514942929
 31
0.0
  0
LINE
  5
158
330
1F
100
AcDbEntity
  8
0
  6
Continuous
 62
     7
100
AcDbLine
 10
6514.0170065358
 20
5373.5097012577
 30
0.0
 11
6514.0187499717
 21
5373.55970151
 31
0.0
  0
LINE
  5
159
330
1F
100
AcDbEntity
  8
0
  6
Continuous
 62
     7
100
AcDbLine
 10
6034.0187607005
 20
5373.5597012565
 30
0.0
 11
6034.0226350024
 21
5373.4486020767
 31
0.0
  0
LINE
  5
15A
330
1F
100
AcDbEntity
  8
0
  6
Continuous
 62
     7
100
AcDbLine
 10
6236.4898865715
 20
5258.6097000167
 30
0.0
 11
6237.5376579955
 21
5256.7949099466
 31
0.0
  0
LINE
  5
15B
330
1F
100
AcDbEntity
  8
0
  6
Continuous
 62
     7
100
AcDbLine
 10
6310.4998526767
 20
5256.7949099466
 30
0.0
 11
6311.5476241007
 21
5258.6097000167
 31
0.0
  0
LINE
  5
15C
330
1F
100
AcDbEntity
  8
0
  6
Continuous
 62
     7
100
AcDbLine
 10
6238.7858649388
 20
5255.8543188498
 30
0.0
 11
6243.3153634563
 21
5254.7249896452
 31
0.0
  0
LINE
  5
15D
330
1F
100
AcDbEntity
  8
0
  6
Continuous
 62
     7
100
AcDbLine
 10
6304.7221472159
 20
5254.7249896452
 30
0.0
 11
6309.2516457334
 21
5255.8543188498
 31
0.0
  0
LINE
  5
15E
330
1F
100
AcDbEntity
  8
0
  6
Continuous
 62
     7
100
AcDbLine
 10
6274.0187553361
 20
5254.7249896452
 30
0.0
 11
6310.0187537864
 21
5254.7249896452
 31
0.0
  0
LINE
  5
15F
330
1F
100
AcDbEntity
  8
0
  6
Continuous
 62
     7
100
AcDbLine
 10
6238.0187568858
 20
5254.7249896452
 30
0.0
 11
6274.0187553361
 21
5254.7249896452
 31
0.0
  0
LINE
  5
160
330
1F
100
AcDbEntity
  8
0
  6
Continuous
 62
     7
100
AcDbLine
 10
6274.0187553361
 20
5254.1249869392
 30
0.0
 11
6236.518753846
 21
5254.1249869392
 31
0.0
  0
LINE
  5
161
330
1F
100
AcDbEntity
  8
0
  6
Continuous
 62
     7
100
AcDbLine
 10
6311.5187568262
 20
5254.1249869392
 30
0.0
 11
6274.0187553361
 21
5254.1249869392
 31
0.0
  0
LINE
  5
162
330
1F
100
AcDbEntity
  8
0
  6
Continuous
 62
     7
100
AcDbLine
 10
6274.0187553361
 20
5245.4908071086
 30
0.0
 11
6247.0187546357
 21
5245.4908071086
 31
0.0
  0
LINE
  5
163
330
1F
100
AcDbEntity
  8
0
  6
Continuous
 62
     7
100
AcDbLine
 10
6301.0187560365
 20
5245.4908071086
 30
0.0
 11
6274.0187553361
 21
5245.4908071086
 31
0.0
  0
LINE
  5
164
330
1F
100
AcDbEntity
  8
0
  6
Continuous
 62
     7
100
AcDbLine
 10
6301.0187560365
 20
5235.4908166453
 30
0.0
 11
6247.0187546357
 21
5235.4908166453
 31
0.0
  0
LINE
  5
165
330
1F
100
AcDbEntity
  8
0
  6
Continuous
 62
     7
100
AcDbLine
 10
6297.0187553808
 20
5216.4908079431
 30
0.0
 11
6251.0187552914
 21
5216.4908079431
 31
0.0
  0
LINE
  5
166
330
1F
100
AcDbEntity
  8
0
  6
Continuous
 62
     7
100
AcDbLine
 10
6021.5187577203
 20
5361.264246516
 30
0.0
 11
6015.5187455609
 21
5361.264246516
 31
0.0
  0
LINE
  5
167
330
1F
100
AcDbEntity
  8
0
  6
Continuous
 62
     7
100
AcDbLine
 10
6532.5187651113
 20
5361.264246516
 30
0.0
 11
6526.5187529519
 21
5361.264246516
 31
0.0
  0
LINE
  5
168
330
1F
100
AcDbEntity
  8
0
  6
Continuous
 62
     7
100
AcDbLine
 10
6536.5187434152
 20
5368.764246814
 30
0.0
 11
6536.5187434152
 21
5365.2642471716
 31
0.0
  0
LINE
  5
169
330
1F
100
AcDbEntity
  8
0
  6
Continuous
 62
     7
100
AcDbLine
 10
6522.5187597468
 20
5365.2642471716
 30
0.0
 11
6536.5187434152
 21
5365.2642471716
 31
0.0
  0
LINE
  5
16A
330
1F
100
AcDbEntity
  8
0
  6
Continuous
 62
     7
100
AcDbLine
 10
6522.5187597468
 20
5368.1278829463
 30
0.0
 11
6522.5187597468
 21
5365.2642471716
 31
0.0
  0
LINE
  5
16B
330
1F
100
AcDbEntity
  8
0
  6
Continuous
 62
     7
100
AcDbLine
 10
6011.518767257
 20
5368.764246814
 30
0.0
 11
6011.518767257
 21
5365.2642471716
 31
0.0
  0
LINE
  5
16C
330
1F
100
AcDbEntity
  8
0
  6
Continuous
 62
     7
100
AcDbLine
 10
6025.5187509254
 20
5368.1278829463
 30
0.0
 11
6025.5187509254
 21
5365.2642471716
 31
0.0
  0
LINE
  5
16D
330
1F
100
AcDbEntity
  8
0
  6
Continuous
 62
     7
100
AcDbLine
 10
6011.518767257
 20
5365.2642471716
 30
0.0
 11
6025.5187509254
 21
5365.2642471716
 31
0.0
  0
LINE
  5
16E
330
1F
100
AcDbEntity
  8
0
  6
Continuous
 62
     7
100
AcDbLine
 10
6042.4964038327
 20
5271.0553361103
 30
0.0
 11
6042.3714724973
 21
5271.0564536974
 31
0.0
  0
LINE
  5
16F
330
1F
100
AcDbEntity
  8
0
  6
Continuous
 62
     7
100
AcDbLine
 10
6042.3714724973
 20
5271.0564536974
 30
0.0
 11
6042.2464815572
 21
5271.0575638339
 31
0.0
  0
LINE
  5
170
330
1F
100
AcDbEntity
  8
0
  6
Continuous
 62
     7
100
AcDbLine
 10
6042.2464815572
 20
5271.0575638339
 30
0.0
 11
6042.1214608148
 21
5271.058681421
 31
0.0
  0
LINE
  5
171
330
1F
100
AcDbEntity
  8
0
  6
Continuous
 62
     7
100
AcDbLine
 10
6042.1214608148
 20
5271.058681421
 30
0.0
 11
6041.9964251712
 21
5271.0597990081
 31
0.0
  0
LINE
  5
172
330
1F
100
AcDbEntity
  8
0
  6
Continuous
 62
     7
100
AcDbLine
 10
6041.9964251712
 20
5271.0597990081
 30
0.0
 11
6041.8713746265
 21
5271.0609165952
 31
0.0
  0
LINE
  5
173
330
1F
100
AcDbEntity
  8
0
  6
Continuous
 62
     7
100
AcDbLine
 10
6041.8713746265
 20
5271.0609165952
 30
0.0
 11
6041.746353884
 21
5271.0620341823
 31
0.0
  0
LINE
  5
174
330
1F
100
AcDbEntity
  8
0
  6
Continuous
 62
     7
100
AcDbLine
 10
6041.746353884
 20
5271.0620341823
 30
0.0
 11
6041.6213778451
 21
5271.0631517694
 31
0.0
  0
LINE
  5
175
330
1F
100
AcDbEntity
  8
0
  6
Continuous
 62
     7
100
AcDbLine
 10
6041.6213778451
 20
5271.0631517694
 30
0.0
 11
6041.4964465097
 21
5271.0642693565
 31
0.0
  0
LINE
  5
176
330
1F
100
AcDbEntity
  8
0
  6
Continuous
 62
     7
100
AcDbLine
 10
6042.4964038327
 20
5271.0553361103
 30
0.0
 11
6042.4986092046
 21
5271.3017938659
 31
0.0
  0
LINE
  5
177
330
1F
100
AcDbEntity
  8
0
  6
Continuous
 62
     7
100
AcDbLine
 10
6042.4986092046
 20
5271.3017938659
 30
0.0
 11
6042.5008145764
 21
5271.5495480225
 31
0.0
  0
LINE
  5
178
330
1F
100
AcDbEntity
  8
0
  6
Continuous
 62
     7
100
AcDbLine
 10
6042.5008145764
 20
5271.5495480225
 30
0.0
 11
6042.5030348495
 21
5271.7984570191
 31
0.0
  0
LINE
  5
179
330
1F
100
AcDbEntity
  8
0
  6
Continuous
 62
     7
100
AcDbLine
 10
6042.5030348495
 20
5271.7984570191
 30
0.0
 11
6042.5052700236
 21
5272.048371844
 31
0.0
  0
LINE
  5
17A
330
1F
100
AcDbEntity
  8
0
  6
Continuous
 62
     7
100
AcDbLine
 10
6042.5052700236
 20
5272.048371844
 30
0.0
 11
6042.507520099
 21
5272.2991509363
 31
0.0
  0
LINE
  5
17B
330
1F
100
AcDbEntity
  8
0
  6
Continuous
 62
     7
100
AcDbLine
 10
6042.507520099
 20
5272.2991509363
 30
0.0
 11
6042.5097552732
 21
5272.5506601855
 31
0.0
  0
LINE
  5
17C
330
1F
100
AcDbEntity
  8
0
  6
Continuous
 62
     7
100
AcDbLine
 10
6042.5097552732
 20
5272.5506601855
 30
0.0
 11
6042.5120053485
 21
5272.8027431295
 31
0.0
  0
LINE
  5
17D
330
1F
100
AcDbEntity
  8
0
  6
Continuous
 62
     7
100
AcDbLine
 10
6042.5120053485
 20
5272.8027431295
 30
0.0
 11
6042.514270325
 21
5273.0552507565
 31
0.0
  0
LINE
  5
17E
330
1F
100
AcDbEntity
  8
0
  6
Continuous
 62
     7
100
AcDbLine
 10
6044.5141849711
 20
5273.0373842642
 30
0.0
 11
6044.5153025582
 21
5273.1623155996
 31
0.0
  0
LINE
  5
17F
330
1F
100
AcDbEntity
  8
0
  6
Continuous
 62
     7
100
AcDbLine
 10
6044.5153025582
 20
5273.1623155996
 30
0.0
 11
6044.5164201453
 21
5273.2872990892
 31
0.0
  0
LINE
  5
180
330
1F
100
AcDbEntity
  8
0
  6
Continuous
 62
     7
100
AcDbLine
 10
6044.5164201453
 20
5273.2872990892
 30
0.0
 11
6044.5175377324
 21
5273.4123272822
 31
0.0
  0
LINE
  5
181
330
1F
100
AcDbEntity
  8
0
  6
Continuous
 62
     7
100
AcDbLine
 10
6044.5175377324
 20
5273.4123272822
 30
0.0
 11
6044.5186553195
 21
5273.5373629257
 31
0.0
  0
LINE
  5
182
330
1F
100
AcDbEntity
  8
0
  6
Continuous
 62
     7
100
AcDbLine
 10
6044.5186553195
 20
5273.5373629257
 30
0.0
 11
6044.5197729066
 21
5273.6624060199
 31
0.0
  0
LINE
  5
183
330
1F
100
AcDbEntity
  8
0
  6
Continuous
 62
     7
100
AcDbLine
 10
6044.5197729066
 20
5273.6624060199
 30
0.0
 11
6044.5208904937
 21
5273.7874342129
 31
0.0
  0
LINE
  5
184
330
1F
100
AcDbEntity
  8
0
  6
Continuous
 62
     7
100
AcDbLine
 10
6044.5208904937
 20
5273.7874342129
 30
0.0
 11
6044.5220080808
 21
5273.9124177024
 31
0.0
  0
LINE
  5
185
330
1F
100
AcDbEntity
  8
0
  6
Continuous
 62
     7
100
AcDbLine
 10
6044.5220080808
 20
5273.9124177024
 30
0.0
 11
6044.5231256679
 21
5274.0373490378
 31
0.0
  0
LINE
  5
186
330
1F
100
AcDbEntity
  8
0
  6
Continuous
 62
     7
100
AcDbLine
 10
6044.5231256679
 20
5274.0373490378
 30
0.0
 11
6044.2766604617
 21
5274.0395469591
 31
0.0
  0
LINE
  5
187
330
1F
100
AcDbEntity
  8
0
  6
Continuous
 62
     7
100
AcDbLine
 10
6044.2766604617
 20
5274.0395469591
 30
0.0
 11
6044.0289137557
 21
5274.0417597816
 31
0.0
  0
LINE
  5
188
330
1F
100
AcDbEntity
  8
0
  6
Continuous
 62
     7
100
AcDbLine
 10
6044.0289137557
 20
5274.0417597816
 30
0.0
 11
6043.7800047591
 21
5274.0439875052
 31
0.0
  0
LINE
  5
189
330
1F
100
AcDbEntity
  8
0
  6
Continuous
 62
     7
100
AcDbLine
 10
6043.7800047591
 20
5274.0439875052
 30
0.0
 11
6043.5300824836
 21
5274.0462152288
 31
0.0
  0
LINE
  5
18A
330
1F
100
AcDbEntity
  8
0
  6
Continuous
 62
     7
100
AcDbLine
 10
6043.5300824836
 20
5274.0462152288
 30
0.0
 11
6043.2793108419
 21
5274.0484578535
 31
0.0
  0
LINE
  5
18B
330
1F
100
AcDbEntity
  8
0
  6
Continuous
 62
     7
100
AcDbLine
 10
6043.2793108419
 20
5274.0484578535
 30
0.0
 11
6043.0277941421
 21
5274.0507079289
 31
0.0
  0
LINE
  5
18C
330
1F
100
AcDbEntity
  8
0
  6
Continuous
 62
     7
100
AcDbLine
 10
6043.0277941421
 20
5274.0507079289
 30
0.0
 11
6042.7757111981
 21
5274.0529580042
 31
0.0
  0
LINE
  5
18D
330
1F
100
AcDbEntity
  8
0
  6
Continuous
 62
     7
100
AcDbLine
 10
6042.7757111981
 20
5274.0529580042
 30
0.0
 11
6042.5231961206
 21
5274.0552155301
 31
0.0
  0
LINE
  5
18E
330
1F
100
AcDbEntity
  8
0
  6
Continuous
 62
     7
100
AcDbLine
 10
6042.5410626128
 20
5276.0551376268
 30
0.0
 11
6042.4161461785
 21
5276.0562477634
 31
0.0
  0
LINE
  5
18F
330
1F
100
AcDbEntity
  8
0
  6
Continuous
 62
     7
100
AcDbLine
 10
6042.4161461785
 20
5276.0562477634
 30
0.0
 11
6042.2911552384
 21
5276.0573653504
 31
0.0
  0
LINE
  5
190
330
1F
100
AcDbEntity
  8
0
  6
Continuous
 62
     7
100
AcDbLine
 10
6042.2911552384
 20
5276.0573653504
 30
0.0
 11
6042.166134496
 21
5276.0584829375
 31
0.0
  0
LINE
  5
191
330
1F
100
AcDbEntity
  8
0
  6
Continuous
 62
     7
100
AcDbLine
 10
6042.166134496
 20
5276.0584829375
 30
0.0
 11
6042.0410839513
 21
5276.0596005246
 31
0.0
  0
LINE
  5
192
330
1F
100
AcDbEntity
  8
0
  6
Continuous
 62
     7
100
AcDbLine
 10
6042.0410839513
 20
5276.0596005246
 30
0.0
 11
6041.9160483077
 21
5276.0607181117
 31
0.0
  0
LINE
  5
193
330
1F
100
AcDbEntity
  8
0
  6
Continuous
 62
     7
100
AcDbLine
 10
6041.9160483077
 20
5276.0607181117
 30
0.0
 11
6041.7910275653
 21
5276.0618356988
 31
0.0
  0
LINE
  5
194
330
1F
100
AcDbEntity
  8
0
  6
Continuous
 62
     7
100
AcDbLine
 10
6041.7910275653
 20
5276.0618356988
 30
0.0
 11
6041.6660366252
 21
5276.0629532859
 31
0.0
  0
LINE
  5
195
330
1F
100
AcDbEntity
  8
0
  6
Continuous
 62
     7
100
AcDbLine
 10
6041.6660366252
 20
5276.0629532859
 30
0.0
 11
6041.5411052898
 21
5276.064070873
 31
0.0
  0
LINE
  5
196
330
1F
100
AcDbEntity
  8
0
  6
Continuous
 62
     7
100
AcDbLine
 10
6041.5232387975
 20
5274.0641487763
 30
0.0
 11
6041.525503774
 21
5274.3166638538
 31
0.0
  0
LINE
  5
197
330
1F
100
AcDbEntity
  8
0
  6
Continuous
 62
     7
100
AcDbLine
 10
6041.525503774
 20
5274.3166638538
 30
0.0
 11
6041.5277538493
 21
5274.5687467978
 31
0.0
  0
LINE
  5
198
330
1F
100
AcDbEntity
  8
0
  6
Continuous
 62
     7
100
AcDbLine
 10
6041.5277538493
 20
5274.5687467978
 30
0.0
 11
6041.5300039247
 21
5274.8202485964
 31
0.0
  0
LINE
  5
199
330
1F
100
AcDbEntity
  8
0
  6
Continuous
 62
     7
100
AcDbLine
 10
6041.5300039247
 20
5274.8202485964
 30
0.0
 11
6041.5322390988
 21
5275.0710351393
 31
0.0
  0
LINE
  5
19A
330
1F
100
AcDbEntity
  8
0
  6
Continuous
 62
     7
100
AcDbLine
 10
6041.5322390988
 20
5275.0710351393
 30
0.0
 11
6041.534474273
 21
5275.3209499642
 31
0.0
  0
LINE
  5
19B
330
1F
100
AcDbEntity
  8
0
  6
Continuous
 62
     7
100
AcDbLine
 10
6041.534474273
 20
5275.3209499642
 30
0.0
 11
6041.536694546
 21
5275.5698589608
 31
0.0
  0
LINE
  5
19C
330
1F
100
AcDbEntity
  8
0
  6
Continuous
 62
     7
100
AcDbLine
 10
6041.536694546
 20
5275.5698589608
 30
0.0
 11
6041.5389148191
 21
5275.8176131174
 31
0.0
  0
LINE
  5
19D
330
1F
100
AcDbEntity
  8
0
  6
Continuous
 62
     7
100
AcDbLine
 10
6041.5389148191
 20
5275.8176131174
 30
0.0
 11
6041.5411052898
 21
5276.064070873
 31
0.0
  0
LINE
  5
19E
330
1F
100
AcDbEntity
  8
0
  6
Continuous
 62
     7
100
AcDbLine
 10
6041.5232387975
 20
5274.0641487763
 30
0.0
 11
6041.2707237199
 21
5274.0664063022
 31
0.0
  0
LINE
  5
19F
330
1F
100
AcDbEntity
  8
0
  6
Continuous
 62
     7
100
AcDbLine
 10
6041.2707237199
 20
5274.0664063022
 30
0.0
 11
6041.018640776
 21
5274.0686563775
 31
0.0
  0
LINE
  5
1A0
330
1F
100
AcDbEntity
  8
0
  6
Continuous
 62
     7
100
AcDbLine
 10
6041.018640776
 20
5274.0686563775
 30
0.0
 11
6040.7671389773
 21
5274.0709064529
 31
0.0
  0
LINE
  5
1A1
330
1F
100
AcDbEntity
  8
0
  6
Continuous
 62
     7
100
AcDbLine
 10
6040.7671389773
 20
5274.0709064529
 30
0.0
 11
6040.5163524345
 21
5274.073141627
 31
0.0
  0
LINE
  5
1A2
330
1F
100
AcDbEntity
  8
0
  6
Continuous
 62
     7
100
AcDbLine
 10
6040.5163524345
 20
5274.073141627
 30
0.0
 11
6040.2664450601
 21
5274.0753768012
 31
0.0
  0
LINE
  5
1A3
330
1F
100
AcDbEntity
  8
0
  6
Continuous
 62
     7
100
AcDbLine
 10
6040.2664450601
 20
5274.0753768012
 30
0.0
 11
6040.0175360635
 21
5274.0775970742
 31
0.0
  0
LINE
  5
1A4
330
1F
100
AcDbEntity
  8
0
  6
Continuous
 62
     7
100
AcDbLine
 10
6040.0175360635
 20
5274.0775970742
 30
0.0
 11
6039.7697744563
 21
5274.0798173473
 31
0.0
  0
LINE
  5
1A5
330
1F
100
AcDbEntity
  8
0
  6
Continuous
 62
     7
100
AcDbLine
 10
6039.7697744563
 20
5274.0798173473
 30
0.0
 11
6039.5233241513
 21
5274.0820152685
 31
0.0
  0
LINE
  5
1A6
330
1F
100
AcDbEntity
  8
0
  6
Continuous
 62
     7
100
AcDbLine
 10
6039.5143834546
 20
5273.0820579455
 30
0.0
 11
6039.5155010417
 21
5273.2069892809
 31
0.0
  0
LINE
  5
1A7
330
1F
100
AcDbEntity
  8
0
  6
Continuous
 62
     7
100
AcDbLine
 10
6039.5155010417
 20
5273.2069892809
 30
0.0
 11
6039.5166186288
 21
5273.3319727704
 31
0.0
  0
LINE
  5
1A8
330
1F
100
AcDbEntity
  8
0
  6
Continuous
 62
     7
100
AcDbLine
 10
6039.5166186288
 20
5273.3319727704
 30
0.0
 11
6039.5177362159
 21
5273.4569935128
 31
0.0
  0
LINE
  5
1A9
330
1F
100
AcDbEntity
  8
0
  6
Continuous
 62
     7
100
AcDbLine
 10
6039.5177362159
 20
5273.4569935128
 30
0.0
 11
6039.518853803
 21
5273.582036607
 31
0.0
  0
LINE
  5
1AA
330
1F
100
AcDbEntity
  8
0
  6
Continuous
 62
     7
100
AcDbLine
 10
6039.518853803
 20
5273.582036607
 30
0.0
 11
6039.5199713901
 21
5273.7070797011
 31
0.0
  0
LINE
  5
1AB
330
1F
100
AcDbEntity
  8
0
  6
Continuous
 62
     7
100
AcDbLine
 10
6039.5199713901
 20
5273.7070797011
 30
0.0
 11
6039.5210889772
 21
5273.8321004436
 31
0.0
  0
LINE
  5
1AC
330
1F
100
AcDbEntity
  8
0
  6
Continuous
 62
     7
100
AcDbLine
 10
6039.5210889772
 20
5273.8321004436
 30
0.0
 11
6039.5222065642
 21
5273.9570839331
 31
0.0
  0
LINE
  5
1AD
330
1F
100
AcDbEntity
  8
0
  6
Continuous
 62
     7
100
AcDbLine
 10
6039.5222065642
 20
5273.9570839331
 30
0.0
 11
6039.5233241513
 21
5274.0820152685
 31
0.0
  0
LINE
  5
1AE
330
1F
100
AcDbEntity
  8
0
  6
Continuous
 62
     7
100
AcDbLine
 10
6041.4964465097
 20
5271.0642693565
 30
0.0
 11
6041.4986369803
 21
5271.310727112
 31
0.0
  0
LINE
  5
1AF
330
1F
100
AcDbEntity
  8
0
  6
Continuous
 62
     7
100
AcDbLine
 10
6041.4986369803
 20
5271.310727112
 30
0.0
 11
6041.5008572534
 21
5271.5584812686
 31
0.0
  0
LINE
  5
1B0
330
1F
100
AcDbEntity
  8
0
  6
Continuous
 62
     7
100
AcDbLine
 10
6041.5008572534
 20
5271.5584812686
 30
0.0
 11
6041.5030775264
 21
5271.8073902652
 31
0.0
  0
LINE
  5
1B1
330
1F
100
AcDbEntity
  8
0
  6
Continuous
 62
     7
100
AcDbLine
 10
6041.5030775264
 20
5271.8073902652
 30
0.0
 11
6041.5053127006
 21
5272.0573050902
 31
0.0
  0
LINE
  5
1B2
330
1F
100
AcDbEntity
  8
0
  6
Continuous
 62
     7
100
AcDbLine
 10
6041.5053127006
 20
5272.0573050902
 30
0.0
 11
6041.5075478747
 21
5272.3080841825
 31
0.0
  0
LINE
  5
1B3
330
1F
100
AcDbEntity
  8
0
  6
Continuous
 62
     7
100
AcDbLine
 10
6041.5075478747
 20
5272.3080841825
 30
0.0
 11
6041.5097979501
 21
5272.5595934317
 31
0.0
  0
LINE
  5
1B4
330
1F
100
AcDbEntity
  8
0
  6
Continuous
 62
     7
100
AcDbLine
 10
6041.5097979501
 20
5272.5595934317
 30
0.0
 11
6041.5120480254
 21
5272.8116763756
 31
0.0
  0
LINE
  5
1B5
330
1F
100
AcDbEntity
  8
0
  6
Continuous
 62
     7
100
AcDbLine
 10
6041.5120480254
 20
5272.8116763756
 30
0.0
 11
6041.5143130019
 21
5273.0641914532
 31
0.0
  0
LINE
  5
1B6
330
1F
100
AcDbEntity
  8
0
  6
Continuous
 62
     7
100
AcDbLine
 10
6042.5231961206
 20
5274.0552155301
 30
0.0
 11
6042.5254610971
 21
5274.3077306077
 31
0.0
  0
LINE
  5
1B7
330
1F
100
AcDbEntity
  8
0
  6
Continuous
 62
     7
100
AcDbLine
 10
6042.5254610971
 20
5274.3077306077
 30
0.0
 11
6042.5277111724
 21
5274.5598135516
 31
0.0
  0
LINE
  5
1B8
330
1F
100
AcDbEntity
  8
0
  6
Continuous
 62
     7
100
AcDbLine
 10
6042.5277111724
 20
5274.5598135516
 30
0.0
 11
6042.5299612477
 21
5274.8113153503
 31
0.0
  0
LINE
  5
1B9
330
1F
100
AcDbEntity
  8
0
  6
Continuous
 62
     7
100
AcDbLine
 10
6042.5299612477
 20
5274.8113153503
 30
0.0
 11
6042.5321964219
 21
5275.0621018931
 31
0.0
  0
LINE
  5
1BA
330
1F
100
AcDbEntity
  8
0
  6
Continuous
 62
     7
100
AcDbLine
 10
6042.5321964219
 20
5275.0621018931
 30
0.0
 11
6042.5344315961
 21
5275.3120167181
 31
0.0
  0
LINE
  5
1BB
330
1F
100
AcDbEntity
  8
0
  6
Continuous
 62
     7
100
AcDbLine
 10
6042.5344315961
 20
5275.3120167181
 30
0.0
 11
6042.5366518691
 21
5275.5609182641
 31
0.0
  0
LINE
  5
1BC
330
1F
100
AcDbEntity
  8
0
  6
Continuous
 62
     7
100
AcDbLine
 10
6042.5366518691
 20
5275.5609182641
 30
0.0
 11
6042.5388721421
 21
5275.8086724207
 31
0.0
  0
LINE
  5
1BD
330
1F
100
AcDbEntity
  8
0
  6
Continuous
 62
     7
100
AcDbLine
 10
6042.5388721421
 20
5275.8086724207
 30
0.0
 11
6042.5410626128
 21
5276.0551376268
 31
0.0
  0
LINE
  5
1BE
330
1F
100
AcDbEntity
  8
0
  6
Continuous
 62
     7
100
AcDbLine
 10
6041.5143130019
 20
5273.0641914532
 30
0.0
 11
6041.2617979243
 21
5273.0664415285
 31
0.0
  0
LINE
  5
1BF
330
1F
100
AcDbEntity
  8
0
  6
Continuous
 62
     7
100
AcDbLine
 10
6041.2617979243
 20
5273.0664415285
 30
0.0
 11
6041.0097149804
 21
5273.0686990544
 31
0.0
  0
LINE
  5
1C0
330
1F
100
AcDbEntity
  8
0
  6
Continuous
 62
     7
100
AcDbLine
 10
6041.0097149804
 20
5273.0686990544
 30
0.0
 11
6040.7582131818
 21
5273.0709416792
 31
0.0
  0
LINE
  5
1C1
330
1F
100
AcDbEntity
  8
0
  6
Continuous
 62
     7
100
AcDbLine
 10
6040.7582131818
 20
5273.0709416792
 30
0.0
 11
6040.5074266389
 21
5273.073184304
 31
0.0
  0
LINE
  5
1C2
330
1F
100
AcDbEntity
  8
0
  6
Continuous
 62
     7
100
AcDbLine
 10
6040.5074266389
 20
5273.073184304
 30
0.0
 11
6040.2575043634
 21
5273.0754194781
 31
0.0
  0
LINE
  5
1C3
330
1F
100
AcDbEntity
  8
0
  6
Continuous
 62
     7
100
AcDbLine
 10
6040.2575043634
 20
5273.0754194781
 30
0.0
 11
6040.0085953668
 21
5273.0776397512
 31
0.0
  0
LINE
  5
1C4
330
1F
100
AcDbEntity
  8
0
  6
Continuous
 62
     7
100
AcDbLine
 10
6040.0085953668
 20
5273.0776397512
 30
0.0
 11
6039.7608486608
 21
5273.0798525736
 31
0.0
  0
LINE
  5
1C5
330
1F
100
AcDbEntity
  8
0
  6
Continuous
 62
     7
100
AcDbLine
 10
6039.7608486608
 20
5273.0798525736
 30
0.0
 11
6039.5143834546
 21
5273.0820579455
 31
0.0
  0
LINE
  5
1C6
330
1F
100
AcDbEntity
  8
0
  6
Continuous
 62
     7
100
AcDbLine
 10
6044.5141849711
 20
5273.0373842642
 30
0.0
 11
6044.2677346662
 21
5273.0395896361
 31
0.0
  0
LINE
  5
1C7
330
1F
100
AcDbEntity
  8
0
  6
Continuous
 62
     7
100
AcDbLine
 10
6044.2677346662
 20
5273.0395896361
 30
0.0
 11
6044.019973059
 21
5273.0418024585
 31
0.0
  0
LINE
  5
1C8
330
1F
100
AcDbEntity
  8
0
  6
Continuous
 62
     7
100
AcDbLine
 10
6044.019973059
 20
5273.0418024585
 30
0.0
 11
6043.7710640624
 21
5273.0440227315
 31
0.0
  0
LINE
  5
1C9
330
1F
100
AcDbEntity
  8
0
  6
Continuous
 62
     7
100
AcDbLine
 10
6043.7710640624
 20
5273.0440227315
 30
0.0
 11
6043.521156688
 21
5273.0462579057
 31
0.0
  0
LINE
  5
1CA
330
1F
100
AcDbEntity
  8
0
  6
Continuous
 62
     7
100
AcDbLine
 10
6043.521156688
 20
5273.0462579057
 30
0.0
 11
6043.2703701451
 21
5273.0485005304
 31
0.0
  0
LINE
  5
1CB
330
1F
100
AcDbEntity
  8
0
  6
Continuous
 62
     7
100
AcDbLine
 10
6043.2703701451
 20
5273.0485005304
 30
0.0
 11
6043.0188683465
 21
5273.0507431552
 31
0.0
  0
LINE
  5
1CC
330
1F
100
AcDbEntity
  8
0
  6
Continuous
 62
     7
100
AcDbLine
 10
6043.0188683465
 20
5273.0507431552
 30
0.0
 11
6042.7667854026
 21
5273.0530006811
 31
0.0
  0
LINE
  5
1CD
330
1F
100
AcDbEntity
  8
0
  6
Continuous
 62
     7
100
AcDbLine
 10
6042.7667854026
 20
5273.0530006811
 30
0.0
 11
6042.514270325
 21
5273.0552507565
 31
0.0
  0
LINE
  5
1CE
330
1F
100
AcDbEntity
  8
0
  6
Continuous
 62
     7
100
AcDbLine
 10
6506.4964053824
 20
5349.0553339944
 30
0.0
 11
6506.371474047
 21
5349.0564497188
 31
0.0
  0
LINE
  5
1CF
330
1F
100
AcDbEntity
  8
0
  6
Continuous
 62
     7
100
AcDbLine
 10
6506.371474047
 20
5349.0564497188
 30
0.0
 11
6506.2464831069
 21
5349.0575673059
 31
0.0
  0
LINE
  5
1D0
330
1F
100
AcDbEntity
  8
0
  6
Continuous
 62
     7
100
AcDbLine
 10
6506.2464831069
 20
5349.0575673059
 30
0.0
 11
6506.1214623645
 21
5349.0586830303
 31
0.0
  0
LINE
  5
1D1
330
1F
100
AcDbEntity
  8
0
  6
Continuous
 62
     7
100
AcDbLine
 10
6506.1214623645
 20
5349.0586830303
 30
0.0
 11
6505.9964267209
 21
5349.0598006174
 31
0.0
  0
LINE
  5
1D2
330
1F
100
AcDbEntity
  8
0
  6
Continuous
 62
     7
100
AcDbLine
 10
6505.9964267209
 20
5349.0598006174
 30
0.0
 11
6505.8713761762
 21
5349.0609182045
 31
0.0
  0
LINE
  5
1D3
330
1F
100
AcDbEntity
  8
0
  6
Continuous
 62
     7
100
AcDbLine
 10
6505.8713761762
 20
5349.0609182045
 30
0.0
 11
6505.7463554338
 21
5349.0620357916
 31
0.0
  0
LINE
  5
1D4
330
1F
100
AcDbEntity
  8
0
  6
Continuous
 62
     7
100
AcDbLine
 10
6505.7463554338
 20
5349.0620357916
 30
0.0
 11
6505.6213644937
 21
5349.063151516
 31
0.0
  0
LINE
  5
1D5
330
1F
100
AcDbEntity
  8
0
  6
Continuous
 62
     7
100
AcDbLine
 10
6505.6213644937
 20
5349.063151516
 30
0.0
 11
6505.4964480594
 21
5349.0642672405
 31
0.0
  0
LINE
  5
1D6
330
1F
100
AcDbEntity
  8
0
  6
Continuous
 62
     7
100
AcDbLine
 10
6508.5141865209
 20
5351.0373858735
 30
0.0
 11
6508.2677362159
 21
5351.0395893827
 31
0.0
  0
LINE
  5
1D7
330
1F
100
AcDbEntity
  8
0
  6
Continuous
 62
     7
100
AcDbLine
 10
6508.2677362159
 20
5351.0395893827
 30
0.0
 11
6508.0199746087
 21
5351.0418022052
 31
0.0
  0
LINE
  5
1D8
330
1F
100
AcDbEntity
  8
0
  6
Continuous
 62
     7
100
AcDbLine
 10
6508.0199746087
 20
5351.0418022052
 30
0.0
 11
6507.7710656121
 21
5351.0440262035
 31
0.0
  0
LINE
  5
1D9
330
1F
100
AcDbEntity
  8
0
  6
Continuous
 62
     7
100
AcDbLine
 10
6507.7710656121
 20
5351.0440262035
 30
0.0
 11
6507.5211582377
 21
5351.0462576524
 31
0.0
  0
LINE
  5
1DA
330
1F
100
AcDbEntity
  8
0
  6
Continuous
 62
     7
100
AcDbLine
 10
6507.5211582377
 20
5351.0462576524
 30
0.0
 11
6507.2703716949
 21
5351.0484984145
 31
0.0
  0
LINE
  5
1DB
330
1F
100
AcDbEntity
  8
0
  6
Continuous
 62
     7
100
AcDbLine
 10
6507.2703716949
 20
5351.0484984145
 30
0.0
 11
6507.0188698962
 21
5351.0507466272
 31
0.0
  0
LINE
  5
1DC
330
1F
100
AcDbEntity
  8
0
  6
Continuous
 62
     7
100
AcDbLine
 10
6507.0188698962
 20
5351.0507466272
 30
0.0
 11
6506.7667869523
 21
5351.0529985652
 31
0.0
  0
LINE
  5
1DD
330
1F
100
AcDbEntity
  8
0
  6
Continuous
 62
     7
100
AcDbLine
 10
6506.7667869523
 20
5351.0529985652
 30
0.0
 11
6506.5142718747
 21
5351.0552542284
 31
0.0
  0
LINE
  5
1DE
330
1F
100
AcDbEntity
  8
0
  6
Continuous
 62
     7
100
AcDbLine
 10
6508.5141865209
 20
5351.0373858735
 30
0.0
 11
6508.515304108
 21
5351.162317209
 31
0.0
  0
LINE
  5
1DF
330
1F
100
AcDbEntity
  8
0
  6
Continuous
 62
     7
100
AcDbLine
 10
6508.515304108
 20
5351.162317209
 30
0.0
 11
6508.516421695
 21
5351.2873025611
 31
0.0
  0
LINE
  5
1E0
330
1F
100
AcDbEntity
  8
0
  6
Continuous
 62
     7
100
AcDbLine
 10
6508.516421695
 20
5351.2873025611
 30
0.0
 11
6508.5175392821
 21
5351.4123251662
 31
0.0
  0
LINE
  5
1E1
330
1F
100
AcDbEntity
  8
0
  6
Continuous
 62
     7
100
AcDbLine
 10
6508.5175392821
 20
5351.4123251662
 30
0.0
 11
6508.5186568692
 21
5351.5373663977
 31
0.0
  0
LINE
  5
1E2
330
1F
100
AcDbEntity
  8
0
  6
Continuous
 62
     7
100
AcDbLine
 10
6508.5186568692
 20
5351.5373663977
 30
0.0
 11
6508.5197744563
 21
5351.6624076292
 31
0.0
  0
LINE
  5
1E3
330
1F
100
AcDbEntity
  8
0
  6
Continuous
 62
     7
100
AcDbLine
 10
6508.5197744563
 20
5351.6624076292
 30
0.0
 11
6508.5208920434
 21
5351.7874302343
 31
0.0
  0
LINE
  5
1E4
330
1F
100
AcDbEntity
  8
0
  6
Continuous
 62
     7
100
AcDbLine
 10
6508.5208920434
 20
5351.7874302343
 30
0.0
 11
6508.5220096305
 21
5351.9124174491
 31
0.0
  0
LINE
  5
1E5
330
1F
100
AcDbEntity
  8
0
  6
Continuous
 62
     7
100
AcDbLine
 10
6508.5220096305
 20
5351.9124174491
 30
0.0
 11
6508.5231272176
 21
5352.0373469219
 31
0.0
  0
LINE
  5
1E6
330
1F
100
AcDbEntity
  8
0
  6
Continuous
 62
     7
100
AcDbLine
 10
6508.5231272176
 20
5352.0373469219
 30
0.0
 11
6508.2766620114
 21
5352.0395485685
 31
0.0
  0
LINE
  5
1E7
330
1F
100
AcDbEntity
  8
0
  6
Continuous
 62
     7
100
AcDbLine
 10
6508.2766620114
 20
5352.0395485685
 30
0.0
 11
6508.0289153054
 21
5352.0417613909
 31
0.0
  0
LINE
  5
1E8
330
1F
100
AcDbEntity
  8
0
  6
Continuous
 62
     7
100
AcDbLine
 10
6508.0289153054
 20
5352.0417613909
 30
0.0
 11
6507.7800063088
 21
5352.0439853892
 31
0.0
  0
LINE
  5
1E9
330
1F
100
AcDbEntity
  8
0
  6
Continuous
 62
     7
100
AcDbLine
 10
6507.7800063088
 20
5352.0439853892
 30
0.0
 11
6507.5300840333
 21
5352.0462187007
 31
0.0
  0
LINE
  5
1EA
330
1F
100
AcDbEntity
  8
0
  6
Continuous
 62
     7
100
AcDbLine
 10
6507.5300840333
 20
5352.0462187007
 30
0.0
 11
6507.2792974904
 21
5352.0484594628
 31
0.0
  0
LINE
  5
1EB
330
1F
100
AcDbEntity
  8
0
  6
Continuous
 62
     7
100
AcDbLine
 10
6507.2792974904
 20
5352.0484594628
 30
0.0
 11
6507.0277956918
 21
5352.0507058129
 31
0.0
  0
LINE
  5
1EC
330
1F
100
AcDbEntity
  8
0
  6
Continuous
 62
     7
100
AcDbLine
 10
6507.0277956918
 20
5352.0507058129
 30
0.0
 11
6506.7757127479
 21
5352.0529577509
 31
0.0
  0
LINE
  5
1ED
330
1F
100
AcDbEntity
  8
0
  6
Continuous
 62
     7
100
AcDbLine
 10
6506.7757127479
 20
5352.0529577509
 30
0.0
 11
6506.5231976703
 21
5352.0552152768
 31
0.0
  0
LINE
  5
1EE
330
1F
100
AcDbEntity
  8
0
  6
Continuous
 62
     7
100
AcDbLine
 10
6506.5231976703
 20
5352.0552152768
 30
0.0
 11
6506.5254626468
 21
5352.3077284917
 31
0.0
  0
LINE
  5
1EF
330
1F
100
AcDbEntity
  8
0
  6
Continuous
 62
     7
100
AcDbLine
 10
6506.5254626468
 20
5352.3077284917
 30
0.0
 11
6506.5277127221
 21
5352.5598114357
 31
0.0
  0
LINE
  5
1F0
330
1F
100
AcDbEntity
  8
0
  6
Continuous
 62
     7
100
AcDbLine
 10
6506.5277127221
 20
5352.5598114357
 30
0.0
 11
6506.5299627975
 21
5352.8113150969
 31
0.0
  0
LINE
  5
1F1
330
1F
100
AcDbEntity
  8
0
  6
Continuous
 62
     7
100
AcDbLine
 10
6506.5299627975
 20
5352.8113150969
 30
0.0
 11
6506.5321979716
 21
5353.0620979145
 31
0.0
  0
LINE
  5
1F2
330
1F
100
AcDbEntity
  8
0
  6
Continuous
 62
     7
100
AcDbLine
 10
6506.5321979716
 20
5353.0620979145
 30
0.0
 11
6506.5344331458
 21
5353.3120146021
 31
0.0
  0
LINE
  5
1F3
330
1F
100
AcDbEntity
  8
0
  6
Continuous
 62
     7
100
AcDbLine
 10
6506.5344331458
 20
5353.3120146021
 30
0.0
 11
6506.5366534188
 21
5353.5609217361
 31
0.0
  0
LINE
  5
1F4
330
1F
100
AcDbEntity
  8
0
  6
Continuous
 62
     7
100
AcDbLine
 10
6506.5366534188
 20
5353.5609217361
 30
0.0
 11
6506.5388736919
 21
5353.8086758927
 31
0.0
  0
LINE
  5
1F5
330
1F
100
AcDbEntity
  8
0
  6
Continuous
 62
     7
100
AcDbLine
 10
6506.5388736919
 20
5353.8086758927
 30
0.0
 11
6506.5410641625
 21
5354.0551336482
 31
0.0
  0
LINE
  5
1F6
330
1F
100
AcDbEntity
  8
0
  6
Continuous
 62
     7
100
AcDbLine
 10
6506.5410641625
 20
5354.0551336482
 30
0.0
 11
6506.4161328271
 21
5354.0562512353
 31
0.0
  0
LINE
  5
1F7
330
1F
100
AcDbEntity
  8
0
  6
Continuous
 62
     7
100
AcDbLine
 10
6506.4161328271
 20
5354.0562512353
 30
0.0
 11
6506.2911567882
 21
5354.0573669598
 31
0.0
  0
LINE
  5
1F8
330
1F
100
AcDbEntity
  8
0
  6
Continuous
 62
     7
100
AcDbLine
 10
6506.2911567882
 20
5354.0573669598
 30
0.0
 11
6506.1661360457
 21
5354.0584845469
 31
0.0
  0
LINE
  5
1F9
330
1F
100
AcDbEntity
  8
0
  6
Continuous
 62
     7
100
AcDbLine
 10
6506.1661360457
 20
5354.0584845469
 30
0.0
 11
6506.041085501
 21
5354.059602134
 31
0.0
  0
LINE
  5
1FA
330
1F
100
AcDbEntity
  8
0
  6
Continuous
 62
     7
100
AcDbLine
 10
6506.041085501
 20
5354.059602134
 30
0.0
 11
6505.9160498574
 21
5354.0607178584
 31
0.0
  0
LINE
  5
1FB
330
1F
100
AcDbEntity
  8
0
  6
Continuous
 62
     7
100
AcDbLine
 10
6505.9160498574
 20
5354.0607178584
 30
0.0
 11
6505.791029115
 21
5354.0618354455
 31
0.0
  0
LINE
  5
1FC
330
1F
100
AcDbEntity
  8
0
  6
Continuous
 62
     7
100
AcDbLine
 10
6505.791029115
 20
5354.0618354455
 30
0.0
 11
6505.6660381749
 21
5354.0629530326
 31
0.0
  0
LINE
  5
1FD
330
1F
100
AcDbEntity
  8
0
  6
Continuous
 62
     7
100
AcDbLine
 10
6505.6660381749
 20
5354.0629530326
 30
0.0
 11
6505.5411068395
 21
5354.064068757
 31
0.0
  0
LINE
  5
1FE
330
1F
100
AcDbEntity
  8
0
  6
Continuous
 62
     7
100
AcDbLine
 10
6505.5232403472
 20
5352.0641485229
 30
0.0
 11
6505.2707252696
 21
5352.0664041862
 31
0.0
  0
LINE
  5
1FF
330
1F
100
AcDbEntity
  8
0
  6
Continuous
 62
     7
100
AcDbLine
 10
6505.2707252696
 20
5352.0664041862
 30
0.0
 11
6505.0186423257
 21
5352.0686561242
 31
0.0
  0
LINE
  5
200
330
1F
100
AcDbEntity
  8
0
  6
Continuous
 62
     7
100
AcDbLine
 10
6505.0186423257
 20
5352.0686561242
 30
0.0
 11
6504.7671405271
 21
5352.0709043369
 31
0.0
  0
LINE
  5
201
330
1F
100
AcDbEntity
  8
0
  6
Continuous
 62
     7
100
AcDbLine
 10
6504.7671405271
 20
5352.0709043369
 30
0.0
 11
6504.5163539842
 21
5352.0731432364
 31
0.0
  0
LINE
  5
202
330
1F
100
AcDbEntity
  8
0
  6
Continuous
 62
     7
100
AcDbLine
 10
6504.5163539842
 20
5352.0731432364
 30
0.0
 11
6504.2664466098
 21
5352.0753765479
 31
0.0
  0
LINE
  5
203
330
1F
100
AcDbEntity
  8
0
  6
Continuous
 62
     7
100
AcDbLine
 10
6504.2664466098
 20
5352.0753765479
 30
0.0
 11
6504.0175376132
 21
5352.0776005462
 31
0.0
  0
LINE
  5
204
330
1F
100
AcDbEntity
  8
0
  6
Continuous
 62
     7
100
AcDbLine
 10
6504.0175376132
 20
5352.0776005462
 30
0.0
 11
6503.769776006
 21
5352.0798133686
 31
0.0
  0
LINE
  5
205
330
1F
100
AcDbEntity
  8
0
  6
Continuous
 62
     7
100
AcDbLine
 10
6503.769776006
 20
5352.0798133686
 30
0.0
 11
6503.5233257011
 21
5352.0820168779
 31
0.0
  0
LINE
  5
206
330
1F
100
AcDbEntity
  8
0
  6
Continuous
 62
     7
100
AcDbLine
 10
6503.5143850043
 20
5351.0820558295
 30
0.0
 11
6503.5155025914
 21
5351.2069853023
 31
0.0
  0
LINE
  5
207
330
1F
100
AcDbEntity
  8
0
  6
Continuous
 62
     7
100
AcDbLine
 10
6503.5155025914
 20
5351.2069853023
 30
0.0
 11
6503.5166201785
 21
5351.3319725171
 31
0.0
  0
LINE
  5
208
330
1F
100
AcDbEntity
  8
0
  6
Continuous
 62
     7
100
AcDbLine
 10
6503.5166201785
 20
5351.3319725171
 30
0.0
 11
6503.5177377656
 21
5351.4569951222
 31
0.0
  0
LINE
  5
209
330
1F
100
AcDbEntity
  8
0
  6
Continuous
 62
     7
100
AcDbLine
 10
6503.5177377656
 20
5351.4569951222
 30
0.0
 11
6503.5188553527
 21
5351.5820363537
 31
0.0
  0
LINE
  5
20A
330
1F
100
AcDbEntity
  8
0
  6
Continuous
 62
     7
100
AcDbLine
 10
6503.5188553527
 20
5351.5820363537
 30
0.0
 11
6503.5199729398
 21
5351.7070775852
 31
0.0
  0
LINE
  5
20B
330
1F
100
AcDbEntity
  8
0
  6
Continuous
 62
     7
100
AcDbLine
 10
6503.5199729398
 20
5351.7070775852
 30
0.0
 11
6503.5210905269
 21
5351.8321001902
 31
0.0
  0
LINE
  5
20C
330
1F
100
AcDbEntity
  8
0
  6
Continuous
 62
     7
100
AcDbLine
 10
6503.5210905269
 20
5351.8321001902
 30
0.0
 11
6503.522208114
 21
5351.9570855424
 31
0.0
  0
LINE
  5
20D
330
1F
100
AcDbEntity
  8
0
  6
Continuous
 62
     7
100
AcDbLine
 10
6503.522208114
 20
5351.9570855424
 30
0.0
 11
6503.5233257011
 21
5352.0820168779
 31
0.0
  0
LINE
  5
20E
330
1F
100
AcDbEntity
  8
0
  6
Continuous
 62
     7
100
AcDbLine
 10
6505.5232403472
 20
5352.0641485229
 30
0.0
 11
6505.5255053237
 21
5352.3166636005
 31
0.0
  0
LINE
  5
20F
330
1F
100
AcDbEntity
  8
0
  6
Continuous
 62
     7
100
AcDbLine
 10
6505.5255053237
 20
5352.3166636005
 30
0.0
 11
6505.527755399
 21
5352.5687446818
 31
0.0
  0
LINE
  5
210
330
1F
100
AcDbEntity
  8
0
  6
Continuous
 62
     7
100
AcDbLine
 10
6505.527755399
 20
5352.5687446818
 30
0.0
 11
6505.5299905732
 21
5352.8202502057
 31
0.0
  0
LINE
  5
211
330
1F
100
AcDbEntity
  8
0
  6
Continuous
 62
     7
100
AcDbLine
 10
6505.5299905732
 20
5352.8202502057
 30
0.0
 11
6505.5322406486
 21
5353.0710330233
 31
0.0
  0
LINE
  5
212
330
1F
100
AcDbEntity
  8
0
  6
Continuous
 62
     7
100
AcDbLine
 10
6505.5322406486
 20
5353.0710330233
 30
0.0
 11
6505.5344758227
 21
5353.3209497109
 31
0.0
  0
LINE
  5
213
330
1F
100
AcDbEntity
  8
0
  6
Continuous
 62
     7
100
AcDbLine
 10
6505.5344758227
 20
5353.3209497109
 30
0.0
 11
6505.5366960958
 21
5353.5698549822
 31
0.0
  0
LINE
  5
214
330
1F
100
AcDbEntity
  8
0
  6
Continuous
 62
     7
100
AcDbLine
 10
6505.5366960958
 20
5353.5698549822
 30
0.0
 11
6505.5389014676
 21
5353.8176091388
 31
0.0
  0
LINE
  5
215
330
1F
100
AcDbEntity
  8
0
  6
Continuous
 62
     7
100
AcDbLine
 10
6505.5389014676
 20
5353.8176091388
 30
0.0
 11
6505.5411068395
 21
5354.064068757
 31
0.0
  0
LINE
  5
216
330
1F
100
AcDbEntity
  8
0
  6
Continuous
 62
     7
100
AcDbLine
 10
6505.4964480594
 20
5349.0642672405
 30
0.0
 11
6505.4986385301
 21
5349.3107268587
 31
0.0
  0
LINE
  5
217
330
1F
100
AcDbEntity
  8
0
  6
Continuous
 62
     7
100
AcDbLine
 10
6505.4986385301
 20
5349.3107268587
 30
0.0
 11
6505.5008588031
 21
5349.5584810153
 31
0.0
  0
LINE
  5
218
330
1F
100
AcDbEntity
  8
0
  6
Continuous
 62
     7
100
AcDbLine
 10
6505.5008588031
 20
5349.5584810153
 30
0.0
 11
6505.5030790761
 21
5349.8073881492
 31
0.0
  0
LINE
  5
219
330
1F
100
AcDbEntity
  8
0
  6
Continuous
 62
     7
100
AcDbLine
 10
6505.5030790761
 20
5349.8073881492
 30
0.0
 11
6505.5053142503
 21
5350.0573048368
 31
0.0
  0
LINE
  5
21A
330
1F
100
AcDbEntity
  8
0
  6
Continuous
 62
     7
100
AcDbLine
 10
6505.5053142503
 20
5350.0573048368
 30
0.0
 11
6505.5075494245
 21
5350.3080876544
 31
0.0
  0
LINE
  5
21B
330
1F
100
AcDbEntity
  8
0
  6
Continuous
 62
     7
100
AcDbLine
 10
6505.5075494245
 20
5350.3080876544
 30
0.0
 11
6505.5097994998
 21
5350.5595913157
 31
0.0
  0
LINE
  5
21C
330
1F
100
AcDbEntity
  8
0
  6
Continuous
 62
     7
100
AcDbLine
 10
6505.5097994998
 20
5350.5595913157
 30
0.0
 11
6505.5120495751
 21
5350.8116742596
 31
0.0
  0
LINE
  5
21D
330
1F
100
AcDbEntity
  8
0
  6
Continuous
 62
     7
100
AcDbLine
 10
6505.5120495751
 20
5350.8116742596
 30
0.0
 11
6505.5143145516
 21
5351.0641874746
 31
0.0
  0
LINE
  5
21E
330
1F
100
AcDbEntity
  8
0
  6
Continuous
 62
     7
100
AcDbLine
 10
6505.5143145516
 20
5351.0641874746
 30
0.0
 11
6505.2617994741
 21
5351.0664450005
 31
0.0
  0
LINE
  5
21F
330
1F
100
AcDbEntity
  8
0
  6
Continuous
 62
     7
100
AcDbLine
 10
6505.2617994741
 20
5351.0664450005
 30
0.0
 11
6505.0097165301
 21
5351.0686969385
 31
0.0
  0
LINE
  5
220
330
1F
100
AcDbEntity
  8
0
  6
Continuous
 62
     7
100
AcDbLine
 10
6505.0097165301
 20
5351.0686969385
 30
0.0
 11
6504.7581998303
 21
5351.0709432885
 31
0.0
  0
LINE
  5
221
330
1F
100
AcDbEntity
  8
0
  6
Continuous
 62
     7
100
AcDbLine
 10
6504.7581998303
 20
5351.0709432885
 30
0.0
 11
6504.5074281886
 21
5351.0731840506
 31
0.0
  0
LINE
  5
222
330
1F
100
AcDbEntity
  8
0
  6
Continuous
 62
     7
100
AcDbLine
 10
6504.5074281886
 20
5351.0731840506
 30
0.0
 11
6504.2575059131
 21
5351.0754173622
 31
0.0
  0
LINE
  5
223
330
1F
100
AcDbEntity
  8
0
  6
Continuous
 62
     7
100
AcDbLine
 10
6504.2575059131
 20
5351.0754173622
 30
0.0
 11
6504.0085969165
 21
5351.0776413605
 31
0.0
  0
LINE
  5
224
330
1F
100
AcDbEntity
  8
0
  6
Continuous
 62
     7
100
AcDbLine
 10
6504.0085969165
 20
5351.0776413605
 30
0.0
 11
6503.7608502105
 21
5351.0798541829
 31
0.0
  0
LINE
  5
225
330
1F
100
AcDbEntity
  8
0
  6
Continuous
 62
     7
100
AcDbLine
 10
6503.7608502105
 20
5351.0798541829
 30
0.0
 11
6503.5143850043
 21
5351.0820558295
 31
0.0
  0
LINE
  5
226
330
1F
100
AcDbEntity
  8
0
  6
Continuous
 62
     7
100
AcDbLine
 10
6506.4964053824
 20
5349.0553339944
 30
0.0
 11
6506.4985958531
 21
5349.3017936126
 31
0.0
  0
LINE
  5
227
330
1F
100
AcDbEntity
  8
0
  6
Continuous
 62
     7
100
AcDbLine
 10
6506.4985958531
 20
5349.3017936126
 30
0.0
 11
6506.5008161262
 21
5349.5495477692
 31
0.0
  0
LINE
  5
228
330
1F
100
AcDbEntity
  8
0
  6
Continuous
 62
     7
100
AcDbLine
 10
6506.5008161262
 20
5349.5495477692
 30
0.0
 11
6506.5030363992
 21
5349.7984530404
 31
0.0
  0
LINE
  5
229
330
1F
100
AcDbEntity
  8
0
  6
Continuous
 62
     7
100
AcDbLine
 10
6506.5030363992
 20
5349.7984530404
 30
0.0
 11
6506.5052715734
 21
5350.0483697281
 31
0.0
  0
LINE
  5
22A
330
1F
100
AcDbEntity
  8
0
  6
Continuous
 62
     7
100
AcDbLine
 10
6506.5052715734
 20
5350.0483697281
 30
0.0
 11
6506.5075067475
 21
5350.2991525457
 31
0.0
  0
LINE
  5
22B
330
1F
100
AcDbEntity
  8
0
  6
Continuous
 62
     7
100
AcDbLine
 10
6506.5075067475
 20
5350.2991525457
 30
0.0
 11
6506.5097568229
 21
5350.5506580696
 31
0.0
  0
LINE
  5
22C
330
1F
100
AcDbEntity
  8
0
  6
Continuous
 62
     7
100
AcDbLine
 10
6506.5097568229
 20
5350.5506580696
 30
0.0
 11
6506.5120068982
 21
5350.8027391508
 31
0.0
  0
LINE
  5
22D
330
1F
100
AcDbEntity
  8
0
  6
Continuous
 62
     7
100
AcDbLine
 10
6506.5120068982
 20
5350.8027391508
 30
0.0
 11
6506.5142718747
 21
5351.0552542284
 31
0.0
  0
LINE
  5
22E
330
1F
100
AcDbEntity
  8
0
  6
Continuous
 62
     7
100
AcDbLine
 10
6506.4964053824
 20
5271.0553361103
 30
0.0
 11
6506.371474047
 21
5271.0564536974
 31
0.0
  0
LINE
  5
22F
330
1F
100
AcDbEntity
  8
0
  6
Continuous
 62
     7
100
AcDbLine
 10
6506.371474047
 20
5271.0564536974
 30
0.0
 11
6506.2464831069
 21
5271.0575638339
 31
0.0
  0
LINE
  5
230
330
1F
100
AcDbEntity
  8
0
  6
Continuous
 62
     7
100
AcDbLine
 10
6506.2464831069
 20
5271.0575638339
 30
0.0
 11
6506.1214623645
 21
5271.058681421
 31
0.0
  0
LINE
  5
231
330
1F
100
AcDbEntity
  8
0
  6
Continuous
 62
     7
100
AcDbLine
 10
6506.1214623645
 20
5271.058681421
 30
0.0
 11
6505.9964267209
 21
5271.0597990081
 31
0.0
  0
LINE
  5
232
330
1F
100
AcDbEntity
  8
0
  6
Continuous
 62
     7
100
AcDbLine
 10
6505.9964267209
 20
5271.0597990081
 30
0.0
 11
6505.8713761762
 21
5271.0609165952
 31
0.0
  0
LINE
  5
233
330
1F
100
AcDbEntity
  8
0
  6
Continuous
 62
     7
100
AcDbLine
 10
6505.8713761762
 20
5271.0609165952
 30
0.0
 11
6505.7463554338
 21
5271.0620341823
 31
0.0
  0
LINE
  5
234
330
1F
100
AcDbEntity
  8
0
  6
Continuous
 62
     7
100
AcDbLine
 10
6505.7463554338
 20
5271.0620341823
 30
0.0
 11
6505.6213644937
 21
5271.0631517694
 31
0.0
  0
LINE
  5
235
330
1F
100
AcDbEntity
  8
0
  6
Continuous
 62
     7
100
AcDbLine
 10
6505.6213644937
 20
5271.0631517694
 30
0.0
 11
6505.4964480594
 21
5271.0642693565
 31
0.0
  0
LINE
  5
236
330
1F
100
AcDbEntity
  8
0
  6
Continuous
 62
     7
100
AcDbLine
 10
6508.5141865209
 20
5273.0373842642
 30
0.0
 11
6508.2677362159
 21
5273.0395896361
 31
0.0
  0
LINE
  5
237
330
1F
100
AcDbEntity
  8
0
  6
Continuous
 62
     7
100
AcDbLine
 10
6508.2677362159
 20
5273.0395896361
 30
0.0
 11
6508.0199746087
 21
5273.0418024585
 31
0.0
  0
LINE
  5
238
330
1F
100
AcDbEntity
  8
0
  6
Continuous
 62
     7
100
AcDbLine
 10
6508.0199746087
 20
5273.0418024585
 30
0.0
 11
6507.7710656121
 21
5273.0440227315
 31
0.0
  0
LINE
  5
239
330
1F
100
AcDbEntity
  8
0
  6
Continuous
 62
     7
100
AcDbLine
 10
6507.7710656121
 20
5273.0440227315
 30
0.0
 11
6507.5211582377
 21
5273.0462579057
 31
0.0
  0
LINE
  5
23A
330
1F
100
AcDbEntity
  8
0
  6
Continuous
 62
     7
100
AcDbLine
 10
6507.5211582377
 20
5273.0462579057
 30
0.0
 11
6507.2703716949
 21
5273.0485005304
 31
0.0
  0
LINE
  5
23B
330
1F
100
AcDbEntity
  8
0
  6
Continuous
 62
     7
100
AcDbLine
 10
6507.2703716949
 20
5273.0485005304
 30
0.0
 11
6507.0188698962
 21
5273.0507431552
 31
0.0
  0
LINE
  5
23C
330
1F
100
AcDbEntity
  8
0
  6
Continuous
 62
     7
100
AcDbLine
 10
6507.0188698962
 20
5273.0507431552
 30
0.0
 11
6506.7667869523
 21
5273.0530006811
 31
0.0
  0
LINE
  5
23D
330
1F
100
AcDbEntity
  8
0
  6
Continuous
 62
     7
100
AcDbLine
 10
6506.7667869523
 20
5273.0530006811
 30
0.0
 11
6506.5142718747
 21
5273.0552507565
 31
0.0
  0
LINE
  5
23E
330
1F
100
AcDbEntity
  8
0
  6
Continuous
 62
     7
100
AcDbLine
 10
6508.5141865209
 20
5273.0373842642
 30
0.0
 11
6508.515304108
 21
5273.1623155996
 31
0.0
  0
LINE
  5
23F
330
1F
100
AcDbEntity
  8
0
  6
Continuous
 62
     7
100
AcDbLine
 10
6508.515304108
 20
5273.1623155996
 30
0.0
 11
6508.516421695
 21
5273.2872990892
 31
0.0
  0
LINE
  5
240
330
1F
100
AcDbEntity
  8
0
  6
Continuous
 62
     7
100
AcDbLine
 10
6508.516421695
 20
5273.2872990892
 30
0.0
 11
6508.5175392821
 21
5273.4123272822
 31
0.0
  0
LINE
  5
241
330
1F
100
AcDbEntity
  8
0
  6
Continuous
 62
     7
100
AcDbLine
 10
6508.5175392821
 20
5273.4123272822
 30
0.0
 11
6508.5186568692
 21
5273.5373629257
 31
0.0
  0
LINE
  5
242
330
1F
100
AcDbEntity
  8
0
  6
Continuous
 62
     7
100
AcDbLine
 10
6508.5186568692
 20
5273.5373629257
 30
0.0
 11
6508.5197744563
 21
5273.6624060199
 31
0.0
  0
LINE
  5
243
330
1F
100
AcDbEntity
  8
0
  6
Continuous
 62
     7
100
AcDbLine
 10
6508.5197744563
 20
5273.6624060199
 30
0.0
 11
6508.5208920434
 21
5273.7874342129
 31
0.0
  0
LINE
  5
244
330
1F
100
AcDbEntity
  8
0
  6
Continuous
 62
     7
100
AcDbLine
 10
6508.5208920434
 20
5273.7874342129
 30
0.0
 11
6508.5220096305
 21
5273.9124177024
 31
0.0
  0
LINE
  5
245
330
1F
100
AcDbEntity
  8
0
  6
Continuous
 62
     7
100
AcDbLine
 10
6508.5220096305
 20
5273.9124177024
 30
0.0
 11
6508.5231272176
 21
5274.0373490378
 31
0.0
  0
LINE
  5
246
330
1F
100
AcDbEntity
  8
0
  6
Continuous
 62
     7
100
AcDbLine
 10
6506.5410641625
 20
5276.0551376268
 30
0.0
 11
6506.4161328271
 21
5276.0562477634
 31
0.0
  0
LINE
  5
247
330
1F
100
AcDbEntity
  8
0
  6
Continuous
 62
     7
100
AcDbLine
 10
6506.4161328271
 20
5276.0562477634
 30
0.0
 11
6506.2911567882
 21
5276.0573653504
 31
0.0
  0
LINE
  5
248
330
1F
100
AcDbEntity
  8
0
  6
Continuous
 62
     7
100
AcDbLine
 10
6506.2911567882
 20
5276.0573653504
 30
0.0
 11
6506.1661360457
 21
5276.0584829375
 31
0.0
  0
LINE
  5
249
330
1F
100
AcDbEntity
  8
0
  6
Continuous
 62
     7
100
AcDbLine
 10
6506.1661360457
 20
5276.0584829375
 30
0.0
 11
6506.041085501
 21
5276.0596005246
 31
0.0
  0
LINE
  5
24A
330
1F
100
AcDbEntity
  8
0
  6
Continuous
 62
     7
100
AcDbLine
 10
6506.041085501
 20
5276.0596005246
 30
0.0
 11
6505.9160498574
 21
5276.0607181117
 31
0.0
  0
LINE
  5
24B
330
1F
100
AcDbEntity
  8
0
  6
Continuous
 62
     7
100
AcDbLine
 10
6505.9160498574
 20
5276.0607181117
 30
0.0
 11
6505.791029115
 21
5276.0618356988
 31
0.0
  0
LINE
  5
24C
330
1F
100
AcDbEntity
  8
0
  6
Continuous
 62
     7
100
AcDbLine
 10
6505.791029115
 20
5276.0618356988
 30
0.0
 11
6505.6660381749
 21
5276.0629532859
 31
0.0
  0
LINE
  5
24D
330
1F
100
AcDbEntity
  8
0
  6
Continuous
 62
     7
100
AcDbLine
 10
6505.6660381749
 20
5276.0629532859
 30
0.0
 11
6505.5411068395
 21
5276.064070873
 31
0.0
  0
LINE
  5
24E
330
1F
100
AcDbEntity
  8
0
  6
Continuous
 62
     7
100
AcDbLine
 10
6505.5232403472
 20
5274.0641487763
 30
0.0
 11
6505.2707252696
 21
5274.0664063022
 31
0.0
  0
LINE
  5
24F
330
1F
100
AcDbEntity
  8
0
  6
Continuous
 62
     7
100
AcDbLine
 10
6505.2707252696
 20
5274.0664063022
 30
0.0
 11
6505.0186423257
 21
5274.0686563775
 31
0.0
  0
LINE
  5
250
330
1F
100
AcDbEntity
  8
0
  6
Continuous
 62
     7
100
AcDbLine
 10
6505.0186423257
 20
5274.0686563775
 30
0.0
 11
6504.7671405271
 21
5274.0709064529
 31
0.0
  0
LINE
  5
251
330
1F
100
AcDbEntity
  8
0
  6
Continuous
 62
     7
100
AcDbLine
 10
6504.7671405271
 20
5274.0709064529
 30
0.0
 11
6504.5163539842
 21
5274.073141627
 31
0.0
  0
LINE
  5
252
330
1F
100
AcDbEntity
  8
0
  6
Continuous
 62
     7
100
AcDbLine
 10
6504.5163539842
 20
5274.073141627
 30
0.0
 11
6504.2664466098
 21
5274.0753768012
 31
0.0
  0
LINE
  5
253
330
1F
100
AcDbEntity
  8
0
  6
Continuous
 62
     7
100
AcDbLine
 10
6504.2664466098
 20
5274.0753768012
 30
0.0
 11
6504.0175376132
 21
5274.0775970742
 31
0.0
  0
LINE
  5
254
330
1F
100
AcDbEntity
  8
0
  6
Continuous
 62
     7
100
AcDbLine
 10
6504.0175376132
 20
5274.0775970742
 30
0.0
 11
6503.769776006
 21
5274.0798173473
 31
0.0
  0
LINE
  5
255
330
1F
100
AcDbEntity
  8
0
  6
Continuous
 62
     7
100
AcDbLine
 10
6503.769776006
 20
5274.0798173473
 30
0.0
 11
6503.5233257011
 21
5274.0820152685
 31
0.0
  0
LINE
  5
256
330
1F
100
AcDbEntity
  8
0
  6
Continuous
 62
     7
100
AcDbLine
 10
6503.5143850043
 20
5273.0820579455
 30
0.0
 11
6503.5155025914
 21
5273.2069892809
 31
0.0
  0
LINE
  5
257
330
1F
100
AcDbEntity
  8
0
  6
Continuous
 62
     7
100
AcDbLine
 10
6503.5155025914
 20
5273.2069892809
 30
0.0
 11
6503.5166201785
 21
5273.3319727704
 31
0.0
  0
LINE
  5
258
330
1F
100
AcDbEntity
  8
0
  6
Continuous
 62
     7
100
AcDbLine
 10
6503.5166201785
 20
5273.3319727704
 30
0.0
 11
6503.5177377656
 21
5273.4569935128
 31
0.0
  0
LINE
  5
259
330
1F
100
AcDbEntity
  8
0
  6
Continuous
 62
     7
100
AcDbLine
 10
6503.5177377656
 20
5273.4569935128
 30
0.0
 11
6503.5188553527
 21
5273.582036607
 31
0.0
  0
LINE
  5
25A
330
1F
100
AcDbEntity
  8
0
  6
Continuous
 62
     7
100
AcDbLine
 10
6503.5188553527
 20
5273.582036607
 30
0.0
 11
6503.5199729398
 21
5273.7070797011
 31
0.0
  0
LINE
  5
25B
330
1F
100
AcDbEntity
  8
0
  6
Continuous
 62
     7
100
AcDbLine
 10
6503.5199729398
 20
5273.7070797011
 30
0.0
 11
6503.5210905269
 21
5273.8321004436
 31
0.0
  0
LINE
  5
25C
330
1F
100
AcDbEntity
  8
0
  6
Continuous
 62
     7
100
AcDbLine
 10
6503.5210905269
 20
5273.8321004436
 30
0.0
 11
6503.522208114
 21
5273.9570839331
 31
0.0
  0
LINE
  5
25D
330
1F
100
AcDbEntity
  8
0
  6
Continuous
 62
     7
100
AcDbLine
 10
6503.522208114
 20
5273.9570839331
 30
0.0
 11
6503.5233257011
 21
5274.0820152685
 31
0.0
  0
LINE
  5
25E
330
1F
100
AcDbEntity
  8
0
  6
Continuous
 62
     7
100
AcDbLine
 10
6506.5231976703
 20
5274.0552155301
 30
0.0
 11
6506.5254626468
 21
5274.3077306077
 31
0.0
  0
LINE
  5
25F
330
1F
100
AcDbEntity
  8
0
  6
Continuous
 62
     7
100
AcDbLine
 10
6506.5254626468
 20
5274.3077306077
 30
0.0
 11
6506.5277127221
 21
5274.5598135516
 31
0.0
  0
LINE
  5
260
330
1F
100
AcDbEntity
  8
0
  6
Continuous
 62
     7
100
AcDbLine
 10
6506.5277127221
 20
5274.5598135516
 30
0.0
 11
6506.5299627975
 21
5274.8113153503
 31
0.0
  0
LINE
  5
261
330
1F
100
AcDbEntity
  8
0
  6
Continuous
 62
     7
100
AcDbLine
 10
6506.5299627975
 20
5274.8113153503
 30
0.0
 11
6506.5321979716
 21
5275.0621018931
 31
0.0
  0
LINE
  5
262
330
1F
100
AcDbEntity
  8
0
  6
Continuous
 62
     7
100
AcDbLine
 10
6506.5321979716
 20
5275.0621018931
 30
0.0
 11
6506.5344331458
 21
5275.3120167181
 31
0.0
  0
LINE
  5
263
330
1F
100
AcDbEntity
  8
0
  6
Continuous
 62
     7
100
AcDbLine
 10
6506.5344331458
 20
5275.3120167181
 30
0.0
 11
6506.5366534188
 21
5275.5609182641
 31
0.0
  0
LINE
  5
264
330
1F
100
AcDbEntity
  8
0
  6
Continuous
 62
     7
100
AcDbLine
 10
6506.5366534188
 20
5275.5609182641
 30
0.0
 11
6506.5388736919
 21
5275.8086724207
 31
0.0
  0
LINE
  5
265
330
1F
100
AcDbEntity
  8
0
  6
Continuous
 62
     7
100
AcDbLine
 10
6506.5388736919
 20
5275.8086724207
 30
0.0
 11
6506.5410641625
 21
5276.0551376268
 31
0.0
  0
LINE
  5
266
330
1F
100
AcDbEntity
  8
0
  6
Continuous
 62
     7
100
AcDbLine
 10
6505.4964480594
 20
5271.0642693565
 30
0.0
 11
6505.4986385301
 21
5271.310727112
 31
0.0
  0
LINE
  5
267
330
1F
100
AcDbEntity
  8
0
  6
Continuous
 62
     7
100
AcDbLine
 10
6505.4986385301
 20
5271.310727112
 30
0.0
 11
6505.5008588031
 21
5271.5584812686
 31
0.0
  0
LINE
  5
268
330
1F
100
AcDbEntity
  8
0
  6
Continuous
 62
     7
100
AcDbLine
 10
6505.5008588031
 20
5271.5584812686
 30
0.0
 11
6505.5030790761
 21
5271.8073902652
 31
0.0
  0
LINE
  5
269
330
1F
100
AcDbEntity
  8
0
  6
Continuous
 62
     7
100
AcDbLine
 10
6505.5030790761
 20
5271.8073902652
 30
0.0
 11
6505.5053142503
 21
5272.0573050902
 31
0.0
  0
LINE
  5
26A
330
1F
100
AcDbEntity
  8
0
  6
Continuous
 62
     7
100
AcDbLine
 10
6505.5053142503
 20
5272.0573050902
 30
0.0
 11
6505.5075494245
 21
5272.3080841825
 31
0.0
  0
LINE
  5
26B
330
1F
100
AcDbEntity
  8
0
  6
Continuous
 62
     7
100
AcDbLine
 10
6505.5075494245
 20
5272.3080841825
 30
0.0
 11
6505.5097994998
 21
5272.5595934317
 31
0.0
  0
LINE
  5
26C
330
1F
100
AcDbEntity
  8
0
  6
Continuous
 62
     7
100
AcDbLine
 10
6505.5097994998
 20
5272.5595934317
 30
0.0
 11
6505.5120495751
 21
5272.8116763756
 31
0.0
  0
LINE
  5
26D
330
1F
100
AcDbEntity
  8
0
  6
Continuous
 62
     7
100
AcDbLine
 10
6505.5120495751
 20
5272.8116763756
 30
0.0
 11
6505.5143145516
 21
5273.0641914532
 31
0.0
  0
LINE
  5
26E
330
1F
100
AcDbEntity
  8
0
  6
Continuous
 62
     7
100
AcDbLine
 10
6506.4964053824
 20
5271.0553361103
 30
0.0
 11
6506.4985958531
 21
5271.3017938659
 31
0.0
  0
LINE
  5
26F
330
1F
100
AcDbEntity
  8
0
  6
Continuous
 62
     7
100
AcDbLine
 10
6506.4985958531
 20
5271.3017938659
 30
0.0
 11
6506.5008161262
 21
5271.5495480225
 31
0.0
  0
LINE
  5
270
330
1F
100
AcDbEntity
  8
0
  6
Continuous
 62
     7
100
AcDbLine
 10
6506.5008161262
 20
5271.5495480225
 30
0.0
 11
6506.5030363992
 21
5271.7984570191
 31
0.0
  0
LINE
  5
271
330
1F
100
AcDbEntity
  8
0
  6
Continuous
 62
     7
100
AcDbLine
 10
6506.5030363992
 20
5271.7984570191
 30
0.0
 11
6506.5052715734
 21
5272.048371844
 31
0.0
  0
LINE
  5
272
330
1F
100
AcDbEntity
  8
0
  6
Continuous
 62
     7
100
AcDbLine
 10
6506.5052715734
 20
5272.048371844
 30
0.0
 11
6506.5075067475
 21
5272.2991509363
 31
0.0
  0
LINE
  5
273
330
1F
100
AcDbEntity
  8
0
  6
Continuous
 62
     7
100
AcDbLine
 10
6506.5075067475
 20
5272.2991509363
 30
0.0
 11
6506.5097568229
 21
5272.5506601855
 31
0.0
  0
LINE
  5
274
330
1F
100
AcDbEntity
  8
0
  6
Continuous
 62
     7
100
AcDbLine
 10
6506.5097568229
 20
5272.5506601855
 30
0.0
 11
6506.5120068982
 21
5272.8027431295
 31
0.0
  0
LINE
  5
275
330
1F
100
AcDbEntity
  8
0
  6
Continuous
 62
     7
100
AcDbLine
 10
6506.5120068982
 20
5272.8027431295
 30
0.0
 11
6506.5142718747
 21
5273.0552507565
 31
0.0
  0
LINE
  5
276
330
1F
100
AcDbEntity
  8
0
  6
Continuous
 62
     7
100
AcDbLine
 10
6505.5232403472
 20
5274.0641487763
 30
0.0
 11
6505.5255053237
 21
5274.3166638538
 31
0.0
  0
LINE
  5
277
330
1F
100
AcDbEntity
  8
0
  6
Continuous
 62
     7
100
AcDbLine
 10
6505.5255053237
 20
5274.3166638538
 30
0.0
 11
6505.527755399
 21
5274.5687467978
 31
0.0
  0
LINE
  5
278
330
1F
100
AcDbEntity
  8
0
  6
Continuous
 62
     7
100
AcDbLine
 10
6505.527755399
 20
5274.5687467978
 30
0.0
 11
6505.5299905732
 21
5274.8202485964
 31
0.0
  0
LINE
  5
279
330
1F
100
AcDbEntity
  8
0
  6
Continuous
 62
     7
100
AcDbLine
 10
6505.5299905732
 20
5274.8202485964
 30
0.0
 11
6505.5322406486
 21
5275.0710351393
 31
0.0
  0
LINE
  5
27A
330
1F
100
AcDbEntity
  8
0
  6
Continuous
 62
     7
100
AcDbLine
 10
6505.5322406486
 20
5275.0710351393
 30
0.0
 11
6505.5344758227
 21
5275.3209499642
 31
0.0
  0
LINE
  5
27B
330
1F
100
AcDbEntity
  8
0
  6
Continuous
 62
     7
100
AcDbLine
 10
6505.5344758227
 20
5275.3209499642
 30
0.0
 11
6505.5366960958
 21
5275.5698589608
 31
0.0
  0
LINE
  5
27C
330
1F
100
AcDbEntity
  8
0
  6
Continuous
 62
     7
100
AcDbLine
 10
6505.5366960958
 20
5275.5698589608
 30
0.0
 11
6505.5389014676
 21
5275.8176131174
 31
0.0
  0
LINE
  5
27D
330
1F
100
AcDbEntity
  8
0
  6
Continuous
 62
     7
100
AcDbLine
 10
6505.5389014676
 20
5275.8176131174
 30
0.0
 11
6505.5411068395
 21
5276.064070873
 31
0.0
  0
LINE
  5
27E
330
1F
100
AcDbEntity
  8
0
  6
Continuous
 62
     7
100
AcDbLine
 10
6508.5231272176
 20
5274.0373490378
 30
0.0
 11
6508.2766620114
 21
5274.0395469591
 31
0.0
  0
LINE
  5
27F
330
1F
100
AcDbEntity
  8
0
  6
Continuous
 62
     7
100
AcDbLine
 10
6508.2766620114
 20
5274.0395469591
 30
0.0
 11
6508.0289153054
 21
5274.0417597816
 31
0.0
  0
LINE
  5
280
330
1F
100
AcDbEntity
  8
0
  6
Continuous
 62
     7
100
AcDbLine
 10
6508.0289153054
 20
5274.0417597816
 30
0.0
 11
6507.7800063088
 21
5274.0439875052
 31
0.0
  0
LINE
  5
281
330
1F
100
AcDbEntity
  8
0
  6
Continuous
 62
     7
100
AcDbLine
 10
6507.7800063088
 20
5274.0439875052
 30
0.0
 11
6507.5300840333
 21
5274.0462152288
 31
0.0
  0
LINE
  5
282
330
1F
100
AcDbEntity
  8
0
  6
Continuous
 62
     7
100
AcDbLine
 10
6507.5300840333
 20
5274.0462152288
 30
0.0
 11
6507.2792974904
 21
5274.0484578535
 31
0.0
  0
LINE
  5
283
330
1F
100
AcDbEntity
  8
0
  6
Continuous
 62
     7
100
AcDbLine
 10
6507.2792974904
 20
5274.0484578535
 30
0.0
 11
6507.0277956918
 21
5274.0507079289
 31
0.0
  0
LINE
  5
284
330
1F
100
AcDbEntity
  8
0
  6
Continuous
 62
     7
100
AcDbLine
 10
6507.0277956918
 20
5274.0507079289
 30
0.0
 11
6506.7757127479
 21
5274.0529580042
 31
0.0
  0
LINE
  5
285
330
1F
100
AcDbEntity
  8
0
  6
Continuous
 62
     7
100
AcDbLine
 10
6506.7757127479
 20
5274.0529580042
 30
0.0
 11
6506.5231976703
 21
5274.0552155301
 31
0.0
  0
LINE
  5
286
330
1F
100
AcDbEntity
  8
0
  6
Continuous
 62
     7
100
AcDbLine
 10
6505.5143145516
 20
5273.0641914532
 30
0.0
 11
6505.2617994741
 21
5273.0664415285
 31
0.0
  0
LINE
  5
287
330
1F
100
AcDbEntity
  8
0
  6
Continuous
 62
     7
100
AcDbLine
 10
6505.2617994741
 20
5273.0664415285
 30
0.0
 11
6505.0097165301
 21
5273.0686990544
 31
0.0
  0
LINE
  5
288
330
1F
100
AcDbEntity
  8
0
  6
Continuous
 62
     7
100
AcDbLine
 10
6505.0097165301
 20
5273.0686990544
 30
0.0
 11
6504.7581998303
 21
5273.0709416792
 31
0.0
  0
LINE
  5
289
330
1F
100
AcDbEntity
  8
0
  6
Continuous
 62
     7
100
AcDbLine
 10
6504.7581998303
 20
5273.0709416792
 30
0.0
 11
6504.5074281886
 21
5273.073184304
 31
0.0
  0
LINE
  5
28A
330
1F
100
AcDbEntity
  8
0
  6
Continuous
 62
     7
100
AcDbLine
 10
6504.5074281886
 20
5273.073184304
 30
0.0
 11
6504.2575059131
 21
5273.0754194781
 31
0.0
  0
LINE
  5
28B
330
1F
100
AcDbEntity
  8
0
  6
Continuous
 62
     7
100
AcDbLine
 10
6504.2575059131
 20
5273.0754194781
 30
0.0
 11
6504.0085969165
 21
5273.0776397512
 31
0.0
  0
LINE
  5
28C
330
1F
100
AcDbEntity
  8
0
  6
Continuous
 62
     7
100
AcDbLine
 10
6504.0085969165
 20
5273.0776397512
 30
0.0
 11
6503.7608502105
 21
5273.0798525736
 31
0.0
  0
LINE
  5
28D
330
1F
100
AcDbEntity
  8
0
  6
Continuous
 62
     7
100
AcDbLine
 10
6503.7608502105
 20
5273.0798525736
 30
0.0
 11
6503.5143850043
 21
5273.0820579455
 31
0.0
  0
LINE
  5
28E
330
1F
100
AcDbEntity
  8
0
  6
Continuous
 62
     7
100
AcDbLine
 10
6042.4964038327
 20
5349.0553339944
 30
0.0
 11
6042.3714724973
 21
5349.0564497188
 31
0.0
  0
LINE
  5
28F
330
1F
100
AcDbEntity
  8
0
  6
Continuous
 62
     7
100
AcDbLine
 10
6042.3714724973
 20
5349.0564497188
 30
0.0
 11
6042.2464815572
 21
5349.0575673059
 31
0.0
  0
LINE
  5
290
330
1F
100
AcDbEntity
  8
0
  6
Continuous
 62
     7
100
AcDbLine
 10
6042.2464815572
 20
5349.0575673059
 30
0.0
 11
6042.1214608148
 21
5349.0586830303
 31
0.0
  0
LINE
  5
291
330
1F
100
AcDbEntity
  8
0
  6
Continuous
 62
     7
100
AcDbLine
 10
6042.1214608148
 20
5349.0586830303
 30
0.0
 11
6041.9964251712
 21
5349.0598006174
 31
0.0
  0
LINE
  5
292
330
1F
100
AcDbEntity
  8
0
  6
Continuous
 62
     7
100
AcDbLine
 10
6041.9964251712
 20
5349.0598006174
 30
0.0
 11
6041.8713746265
 21
5349.0609182045
 31
0.0
  0
LINE
  5
293
330
1F
100
AcDbEntity
  8
0
  6
Continuous
 62
     7
100
AcDbLine
 10
6041.8713746265
 20
5349.0609182045
 30
0.0
 11
6041.746353884
 21
5349.0620357916
 31
0.0
  0
LINE
  5
294
330
1F
100
AcDbEntity
  8
0
  6
Continuous
 62
     7
100
AcDbLine
 10
6041.746353884
 20
5349.0620357916
 30
0.0
 11
6041.6213778451
 21
5349.063151516
 31
0.0
  0
LINE
  5
295
330
1F
100
AcDbEntity
  8
0
  6
Continuous
 62
     7
100
AcDbLine
 10
6041.6213778451
 20
5349.063151516
 30
0.0
 11
6041.4964465097
 21
5349.0642672405
 31
0.0
  0
LINE
  5
296
330
1F
100
AcDbEntity
  8
0
  6
Continuous
 62
     7
100
AcDbLine
 10
6044.5141849711
 20
5351.0373858735
 30
0.0
 11
6044.5153025582
 21
5351.162317209
 31
0.0
  0
LINE
  5
297
330
1F
100
AcDbEntity
  8
0
  6
Continuous
 62
     7
100
AcDbLine
 10
6044.5153025582
 20
5351.162317209
 30
0.0
 11
6044.5164201453
 21
5351.2873025611
 31
0.0
  0
LINE
  5
298
330
1F
100
AcDbEntity
  8
0
  6
Continuous
 62
     7
100
AcDbLine
 10
6044.5164201453
 20
5351.2873025611
 30
0.0
 11
6044.5175377324
 21
5351.4123251662
 31
0.0
  0
LINE
  5
299
330
1F
100
AcDbEntity
  8
0
  6
Continuous
 62
     7
100
AcDbLine
 10
6044.5175377324
 20
5351.4123251662
 30
0.0
 11
6044.5186553195
 21
5351.5373663977
 31
0.0
  0
LINE
  5
29A
330
1F
100
AcDbEntity
  8
0
  6
Continuous
 62
     7
100
AcDbLine
 10
6044.5186553195
 20
5351.5373663977
 30
0.0
 11
6044.5197729066
 21
5351.6624076292
 31
0.0
  0
LINE
  5
29B
330
1F
100
AcDbEntity
  8
0
  6
Continuous
 62
     7
100
AcDbLine
 10
6044.5197729066
 20
5351.6624076292
 30
0.0
 11
6044.5208904937
 21
5351.7874302343
 31
0.0
  0
LINE
  5
29C
330
1F
100
AcDbEntity
  8
0
  6
Continuous
 62
     7
100
AcDbLine
 10
6044.5208904937
 20
5351.7874302343
 30
0.0
 11
6044.5220080808
 21
5351.9124174491
 31
0.0
  0
LINE
  5
29D
330
1F
100
AcDbEntity
  8
0
  6
Continuous
 62
     7
100
AcDbLine
 10
6044.5220080808
 20
5351.9124174491
 30
0.0
 11
6044.5231256679
 21
5352.0373469219
 31
0.0
  0
LINE
  5
29E
330
1F
100
AcDbEntity
  8
0
  6
Continuous
 62
     7
100
AcDbLine
 10
6042.5410626128
 20
5354.0551336482
 30
0.0
 11
6042.4161461785
 21
5354.0562512353
 31
0.0
  0
LINE
  5
29F
330
1F
100
AcDbEntity
  8
0
  6
Continuous
 62
     7
100
AcDbLine
 10
6042.4161461785
 20
5354.0562512353
 30
0.0
 11
6042.2911552384
 21
5354.0573669598
 31
0.0
  0
LINE
  5
2A0
330
1F
100
AcDbEntity
  8
0
  6
Continuous
 62
     7
100
AcDbLine
 10
6042.2911552384
 20
5354.0573669598
 30
0.0
 11
6042.166134496
 21
5354.0584845469
 31
0.0
  0
LINE
  5
2A1
330
1F
100
AcDbEntity
  8
0
  6
Continuous
 62
     7
100
AcDbLine
 10
6042.166134496
 20
5354.0584845469
 30
0.0
 11
6042.0410839513
 21
5354.059602134
 31
0.0
  0
LINE
  5
2A2
330
1F
100
AcDbEntity
  8
0
  6
Continuous
 62
     7
100
AcDbLine
 10
6042.0410839513
 20
5354.059602134
 30
0.0
 11
6041.9160483077
 21
5354.0607178584
 31
0.0
  0
LINE
  5
2A3
330
1F
100
AcDbEntity
  8
0
  6
Continuous
 62
     7
100
AcDbLine
 10
6041.9160483077
 20
5354.0607178584
 30
0.0
 11
6041.7910275653
 21
5354.0618354455
 31
0.0
  0
LINE
  5
2A4
330
1F
100
AcDbEntity
  8
0
  6
Continuous
 62
     7
100
AcDbLine
 10
6041.7910275653
 20
5354.0618354455
 30
0.0
 11
6041.6660366252
 21
5354.0629530326
 31
0.0
  0
LINE
  5
2A5
330
1F
100
AcDbEntity
  8
0
  6
Continuous
 62
     7
100
AcDbLine
 10
6041.6660366252
 20
5354.0629530326
 30
0.0
 11
6041.5411052898
 21
5354.064068757
 31
0.0
  0
LINE
  5
2A6
330
1F
100
AcDbEntity
  8
0
  6
Continuous
 62
     7
100
AcDbLine
 10
6041.5232387975
 20
5352.0641485229
 30
0.0
 11
6041.2707237199
 21
5352.0664041862
 31
0.0
  0
LINE
  5
2A7
330
1F
100
AcDbEntity
  8
0
  6
Continuous
 62
     7
100
AcDbLine
 10
6041.2707237199
 20
5352.0664041862
 30
0.0
 11
6041.018640776
 21
5352.0686561242
 31
0.0
  0
LINE
  5
2A8
330
1F
100
AcDbEntity
  8
0
  6
Continuous
 62
     7
100
AcDbLine
 10
6041.018640776
 20
5352.0686561242
 30
0.0
 11
6040.7671389773
 21
5352.0709043369
 31
0.0
  0
LINE
  5
2A9
330
1F
100
AcDbEntity
  8
0
  6
Continuous
 62
     7
100
AcDbLine
 10
6040.7671389773
 20
5352.0709043369
 30
0.0
 11
6040.5163524345
 21
5352.0731432364
 31
0.0
  0
LINE
  5
2AA
330
1F
100
AcDbEntity
  8
0
  6
Continuous
 62
     7
100
AcDbLine
 10
6040.5163524345
 20
5352.0731432364
 30
0.0
 11
6040.2664450601
 21
5352.0753765479
 31
0.0
  0
LINE
  5
2AB
330
1F
100
AcDbEntity
  8
0
  6
Continuous
 62
     7
100
AcDbLine
 10
6040.2664450601
 20
5352.0753765479
 30
0.0
 11
6040.0175360635
 21
5352.0776005462
 31
0.0
  0
LINE
  5
2AC
330
1F
100
AcDbEntity
  8
0
  6
Continuous
 62
     7
100
AcDbLine
 10
6040.0175360635
 20
5352.0776005462
 30
0.0
 11
6039.7697744563
 21
5352.0798133686
 31
0.0
  0
LINE
  5
2AD
330
1F
100
AcDbEntity
  8
0
  6
Continuous
 62
     7
100
AcDbLine
 10
6039.7697744563
 20
5352.0798133686
 30
0.0
 11
6039.5233241513
 21
5352.0820168779
 31
0.0
  0
LINE
  5
2AE
330
1F
100
AcDbEntity
  8
0
  6
Continuous
 62
     7
100
AcDbLine
 10
6039.5143834546
 20
5351.0820558295
 30
0.0
 11
6039.5155010417
 21
5351.2069853023
 31
0.0
  0
LINE
  5
2AF
330
1F
100
AcDbEntity
  8
0
  6
Continuous
 62
     7
100
AcDbLine
 10
6039.5155010417
 20
5351.2069853023
 30
0.0
 11
6039.5166186288
 21
5351.3319725171
 31
0.0
  0
LINE
  5
2B0
330
1F
100
AcDbEntity
  8
0
  6
Continuous
 62
     7
100
AcDbLine
 10
6039.5166186288
 20
5351.3319725171
 30
0.0
 11
6039.5177362159
 21
5351.4569951222
 31
0.0
  0
LINE
  5
2B1
330
1F
100
AcDbEntity
  8
0
  6
Continuous
 62
     7
100
AcDbLine
 10
6039.5177362159
 20
5351.4569951222
 30
0.0
 11
6039.518853803
 21
5351.5820363537
 31
0.0
  0
LINE
  5
2B2
330
1F
100
AcDbEntity
  8
0
  6
Continuous
 62
     7
100
AcDbLine
 10
6039.518853803
 20
5351.5820363537
 30
0.0
 11
6039.5199713901
 21
5351.7070775852
 31
0.0
  0
LINE
  5
2B3
330
1F
100
AcDbEntity
  8
0
  6
Continuous
 62
     7
100
AcDbLine
 10
6039.5199713901
 20
5351.7070775852
 30
0.0
 11
6039.5210889772
 21
5351.8321001902
 31
0.0
  0
LINE
  5
2B4
330
1F
100
AcDbEntity
  8
0
  6
Continuous
 62
     7
100
AcDbLine
 10
6039.5210889772
 20
5351.8321001902
 30
0.0
 11
6039.5222065642
 21
5351.9570855424
 31
0.0
  0
LINE
  5
2B5
330
1F
100
AcDbEntity
  8
0
  6
Continuous
 62
     7
100
AcDbLine
 10
6039.5222065642
 20
5351.9570855424
 30
0.0
 11
6039.5233241513
 21
5352.0820168779
 31
0.0
  0
LINE
  5
2B6
330
1F
100
AcDbEntity
  8
0
  6
Continuous
 62
     7
100
AcDbLine
 10
6042.5231961206
 20
5352.0552152768
 30
0.0
 11
6042.5254610971
 21
5352.3077284917
 31
0.0
  0
LINE
  5
2B7
330
1F
100
AcDbEntity
  8
0
  6
Continuous
 62
     7
100
AcDbLine
 10
6042.5254610971
 20
5352.3077284917
 30
0.0
 11
6042.5277111724
 21
5352.5598114357
 31
0.0
  0
LINE
  5
2B8
330
1F
100
AcDbEntity
  8
0
  6
Continuous
 62
     7
100
AcDbLine
 10
6042.5277111724
 20
5352.5598114357
 30
0.0
 11
6042.5299612477
 21
5352.8113150969
 31
0.0
  0
LINE
  5
2B9
330
1F
100
AcDbEntity
  8
0
  6
Continuous
 62
     7
100
AcDbLine
 10
6042.5299612477
 20
5352.8113150969
 30
0.0
 11
6042.5321964219
 21
5353.0620979145
 31
0.0
  0
LINE
  5
2BA
330
1F
100
AcDbEntity
  8
0
  6
Continuous
 62
     7
100
AcDbLine
 10
6042.5321964219
 20
5353.0620979145
 30
0.0
 11
6042.5344315961
 21
5353.3120146021
 31
0.0
  0
LINE
  5
2BB
330
1F
100
AcDbEntity
  8
0
  6
Continuous
 62
     7
100
AcDbLine
 10
6042.5344315961
 20
5353.3120146021
 30
0.0
 11
6042.5366518691
 21
5353.5609217361
 31
0.0
  0
LINE
  5
2BC
330
1F
100
AcDbEntity
  8
0
  6
Continuous
 62
     7
100
AcDbLine
 10
6042.5366518691
 20
5353.5609217361
 30
0.0
 11
6042.5388721421
 21
5353.8086758927
 31
0.0
  0
LINE
  5
2BD
330
1F
100
AcDbEntity
  8
0
  6
Continuous
 62
     7
100
AcDbLine
 10
6042.5388721421
 20
5353.8086758927
 30
0.0
 11
6042.5410626128
 21
5354.0551336482
 31
0.0
  0
LINE
  5
2BE
330
1F
100
AcDbEntity
  8
0
  6
Continuous
 62
     7
100
AcDbLine
 10
6041.5232387975
 20
5352.0641485229
 30
0.0
 11
6041.525503774
 21
5352.3166636005
 31
0.0
  0
LINE
  5
2BF
330
1F
100
AcDbEntity
  8
0
  6
Continuous
 62
     7
100
AcDbLine
 10
6041.525503774
 20
5352.3166636005
 30
0.0
 11
6041.5277538493
 21
5352.5687446818
 31
0.0
  0
LINE
  5
2C0
330
1F
100
AcDbEntity
  8
0
  6
Continuous
 62
     7
100
AcDbLine
 10
6041.5277538493
 20
5352.5687446818
 30
0.0
 11
6041.5300039247
 21
5352.8202502057
 31
0.0
  0
LINE
  5
2C1
330
1F
100
AcDbEntity
  8
0
  6
Continuous
 62
     7
100
AcDbLine
 10
6041.5300039247
 20
5352.8202502057
 30
0.0
 11
6041.5322390988
 21
5353.0710330233
 31
0.0
  0
LINE
  5
2C2
330
1F
100
AcDbEntity
  8
0
  6
Continuous
 62
     7
100
AcDbLine
 10
6041.5322390988
 20
5353.0710330233
 30
0.0
 11
6041.534474273
 21
5353.3209497109
 31
0.0
  0
LINE
  5
2C3
330
1F
100
AcDbEntity
  8
0
  6
Continuous
 62
     7
100
AcDbLine
 10
6041.534474273
 20
5353.3209497109
 30
0.0
 11
6041.536694546
 21
5353.5698549822
 31
0.0
  0
LINE
  5
2C4
330
1F
100
AcDbEntity
  8
0
  6
Continuous
 62
     7
100
AcDbLine
 10
6041.536694546
 20
5353.5698549822
 30
0.0
 11
6041.5389148191
 21
5353.8176091388
 31
0.0
  0
LINE
  5
2C5
330
1F
100
AcDbEntity
  8
0
  6
Continuous
 62
     7
100
AcDbLine
 10
6041.5389148191
 20
5353.8176091388
 30
0.0
 11
6041.5411052898
 21
5354.064068757
 31
0.0
  0
LINE
  5
2C6
330
1F
100
AcDbEntity
  8
0
  6
Continuous
 62
     7
100
AcDbLine
 10
6044.5141849711
 20
5351.0373858735
 30
0.0
 11
6044.2677346662
 21
5351.0395893827
 31
0.0
  0
LINE
  5
2C7
330
1F
100
AcDbEntity
  8
0
  6
Continuous
 62
     7
100
AcDbLine
 10
6044.2677346662
 20
5351.0395893827
 30
0.0
 11
6044.019973059
 21
5351.0418022052
 31
0.0
  0
LINE
  5
2C8
330
1F
100
AcDbEntity
  8
0
  6
Continuous
 62
     7
100
AcDbLine
 10
6044.019973059
 20
5351.0418022052
 30
0.0
 11
6043.7710640624
 21
5351.0440262035
 31
0.0
  0
LINE
  5
2C9
330
1F
100
AcDbEntity
  8
0
  6
Continuous
 62
     7
100
AcDbLine
 10
6043.7710640624
 20
5351.0440262035
 30
0.0
 11
6043.521156688
 21
5351.0462576524
 31
0.0
  0
LINE
  5
2CA
330
1F
100
AcDbEntity
  8
0
  6
Continuous
 62
     7
100
AcDbLine
 10
6043.521156688
 20
5351.0462576524
 30
0.0
 11
6043.2703701451
 21
5351.0484984145
 31
0.0
  0
LINE
  5
2CB
330
1F
100
AcDbEntity
  8
0
  6
Continuous
 62
     7
100
AcDbLine
 10
6043.2703701451
 20
5351.0484984145
 30
0.0
 11
6043.0188683465
 21
5351.0507466272
 31
0.0
  0
LINE
  5
2CC
330
1F
100
AcDbEntity
  8
0
  6
Continuous
 62
     7
100
AcDbLine
 10
6043.0188683465
 20
5351.0507466272
 30
0.0
 11
6042.7667854026
 21
5351.0529985652
 31
0.0
  0
LINE
  5
2CD
330
1F
100
AcDbEntity
  8
0
  6
Continuous
 62
     7
100
AcDbLine
 10
6042.7667854026
 20
5351.0529985652
 30
0.0
 11
6042.514270325
 21
5351.0552542284
 31
0.0
  0
LINE
  5
2CE
330
1F
100
AcDbEntity
  8
0
  6
Continuous
 62
     7
100
AcDbLine
 10
6041.5143130019
 20
5351.0641874746
 30
0.0
 11
6041.2617979243
 21
5351.0664450005
 31
0.0
  0
LINE
  5
2CF
330
1F
100
AcDbEntity
  8
0
  6
Continuous
 62
     7
100
AcDbLine
 10
6041.2617979243
 20
5351.0664450005
 30
0.0
 11
6041.0097149804
 21
5351.0686969385
 31
0.0
  0
LINE
  5
2D0
330
1F
100
AcDbEntity
  8
0
  6
Continuous
 62
     7
100
AcDbLine
 10
6041.0097149804
 20
5351.0686969385
 30
0.0
 11
6040.7582131818
 21
5351.0709432885
 31
0.0
  0
LINE
  5
2D1
330
1F
100
AcDbEntity
  8
0
  6
Continuous
 62
     7
100
AcDbLine
 10
6040.7582131818
 20
5351.0709432885
 30
0.0
 11
6040.5074266389
 21
5351.0731840506
 31
0.0
  0
LINE
  5
2D2
330
1F
100
AcDbEntity
  8
0
  6
Continuous
 62
     7
100
AcDbLine
 10
6040.5074266389
 20
5351.0731840506
 30
0.0
 11
6040.2575043634
 21
5351.0754173622
 31
0.0
  0
LINE
  5
2D3
330
1F
100
AcDbEntity
  8
0
  6
Continuous
 62
     7
100
AcDbLine
 10
6040.2575043634
 20
5351.0754173622
 30
0.0
 11
6040.0085953668
 21
5351.0776413605
 31
0.0
  0
LINE
  5
2D4
330
1F
100
AcDbEntity
  8
0
  6
Continuous
 62
     7
100
AcDbLine
 10
6040.0085953668
 20
5351.0776413605
 30
0.0
 11
6039.7608486608
 21
5351.0798541829
 31
0.0
  0
LINE
  5
2D5
330
1F
100
AcDbEntity
  8
0
  6
Continuous
 62
     7
100
AcDbLine
 10
6039.7608486608
 20
5351.0798541829
 30
0.0
 11
6039.5143834546
 21
5351.0820558295
 31
0.0
  0
LINE
  5
2D6
330
1F
100
AcDbEntity
  8
0
  6
Continuous
 62
     7
100
AcDbLine
 10
6042.4964038327
 20
5349.0553339944
 30
0.0
 11
6042.4986092046
 21
5349.3017936126
 31
0.0
  0
LINE
  5
2D7
330
1F
100
AcDbEntity
  8
0
  6
Continuous
 62
     7
100
AcDbLine
 10
6042.4986092046
 20
5349.3017936126
 30
0.0
 11
6042.5008145764
 21
5349.5495477692
 31
0.0
  0
LINE
  5
2D8
330
1F
100
AcDbEntity
  8
0
  6
Continuous
 62
     7
100
AcDbLine
 10
6042.5008145764
 20
5349.5495477692
 30
0.0
 11
6042.5030348495
 21
5349.7984530404
 31
0.0
  0
LINE
  5
2D9
330
1F
100
AcDbEntity
  8
0
  6
Continuous
 62
     7
100
AcDbLine
 10
6042.5030348495
 20
5349.7984530404
 30
0.0
 11
6042.5052700236
 21
5350.0483697281
 31
0.0
  0
LINE
  5
2DA
330
1F
100
AcDbEntity
  8
0
  6
Continuous
 62
     7
100
AcDbLine
 10
6042.5052700236
 20
5350.0483697281
 30
0.0
 11
6042.507520099
 21
5350.2991525457
 31
0.0
  0
LINE
  5
2DB
330
1F
100
AcDbEntity
  8
0
  6
Continuous
 62
     7
100
AcDbLine
 10
6042.507520099
 20
5350.2991525457
 30
0.0
 11
6042.5097552732
 21
5350.5506580696
 31
0.0
  0
LINE
  5
2DC
330
1F
100
AcDbEntity
  8
0
  6
Continuous
 62
     7
100
AcDbLine
 10
6042.5097552732
 20
5350.5506580696
 30
0.0
 11
6042.5120053485
 21
5350.8027391508
 31
0.0
  0
LINE
  5
2DD
330
1F
100
AcDbEntity
  8
0
  6
Continuous
 62
     7
100
AcDbLine
 10
6042.5120053485
 20
5350.8027391508
 30
0.0
 11
6042.514270325
 21
5351.0552542284
 31
0.0
  0
LINE
  5
2DE
330
1F
100
AcDbEntity
  8
0
  6
Continuous
 62
     7
100
AcDbLine
 10
6044.5231256679
 20
5352.0373469219
 30
0.0
 11
6044.2766604617
 21
5352.0395485685
 31
0.0
  0
LINE
  5
2DF
330
1F
100
AcDbEntity
  8
0
  6
Continuous
 62
     7
100
AcDbLine
 10
6044.2766604617
 20
5352.0395485685
 30
0.0
 11
6044.0289137557
 21
5352.0417613909
 31
0.0
  0
LINE
  5
2E0
330
1F
100
AcDbEntity
  8
0
  6
Continuous
 62
     7
100
AcDbLine
 10
6044.0289137557
 20
5352.0417613909
 30
0.0
 11
6043.7800047591
 21
5352.0439853892
 31
0.0
  0
LINE
  5
2E1
330
1F
100
AcDbEntity
  8
0
  6
Continuous
 62
     7
100
AcDbLine
 10
6043.7800047591
 20
5352.0439853892
 30
0.0
 11
6043.5300824836
 21
5352.0462187007
 31
0.0
  0
LINE
  5
2E2
330
1F
100
AcDbEntity
  8
0
  6
Continuous
 62
     7
100
AcDbLine
 10
6043.5300824836
 20
5352.0462187007
 30
0.0
 11
6043.2793108419
 21
5352.0484594628
 31
0.0
  0
LINE
  5
2E3
330
1F
100
AcDbEntity
  8
0
  6
Continuous
 62
     7
100
AcDbLine
 10
6043.2793108419
 20
5352.0484594628
 30
0.0
 11
6043.0277941421
 21
5352.0507058129
 31
0.0
  0
LINE
  5
2E4
330
1F
100
AcDbEntity
  8
0
  6
Continuous
 62
     7
100
AcDbLine
 10
6043.0277941421
 20
5352.0507058129
 30
0.0
 11
6042.7757111981
 21
5352.0529577509
 31
0.0
  0
LINE
  5
2E5
330
1F
100
AcDbEntity
  8
0
  6
Continuous
 62
     7
100
AcDbLine
 10
6042.7757111981
 20
5352.0529577509
 30
0.0
 11
6042.5231961206
 21
5352.0552152768
 31
0.0
  0
LINE
  5
2E6
330
1F
100
AcDbEntity
  8
0
  6
Continuous
 62
     7
100
AcDbLine
 10
6041.4964465097
 20
5349.0642672405
 30
0.0
 11
6041.4986369803
 21
5349.3107268587
 31
0.0
  0
LINE
  5
2E7
330
1F
100
AcDbEntity
  8
0
  6
Continuous
 62
     7
100
AcDbLine
 10
6041.4986369803
 20
5349.3107268587
 30
0.0
 11
6041.5008572534
 21
5349.5584810153
 31
0.0
  0
LINE
  5
2E8
330
1F
100
AcDbEntity
  8
0
  6
Continuous
 62
     7
100
AcDbLine
 10
6041.5008572534
 20
5349.5584810153
 30
0.0
 11
6041.5030775264
 21
5349.8073881492
 31
0.0
  0
LINE
  5
2E9
330
1F
100
AcDbEntity
  8
0
  6
Continuous
 62
     7
100
AcDbLine
 10
6041.5030775264
 20
5349.8073881492
 30
0.0
 11
6041.5053127006
 21
5350.0573048368
 31
0.0
  0
LINE
  5
2EA
330
1F
100
AcDbEntity
  8
0
  6
Continuous
 62
     7
100
AcDbLine
 10
6041.5053127006
 20
5350.0573048368
 30
0.0
 11
6041.5075478747
 21
5350.3080876544
 31
0.0
  0
LINE
  5
2EB
330
1F
100
AcDbEntity
  8
0
  6
Continuous
 62
     7
100
AcDbLine
 10
6041.5075478747
 20
5350.3080876544
 30
0.0
 11
6041.5097979501
 21
5350.5595913157
 31
0.0
  0
LINE
  5
2EC
330
1F
100
AcDbEntity
  8
0
  6
Continuous
 62
     7
100
AcDbLine
 10
6041.5097979501
 20
5350.5595913157
 30
0.0
 11
6041.5120480254
 21
5350.8116742596
 31
0.0
  0
LINE
  5
2ED
330
1F
100
AcDbEntity
  8
0
  6
Continuous
 62
     7
100
AcDbLine
 10
6041.5120480254
 20
5350.8116742596
 30
0.0
 11
6041.5143130019
 21
5351.0641874746
 31
0.0
  0
LINE
  5
2EE
330
1F
100
AcDbEntity
  8
0
  6
Continuous
 62
     7
100
AcDbLine
 10
6276.7417851508
 20
5203.8514940068
 30
0.0
 11
6302.0187562004
 21
5203.8514940068
 31
0.0
  0
LINE
  5
2EF
330
1F
100
AcDbEntity
  8
0
  6
Continuous
 62
     7
100
AcDbLine
 10
6246.0187544718
 20
5203.8514940068
 30
0.0
 11
6276.7417851508
 21
5203.8514940068
 31
0.0
  0
LINE
  5
2F0
330
1F
100
AcDbEntity
  8
0
  6
Continuous
 62
     7
100
AcDbLine
 10
6276.9362872139
 20
5207.8515021131
 30
0.0
 11
6304.0187546655
 21
5207.8515021131
 31
0.0
  0
LINE
  5
2F1
330
1F
100
AcDbEntity
  8
0
  6
Continuous
 62
     7
100
AcDbLine
 10
6244.0187560067
 20
5207.8515021131
 30
0.0
 11
6276.9362872139
 21
5207.8515021131
 31
0.0
  0
LINE
  5
2F2
330
1F
100
AcDbEntity
  8
0
  6
Continuous
 62
     7
100
AcDbLine
 10
6276.4500320561
 20
5193.8515035436
 30
0.0
 11
6299.0187557086
 21
5193.8515035436
 31
0.0
  0
LINE
  5
2F3
330
1F
100
AcDbEntity
  8
0
  6
Continuous
 62
     7
100
AcDbLine
 10
6249.0187549636
 20
5193.8515035436
 30
0.0
 11
6276.4500320561
 21
5193.8515035436
 31
0.0
  0
LINE
  5
2F4
330
1F
100
AcDbEntity
  8
0
  6
Continuous
 62
     7
100
AcDbLine
 10
6240.0187534884
 20
5088.5515091941
 30
0.0
 11
6308.0187571838
 21
5088.5515091941
 31
0.0
  0
LINE
  5
2F5
330
1F
100
AcDbEntity
  8
0
  6
Continuous
 62
     7
100
AcDbLine
 10
6249.6891023263
 20
5148.5514966771
 30
0.0
 11
6298.3484083459
 21
5148.5514966771
 31
0.0
  0
LINE
  5
2F6
330
1F
100
AcDbEntity
  8
0
  6
Continuous
 62
     7
100
AcDbLine
 10
6249.8969269589
 20
5018.5514865443
 30
0.0
 11
6298.1405837133
 21
5018.5514865443
 31
0.0
  0
LINE
  5
2F7
330
1F
100
AcDbEntity
  8
0
  6
Continuous
 62
     7
100
AcDbLine
 10
6251.0187552914
 20
5155.0515023992
 30
0.0
 11
6297.0187553808
 21
5155.0515023992
 31
0.0
  0
LINE
  5
2F8
330
1F
100
AcDbEntity
  8
0
  6
Continuous
 62
     7
100
AcDbLine
 10
6249.0187549636
 20
5151.0514942929
 30
0.0
 11
6299.0187557086
 21
5151.0514942929
 31
0.0
  0
LINE
  5
2F9
330
1F
100
AcDbEntity
  8
0
  6
Continuous
 62
     7
100
AcDbLine
 10
6254.0187557831
 20
5165.0514928624
 30
0.0
 11
6294.0187548891
 21
5165.0514928624
 31
0.0
  0
LINE
  5
2FA
330
1F
100
AcDbEntity
  8
0
  6
Continuous
 62
     7
100
AcDbLine
 10
6290.5187552467
 20
5148.5514966771
 30
0.0
 11
6290.0187560961
 21
5148.9177672193
 31
0.0
  0
LINE
  5
2FB
330
1F
100
AcDbEntity
  8
0
  6
Continuous
 62
     7
100
AcDbLine
 10
6258.0187545761
 20
5148.9177672193
 30
0.0
 11
6257.5187554255
 21
5148.5514966771
 31
0.0
  0
LINE
  5
2FC
330
1F
100
AcDbEntity
  8
0
  6
Continuous
 62
     7
100
AcDbLine
 10
6515.5187604621
 20
5369.8117663153
 30
0.0
 11
6528.0187634423
 21
5370.3799480573
 31
0.0
  0
LINE
  5
2FD
330
1F
100
AcDbEntity
  8
0
  6
Continuous
 62
     7
100
AcDbLine
 10
6528.1095711186
 20
5368.3820110746
 30
0.0
 11
6528.1078127816
 21
5368.4204006568
 31
0.0
  0
LINE
  5
2FE
330
1F
100
AcDbEntity
  8
0
  6
Continuous
 62
     7
100
AcDbLine
 10
6528.1078127816
 20
5368.4204006568
 30
0.0
 11
6528.1026569799
 21
5368.5340951197
 31
0.0
  0
LINE
  5
2FF
330
1F
100
AcDbEntity
  8
0
  6
Continuous
 62
     7
100
AcDbLine
 10
6528.1026569799
 20
5368.5340951197
 30
0.0
 11
6528.0942527249
 21
5368.7187242322
 31
0.0
  0
LINE
  5
300
330
1F
100
AcDbEntity
  8
0
  6
Continuous
 62
     7
100
AcDbLine
 10
6528.0942527249
 20
5368.7187242322
 30
0.0
 11
6528.0829576448
 21
5368.9671931789
 31
0.0
  0
LINE
  5
301
330
1F
100
AcDbEntity
  8
0
  6
Continuous
 62
     7
100
AcDbLine
 10
6528.0829576448
 20
5368.9671931789
 30
0.0
 11
6528.0692187741
 21
5369.269953575
 31
0.0
  0
LINE
  5
302
330
1F
100
AcDbEntity
  8
0
  6
Continuous
 62
     7
100
AcDbLine
 10
6528.0692187741
 20
5369.269953575
 30
0.0
 11
6528.0535129502
 21
5369.6153708734
 31
0.0
  0
LINE
  5
303
330
1F
100
AcDbEntity
  8
0
  6
Continuous
 62
     7
100
AcDbLine
 10
6528.0535129502
 20
5369.6153708734
 30
0.0
 11
6528.0364660218
 21
5369.990170002
 31
0.0
  0
LINE
  5
304
330
1F
100
AcDbEntity
  8
0
  6
Continuous
 62
     7
100
AcDbLine
 10
6528.0364660218
 20
5369.990170002
 30
0.0
 11
6528.0187634423
 21
5370.3799480573
 31
0.0
  0
LINE
  5
305
330
1F
100
AcDbEntity
  8
0
  6
Continuous
 62
     7
100
AcDbLine
 10
6528.1095711186
 20
5368.3820110746
 30
0.0
 11
6521.0187492564
 21
5368.0597012863
 31
0.0
  0
LINE
  5
306
330
1F
100
AcDbEntity
  8
0
  6
Continuous
 62
     7
100
AcDbLine
 10
6521.0187492564
 20
5368.0597012863
 30
0.0
 11
6515.5187604621
 21
5368.0597012863
 31
0.0
  0
LINE
  5
307
330
1F
100
AcDbEntity
  8
0
  6
Continuous
 62
     7
100
AcDbLine
 10
6543.0187491372
 20
5371.5597014051
 30
0.0
 11
6528.0187634423
 21
5371.5597014051
 31
0.0
  0
LINE
  5
308
330
1F
100
AcDbEntity
  8
0
  6
Continuous
 62
     7
100
AcDbLine
 10
6543.0187491372
 20
5370.9708573297
 30
0.0
 11
6543.0187491372
 21
5371.5597014051
 31
0.0
  0
LINE
  5
309
330
1F
100
AcDbEntity
  8
0
  6
Continuous
 62
     7
100
AcDbLine
 10
6528.0187634423
 20
5370.3799480573
 30
0.0
 11
6530.3652790978
 21
5370.4723867122
 31
0.0
  0
LINE
  5
30A
330
1F
100
AcDbEntity
  8
0
  6
Continuous
 62
     7
100
AcDbLine
 10
6530.3652790978
 20
5370.4723867122
 30
0.0
 11
6532.6540080503
 21
5370.562548982
 31
0.0
  0
LINE
  5
30B
330
1F
100
AcDbEntity
  8
0
  6
Continuous
 62
     7
100
AcDbLine
 10
6532.6540080503
 20
5370.562548982
 30
0.0
 11
6534.8286239102
 21
5370.648215292
 31
0.0
  0
LINE
  5
30C
330
1F
100
AcDbEntity
  8
0
  6
Continuous
 62
     7
100
AcDbLine
 10
6534.8286239102
 20
5370.648215292
 30
0.0
 11
6536.8355421022
 21
5370.7272757311
 31
0.0
  0
LINE
  5
30D
330
1F
100
AcDbEntity
  8
0
  6
Continuous
 62
     7
100
AcDbLine
 10
6536.8355421022
 20
5370.7272757311
 30
0.0
 11
6538.6253503755
 21
5370.7977838349
 31
0.0
  0
LINE
  5
30E
330
1F
100
AcDbEntity
  8
0
  6
Continuous
 62
     7
100
AcDbLine
 10
6538.6253503755
 20
5370.7977838349
 30
0.0
 11
6540.1540008977
 21
5370.8580036182
 31
0.0
  0
LINE
  5
30F
330
1F
100
AcDbEntity
  8
0
  6
Continuous
 62
     7
100
AcDbLine
 10
6540.1540008977
 20
5370.8580036182
 30
0.0
 11
6541.3838533357
 21
5370.9064519499
 31
0.0
  0
LINE
  5
310
330
1F
100
AcDbEntity
  8
0
  6
Continuous
 62
     7
100
AcDbLine
 10
6541.3838533357
 20
5370.9064519499
 30
0.0
 11
6542.2845987275
 21
5370.9419360385
 31
0.0
  0
LINE
  5
311
330
1F
100
AcDbEntity
  8
0
  6
Continuous
 62
     7
100
AcDbLine
 10
6542.2845987275
 20
5370.9419360385
 30
0.0
 11
6542.8340939477
 21
5370.9635820706
 31
0.0
  0
LINE
  5
312
330
1F
100
AcDbEntity
  8
0
  6
Continuous
 62
     7
100
AcDbLine
 10
6542.8340939477
 20
5370.9635820706
 30
0.0
 11
6543.0187491372
 21
5370.9708573297
 31
0.0
  0
LINE
  5
313
330
1F
100
AcDbEntity
  8
0
  6
Continuous
 62
     7
100
AcDbLine
 10
6528.0187634423
 20
5371.5597014051
 30
0.0
 11
6528.0187634423
 21
5370.3799480573
 31
0.0
  0
LINE
  5
314
330
1F
100
AcDbEntity
  8
0
  6
Continuous
 62
     7
100
AcDbLine
 10
6541.1095825627
 20
5368.972920347
 30
0.0
 11
6540.9120825723
 21
5368.9639428631
 31
0.0
  0
LINE
  5
315
330
1F
100
AcDbEntity
  8
0
  6
Continuous
 62
     7
100
AcDbLine
 10
6540.9120825723
 20
5368.9639428631
 30
0.0
 11
6540.3255728677
 21
5368.9372837544
 31
0.0
  0
LINE
  5
316
330
1F
100
AcDbEntity
  8
0
  6
Continuous
 62
     7
100
AcDbLine
 10
6540.3255728677
 20
5368.9372837544
 30
0.0
 11
6539.3679050401
 21
5368.8937532716
 31
0.0
  0
LINE
  5
317
330
1F
100
AcDbEntity
  8
0
  6
Continuous
 62
     7
100
AcDbLine
 10
6539.3679050401
 20
5368.8937532716
 30
0.0
 11
6538.0681363538
 21
5368.8346738927
 31
0.0
  0
LINE
  5
318
330
1F
100
AcDbEntity
  8
0
  6
Continuous
 62
     7
100
AcDbLine
 10
6538.0681363538
 20
5368.8346738927
 30
0.0
 11
6536.4658144906
 21
5368.7618402764
 31
0.0
  0
LINE
  5
319
330
1F
100
AcDbEntity
  8
0
  6
Continuous
 62
     7
100
AcDbLine
 10
6536.4658144906
 20
5368.7618402764
 30
0.0
 11
6534.6095768407
 21
5368.6774657108
 31
0.0
  0
LINE
  5
31A
330
1F
100
AcDbEntity
  8
0
  6
Continuous
 62
     7
100
AcDbLine
 10
6534.6095768407
 20
5368.6774657108
 30
0.0
 11
6532.5558392003
 21
5368.5841136612
 31
0.0
  0
LINE
  5
31B
330
1F
100
AcDbEntity
  8
0
  6
Continuous
 62
     7
100
AcDbLine
 10
6532.5558392003
 20
5368.5841136612
 30
0.0
 11
6530.3670076325
 21
5368.4846214019
 31
0.0
  0
LINE
  5
31C
330
1F
100
AcDbEntity
  8
0
  6
Continuous
 62
     7
100
AcDbLine
 10
6530.3670076325
 20
5368.4846214019
 30
0.0
 11
6528.1095711186
 21
5368.3820110746
 31
0.0
  0
LINE
  5
31D
330
1F
100
AcDbEntity
  8
0
  6
Continuous
 62
     7
100
AcDbLine
 10
6528.0187634423
 20
5371.5597014051
 30
0.0
 11
6515.5187604621
 21
5371.5597014051
 31
0.0
  0
LINE
  5
31E
330
1F
100
AcDbEntity
  8
0
  6
Continuous
 62
     7
100
AcDbLine
 10
6515.5187604621
 20
5371.5597014051
 30
0.0
 11
6515.5187604621
 21
5369.8117663153
 31
0.0
  0
LINE
  5
31F
330
1F
100
AcDbEntity
  8
0
  6
Continuous
 62
     7
100
AcDbLine
 10
6528.0187634423
 20
5371.5597014051
 30
0.0
 11
6528.0187634423
 21
5373.5597015001
 31
0.0
  0
LINE
  5
320
330
1F
100
AcDbEntity
  8
0
  6
Continuous
 62
     7
100
AcDbLine
 10
6515.5187604621
 20
5371.5597014051
 30
0.0
 11
6515.5187604621
 21
5373.5597015001
 31
0.0
  0
LINE
  5
321
330
1F
100
AcDbEntity
  8
0
  6
Continuous
 62
     7
100
AcDbLine
 10
6515.5187604621
 20
5371.5597014051
 30
0.0
 11
6514.5187590082
 21
5371.5597014051
 31
0.0
  0
LINE
  5
322
330
1F
100
AcDbEntity
  8
0
  6
Continuous
 62
     7
100
AcDbLine
 10
6514.5187590082
 20
5372.5597014526
 30
0.0
 11
6514.5187590082
 21
5371.5597014051
 31
0.0
  0
LINE
  5
323
330
1F
100
AcDbEntity
  8
0
  6
Continuous
 62
     7
100
AcDbLine
 10
6514.5187590082
 20
5369.0597016938
 30
0.0
 11
6514.5187590082
 21
5371.5597014051
 31
0.0
  0
LINE
  5
324
330
1F
100
AcDbEntity
  8
0
  6
Continuous
 62
     7
100
AcDbLine
 10
6520.0187553361
 20
5368.0524735119
 30
0.0
 11
6515.5187604621
 21
5368.0524732918
 31
0.0
  0
LINE
  5
325
330
1F
100
AcDbEntity
  8
0
  6
Continuous
 62
     7
100
AcDbLine
 10
6520.0187553361
 20
5368.0524735119
 30
0.0
 11
6520.018762131
 21
5368.0597012863
 31
0.0
  0
LINE
  5
326
330
1F
100
AcDbEntity
  8
0
  6
Continuous
 62
     7
100
AcDbLine
 10
6521.0187553361
 20
5367.1041232771
 30
0.0
 11
6521.0187492564
 21
5344.5028429851
 31
0.0
  0
LINE
  5
327
330
1F
100
AcDbEntity
  8
0
  6
Continuous
 62
     7
100
AcDbLine
 10
6520.018762131
 20
5343.5100698844
 30
0.0
 11
6520.0187553361
 21
5368.0524735119
 31
0.0
  0
LINE
  5
328
330
1F
100
AcDbEntity
  8
0
  6
Continuous
 62
     7
100
AcDbLine
 10
6520.018762131
 20
5343.5100698844
 30
0.0
 11
6515.5187604621
 21
5343.5100698844
 31
0.0
  0
LINE
  5
329
330
1F
100
AcDbEntity
  8
0
  6
Continuous
 62
     7
100
AcDbLine
 10
6515.5187604621
 20
5368.0524732918
 30
0.0
 11
6515.5187604621
 21
5343.5100698844
 31
0.0
  0
LINE
  5
32A
330
1F
100
AcDbEntity
  8
0
  6
Continuous
 62
     7
100
AcDbLine
 10
6514.5187590082
 20
5344.5028432287
 30
0.0
 11
6514.5187590082
 21
5369.0597016938
 31
0.0
  0
LINE
  5
32B
330
1F
100
AcDbEntity
  8
0
  6
Continuous
 62
     7
100
AcDbLine
 10
6521.0187492564
 20
5337.8303265199
 30
0.0
 11
6520.9995416596
 21
5337.756938301
 31
0.0
  0
LINE
  5
32C
330
1F
100
AcDbEntity
  8
0
  6
Continuous
 62
     7
100
AcDbLine
 10
6520.9995416596
 20
5337.756938301
 30
0.0
 11
6520.942634125
 21
5337.6863738522
 31
0.0
  0
LINE
  5
32D
330
1F
100
AcDbEntity
  8
0
  6
Continuous
 62
     7
100
AcDbLine
 10
6520.942634125
 20
5337.6863738522
 30
0.0
 11
6520.8502320245
 21
5337.6213377342
 31
0.0
  0
LINE
  5
32E
330
1F
100
AcDbEntity
  8
0
  6
Continuous
 62
     7
100
AcDbLine
 10
6520.8502320245
 20
5337.6213377342
 30
0.0
 11
6520.7258669332
 21
5337.5643370673
 31
0.0
  0
LINE
  5
32F
330
1F
100
AcDbEntity
  8
0
  6
Continuous
 62
     7
100
AcDbLine
 10
6520.7258669332
 20
5337.5643370673
 30
0.0
 11
6520.5743221238
 21
5337.5175548718
 31
0.0
  0
LINE
  5
330
330
1F
100
AcDbEntity
  8
0
  6
Continuous
 62
     7
100
AcDbLine
 10
6520.5743221238
 20
5337.5175548718
 30
0.0
 11
6520.4014388516
 21
5337.482794188
 31
0.0
  0
LINE
  5
331
330
1F
100
AcDbEntity
  8
0
  6
Continuous
 62
     7
100
AcDbLine
 10
6520.4014388516
 20
5337.482794188
 30
0.0
 11
6520.2138481334
 21
5337.4613886699
 31
0.0
  0
LINE
  5
332
330
1F
100
AcDbEntity
  8
0
  6
Continuous
 62
     7
100
AcDbLine
 10
6520.2138481334
 20
5337.4613886699
 30
0.0
 11
6520.018762131
 21
5337.4541578815
 31
0.0
  0
LINE
  5
333
330
1F
100
AcDbEntity
  8
0
  6
Continuous
 62
     7
100
AcDbLine
 10
6520.018762131
 20
5337.4541578815
 30
0.0
 11
6520.018762131
 21
5343.5100698844
 31
0.0
  0
LINE
  5
334
330
1F
100
AcDbEntity
  8
0
  6
Continuous
 62
     7
100
AcDbLine
 10
6521.0187492564
 20
5344.5028429851
 30
0.0
 11
6521.0187492564
 21
5337.8303265199
 31
0.0
  0
LINE
  5
335
330
1F
100
AcDbEntity
  8
0
  6
Continuous
 62
     7
100
AcDbLine
 10
6515.5187604621
 20
5343.5100698844
 30
0.0
 11
6515.5187604621
 21
5337.4541578815
 31
0.0
  0
LINE
  5
336
330
1F
100
AcDbEntity
  8
0
  6
Continuous
 62
     7
100
AcDbLine
 10
6515.5187604621
 20
5337.4541578815
 30
0.0
 11
6515.3236601313
 21
5337.4613889135
 31
0.0
  0
LINE
  5
337
330
1F
100
AcDbEntity
  8
0
  6
Continuous
 62
     7
100
AcDbLine
 10
6515.3236601313
 20
5337.4613889135
 30
0.0
 11
6515.136069413
 21
5337.4827944316
 31
0.0
  0
LINE
  5
338
330
1F
100
AcDbEntity
  8
0
  6
Continuous
 62
     7
100
AcDbLine
 10
6515.136069413
 20
5337.4827944316
 30
0.0
 11
6514.9631861408
 21
5337.5175551154
 31
0.0
  0
LINE
  5
339
330
1F
100
AcDbEntity
  8
0
  6
Continuous
 62
     7
100
AcDbLine
 10
6514.9631861408
 20
5337.5175551154
 30
0.0
 11
6514.8116562327
 21
5337.5643373109
 31
0.0
  0
LINE
  5
33A
330
1F
100
AcDbEntity
  8
0
  6
Continuous
 62
     7
100
AcDbLine
 10
6514.8116562327
 20
5337.5643373109
 30
0.0
 11
6514.6872911413
 21
5337.6213379778
 31
0.0
  0
LINE
  5
33B
330
1F
100
AcDbEntity
  8
0
  6
Continuous
 62
     7
100
AcDbLine
 10
6514.6872911413
 20
5337.6213379778
 30
0.0
 11
6514.5948741396
 21
5337.6863740958
 31
0.0
  0
LINE
  5
33C
330
1F
100
AcDbEntity
  8
0
  6
Continuous
 62
     7
100
AcDbLine
 10
6514.5948741396
 20
5337.6863740958
 30
0.0
 11
6514.537966605
 21
5337.7569385446
 31
0.0
  0
LINE
  5
33D
330
1F
100
AcDbEntity
  8
0
  6
Continuous
 62
     7
100
AcDbLine
 10
6514.537966605
 20
5337.7569385446
 30
0.0
 11
6514.5187590082
 21
5337.8303267635
 31
0.0
  0
LINE
  5
33E
330
1F
100
AcDbEntity
  8
0
  6
Continuous
 62
     7
100
AcDbLine
 10
6514.5187590082
 20
5337.8303267635
 30
0.0
 11
6514.5187590082
 21
5344.5028432287
 31
0.0
  0
LINE
  5
33F
330
1F
100
AcDbEntity
  8
0
  6
Continuous
 62
     7
100
AcDbLine
 10
6520.018762131
 20
5337.4541578815
 30
0.0
 11
6515.5187604621
 21
5337.4541578815
 31
0.0
  0
LINE
  5
340
330
1F
100
AcDbEntity
  8
0
  6
Continuous
 62
     7
100
AcDbLine
 10
6515.5187604621
 20
5337.4541578815
 30
0.0
 11
6515.5187604621
 21
5264.1835389659
 31
0.0
  0
LINE
  5
341
330
1F
100
AcDbEntity
  8
0
  6
Continuous
 62
     7
100
AcDbLine
 10
6514.5187559088
 20
5268.6812520921
 30
0.0
 11
6514.5187590082
 21
5337.8303267635
 31
0.0
  0
LINE
  5
342
330
1F
100
AcDbEntity
  8
0
  6
Continuous
 62
     7
100
AcDbLine
 10
6520.018762131
 20
5264.1835389659
 30
0.0
 11
6520.2138481334
 21
5264.1907660291
 31
0.0
  0
LINE
  5
343
330
1F
100
AcDbEntity
  8
0
  6
Continuous
 62
     7
100
AcDbLine
 10
6520.2138481334
 20
5264.1907660291
 30
0.0
 11
6520.4014388516
 21
5264.2121715471
 31
0.0
  0
LINE
  5
344
330
1F
100
AcDbEntity
  8
0
  6
Continuous
 62
     7
100
AcDbLine
 10
6520.4014388516
 20
5264.2121715471
 30
0.0
 11
6520.5743221238
 21
5264.2469285056
 31
0.0
  0
LINE
  5
345
330
1F
100
AcDbEntity
  8
0
  6
Continuous
 62
     7
100
AcDbLine
 10
6520.5743221238
 20
5264.2469285056
 30
0.0
 11
6520.7258669332
 21
5264.2937107012
 31
0.0
  0
LINE
  5
346
330
1F
100
AcDbEntity
  8
0
  6
Continuous
 62
     7
100
AcDbLine
 10
6520.7258669332
 20
5264.2937107012
 30
0.0
 11
6520.8502320245
 21
5264.3507150933
 31
0.0
  0
LINE
  5
347
330
1F
100
AcDbEntity
  8
0
  6
Continuous
 62
     7
100
AcDbLine
 10
6520.8502320245
 20
5264.3507150933
 30
0.0
 11
6520.942634125
 21
5264.4157512114
 31
0.0
  0
LINE
  5
348
330
1F
100
AcDbEntity
  8
0
  6
Continuous
 62
     7
100
AcDbLine
 10
6520.942634125
 20
5264.4157512114
 30
0.0
 11
6520.9995416596
 21
5264.4863156602
 31
0.0
  0
LINE
  5
349
330
1F
100
AcDbEntity
  8
0
  6
Continuous
 62
     7
100
AcDbLine
 10
6520.9995416596
 20
5264.4863156602
 30
0.0
 11
6521.0187492564
 21
5264.5597038791
 31
0.0
  0
LINE
  5
34A
330
1F
100
AcDbEntity
  8
0
  6
Continuous
 62
     7
100
AcDbLine
 10
6520.018762131
 20
5264.1835389659
 30
0.0
 11
6520.018762131
 21
5337.4541578815
 31
0.0
  0
LINE
  5
34B
330
1F
100
AcDbEntity
  8
0
  6
Continuous
 62
     7
100
AcDbLine
 10
6521.0187492564
 20
5337.8303265199
 30
0.0
 11
6521.0187492564
 21
5264.5597038791
 31
0.0
  0
LINE
  5
34C
330
1F
100
AcDbEntity
  8
0
  6
Continuous
 62
     7
100
AcDbLine
 10
6515.5187604621
 20
5264.1835389659
 30
0.0
 11
6520.018762131
 21
5264.1835389659
 31
0.0
  0
LINE
  5
34D
330
1F
100
AcDbEntity
  8
0
  6
Continuous
 62
     7
100
AcDbLine
 10
6514.5187585753
 20
5288.7522608615
 30
0.0
 11
6513.5187565488
 21
5288.7522608615
 31
0.0
  0
LINE
  5
34E
330
1F
100
AcDbEntity
  8
0
  6
Continuous
 62
     7
100
AcDbLine
 10
6513.5187553362
 20
5343.5795160843
 30
0.0
 11
6514.5187584355
 21
5343.5795167461
 31
0.0
  0
LINE
  5
34F
330
1F
100
AcDbEntity
  8
0
  6
Continuous
 62
     7
100
AcDbLine
 10
6514.5187559088
 20
5268.6812520921
 30
0.0
 11
6513.518755476
 21
5268.6812520921
 31
0.0
  0
LINE
  5
350
330
1F
100
AcDbEntity
  8
0
  6
Continuous
 62
     7
100
AcDbLine
 10
6513.518755476
 20
5268.6812520921
 30
0.0
 11
6513.5187565488
 21
5288.7522608615
 31
0.0
  0
LINE
  5
351
330
1F
100
AcDbEntity
  8
0
  6
Continuous
 62
     7
100
AcDbLine
 10
6513.5187569817
 20
5368.0597015299
 30
0.0
 11
6514.5187590082
 21
5368.0597015299
 31
0.0
  0
LINE
  5
352
330
1F
100
AcDbEntity
  8
0
  6
Continuous
 62
     7
100
AcDbLine
 10
6513.5187553362
 20
5340.0540348062
 30
0.0
 11
6514.5187584355
 21
5340.0540342555
 31
0.0
  0
LINE
  5
353
330
1F
100
AcDbEntity
  8
0
  6
Continuous
 62
     7
100
AcDbLine
 10
6513.5187569817
 20
5372.5597014526
 30
0.0
 11
6514.5187590082
 21
5372.5597014526
 31
0.0
  0
LINE
  5
354
330
1F
100
AcDbEntity
  8
0
  6
Continuous
 62
     7
100
AcDbLine
 10
6513.5187569817
 20
5368.0597015299
 30
0.0
 11
6513.5187569817
 21
5372.5597014526
 31
0.0
  0
LINE
  5
355
330
1F
100
AcDbEntity
  8
0
  6
Continuous
 62
     7
100
AcDbLine
 10
6513.5187553362
 20
5340.0540348062
 30
0.0
 11
6513.5187553362
 21
5343.5795160843
 31
0.0
  0
LINE
  5
356
330
1F
100
AcDbEntity
  8
0
  6
Continuous
 62
     7
100
AcDbLine
 10
6520.018762131
 20
5263.5597018525
 30
0.0
 11
6515.5187573309
 21
5263.5597012565
 31
0.0
  0
LINE
  5
357
330
1F
100
AcDbEntity
  8
0
  6
Continuous
 62
     7
100
AcDbLine
 10
6515.5187573309
 20
5263.5597012565
 30
0.0
 11
6515.5187604621
 21
5264.1835389659
 31
0.0
  0
LINE
  5
358
330
1F
100
AcDbEntity
  8
0
  6
Continuous
 62
     7
100
AcDbLine
 10
6520.018762131
 20
5263.5597018525
 30
0.0
 11
6520.018762131
 21
5264.1835389659
 31
0.0
  0
LINE
  5
359
330
1F
100
AcDbEntity
  8
0
  6
Continuous
 62
     7
100
AcDbLine
 10
6497.7806267932
 20
5264.5597038791
 30
0.0
 11
6514.2553070225
 21
5264.5597012565
 31
0.0
  0
LINE
  5
35A
330
1F
100
AcDbEntity
  8
0
  6
Continuous
 62
     7
100
AcDbLine
 10
6514.2553070225
 20
5263.5597012565
 30
0.0
 11
6497.7806267932
 21
5263.5597008973
 31
0.0
  0
LINE
  5
35B
330
1F
100
AcDbEntity
  8
0
  6
Continuous
 62
     7
100
AcDbLine
 10
6497.7806267932
 20
5263.5597008973
 30
0.0
 11
6497.7806267932
 21
5264.5597038791
 31
0.0
  0
LINE
  5
35C
330
1F
100
AcDbEntity
  8
0
  6
Continuous
 62
     7
100
AcDbLine
 10
6488.0187568858
 20
5271.3903961703
 30
0.0
 11
6474.3034151986
 21
5333.1094151363
 31
0.0
  0
LINE
  5
35D
330
1F
100
AcDbEntity
  8
0
  6
Continuous
 62
     7
100
AcDbLine
 10
6488.0187568858
 20
5271.3903961703
 30
0.0
 11
6488.0375174478
 21
5271.3945684955
 31
0.0
  0
LINE
  5
35E
330
1F
100
AcDbEntity
  8
0
  6
Continuous
 62
     7
100
AcDbLine
 10
6488.0375174478
 20
5271.3945684955
 30
0.0
 11
6488.0930689767
 21
5271.4069066569
 31
0.0
  0
LINE
  5
35F
330
1F
100
AcDbEntity
  8
0
  6
Continuous
 62
     7
100
AcDbLine
 10
6488.0930689767
 20
5271.4069066569
 30
0.0
 11
6488.1832657054
 21
5271.4269561693
 31
0.0
  0
LINE
  5
360
330
1F
100
AcDbEntity
  8
0
  6
Continuous
 62
     7
100
AcDbLine
 10
6488.1832657054
 20
5271.4269561693
 30
0.0
 11
6488.3046803668
 21
5271.4539347217
 31
0.0
  0
LINE
  5
361
330
1F
100
AcDbEntity
  8
0
  6
Continuous
 62
     7
100
AcDbLine
 10
6488.3046803668
 20
5271.4539347217
 30
0.0
 11
6488.452604194
 21
5271.4868066833
 31
0.0
  0
LINE
  5
362
330
1F
100
AcDbEntity
  8
0
  6
Continuous
 62
     7
100
AcDbLine
 10
6488.452604194
 20
5271.4868066833
 30
0.0
 11
6488.6213747457
 21
5271.524312906
 31
0.0
  0
LINE
  5
363
330
1F
100
AcDbEntity
  8
0
  6
Continuous
 62
     7
100
AcDbLine
 10
6488.6213747457
 20
5271.524312906
 30
0.0
 11
6488.8044951156
 21
5271.5650079772
 31
0.0
  0
LINE
  5
364
330
1F
100
AcDbEntity
  8
0
  6
Continuous
 62
     7
100
AcDbLine
 10
6488.8044951156
 20
5271.5650079772
 30
0.0
 11
6488.9949468568
 21
5271.607327275
 31
0.0
  0
LINE
  5
365
330
1F
100
AcDbEntity
  8
0
  6
Continuous
 62
     7
100
AcDbLine
 10
6020.0187472299
 20
5370.3799480573
 30
0.0
 11
6017.6722315744
 21
5370.4723867122
 31
0.0
  0
LINE
  5
366
330
1F
100
AcDbEntity
  8
0
  6
Continuous
 62
     7
100
AcDbLine
 10
6017.6722315744
 20
5370.4723867122
 30
0.0
 11
6015.3835026219
 21
5370.562548982
 31
0.0
  0
LINE
  5
367
330
1F
100
AcDbEntity
  8
0
  6
Continuous
 62
     7
100
AcDbLine
 10
6015.3835026219
 20
5370.562548982
 30
0.0
 11
6013.208886762
 21
5370.648215292
 31
0.0
  0
LINE
  5
368
330
1F
100
AcDbEntity
  8
0
  6
Continuous
 62
     7
100
AcDbLine
 10
6013.208886762
 20
5370.648215292
 30
0.0
 11
6011.20196857
 21
5370.7272757311
 31
0.0
  0
LINE
  5
369
330
1F
100
AcDbEntity
  8
0
  6
Continuous
 62
     7
100
AcDbLine
 10
6011.20196857
 20
5370.7272757311
 30
0.0
 11
6009.4121602967
 21
5370.7977838349
 31
0.0
  0
LINE
  5
36A
330
1F
100
AcDbEntity
  8
0
  6
Continuous
 62
     7
100
AcDbLine
 10
6009.4121602967
 20
5370.7977838349
 30
0.0
 11
6007.8835097745
 21
5370.8580036182
 31
0.0
  0
LINE
  5
36B
330
1F
100
AcDbEntity
  8
0
  6
Continuous
 62
     7
100
AcDbLine
 10
6007.8835097745
 20
5370.8580036182
 30
0.0
 11
6006.6536573365
 21
5370.9064519499
 31
0.0
  0
LINE
  5
36C
330
1F
100
AcDbEntity
  8
0
  6
Continuous
 62
     7
100
AcDbLine
 10
6006.6536573365
 20
5370.9064519499
 30
0.0
 11
6005.7529119447
 21
5370.9419360385
 31
0.0
  0
LINE
  5
36D
330
1F
100
AcDbEntity
  8
0
  6
Continuous
 62
     7
100
AcDbLine
 10
6005.7529119447
 20
5370.9419360385
 30
0.0
 11
6005.2034167245
 21
5370.9635820706
 31
0.0
  0
LINE
  5
36E
330
1F
100
AcDbEntity
  8
0
  6
Continuous
 62
     7
100
AcDbLine
 10
6005.2034167245
 20
5370.9635820706
 30
0.0
 11
6005.018761535
 21
5370.9708573297
 31
0.0
  0
LINE
  5
36F
330
1F
100
AcDbEntity
  8
0
  6
Continuous
 62
     7
100
AcDbLine
 10
6019.9279395536
 20
5368.3820110746
 30
0.0
 11
6019.9296978906
 21
5368.4204006568
 31
0.0
  0
LINE
  5
370
330
1F
100
AcDbEntity
  8
0
  6
Continuous
 62
     7
100
AcDbLine
 10
6019.9296978906
 20
5368.4204006568
 30
0.0
 11
6019.9348536923
 21
5368.5340951197
 31
0.0
  0
LINE
  5
371
330
1F
100
AcDbEntity
  8
0
  6
Continuous
 62
     7
100
AcDbLine
 10
6019.9348536923
 20
5368.5340951197
 30
0.0
 11
6019.9432579473
 21
5368.7187242322
 31
0.0
  0
LINE
  5
372
330
1F
100
AcDbEntity
  8
0
  6
Continuous
 62
     7
100
AcDbLine
 10
6019.9432579473
 20
5368.7187242322
 30
0.0
 11
6019.9545530274
 21
5368.9671931789
 31
0.0
  0
LINE
  5
373
330
1F
100
AcDbEntity
  8
0
  6
Continuous
 62
     7
100
AcDbLine
 10
6019.9545530274
 20
5368.9671931789
 30
0.0
 11
6019.9682918981
 21
5369.269953575
 31
0.0
  0
LINE
  5
374
330
1F
100
AcDbEntity
  8
0
  6
Continuous
 62
     7
100
AcDbLine
 10
6019.9682918981
 20
5369.269953575
 30
0.0
 11
6019.983997722
 21
5369.6153708734
 31
0.0
  0
LINE
  5
375
330
1F
100
AcDbEntity
  8
0
  6
Continuous
 62
     7
100
AcDbLine
 10
6019.983997722
 20
5369.6153708734
 30
0.0
 11
6020.0010446504
 21
5369.990170002
 31
0.0
  0
LINE
  5
376
330
1F
100
AcDbEntity
  8
0
  6
Continuous
 62
     7
100
AcDbLine
 10
6020.0010446504
 20
5369.990170002
 30
0.0
 11
6020.0187472299
 21
5370.3799480573
 31
0.0
  0
LINE
  5
377
330
1F
100
AcDbEntity
  8
0
  6
Continuous
 62
     7
100
AcDbLine
 10
6006.9279281095
 20
5368.972920347
 30
0.0
 11
6007.1254280999
 21
5368.9639428631
 31
0.0
  0
LINE
  5
378
330
1F
100
AcDbEntity
  8
0
  6
Continuous
 62
     7
100
AcDbLine
 10
6007.1254280999
 20
5368.9639428631
 30
0.0
 11
6007.7119378045
 21
5368.9372837544
 31
0.0
  0
LINE
  5
379
330
1F
100
AcDbEntity
  8
0
  6
Continuous
 62
     7
100
AcDbLine
 10
6007.7119378045
 20
5368.9372837544
 30
0.0
 11
6008.6696056321
 21
5368.8937532716
 31
0.0
  0
LINE
  5
37A
330
1F
100
AcDbEntity
  8
0
  6
Continuous
 62
     7
100
AcDbLine
 10
6008.6696056321
 20
5368.8937532716
 30
0.0
 11
6009.9693743184
 21
5368.8346738927
 31
0.0
  0
LINE
  5
37B
330
1F
100
AcDbEntity
  8
0
  6
Continuous
 62
     7
100
AcDbLine
 10
6009.9693743184
 20
5368.8346738927
 30
0.0
 11
6011.5716961816
 21
5368.7618402764
 31
0.0
  0
LINE
  5
37C
330
1F
100
AcDbEntity
  8
0
  6
Continuous
 62
     7
100
AcDbLine
 10
6011.5716961816
 20
5368.7618402764
 30
0.0
 11
6013.4279338315
 21
5368.6774657108
 31
0.0
  0
LINE
  5
37D
330
1F
100
AcDbEntity
  8
0
  6
Continuous
 62
     7
100
AcDbLine
 10
6013.4279338315
 20
5368.6774657108
 30
0.0
 11
6015.4816714719
 21
5368.5841136612
 31
0.0
  0
LINE
  5
37E
330
1F
100
AcDbEntity
  8
0
  6
Continuous
 62
     7
100
AcDbLine
 10
6015.4816714719
 20
5368.5841136612
 30
0.0
 11
6017.6705030397
 21
5368.4846214019
 31
0.0
  0
LINE
  5
37F
330
1F
100
AcDbEntity
  8
0
  6
Continuous
 62
     7
100
AcDbLine
 10
6017.6705030397
 20
5368.4846214019
 30
0.0
 11
6019.9279395536
 21
5368.3820110746
 31
0.0
  0
LINE
  5
380
330
1F
100
AcDbEntity
  8
0
  6
Continuous
 62
     7
100
AcDbLine
 10
6019.9279395536
 20
5368.3820110746
 30
0.0
 11
6027.0187614158
 21
5368.0597012863
 31
0.0
  0
LINE
  5
381
330
1F
100
AcDbEntity
  8
0
  6
Continuous
 62
     7
100
AcDbLine
 10
6032.5187502101
 20
5369.8117663153
 30
0.0
 11
6020.0187472299
 21
5370.3799480573
 31
0.0
  0
LINE
  5
382
330
1F
100
AcDbEntity
  8
0
  6
Continuous
 62
     7
100
AcDbLine
 10
6027.0187614158
 20
5368.0597012863
 30
0.0
 11
6032.5187502101
 21
5368.0597012863
 31
0.0
  0
LINE
  5
383
330
1F
100
AcDbEntity
  8
0
  6
Continuous
 62
     7
100
AcDbLine
 10
6005.018761535
 20
5370.9708573297
 30
0.0
 11
6005.018761535
 21
5371.5597011615
 31
0.0
  0
LINE
  5
384
330
1F
100
AcDbEntity
  8
0
  6
Continuous
 62
     7
100
AcDbLine
 10
6005.018761535
 20
5371.5597011615
 30
0.0
 11
6020.0187472299
 21
5371.5597011615
 31
0.0
  0
LINE
  5
385
330
1F
100
AcDbEntity
  8
0
  6
Continuous
 62
     7
100
AcDbLine
 10
6020.0187472299
 20
5371.5597011615
 30
0.0
 11
6020.0187472299
 21
5370.3799480573
 31
0.0
  0
LINE
  5
386
330
1F
100
AcDbEntity
  8
0
  6
Continuous
 62
     7
100
AcDbLine
 10
6032.5187502101
 20
5371.5597011615
 30
0.0
 11
6033.5187522367
 21
5371.5597011615
 31
0.0
  0
LINE
  5
387
330
1F
100
AcDbEntity
  8
0
  6
Continuous
 62
     7
100
AcDbLine
 10
6033.5187522367
 20
5369.0597014502
 30
0.0
 11
6033.5187522367
 21
5371.5597011615
 31
0.0
  0
LINE
  5
388
330
1F
100
AcDbEntity
  8
0
  6
Continuous
 62
     7
100
AcDbLine
 10
6032.5187502101
 20
5371.5597011615
 30
0.0
 11
6032.5187502101
 21
5369.8117663153
 31
0.0
  0
LINE
  5
389
330
1F
100
AcDbEntity
  8
0
  6
Continuous
 62
     7
100
AcDbLine
 10
6033.5187522367
 20
5372.559701209
 30
0.0
 11
6033.5187522367
 21
5371.5597011615
 31
0.0
  0
LINE
  5
38A
330
1F
100
AcDbEntity
  8
0
  6
Continuous
 62
     7
100
AcDbLine
 10
6032.5187502101
 20
5371.5597011615
 30
0.0
 11
6032.5187502101
 21
5373.5597012565
 31
0.0
  0
LINE
  5
38B
330
1F
100
AcDbEntity
  8
0
  6
Continuous
 62
     7
100
AcDbLine
 10
6020.0187472299
 20
5371.5597011615
 30
0.0
 11
6032.5187502101
 21
5371.5597011615
 31
0.0
  0
LINE
  5
38C
330
1F
100
AcDbEntity
  8
0
  6
Continuous
 62
     7
100
AcDbLine
 10
6020.0187472299
 20
5371.5597011615
 30
0.0
 11
6020.0187472299
 21
5373.5597012565
 31
0.0
  0
LINE
  5
38D
330
1F
100
AcDbEntity
  8
0
  6
Continuous
 62
     7
100
AcDbLine
 10
6028.0187553361
 20
5368.0524735119
 30
0.0
 11
6032.5187502101
 21
5368.0524732918
 31
0.0
  0
LINE
  5
38E
330
1F
100
AcDbEntity
  8
0
  6
Continuous
 62
     7
100
AcDbLine
 10
6028.0187553361
 20
5368.0524735119
 30
0.0
 11
6028.0187485412
 21
5368.0597012863
 31
0.0
  0
LINE
  5
38F
330
1F
100
AcDbEntity
  8
0
  6
Continuous
 62
     7
100
AcDbLine
 10
6028.0187485412
 20
5343.5100698844
 30
0.0
 11
6028.0187553361
 21
5368.0524735119
 31
0.0
  0
LINE
  5
390
330
1F
100
AcDbEntity
  8
0
  6
Continuous
 62
     7
100
AcDbLine
 10
6027.0187553361
 20
5367.1041232771
 30
0.0
 11
6027.0187614158
 21
5344.5028429851
 31
0.0
  0
LINE
  5
391
330
1F
100
AcDbEntity
  8
0
  6
Continuous
 62
     7
100
AcDbLine
 10
6032.5187502101
 20
5368.0524732918
 30
0.0
 11
6032.5187502101
 21
5343.5100698844
 31
0.0
  0
LINE
  5
392
330
1F
100
AcDbEntity
  8
0
  6
Continuous
 62
     7
100
AcDbLine
 10
6028.0187485412
 20
5343.5100698844
 30
0.0
 11
6032.5187502101
 21
5343.5100698844
 31
0.0
  0
LINE
  5
393
330
1F
100
AcDbEntity
  8
0
  6
Continuous
 62
     7
100
AcDbLine
 10
6033.5187522367
 20
5344.5028429851
 30
0.0
 11
6033.5187522367
 21
5369.0597014502
 31
0.0
  0
LINE
  5
394
330
1F
100
AcDbEntity
  8
0
  6
Continuous
 62
     7
100
AcDbLine
 10
6032.5187502101
 20
5337.4541578815
 30
0.0
 11
6032.7138511136
 21
5337.4613886699
 31
0.0
  0
LINE
  5
395
330
1F
100
AcDbEntity
  8
0
  6
Continuous
 62
     7
100
AcDbLine
 10
6032.7138511136
 20
5337.4613886699
 30
0.0
 11
6032.9014418319
 21
5337.482794188
 31
0.0
  0
LINE
  5
396
330
1F
100
AcDbEntity
  8
0
  6
Continuous
 62
     7
100
AcDbLine
 10
6032.9014418319
 20
5337.482794188
 30
0.0
 11
6033.0743251041
 21
5337.5175548718
 31
0.0
  0
LINE
  5
397
330
1F
100
AcDbEntity
  8
0
  6
Continuous
 62
     7
100
AcDbLine
 10
6033.0743251041
 20
5337.5175548718
 30
0.0
 11
6033.2258550122
 21
5337.5643370673
 31
0.0
  0
LINE
  5
398
330
1F
100
AcDbEntity
  8
0
  6
Continuous
 62
     7
100
AcDbLine
 10
6033.2258550122
 20
5337.5643370673
 30
0.0
 11
6033.3502201036
 21
5337.6213377342
 31
0.0
  0
LINE
  5
399
330
1F
100
AcDbEntity
  8
0
  6
Continuous
 62
     7
100
AcDbLine
 10
6033.3502201036
 20
5337.6213377342
 30
0.0
 11
6033.4426371053
 21
5337.6863738522
 31
0.0
  0
LINE
  5
39A
330
1F
100
AcDbEntity
  8
0
  6
Continuous
 62
     7
100
AcDbLine
 10
6033.4426371053
 20
5337.6863738522
 30
0.0
 11
6033.4995446399
 21
5337.756938301
 31
0.0
  0
LINE
  5
39B
330
1F
100
AcDbEntity
  8
0
  6
Continuous
 62
     7
100
AcDbLine
 10
6033.4995446399
 20
5337.756938301
 30
0.0
 11
6033.5187522367
 21
5337.8303265199
 31
0.0
  0
LINE
  5
39C
330
1F
100
AcDbEntity
  8
0
  6
Continuous
 62
     7
100
AcDbLine
 10
6032.5187502101
 20
5343.5100698844
 30
0.0
 11
6032.5187502101
 21
5337.4541578815
 31
0.0
  0
LINE
  5
39D
330
1F
100
AcDbEntity
  8
0
  6
Continuous
 62
     7
100
AcDbLine
 10
6033.5187522367
 20
5337.8303265199
 30
0.0
 11
6033.5187522367
 21
5344.5028429851
 31
0.0
  0
LINE
  5
39E
330
1F
100
AcDbEntity
  8
0
  6
Continuous
 62
     7
100
AcDbLine
 10
6028.0187485412
 20
5337.4541578815
 30
0.0
 11
6028.0187485412
 21
5343.5100698844
 31
0.0
  0
LINE
  5
39F
330
1F
100
AcDbEntity
  8
0
  6
Continuous
 62
     7
100
AcDbLine
 10
6028.0187485412
 20
5337.4541578815
 30
0.0
 11
6032.5187502101
 21
5337.4541578815
 31
0.0
  0
LINE
  5
3A0
330
1F
100
AcDbEntity
  8
0
  6
Continuous
 62
     7
100
AcDbLine
 10
6027.0187614158
 20
5337.8303265199
 30
0.0
 11
6027.0379690126
 21
5337.756938301
 31
0.0
  0
LINE
  5
3A1
330
1F
100
AcDbEntity
  8
0
  6
Continuous
 62
     7
100
AcDbLine
 10
6027.0379690126
 20
5337.756938301
 30
0.0
 11
6027.0948765472
 21
5337.6863738522
 31
0.0
  0
LINE
  5
3A2
330
1F
100
AcDbEntity
  8
0
  6
Continuous
 62
     7
100
AcDbLine
 10
6027.0948765472
 20
5337.6863738522
 30
0.0
 11
6027.1872786477
 21
5337.6213377342
 31
0.0
  0
LINE
  5
3A3
330
1F
100
AcDbEntity
  8
0
  6
Continuous
 62
     7
100
AcDbLine
 10
6027.1872786477
 20
5337.6213377342
 30
0.0
 11
6027.311643739
 21
5337.5643370673
 31
0.0
  0
LINE
  5
3A4
330
1F
100
AcDbEntity
  8
0
  6
Continuous
 62
     7
100
AcDbLine
 10
6027.311643739
 20
5337.5643370673
 30
0.0
 11
6027.4631885484
 21
5337.5175548718
 31
0.0
  0
LINE
  5
3A5
330
1F
100
AcDbEntity
  8
0
  6
Continuous
 62
     7
100
AcDbLine
 10
6027.4631885484
 20
5337.5175548718
 30
0.0
 11
6027.6360718206
 21
5337.482794188
 31
0.0
  0
LINE
  5
3A6
330
1F
100
AcDbEntity
  8
0
  6
Continuous
 62
     7
100
AcDbLine
 10
6027.6360718206
 20
5337.482794188
 30
0.0
 11
6027.8236625388
 21
5337.4613886699
 31
0.0
  0
LINE
  5
3A7
330
1F
100
AcDbEntity
  8
0
  6
Continuous
 62
     7
100
AcDbLine
 10
6027.8236625388
 20
5337.4613886699
 30
0.0
 11
6028.0187485412
 21
5337.4541578815
 31
0.0
  0
LINE
  5
3A8
330
1F
100
AcDbEntity
  8
0
  6
Continuous
 62
     7
100
AcDbLine
 10
6027.0187614158
 20
5344.5028429851
 30
0.0
 11
6027.0187614158
 21
5337.8303265199
 31
0.0
  0
LINE
  5
3A9
330
1F
100
AcDbEntity
  8
0
  6
Continuous
 62
     7
100
AcDbLine
 10
6028.0187485412
 20
5264.1835389659
 30
0.0
 11
6027.8236625388
 21
5264.1907660291
 31
0.0
  0
LINE
  5
3AA
330
1F
100
AcDbEntity
  8
0
  6
Continuous
 62
     7
100
AcDbLine
 10
6027.8236625388
 20
5264.1907660291
 30
0.0
 11
6027.6360718206
 21
5264.2121715471
 31
0.0
  0
LINE
  5
3AB
330
1F
100
AcDbEntity
  8
0
  6
Continuous
 62
     7
100
AcDbLine
 10
6027.6360718206
 20
5264.2121715471
 30
0.0
 11
6027.4631885484
 21
5264.2469285056
 31
0.0
  0
LINE
  5
3AC
330
1F
100
AcDbEntity
  8
0
  6
Continuous
 62
     7
100
AcDbLine
 10
6027.4631885484
 20
5264.2469285056
 30
0.0
 11
6027.311643739
 21
5264.2937107012
 31
0.0
  0
LINE
  5
3AD
330
1F
100
AcDbEntity
  8
0
  6
Continuous
 62
     7
100
AcDbLine
 10
6027.311643739
 20
5264.2937107012
 30
0.0
 11
6027.1872786477
 21
5264.3507150933
 31
0.0
  0
LINE
  5
3AE
330
1F
100
AcDbEntity
  8
0
  6
Continuous
 62
     7
100
AcDbLine
 10
6027.1872786477
 20
5264.3507150933
 30
0.0
 11
6027.0948765472
 21
5264.4157512114
 31
0.0
  0
LINE
  5
3AF
330
1F
100
AcDbEntity
  8
0
  6
Continuous
 62
     7
100
AcDbLine
 10
6027.0948765472
 20
5264.4157512114
 30
0.0
 11
6027.0379690126
 21
5264.4863156602
 31
0.0
  0
LINE
  5
3B0
330
1F
100
AcDbEntity
  8
0
  6
Continuous
 62
     7
100
AcDbLine
 10
6027.0379690126
 20
5264.4863156602
 30
0.0
 11
6027.0187614158
 21
5264.5597038791
 31
0.0
  0
LINE
  5
3B1
330
1F
100
AcDbEntity
  8
0
  6
Continuous
 62
     7
100
AcDbLine
 10
6028.0187485412
 20
5264.1835389659
 30
0.0
 11
6028.0187485412
 21
5337.4541578815
 31
0.0
  0
LINE
  5
3B2
330
1F
100
AcDbEntity
  8
0
  6
Continuous
 62
     7
100
AcDbLine
 10
6027.0187614158
 20
5337.8303265199
 30
0.0
 11
6027.0187614158
 21
5264.5597038791
 31
0.0
  0
LINE
  5
3B3
330
1F
100
AcDbEntity
  8
0
  6
Continuous
 62
     7
100
AcDbLine
 10
6032.5187502101
 20
5337.4541578815
 30
0.0
 11
6032.5187502101
 21
5264.1835389659
 31
0.0
  0
LINE
  5
3B4
330
1F
100
AcDbEntity
  8
0
  6
Continuous
 62
     7
100
AcDbLine
 10
6033.5187547634
 20
5268.6812520921
 30
0.0
 11
6033.5187522367
 21
5337.8303265199
 31
0.0
  0
LINE
  5
3B5
330
1F
100
AcDbEntity
  8
0
  6
Continuous
 62
     7
100
AcDbLine
 10
6032.5187502101
 20
5264.1835389659
 30
0.0
 11
6028.0187485412
 21
5264.1835389659
 31
0.0
  0
LINE
  5
3B6
330
1F
100
AcDbEntity
  8
0
  6
Continuous
 62
     7
100
AcDbLine
 10
6033.5187520969
 20
5288.7522608615
 30
0.0
 11
6034.5187541234
 21
5288.7522608615
 31
0.0
  0
LINE
  5
3B7
330
1F
100
AcDbEntity
  8
0
  6
Continuous
 62
     7
100
AcDbLine
 10
6034.518755336
 20
5343.5795160843
 30
0.0
 11
6033.5187522367
 21
5343.5795167461
 31
0.0
  0
LINE
  5
3B8
330
1F
100
AcDbEntity
  8
0
  6
Continuous
 62
     7
100
AcDbLine
 10
6033.5187547634
 20
5268.6812520921
 30
0.0
 11
6034.5187551962
 21
5268.6812520921
 31
0.0
  0
LINE
  5
3B9
330
1F
100
AcDbEntity
  8
0
  6
Continuous
 62
     7
100
AcDbLine
 10
6034.5187551962
 20
5268.6812520921
 30
0.0
 11
6034.5187541234
 21
5288.7522608615
 31
0.0
  0
LINE
  5
3BA
330
1F
100
AcDbEntity
  8
0
  6
Continuous
 62
     7
100
AcDbLine
 10
6034.518755336
 20
5340.0540348062
 30
0.0
 11
6033.5187522367
 21
5340.0540342555
 31
0.0
  0
LINE
  5
3BB
330
1F
100
AcDbEntity
  8
0
  6
Continuous
 62
     7
100
AcDbLine
 10
6034.518755336
 20
5340.0540348062
 30
0.0
 11
6034.518755336
 21
5343.5795160843
 31
0.0
  0
LINE
  5
3BC
330
1F
100
AcDbEntity
  8
0
  6
Continuous
 62
     7
100
AcDbLine
 10
6034.5187542632
 20
5372.559701209
 30
0.0
 11
6033.5187522367
 21
5372.559701209
 31
0.0
  0
LINE
  5
3BD
330
1F
100
AcDbEntity
  8
0
  6
Continuous
 62
     7
100
AcDbLine
 10
6034.5187542632
 20
5368.0597012863
 30
0.0
 11
6033.5187522367
 21
5368.0597012863
 31
0.0
  0
LINE
  5
3BE
330
1F
100
AcDbEntity
  8
0
  6
Continuous
 62
     7
100
AcDbLine
 10
6034.5187542632
 20
5368.0597012863
 30
0.0
 11
6034.5187542632
 21
5372.559701209
 31
0.0
  0
LINE
  5
3BF
330
1F
100
AcDbEntity
  8
0
  6
Continuous
 62
     7
100
AcDbLine
 10
6032.5187533413
 20
5263.5597012565
 30
0.0
 11
6032.5187502101
 21
5264.1835389659
 31
0.0
  0
LINE
  5
3C0
330
1F
100
AcDbEntity
  8
0
  6
Continuous
 62
     7
100
AcDbLine
 10
6028.0187485412
 20
5263.5597018525
 30
0.0
 11
6032.5187533413
 21
5263.5597012565
 31
0.0
  0
LINE
  5
3C1
330
1F
100
AcDbEntity
  8
0
  6
Continuous
 62
     7
100
AcDbLine
 10
6028.0187485412
 20
5263.5597018525
 30
0.0
 11
6028.0187485412
 21
5264.1835389659
 31
0.0
  0
LINE
  5
3C2
330
1F
100
AcDbEntity
  8
0
  6
Continuous
 62
     7
100
AcDbLine
 10
6050.256883879
 20
5264.5597038791
 30
0.0
 11
6033.7822036497
 21
5264.5597012565
 31
0.0
  0
LINE
  5
3C3
330
1F
100
AcDbEntity
  8
0
  6
Continuous
 62
     7
100
AcDbLine
 10
6050.256883879
 20
5263.5597018525
 30
0.0
 11
6050.256883879
 21
5264.5597038791
 31
0.0
  0
LINE
  5
3C4
330
1F
100
AcDbEntity
  8
0
  6
Continuous
 62
     7
100
AcDbLine
 10
6033.7822036497
 20
5263.5597012565
 30
0.0
 11
6050.256883879
 21
5263.5597018525
 31
0.0
  0
LINE
  5
3C5
330
1F
100
AcDbEntity
  8
0
  6
Continuous
 62
     7
100
AcDbLine
 10
6060.0187528539
 20
5271.3903963775
 30
0.0
 11
6059.9999932244
 21
5271.3945684955
 31
0.0
  0
LINE
  5
3C6
330
1F
100
AcDbEntity
  8
0
  6
Continuous
 62
     7
100
AcDbLine
 10
6059.9999932244
 20
5271.3945684955
 30
0.0
 11
6059.9444416955
 21
5271.4069066569
 31
0.0
  0
LINE
  5
3C7
330
1F
100
AcDbEntity
  8
0
  6
Continuous
 62
     7
100
AcDbLine
 10
6059.9444416955
 20
5271.4069066569
 30
0.0
 11
6059.8542449668
 21
5271.4269561693
 31
0.0
  0
LINE
  5
3C8
330
1F
100
AcDbEntity
  8
0
  6
Continuous
 62
     7
100
AcDbLine
 10
6059.8542449668
 20
5271.4269561693
 30
0.0
 11
6059.7328303054
 21
5271.4539347217
 31
0.0
  0
LINE
  5
3C9
330
1F
100
AcDbEntity
  8
0
  6
Continuous
 62
     7
100
AcDbLine
 10
6059.7328303054
 20
5271.4539347217
 30
0.0
 11
6059.5849064782
 21
5271.4868066833
 31
0.0
  0
LINE
  5
3CA
330
1F
100
AcDbEntity
  8
0
  6
Continuous
 62
     7
100
AcDbLine
 10
6059.5849064782
 20
5271.4868066833
 30
0.0
 11
6059.4161359265
 21
5271.524312906
 31
0.0
  0
LINE
  5
3CB
330
1F
100
AcDbEntity
  8
0
  6
Continuous
 62
     7
100
AcDbLine
 10
6059.4161359265
 20
5271.524312906
 30
0.0
 11
6059.2330155566
 21
5271.5650079772
 31
0.0
  0
LINE
  5
3CC
330
1F
100
AcDbEntity
  8
0
  6
Continuous
 62
     7
100
AcDbLine
 10
6059.2330155566
 20
5271.5650079772
 30
0.0
 11
6059.0425638154
 21
5271.607327275
 31
0.0
  0
LINE
  5
3CD
330
1F
100
AcDbEntity
  8
0
  6
Continuous
 62
     7
100
AcDbLine
 10
6060.0187528539
 20
5271.3903963775
 30
0.0
 11
6073.7355995584
 21
5333.1161767454
 31
0.0
  0
LINE
  5
3CE
330
1F
100
AcDbEntity
  8
0
  6
Continuous
 62
     7
100
AcDbLine
 10
6094.0187481835
 20
5373.5597012565
 30
0.0
 11
6454.0187624887
 21
5373.5597012565
 31
0.0
  0
LINE
  5
3CF
330
1F
100
AcDbEntity
  8
0
  6
Continuous
 62
     7
100
AcDbLine
 10
6094.0187481835
 20
5404.5597007498
 30
0.0
 11
6094.0187481835
 21
5373.5597012565
 31
0.0
  0
LINE
  5
3D0
330
1F
100
AcDbEntity
  8
0
  6
Continuous
 62
     7
100
AcDbLine
 10
6454.0187624887
 20
5404.5597007498
 30
0.0
 11
6094.0187481835
 21
5404.5597007498
 31
0.0
  0
LINE
  5
3D1
330
1F
100
AcDbEntity
  8
0
  6
Continuous
 62
     7
100
AcDbLine
 10
6454.0187624887
 20
5404.5597007498
 30
0.0
 11
6454.0187624887
 21
5373.5597012565
 31
0.0
  0
LINE
  5
3D2
330
1F
100
AcDbEntity
  8
0
  6
Continuous
 62
     7
100
AcDbLine
 10
5994.018754144
 20
5373.5597012565
 30
0.0
 11
6094.0187481835
 21
5373.5597012565
 31
0.0
  0
LINE
  5
3D3
330
1F
100
AcDbEntity
  8
0
  6
Continuous
 62
     7
100
AcDbLine
 10
5994.018754144
 20
5404.5597007498
 30
0.0
 11
5994.018754144
 21
5373.5597012565
 31
0.0
  0
LINE
  5
3D4
330
1F
100
AcDbEntity
  8
0
  6
Continuous
 62
     7
100
AcDbLine
 10
6094.0187481835
 20
5404.5597007498
 30
0.0
 11
5994.018754144
 21
5404.5597007498
 31
0.0
  0
LINE
  5
3D5
330
1F
100
AcDbEntity
  8
0
  6
Continuous
 62
     7
100
AcDbLine
 10
6094.0187481835
 20
5404.5597007498
 30
0.0
 11
6094.0187481835
 21
5406.5597010777
 31
0.0
  0
LINE
  5
3D6
330
1F
100
AcDbEntity
  8
0
  6
Continuous
 62
     7
100
AcDbLine
 10
6094.0187481835
 20
5406.5597010777
 30
0.0
 11
6454.0187624887
 21
5406.5597010777
 31
0.0
  0
LINE
  5
3D7
330
1F
100
AcDbEntity
  8
0
  6
Continuous
 62
     7
100
AcDbLine
 10
6454.0187624887
 20
5404.5597007498
 30
0.0
 11
6454.0187624887
 21
5406.5597010777
 31
0.0
  0
LINE
  5
3D8
330
1F
100
AcDbEntity
  8
0
  6
Continuous
 62
     7
100
AcDbLine
 10
5996.0187581971
 20
5406.5597010777
 30
0.0
 11
6094.0187481835
 21
5406.5597010777
 31
0.0
  0
LINE
  5
3D9
330
1F
100
AcDbEntity
  8
0
  6
Continuous
 62
     7
100
AcDbLine
 10
6554.0187565282
 20
5404.5597007498
 30
0.0
 11
6454.0187624887
 21
5404.5597007498
 31
0.0
  0
LINE
  5
3DA
330
1F
100
AcDbEntity
  8
0
  6
Continuous
 62
     7
100
AcDbLine
 10
6454.0187624887
 20
5406.5597010777
 30
0.0
 11
6552.0187524751
 21
5406.5597010777
 31
0.0
  0
LINE
  5
3DB
330
1F
100
AcDbEntity
  8
0
  6
Continuous
 62
     7
100
AcDbLine
 10
6554.0187565282
 20
5404.5597007498
 30
0.0
 11
6554.0187565282
 21
5373.5597012565
 31
0.0
  0
LINE
  5
3DC
330
1F
100
AcDbEntity
  8
0
  6
Continuous
 62
     7
100
AcDbLine
 10
6454.0187624887
 20
5373.5597012565
 30
0.0
 11
6554.0187565282
 21
5373.5597012565
 31
0.0
  0
LINE
  5
3DD
330
1F
100
AcDbEntity
  8
0
  6
Continuous
 62
     7
100
AcDbLine
 10
6274.0187553361
 20
5250.1249937341
 30
0.0
 11
6236.518753846
 21
5250.1249937341
 31
0.0
  0
LINE
  5
3DE
330
1F
100
AcDbEntity
  8
0
  6
Continuous
 62
     7
100
AcDbLine
 10
6311.5187568262
 20
5250.1249937341
 30
0.0
 11
6274.0187553361
 21
5250.1249937341
 31
0.0
  0
LINE
  5
3DF
330
1F
100
AcDbEntity
  8
0
  6
Continuous
 62
     7
100
AcDbLine
 10
6274.0187553361
 20
5247.7034656331
 30
0.0
 11
6238.397283633
 21
5247.7034656331
 31
0.0
  0
LINE
  5
3E0
330
1F
100
AcDbEntity
  8
0
  6
Continuous
 62
     7
100
AcDbLine
 10
6309.6402270392
 20
5247.7034656331
 30
0.0
 11
6274.0187553361
 21
5247.7034656331
 31
0.0
  0
LINE
  5
3E1
330
1F
100
AcDbEntity
  8
0
  6
Continuous
 62
     7
100
AcDbLine
 10
6015.0187519982
 20
5361.7642465979
 30
0.0
 11
6022.018751283
 21
5361.7642465979
 31
0.0
  0
LINE
  5
3E2
330
1F
100
AcDbEntity
  8
0
  6
Continuous
 62
     7
100
AcDbLine
 10
6526.0187593892
 20
5361.7642465979
 30
0.0
 11
6533.018758674
 21
5361.7642465979
 31
0.0
  0
LINE
  5
3E3
330
1F
100
AcDbEntity
  8
0
  6
Continuous
 62
     7
100
AcDbLine
 10
6276.7417851508
 20
5196.8514947221
 30
0.0
 11
6302.0187562004
 21
5196.8514947221
 31
0.0
  0
LINE
  5
3E4
330
1F
100
AcDbEntity
  8
0
  6
Continuous
 62
     7
100
AcDbLine
 10
6246.0187544718
 20
5196.8514947221
 30
0.0
 11
6276.7417851508
 21
5196.8514947221
 31
0.0
  0
LINE
  5
3E5
330
1F
100
AcDbEntity
  8
0
  6
Continuous
 62
     7
100
AcDbLine
 10
6301.3281972751
 20
5145.8991346881
 30
0.0
 11
6246.7093133971
 21
5145.8991346881
 31
0.0
  0
LINE
  5
3E6
330
1F
100
AcDbEntity
  8
0
  6
Continuous
 62
     7
100
AcDbLine
 10
6246.9125410214
 20
5021.2458251044
 30
0.0
 11
6301.1249696508
 21
5021.2458251044
 31
0.0
  0
LINE
  5
3E7
330
1F
100
AcDbEntity
  8
0
  6
Continuous
 62
     7
100
AcDbLine
 10
6251.0187552914
 20
5162.0515016839
 30
0.0
 11
6297.0187553808
 21
5162.0515016839
 31
0.0
  0
LINE
  5
3E8
330
1F
100
AcDbEntity
  8
0
  6
Continuous
 62
     7
100
AcDbLine
 10
6513.5187569817
 20
5373.2087106435
 30
0.0
 11
6513.5187569817
 21
5372.5597014526
 31
0.0
  0
LINE
  5
3E9
330
1F
100
AcDbEntity
  8
0
  6
Continuous
 62
     7
100
AcDbLine
 10
6475.1432446435
 20
5333.9399760589
 30
0.0
 11
6488.9949468568
 21
5271.607327275
 31
0.0
  0
LINE
  5
3EA
330
1F
100
AcDbEntity
  8
0
  6
Continuous
 62
     7
100
AcDbLine
 10
6513.5187569817
 20
5372.5597014526
 30
0.0
 11
6512.8870967587
 21
5372.5597014526
 31
0.0
  0
LINE
  5
3EB
330
1F
100
AcDbEntity
  8
0
  6
Continuous
 62
     7
100
AcDbLine
 10
6034.5187542632
 20
5373.2085590309
 30
0.0
 11
6034.5187542632
 21
5372.559701209
 31
0.0
  0
LINE
  5
3EC
330
1F
100
AcDbEntity
  8
0
  6
Continuous
 62
     7
100
AcDbLine
 10
6034.5187542632
 20
5372.559701209
 30
0.0
 11
6035.1499674514
 21
5372.559701209
 31
0.0
  0
LINE
  5
3ED
330
1F
100
AcDbEntity
  8
0
  6
Continuous
 62
     7
100
AcDbLine
 10
6072.8947428659
 20
5333.9420957491
 30
0.0
 11
6059.0425638154
 21
5271.607327275
 31
0.0
  0
LINE
  5
3EE
330
1F
100
AcDbEntity
  8
0
  6
Continuous
 62
     7
100
AcDbLine
 10
6237.5376579955
 20
5256.7949099466
 30
0.0
 11
6310.4998526767
 21
5256.7949099466
 31
0.0
  0
LINE
  5
3EF
330
1F
100
AcDbEntity
  8
0
  6
Continuous
 62
     7
100
AcDbLine
 10
6309.2516457334
 20
5255.8543188498
 30
0.0
 11
6238.7858649388
 21
5255.8543188498
 31
0.0
  0
LINE
  5
3F0
330
1F
100
AcDbEntity
  8
0
  6
Continuous
 62
     7
100
AcDbLine
 10
7081.7172719319
 20
5146.551492624
 30
0.0
 11
6934.1530209561
 21
5146.551492624
 31
0.0
  0
LINE
  5
3F1
330
1F
100
AcDbEntity
  8
0
  6
Continuous
 62
     7
100
AcDbLine
 10
6934.1530209561
 20
5106.5514860675
 30
0.0
 11
7081.7172719319
 21
5106.5514860675
 31
0.0
  0
LINE
  5
3F2
330
1F
100
AcDbEntity
  8
0
  6
Continuous
 62
     7
100
AcDbLine
 10
7105.7172758658
 20
5254.7249896452
 30
0.0
 11
7105.7172758658
 21
5254.1249869392
 31
0.0
  0
LINE
  5
3F3
330
1F
100
AcDbEntity
  8
0
  6
Continuous
 62
     7
100
AcDbLine
 10
7177.7172727664
 20
5254.1249869392
 30
0.0
 11
7177.7172727664
 21
5254.7249896452
 31
0.0
  0
LINE
  5
3F4
330
1F
100
AcDbEntity
  8
0
  6
Continuous
 62
     7
100
AcDbLine
 10
7179.2172683557
 20
5250.1249937341
 30
0.0
 11
7179.2172683557
 21
5254.1249869392
 31
0.0
  0
LINE
  5
3F5
330
1F
100
AcDbEntity
  8
0
  6
Continuous
 62
     7
100
AcDbLine
 10
7104.217272826
 20
5254.1249869392
 30
0.0
 11
7104.217272826
 21
5250.1249937341
 31
0.0
  0
LINE
  5
3F6
330
1F
100
AcDbEntity
  8
0
  6
Continuous
 62
     7
100
AcDbLine
 10
7106.0958100636
 20
5247.7034656331
 30
0.0
 11
7114.7172792037
 21
5245.4908071086
 31
0.0
  0
LINE
  5
3F7
330
1F
100
AcDbEntity
  8
0
  6
Continuous
 62
     7
100
AcDbLine
 10
7168.7172694285
 20
5245.4908071086
 30
0.0
 11
7177.3387385686
 21
5247.7034656331
 31
0.0
  0
LINE
  5
3F8
330
1F
100
AcDbEntity
  8
0
  6
Continuous
 62
     7
100
AcDbLine
 10
7168.7172694285
 20
5235.4908166453
 30
0.0
 11
7168.7172694285
 21
5245.4908071086
 31
0.0
  0
LINE
  5
3F9
330
1F
100
AcDbEntity
  8
0
  6
Continuous
 62
     7
100
AcDbLine
 10
7114.7172792037
 20
5245.4908071086
 30
0.0
 11
7114.7172792037
 21
5244.6467010305
 31
0.0
  0
LINE
  5
3FA
330
1F
100
AcDbEntity
  8
0
  6
Continuous
 62
     7
100
AcDbLine
 10
7164.7172762235
 20
5216.4908079431
 30
0.0
 11
7168.7172694285
 21
5235.4908166453
 31
0.0
  0
LINE
  5
3FB
330
1F
100
AcDbEntity
  8
0
  6
Continuous
 62
     7
100
AcDbLine
 10
7164.7172762235
 20
5207.8515021131
 30
0.0
 11
7164.7172762235
 21
5216.4908079431
 31
0.0
  0
LINE
  5
3FC
330
1F
100
AcDbEntity
  8
0
  6
Continuous
 62
     7
100
AcDbLine
 10
7118.7172724088
 20
5215.7227275893
 30
0.0
 11
7118.7172724088
 21
5207.8515021131
 31
0.0
  0
LINE
  5
3FD
330
1F
100
AcDbEntity
  8
0
  6
Continuous
 62
     7
100
AcDbLine
 10
7100.2172721704
 20
5215.6908093021
 30
0.0
 11
7118.7373591741
 21
5215.6908093021
 31
0.0
  0
LINE
  5
3FE
330
1F
100
AcDbEntity
  8
0
  6
Continuous
 62
     7
100
AcDbLine
 10
7114.7408975442
 20
5244.6908084676
 30
0.0
 11
7100.2172721704
 21
5244.6908084676
 31
0.0
  0
LINE
  5
3FF
330
1F
100
AcDbEntity
  8
0
  6
Continuous
 62
     7
100
AcDbLine
 10
7080.2172763427
 20
5218.9408121631
 30
0.0
 11
7099.7172711571
 21
5218.9408121631
 31
0.0
  0
LINE
  5
400
330
1F
100
AcDbEntity
  8
0
  6
Continuous
 62
     7
100
AcDbLine
 10
7099.7172711571
 20
5241.4408205077
 30
0.0
 11
7080.2172763427
 21
5241.4408205077
 31
0.0
  0
LINE
  5
401
330
1F
100
AcDbEntity
  8
0
  6
Continuous
 62
     7
100
AcDbLine
 10
7060.2172730644
 20
5361.7642465979
 30
0.0
 11
7060.2172730644
 21
5365.2642471716
 31
0.0
  0
LINE
  5
402
330
1F
100
AcDbEntity
  8
0
  6
Continuous
 62
     7
100
AcDbLine
 10
7053.2172737797
 20
5365.2642471716
 30
0.0
 11
7053.2172737797
 21
5361.7642465979
 31
0.0
  0
LINE
  5
403
330
1F
100
AcDbEntity
  8
0
  6
Continuous
 62
     7
100
AcDbLine
 10
7170.217279919
 20
5361.7642465979
 30
0.0
 11
7170.217279919
 21
5365.2642471716
 31
0.0
  0
LINE
  5
404
330
1F
100
AcDbEntity
  8
0
  6
Continuous
 62
     7
100
AcDbLine
 10
7163.2172806342
 20
5365.2642471716
 30
0.0
 11
7163.2172806342
 21
5361.7642465979
 31
0.0
  0
LINE
  5
405
330
1F
100
AcDbEntity
  8
0
  6
Continuous
 62
     7
100
AcDbLine
 10
6979.6332638282
 20
5271.7212690041
 30
0.0
 11
6979.7172738393
 21
5271.5771226213
 31
0.0
  0
LINE
  5
406
330
1F
100
AcDbEntity
  8
0
  6
Continuous
 62
     7
100
AcDbLine
 10
6979.6332638282
 20
5349.7212706134
 30
0.0
 11
6979.7172738393
 21
5349.5771223679
 31
0.0
  0
LINE
  5
407
330
1F
100
AcDbEntity
  8
0
  6
Continuous
 62
     7
100
AcDbLine
 10
7059.6605358799
 20
5325.8641576395
 30
0.0
 11
7059.6663920362
 21
5326.2531263754
 31
0.0
  0
LINE
  5
408
330
1F
100
AcDbEntity
  8
0
  6
Continuous
 62
     7
100
AcDbLine
 10
7037.4354949375
 20
5332.4810704217
 30
0.0
 11
7038.1391165932
 21
5325.8814690635
 31
0.0
  0
LINE
  5
409
330
1F
100
AcDbEntity
  8
0
  6
Continuous
 62
     7
100
AcDbLine
 10
7059.1666964968
 20
5326.2356771156
 30
0.0
 11
7059.4220949491
 21
5333.2488602028
 31
0.0
  0
LINE
  5
40A
330
1F
100
AcDbEntity
  8
0
  6
Continuous
 62
     7
100
AcDbLine
 10
7037.4963810821
 20
5345.0644155964
 30
0.0
 11
7037.9351904769
 21
5332.4985234067
 31
0.0
  0
LINE
  5
40B
330
1F
100
AcDbEntity
  8
0
  6
Continuous
 62
     7
100
AcDbLine
 10
7058.9223994096
 20
5333.231410943
 30
0.0
 11
7058.4208486755
 21
5347.5939175114
 31
0.0
  0
LINE
  5
40C
330
1F
100
AcDbEntity
  8
0
  6
Continuous
 62
     7
100
AcDbLine
 10
7111.717273124
 20
5207.8515021131
 30
0.0
 11
7113.7172771771
 21
5203.8514940068
 31
0.0
  0
LINE
  5
40D
330
1F
100
AcDbEntity
  8
0
  6
Continuous
 62
     7
100
AcDbLine
 10
7169.7172714551
 20
5203.8514940068
 30
0.0
 11
7171.7172755082
 21
5207.8515021131
 31
0.0
  0
LINE
  5
40E
330
1F
100
AcDbEntity
  8
0
  6
Continuous
 62
     7
100
AcDbLine
 10
7113.7172771771
 20
5203.8514940068
 30
0.0
 11
7113.7172771771
 21
5196.8514947221
 31
0.0
  0
LINE
  5
40F
330
1F
100
AcDbEntity
  8
0
  6
Continuous
 62
     7
100
AcDbLine
 10
7169.7172714551
 20
5196.8514947221
 30
0.0
 11
7169.7172714551
 21
5203.8514940068
 31
0.0
  0
LINE
  5
410
330
1F
100
AcDbEntity
  8
0
  6
Continuous
 62
     7
100
AcDbLine
 10
7125.7172716935
 20
5193.8515035436
 30
0.0
 11
7125.7172716935
 21
5165.0514928624
 31
0.0
  0
LINE
  5
411
330
1F
100
AcDbEntity
  8
0
  6
Continuous
 62
     7
100
AcDbLine
 10
7125.7172716935
 20
5151.0514942929
 30
0.0
 11
7125.7172716935
 21
5148.5514966771
 31
0.0
  0
LINE
  5
412
330
1F
100
AcDbEntity
  8
0
  6
Continuous
 62
     7
100
AcDbLine
 10
7157.7172769387
 20
5148.5514966771
 30
0.0
 11
7157.7172769387
 21
5151.0514942929
 31
0.0
  0
LINE
  5
413
330
1F
100
AcDbEntity
  8
0
  6
Continuous
 62
     7
100
AcDbLine
 10
7157.7172769387
 20
5165.0514928624
 30
0.0
 11
7157.7172769387
 21
5193.8515035436
 31
0.0
  0
LINE
  5
414
330
1F
100
AcDbEntity
  8
0
  6
Continuous
 62
     7
100
AcDbLine
 10
7107.717279919
 20
5088.5515091941
 30
0.0
 11
7114.6110637267
 21
5021.2458251044
 31
0.0
  0
LINE
  5
415
330
1F
100
AcDbEntity
  8
0
  6
Continuous
 62
     7
100
AcDbLine
 10
7168.8234849055
 20
5021.2458251044
 30
0.0
 11
7175.7172687133
 21
5088.5515091941
 31
0.0
  0
LINE
  5
416
330
1F
100
AcDbEntity
  8
0
  6
Continuous
 62
     7
100
AcDbLine
 10
7175.7172687133
 20
5088.5515091941
 30
0.0
 11
7169.026721843
 21
5145.8991346881
 31
0.0
  0
LINE
  5
417
330
1F
100
AcDbEntity
  8
0
  6
Continuous
 62
     7
100
AcDbLine
 10
7109.5883740266
 20
5104.5895097777
 30
0.0
 11
7107.717279919
 21
5088.5515091941
 31
0.0
  0
LINE
  5
418
330
1F
100
AcDbEntity
  8
0
  6
Continuous
 62
     7
100
AcDbLine
 10
7097.7172745545
 20
5154.0515003726
 30
0.0
 11
7093.7172738989
 21
5152.5514898822
 31
0.0
  0
LINE
  5
419
330
1F
100
AcDbEntity
  8
0
  6
Continuous
 62
     7
100
AcDbLine
 10
7093.7172738989
 20
5100.5515037105
 30
0.0
 11
7097.7172745545
 21
5099.0514932201
 31
0.0
  0
LINE
  5
41A
330
1F
100
AcDbEntity
  8
0
  6
Continuous
 62
     7
100
AcDbLine
 10
7093.7172738989
 20
5152.5514898822
 30
0.0
 11
7084.717270561
 21
5152.5514898822
 31
0.0
  0
LINE
  5
41B
330
1F
100
AcDbEntity
  8
0
  6
Continuous
 62
     7
100
AcDbLine
 10
7084.717270561
 20
5100.5515037105
 30
0.0
 11
7093.7172738989
 21
5100.5515037105
 31
0.0
  0
LINE
  5
41C
330
1F
100
AcDbEntity
  8
0
  6
Continuous
 62
     7
100
AcDbLine
 10
7166.7172802766
 20
5151.0514942929
 30
0.0
 11
7164.7172762235
 21
5155.0515023992
 31
0.0
  0
LINE
  5
41D
330
1F
100
AcDbEntity
  8
0
  6
Continuous
 62
     7
100
AcDbLine
 10
7118.7172724088
 20
5155.0515023992
 30
0.0
 11
7116.7172683557
 21
5151.0514942929
 31
0.0
  0
LINE
  5
41E
330
1F
100
AcDbEntity
  8
0
  6
Continuous
 62
     7
100
AcDbLine
 10
7118.7172724088
 20
5162.0515016839
 30
0.0
 11
7118.7172724088
 21
5155.0515023992
 31
0.0
  0
LINE
  5
41F
330
1F
100
AcDbEntity
  8
0
  6
Continuous
 62
     7
100
AcDbLine
 10
7164.7172762235
 20
5155.0515023992
 30
0.0
 11
7164.7172762235
 21
5162.0515016839
 31
0.0
  0
LINE
  5
420
330
1F
100
AcDbEntity
  8
0
  6
Continuous
 62
     7
100
AcDbLine
 10
7097.7172745545
 20
5104.5514820144
 30
0.0
 11
7109.6121115764
 21
5104.5514820144
 31
0.0
  0
LINE
  5
421
330
1F
100
AcDbEntity
  8
0
  6
Continuous
 62
     7
100
AcDbLine
 10
7114.7172792037
 20
5148.5514966771
 30
0.0
 11
7097.7172745545
 21
5148.5514966771
 31
0.0
  0
LINE
  5
422
330
1F
100
AcDbEntity
  8
0
  6
Continuous
 62
     7
100
AcDbLine
 10
7125.7172716935
 20
5151.0514942929
 30
0.0
 11
7125.7172716935
 21
5148.5514966771
 31
0.0
  0
LINE
  5
423
330
1F
100
AcDbEntity
  8
0
  6
Continuous
 62
     7
100
AcDbLine
 10
7157.7172769387
 20
5148.5514966771
 30
0.0
 11
7157.7172769387
 21
5151.0514942929
 31
0.0
  0
LINE
  5
424
330
1F
100
AcDbEntity
  8
0
  6
Continuous
 62
     7
100
AcDbLine
 10
7104.1884092768
 20
5258.6097000167
 30
0.0
 11
7105.2361769755
 21
5256.7949099466
 31
0.0
  0
LINE
  5
425
330
1F
100
AcDbEntity
  8
0
  6
Continuous
 62
     7
100
AcDbLine
 10
7178.1983716567
 20
5256.7949099466
 30
0.0
 11
7179.246146806
 21
5258.6097000167
 31
0.0
  0
LINE
  5
426
330
1F
100
AcDbEntity
  8
0
  6
Continuous
 62
     7
100
AcDbLine
 10
7106.4843876441
 20
5255.8543188498
 30
0.0
 11
7111.013878711
 21
5254.7249896452
 31
0.0
  0
LINE
  5
427
330
1F
100
AcDbEntity
  8
0
  6
Continuous
 62
     7
100
AcDbLine
 10
7172.4206699212
 20
5254.7249896452
 30
0.0
 11
7176.9501609881
 21
5255.8543188498
 31
0.0
  0
LINE
  5
428
330
1F
100
AcDbEntity
  8
0
  6
Continuous
 62
     7
100
AcDbLine
 10
6934.1530209561
 20
5106.5514860675
 30
0.0
 11
6934.1530209561
 21
5146.551492624
 31
0.0
  0
LINE
  5
429
330
1F
100
AcDbEntity
  8
0
  6
Continuous
 62
     7
100
AcDbLine
 10
7061.1730856975
 20
5325.8594414219
 30
0.0
 11
7061.0710574468
 21
5325.8604658768
 31
0.0
  0
LINE
  5
42A
330
1F
100
AcDbEntity
  8
0
  6
Continuous
 62
     7
100
AcDbLine
 10
7061.0710574468
 20
5325.8604658768
 30
0.0
 11
7060.6233669599
 21
5325.8620416746
 31
0.0
  0
LINE
  5
42B
330
1F
100
AcDbEntity
  8
0
  6
Continuous
 62
     7
100
AcDbLine
 10
7060.6233669599
 20
5325.8620416746
 30
0.0
 11
7059.8318843325
 21
5325.8638298139
 31
0.0
  0
LINE
  5
42C
330
1F
100
AcDbEntity
  8
0
  6
Continuous
 62
     7
100
AcDbLine
 10
7059.8318843325
 20
5325.8638298139
 30
0.0
 11
7058.7193785389
 21
5325.8657706902
 31
0.0
  0
LINE
  5
42D
330
1F
100
AcDbEntity
  8
0
  6
Continuous
 62
     7
100
AcDbLine
 10
7058.7193785389
 20
5325.8657706902
 30
0.0
 11
7057.317864724
 21
5325.867808424
 31
0.0
  0
LINE
  5
42E
330
1F
100
AcDbEntity
  8
0
  6
Continuous
 62
     7
100
AcDbLine
 10
7057.317864724
 20
5325.867808424
 30
0.0
 11
7055.6676579793
 21
5325.8698908612
 31
0.0
  0
LINE
  5
42F
330
1F
100
AcDbEntity
  8
0
  6
Continuous
 62
     7
100
AcDbLine
 10
7055.6676579793
 20
5325.8698908612
 30
0.0
 11
7053.8162334044
 21
5325.8719546721
 31
0.0
  0
LINE
  5
430
330
1F
100
AcDbEntity
  8
0
  6
Continuous
 62
     7
100
AcDbLine
 10
7053.8162334044
 20
5325.8719546721
 30
0.0
 11
7051.8168402989
 21
5325.8739365265
 31
0.0
  0
LINE
  5
431
330
1F
100
AcDbEntity
  8
0
  6
Continuous
 62
     7
100
AcDbLine
 10
7051.8168402989
 20
5325.8739365265
 30
0.0
 11
7049.7270194967
 21
5325.8757842705
 31
0.0
  0
LINE
  5
432
330
1F
100
AcDbEntity
  8
0
  6
Continuous
 62
     7
100
AcDbLine
 10
7049.7270194967
 20
5325.8757842705
 30
0.0
 11
7047.6068673809
 21
5325.87744575
 31
0.0
  0
LINE
  5
433
330
1F
100
AcDbEntity
  8
0
  6
Continuous
 62
     7
100
AcDbLine
 10
7047.6068673809
 20
5325.87744575
 30
0.0
 11
7045.517396756
 21
5325.8788688109
 31
0.0
  0
LINE
  5
434
330
1F
100
AcDbEntity
  8
0
  6
Continuous
 62
     7
100
AcDbLine
 10
7045.517396756
 20
5325.8788688109
 30
0.0
 11
7043.518704005
 21
5325.8800162003
 31
0.0
  0
LINE
  5
435
330
1F
100
AcDbEntity
  8
0
  6
Continuous
 62
     7
100
AcDbLine
 10
7043.518704005
 20
5325.8800162003
 30
0.0
 11
7041.6682964344
 21
5325.8808506653
 31
0.0
  0
LINE
  5
436
330
1F
100
AcDbEntity
  8
0
  6
Continuous
 62
     7
100
AcDbLine
 10
7041.6682964344
 20
5325.8808506653
 30
0.0
 11
7040.0194047173
 21
5325.8813535795
 31
0.0
  0
LINE
  5
437
330
1F
100
AcDbEntity
  8
0
  6
Continuous
 62
     7
100
AcDbLine
 10
7040.0194047173
 20
5325.8813535795
 30
0.0
 11
7038.6194629748
 21
5325.8815063164
 31
0.0
  0
LINE
  5
438
330
1F
100
AcDbEntity
  8
0
  6
Continuous
 62
     7
100
AcDbLine
 10
7038.6194629748
 20
5325.8815063164
 30
0.0
 11
7037.5087453206
 21
5325.8813051507
 31
0.0
  0
LINE
  5
439
330
1F
100
AcDbEntity
  8
0
  6
Continuous
 62
     7
100
AcDbLine
 10
7037.5087453206
 20
5325.8813051507
 30
0.0
 11
7036.7192072947
 21
5325.880757533
 31
0.0
  0
LINE
  5
43A
330
1F
100
AcDbEntity
  8
0
  6
Continuous
 62
     7
100
AcDbLine
 10
7036.7192072947
 20
5325.880757533
 30
0.0
 11
7036.2735582669
 21
5325.8798783645
 31
0.0
  0
LINE
  5
43B
330
1F
100
AcDbEntity
  8
0
  6
Continuous
 62
     7
100
AcDbLine
 10
7036.2735582669
 20
5325.8798783645
 30
0.0
 11
7036.1730946382
 21
5325.8790215478
 31
0.0
  0
LINE
  5
43C
330
1F
100
AcDbEntity
  8
0
  6
Continuous
 62
     7
100
AcDbLine
 10
7079.7086252053
 20
5225.3206102178
 30
0.0
 11
7079.7082601269
 21
5223.4450904653
 31
0.0
  0
LINE
  5
43D
330
1F
100
AcDbEntity
  8
0
  6
Continuous
 62
     7
100
AcDbLine
 10
7079.7082601269
 20
5223.4450904653
 30
0.0
 11
7079.7081632693
 21
5221.763628535
 31
0.0
  0
LINE
  5
43E
330
1F
100
AcDbEntity
  8
0
  6
Continuous
 62
     7
100
AcDbLine
 10
7079.7081632693
 20
5221.763628535
 30
0.0
 11
7079.7083197315
 21
5220.3246084973
 31
0.0
  0
LINE
  5
43F
330
1F
100
AcDbEntity
  8
0
  6
Continuous
 62
     7
100
AcDbLine
 10
7079.7083197315
 20
5220.3246084973
 30
0.0
 11
7079.708736964
 21
5219.1694257781
 31
0.0
  0
LINE
  5
440
330
1F
100
AcDbEntity
  8
0
  6
Continuous
 62
     7
100
AcDbLine
 10
7079.708736964
 20
5219.1694257781
 30
0.0
 11
7079.7094000657
 21
5218.3312950656
 31
0.0
  0
LINE
  5
441
330
1F
100
AcDbEntity
  8
0
  6
Continuous
 62
     7
100
AcDbLine
 10
7079.7094000657
 20
5218.3312950656
 30
0.0
 11
7079.7102941354
 21
5217.8343413398
 31
0.0
  0
LINE
  5
442
330
1F
100
AcDbEntity
  8
0
  6
Continuous
 62
     7
100
AcDbLine
 10
7079.7102941354
 20
5217.8343413398
 30
0.0
 11
7079.7113819201
 21
5217.6928697154
 31
0.0
  0
LINE
  5
443
330
1F
100
AcDbEntity
  8
0
  6
Continuous
 62
     7
100
AcDbLine
 10
7079.7113819201
 20
5217.6928697154
 30
0.0
 11
7079.7126410683
 21
5217.9109333083
 31
0.0
  0
LINE
  5
444
330
1F
100
AcDbEntity
  8
0
  6
Continuous
 62
     7
100
AcDbLine
 10
7079.7126410683
 20
5217.9109333083
 30
0.0
 11
7079.7140343268
 21
5218.4822736308
 31
0.0
  0
LINE
  5
445
330
1F
100
AcDbEntity
  8
0
  6
Continuous
 62
     7
100
AcDbLine
 10
7079.7140343268
 20
5218.4822736308
 30
0.0
 11
7079.715524443
 21
5219.3904398009
 31
0.0
  0
LINE
  5
446
330
1F
100
AcDbEntity
  8
0
  6
Continuous
 62
     7
100
AcDbLine
 10
7079.715524443
 20
5219.3904398009
 30
0.0
 11
7079.7170592626
 21
5220.6093249843
 31
0.0
  0
LINE
  5
447
330
1F
100
AcDbEntity
  8
0
  6
Continuous
 62
     7
100
AcDbLine
 10
7079.7170592626
 20
5220.6093249843
 30
0.0
 11
7079.7172753294
 21
5220.8011923358
 31
0.0
  0
LINE
  5
448
330
1F
100
AcDbEntity
  8
0
  6
Continuous
 62
     7
100
AcDbLine
 10
7079.7259031017
 20
5241.0332886502
 30
0.0
 11
7079.725508221
 21
5241.6726378724
 31
0.0
  0
LINE
  5
449
330
1F
100
AcDbEntity
  8
0
  6
Continuous
 62
     7
100
AcDbLine
 10
7079.725508221
 20
5241.6726378724
 30
0.0
 11
7079.72472591
 21
5242.3425791785
 31
0.0
  0
LINE
  5
44A
330
1F
100
AcDbEntity
  8
0
  6
Continuous
 62
     7
100
AcDbLine
 10
7079.72472591
 20
5242.3425791785
 30
0.0
 11
7079.7237349828
 21
5242.6629541442
 31
0.0
  0
LINE
  5
44B
330
1F
100
AcDbEntity
  8
0
  6
Continuous
 62
     7
100
AcDbLine
 10
7079.7237349828
 20
5242.6629541442
 30
0.0
 11
7079.722557791
 21
5242.6245240495
 31
0.0
  0
LINE
  5
44C
330
1F
100
AcDbEntity
  8
0
  6
Continuous
 62
     7
100
AcDbLine
 10
7079.722557791
 20
5242.6245240495
 30
0.0
 11
7079.7212241371
 21
5242.2283915803
 31
0.0
  0
LINE
  5
44D
330
1F
100
AcDbEntity
  8
0
  6
Continuous
 62
     7
100
AcDbLine
 10
7079.7212241371
 20
5242.2283915803
 30
0.0
 11
7079.7197787245
 21
5241.485956125
 31
0.0
  0
LINE
  5
44E
330
1F
100
AcDbEntity
  8
0
  6
Continuous
 62
     7
100
AcDbLine
 10
7079.7197787245
 20
5241.485956125
 30
0.0
 11
7079.718258806
 21
5240.4185859487
 31
0.0
  0
LINE
  5
44F
330
1F
100
AcDbEntity
  8
0
  6
Continuous
 62
     7
100
AcDbLine
 10
7079.718258806
 20
5240.4185859487
 30
0.0
 11
7079.7167165359
 21
5239.0569923446
 31
0.0
  0
LINE
  5
450
330
1F
100
AcDbEntity
  8
0
  6
Continuous
 62
     7
100
AcDbLine
 10
7079.7167165359
 20
5239.0569923446
 30
0.0
 11
7079.7151891668
 21
5237.4403206632
 31
0.0
  0
LINE
  5
451
330
1F
100
AcDbEntity
  8
0
  6
Continuous
 62
     7
100
AcDbLine
 10
7079.7151891668
 20
5237.4403206632
 30
0.0
 11
7079.7137139519
 21
5235.6150923297
 31
0.0
  0
LINE
  5
452
330
1F
100
AcDbEntity
  8
0
  6
Continuous
 62
     7
100
AcDbLine
 10
7079.7137139519
 20
5235.6150923297
 30
0.0
 11
7079.7123504956
 21
5233.6338190362
 31
0.0
  0
LINE
  5
453
330
1F
100
AcDbEntity
  8
0
  6
Continuous
 62
     7
100
AcDbLine
 10
7079.7123504956
 20
5233.6338190362
 30
0.0
 11
7079.7111211498
 21
5231.5535126254
 31
0.0
  0
LINE
  5
454
330
1F
100
AcDbEntity
  8
0
  6
Continuous
 62
     7
100
AcDbLine
 10
7079.7111211498
 20
5231.5535126254
 30
0.0
 11
7079.7100780685
 21
5229.4339863584
 31
0.0
  0
LINE
  5
455
330
1F
100
AcDbEntity
  8
0
  6
Continuous
 62
     7
100
AcDbLine
 10
7079.7100780685
 20
5229.4339863584
 30
0.0
 11
7079.7092361529
 21
5227.336245589
 31
0.0
  0
LINE
  5
456
330
1F
100
AcDbEntity
  8
0
  6
Continuous
 62
     7
100
AcDbLine
 10
7079.7092361529
 20
5227.336245589
 30
0.0
 11
7079.7086252053
 21
5225.3206102178
 31
0.0
  0
LINE
  5
457
330
1F
100
AcDbEntity
  8
0
  6
Continuous
 62
     7
100
AcDbLine
 10
7105.7172758658
 20
5254.7249896452
 30
0.0
 11
7177.7172727664
 21
5254.7249896452
 31
0.0
  0
LINE
  5
458
330
1F
100
AcDbEntity
  8
0
  6
Continuous
 62
     7
100
AcDbLine
 10
7179.2172683557
 20
5254.1249869392
 30
0.0
 11
7104.217272826
 21
5254.1249869392
 31
0.0
  0
LINE
  5
459
330
1F
100
AcDbEntity
  8
0
  6
Continuous
 62
     7
100
AcDbLine
 10
7168.7172694285
 20
5245.4908071086
 30
0.0
 11
7114.7172792037
 21
5245.4908071086
 31
0.0
  0
LINE
  5
45A
330
1F
100
AcDbEntity
  8
0
  6
Continuous
 62
     7
100
AcDbLine
 10
7168.7172694285
 20
5235.4908166453
 30
0.0
 11
7118.3326585372
 21
5235.4908166453
 31
0.0
  0
LINE
  5
45B
330
1F
100
AcDbEntity
  8
0
  6
Continuous
 62
     7
100
AcDbLine
 10
7164.7172762235
 20
5216.4908079431
 30
0.0
 11
7119.2130489429
 21
5216.4908079431
 31
0.0
  0
LINE
  5
45C
330
1F
100
AcDbEntity
  8
0
  6
Continuous
 62
     7
100
AcDbLine
 10
7099.7172711571
 20
5230.1908163354
 30
0.0
 11
7099.7172711571
 21
5244.1908149049
 31
0.0
  0
LINE
  5
45D
330
1F
100
AcDbEntity
  8
0
  6
Continuous
 62
     7
100
AcDbLine
 10
7099.7172711571
 20
5216.1908177659
 30
0.0
 11
7099.7172711571
 21
5230.1908163354
 31
0.0
  0
LINE
  5
45E
330
1F
100
AcDbEntity
  8
0
  6
Continuous
 62
     7
100
AcDbLine
 10
7055.3924186309
 20
5361.264246516
 30
0.0
 11
7053.717274793
 21
5361.264246516
 31
0.0
  0
LINE
  5
45F
330
1F
100
AcDbEntity
  8
0
  6
Continuous
 62
     7
100
AcDbLine
 10
7059.7172720511
 20
5361.264246516
 30
0.0
 11
7055.3924186309
 21
5361.264246516
 31
0.0
  0
LINE
  5
460
330
1F
100
AcDbEntity
  8
0
  6
Continuous
 62
     7
100
AcDbLine
 10
7165.3924180348
 20
5361.264246516
 30
0.0
 11
7163.7172741969
 21
5361.264246516
 31
0.0
  0
LINE
  5
461
330
1F
100
AcDbEntity
  8
0
  6
Continuous
 62
     7
100
AcDbLine
 10
7169.7172714551
 20
5361.264246516
 30
0.0
 11
7165.3924180348
 21
5361.264246516
 31
0.0
  0
LINE
  5
462
330
1F
100
AcDbEntity
  8
0
  6
Continuous
 62
     7
100
AcDbLine
 10
7158.4672672828
 20
5368.764246814
 30
0.0
 11
7158.4672672828
 21
5365.2642471716
 31
0.0
  0
LINE
  5
463
330
1F
100
AcDbEntity
  8
0
  6
Continuous
 62
     7
100
AcDbLine
 10
7158.4672672828
 20
5368.764246814
 30
0.0
 11
7174.9672783692
 21
5368.764246814
 31
0.0
  0
LINE
  5
464
330
1F
100
AcDbEntity
  8
0
  6
Continuous
 62
     7
100
AcDbLine
 10
7174.9672783692
 20
5368.764246814
 30
0.0
 11
7174.9672783692
 21
5365.2642471716
 31
0.0
  0
LINE
  5
465
330
1F
100
AcDbEntity
  8
0
  6
Continuous
 62
     7
100
AcDbLine
 10
7158.4672672828
 20
5365.2642471716
 30
0.0
 11
7174.9672783692
 21
5365.2642471716
 31
0.0
  0
LINE
  5
466
330
1F
100
AcDbEntity
  8
0
  6
Continuous
 62
     7
100
AcDbLine
 10
7048.4672753294
 20
5368.764246814
 30
0.0
 11
7048.4672753294
 21
5365.2642471716
 31
0.0
  0
LINE
  5
467
330
1F
100
AcDbEntity
  8
0
  6
Continuous
 62
     7
100
AcDbLine
 10
7064.9672715147
 20
5368.764246814
 30
0.0
 11
7064.9672715147
 21
5365.2642471716
 31
0.0
  0
LINE
  5
468
330
1F
100
AcDbEntity
  8
0
  6
Continuous
 62
     7
100
AcDbLine
 10
7048.4672753294
 20
5365.2642471716
 30
0.0
 11
7064.9672715147
 21
5365.2642471716
 31
0.0
  0
LINE
  5
469
330
1F
100
AcDbEntity
  8
0
  6
Continuous
 62
     7
100
AcDbLine
 10
7048.4672753294
 20
5368.764246814
 30
0.0
 11
7064.9672715147
 21
5368.764246814
 31
0.0
  0
LINE
  5
46A
330
1F
100
AcDbEntity
  8
0
  6
Continuous
 62
     7
100
AcDbLine
 10
6990.2171563511
 20
5271.0595978424
 30
0.0
 11
6990.2171814968
 21
5271.0597990081
 31
0.0
  0
LINE
  5
46B
330
1F
100
AcDbEntity
  8
0
  6
Continuous
 62
     7
100
AcDbLine
 10
6990.2171814968
 20
5271.0597990081
 30
0.0
 11
6990.2164196749
 21
5271.0609165952
 31
0.0
  0
LINE
  5
46C
330
1F
100
AcDbEntity
  8
0
  6
Continuous
 62
     7
100
AcDbLine
 10
6990.2164196749
 20
5271.0609165952
 30
0.0
 11
6990.2141342093
 21
5271.0620341823
 31
0.0
  0
LINE
  5
46D
330
1F
100
AcDbEntity
  8
0
  6
Continuous
 62
     7
100
AcDbLine
 10
6990.2141342093
 20
5271.0620341823
 30
0.0
 11
6990.2103260313
 21
5271.0631517694
 31
0.0
  0
LINE
  5
46E
330
1F
100
AcDbEntity
  8
0
  6
Continuous
 62
     7
100
AcDbLine
 10
6990.2103260313
 20
5271.0631517694
 30
0.0
 11
6990.2049942096
 21
5271.0642693565
 31
0.0
  0
LINE
  5
46F
330
1F
100
AcDbEntity
  8
0
  6
Continuous
 62
     7
100
AcDbLine
 10
7048.8804994305
 20
5325.8764734492
 30
0.0
 11
7050.1487596114
 21
5325.9207634256
 31
0.0
  0
LINE
  5
470
330
1F
100
AcDbEntity
  8
0
  6
Continuous
 62
     7
100
AcDbLine
 10
7050.1487596114
 20
5325.9207634256
 30
0.0
 11
7052.0702047427
 21
5325.9878596291
 31
0.0
  0
LINE
  5
471
330
1F
100
AcDbEntity
  8
0
  6
Continuous
 62
     7
100
AcDbLine
 10
7052.0702047427
 20
5325.9878596291
 30
0.0
 11
7053.882469066
 21
5326.0511448607
 31
0.0
  0
LINE
  5
472
330
1F
100
AcDbEntity
  8
0
  6
Continuous
 62
     7
100
AcDbLine
 10
7053.882469066
 20
5326.0511448607
 30
0.0
 11
7055.527303942
 21
5326.1085851118
 31
0.0
  0
LINE
  5
473
330
1F
100
AcDbEntity
  8
0
  6
Continuous
 62
     7
100
AcDbLine
 10
7055.527303942
 20
5326.1085851118
 30
0.0
 11
7056.9518326004
 21
5326.1583289132
 31
0.0
  0
LINE
  5
474
330
1F
100
AcDbEntity
  8
0
  6
Continuous
 62
     7
100
AcDbLine
 10
7056.9518326004
 20
5326.1583289132
 30
0.0
 11
7058.1102786739
 21
5326.1987855658
 31
0.0
  0
LINE
  5
475
330
1F
100
AcDbEntity
  8
0
  6
Continuous
 62
     7
100
AcDbLine
 10
7058.1102786739
 20
5326.1987855658
 30
0.0
 11
7058.9654041608
 21
5326.2286474928
 31
0.0
  0
LINE
  5
476
330
1F
100
AcDbEntity
  8
0
  6
Continuous
 62
     7
100
AcDbLine
 10
7058.9654041608
 20
5326.2286474928
 30
0.0
 11
7059.4897238691
 21
5326.2469572947
 31
0.0
  0
LINE
  5
477
330
1F
100
AcDbEntity
  8
0
  6
Continuous
 62
     7
100
AcDbLine
 10
7059.4897238691
 20
5326.2469572947
 30
0.0
 11
7059.6663920362
 21
5326.2531263754
 31
0.0
  0
LINE
  5
478
330
1F
100
AcDbEntity
  8
0
  6
Continuous
 62
     7
100
AcDbLine
 10
7037.4354949375
 20
5332.4810704217
 30
0.0
 11
7037.4797513862
 21
5332.4826164171
 31
0.0
  0
LINE
  5
479
330
1F
100
AcDbEntity
  8
0
  6
Continuous
 62
     7
100
AcDbLine
 10
7037.4797513862
 20
5332.4826164171
 30
0.0
 11
7037.8316646595
 21
5332.4949061498
 31
0.0
  0
LINE
  5
47A
330
1F
100
AcDbEntity
  8
0
  6
Continuous
 62
     7
100
AcDbLine
 10
7037.8316646595
 20
5332.4949061498
 30
0.0
 11
7038.5241737743
 21
5332.5190907344
 31
0.0
  0
LINE
  5
47B
330
1F
100
AcDbEntity
  8
0
  6
Continuous
 62
     7
100
AcDbLine
 10
7038.5241737743
 20
5332.5190907344
 30
0.0
 11
7039.5350312968
 21
5332.55438786
 31
0.0
  0
LINE
  5
47C
330
1F
100
AcDbEntity
  8
0
  6
Continuous
 62
     7
100
AcDbLine
 10
7039.5350312968
 20
5332.55438786
 30
0.0
 11
7040.8317377944
 21
5332.5996724889
 31
0.0
  0
LINE
  5
47D
330
1F
100
AcDbEntity
  8
0
  6
Continuous
 62
     7
100
AcDbLine
 10
7040.8317377944
 20
5332.5996724889
 30
0.0
 11
7042.3726184447
 21
5332.653480582
 31
0.0
  0
LINE
  5
47E
330
1F
100
AcDbEntity
  8
0
  6
Continuous
 62
     7
100
AcDbLine
 10
7042.3726184447
 20
5332.653480582
 30
0.0
 11
7044.108156689
 21
5332.7140873298
 31
0.0
  0
LINE
  5
47F
330
1F
100
AcDbEntity
  8
0
  6
Continuous
 62
     7
100
AcDbLine
 10
7044.108156689
 20
5332.7140873298
 30
0.0
 11
7045.9825588544
 21
5332.7795406804
 31
0.0
  0
LINE
  5
480
330
1F
100
AcDbEntity
  8
0
  6
Continuous
 62
     7
100
AcDbLine
 10
7045.9825588544
 20
5332.7795406804
 30
0.0
 11
7047.9355795463
 21
5332.8477432952
 31
0.0
  0
LINE
  5
481
330
1F
100
AcDbEntity
  8
0
  6
Continuous
 62
     7
100
AcDbLine
 10
7047.9355795463
 20
5332.8477432952
 30
0.0
 11
7049.9044625242
 21
5332.9164972529
 31
0.0
  0
LINE
  5
482
330
1F
100
AcDbEntity
  8
0
  6
Continuous
 62
     7
100
AcDbLine
 10
7049.9044625242
 20
5332.9164972529
 30
0.0
 11
7051.8259151061
 21
5332.9835971818
 31
0.0
  0
LINE
  5
483
330
1F
100
AcDbEntity
  8
0
  6
Continuous
 62
     7
100
AcDbLine
 10
7051.8259151061
 20
5332.9835971818
 30
0.0
 11
7053.6381719788
 21
5333.0468824134
 31
0.0
  0
LINE
  5
484
330
1F
100
AcDbEntity
  8
0
  6
Continuous
 62
     7
100
AcDbLine
 10
7053.6381719788
 20
5333.0468824134
 30
0.0
 11
7055.2830068548
 21
5333.1043189392
 31
0.0
  0
LINE
  5
485
330
1F
100
AcDbEntity
  8
0
  6
Continuous
 62
     7
100
AcDbLine
 10
7055.2830068548
 20
5333.1043189392
 30
0.0
 11
7056.7075355132
 21
5333.1540664658
 31
0.0
  0
LINE
  5
486
330
1F
100
AcDbEntity
  8
0
  6
Continuous
 62
     7
100
AcDbLine
 10
7056.7075355132
 20
5333.1540664658
 30
0.0
 11
7057.8659815867
 21
5333.1945193932
 31
0.0
  0
LINE
  5
487
330
1F
100
AcDbEntity
  8
0
  6
Continuous
 62
     7
100
AcDbLine
 10
7057.8659815867
 20
5333.1945193932
 30
0.0
 11
7058.7211070736
 21
5333.2243813202
 31
0.0
  0
LINE
  5
488
330
1F
100
AcDbEntity
  8
0
  6
Continuous
 62
     7
100
AcDbLine
 10
7058.7211070736
 20
5333.2243813202
 30
0.0
 11
7059.2454267819
 21
5333.242691122
 31
0.0
  0
LINE
  5
489
330
1F
100
AcDbEntity
  8
0
  6
Continuous
 62
     7
100
AcDbLine
 10
7059.2454267819
 20
5333.242691122
 30
0.0
 11
7059.4220949491
 21
5333.2488602028
 31
0.0
  0
LINE
  5
48A
330
1F
100
AcDbEntity
  8
0
  6
Continuous
 62
     7
100
AcDbLine
 10
7113.7172771771
 20
5203.8514940068
 30
0.0
 11
7169.7172714551
 21
5203.8514940068
 31
0.0
  0
LINE
  5
48B
330
1F
100
AcDbEntity
  8
0
  6
Continuous
 62
     7
100
AcDbLine
 10
7111.717273124
 20
5207.8515021131
 30
0.0
 11
7171.7172755082
 21
5207.8515021131
 31
0.0
  0
LINE
  5
48C
330
1F
100
AcDbEntity
  8
0
  6
Continuous
 62
     7
100
AcDbLine
 10
7116.7172683557
 20
5193.8515035436
 30
0.0
 11
7166.7172802766
 21
5193.8515035436
 31
0.0
  0
LINE
  5
48D
330
1F
100
AcDbEntity
  8
0
  6
Continuous
 62
     7
100
AcDbLine
 10
7107.717279919
 20
5088.5515091941
 30
0.0
 11
7175.7172687133
 21
5088.5515091941
 31
0.0
  0
LINE
  5
48E
330
1F
100
AcDbEntity
  8
0
  6
Continuous
 62
     7
100
AcDbLine
 10
7097.7172745545
 20
5154.0515003726
 30
0.0
 11
7097.7172745545
 21
5099.0514932201
 31
0.0
  0
LINE
  5
48F
330
1F
100
AcDbEntity
  8
0
  6
Continuous
 62
     7
100
AcDbLine
 10
7093.7172738989
 20
5152.5514898822
 30
0.0
 11
7093.7172738989
 21
5100.5515037105
 31
0.0
  0
LINE
  5
490
330
1F
100
AcDbEntity
  8
0
  6
Continuous
 62
     7
100
AcDbLine
 10
7119.2475153287
 20
5148.5514966771
 30
0.0
 11
7166.046921738
 21
5148.5514966771
 31
0.0
  0
LINE
  5
491
330
1F
100
AcDbEntity
  8
0
  6
Continuous
 62
     7
100
AcDbLine
 10
7117.5954533895
 20
5018.5514865443
 30
0.0
 11
7165.8390952428
 21
5018.5514865443
 31
0.0
  0
LINE
  5
492
330
1F
100
AcDbEntity
  8
0
  6
Continuous
 62
     7
100
AcDbLine
 10
7081.7172719319
 20
5149.5514987037
 30
0.0
 11
7081.7172719319
 21
5103.551494889
 31
0.0
  0
LINE
  5
493
330
1F
100
AcDbEntity
  8
0
  6
Continuous
 62
     7
100
AcDbLine
 10
7118.7172724088
 20
5155.0515023992
 30
0.0
 11
7164.7172762235
 21
5155.0515023992
 31
0.0
  0
LINE
  5
494
330
1F
100
AcDbEntity
  8
0
  6
Continuous
 62
     7
100
AcDbLine
 10
7116.7172683557
 20
5151.0514942929
 30
0.0
 11
7166.7172802766
 21
5151.0514942929
 31
0.0
  0
LINE
  5
495
330
1F
100
AcDbEntity
  8
0
  6
Continuous
 62
     7
100
AcDbLine
 10
7121.7172784884
 20
5165.0514928624
 30
0.0
 11
7161.7172701438
 21
5165.0514928624
 31
0.0
  0
LINE
  5
496
330
1F
100
AcDbEntity
  8
0
  6
Continuous
 62
     7
100
AcDbLine
 10
7037.7172738393
 20
5370.9846755512
 30
0.0
 11
7017.7172738393
 21
5370.416493733
 31
0.0
  0
LINE
  5
497
330
1F
100
AcDbEntity
  8
0
  6
Continuous
 62
     7
100
AcDbLine
 10
7017.7172738393
 20
5370.416493733
 30
0.0
 11
7017.7172738393
 21
5371.5597011614
 31
0.0
  0
LINE
  5
498
330
1F
100
AcDbEntity
  8
0
  6
Continuous
 62
     7
100
AcDbLine
 10
7017.7172738393
 20
5371.5597011614
 30
0.0
 11
7037.7172738393
 21
5371.5597011614
 31
0.0
  0
LINE
  5
499
330
1F
100
AcDbEntity
  8
0
  6
Continuous
 62
     7
100
AcDbLine
 10
7037.7172738393
 20
5370.9846755512
 30
0.0
 11
7037.7172738393
 21
5371.5597011614
 31
0.0
  0
LINE
  5
49A
330
1F
100
AcDbEntity
  8
0
  6
Continuous
 62
     7
100
AcDbLine
 10
7018.2908662921
 20
5368.4047383166
 30
0.0
 11
7038.2908662921
 21
5368.9729201348
 31
0.0
  0
LINE
  5
49B
330
1F
100
AcDbEntity
  8
0
  6
Continuous
 62
     7
100
AcDbLine
 10
7037.7172738393
 20
5371.5597011614
 30
0.0
 11
7224.7172786077
 21
5371.5597011614
 31
0.0
  0
LINE
  5
49C
330
1F
100
AcDbEntity
  8
0
  6
Continuous
 62
     7
100
AcDbLine
 10
7224.7172738393
 20
5370.9708572152
 30
0.0
 11
7224.7172786077
 21
5371.5597011614
 31
0.0
  0
LINE
  5
49D
330
1F
100
AcDbEntity
  8
0
  6
Continuous
 62
     7
100
AcDbLine
 10
7224.7172738393
 20
5370.9708572152
 30
0.0
 11
7037.7173638813
 21
5370.9708572152
 31
0.0
  0
LINE
  5
49E
330
1F
100
AcDbEntity
  8
0
  6
Continuous
 62
     7
100
AcDbLine
 10
7224.7172738393
 20
5368.9729201348
 30
0.0
 11
7224.7172738393
 21
5370.9708572152
 31
0.0
  0
LINE
  5
49F
330
1F
100
AcDbEntity
  8
0
  6
Continuous
 62
     7
100
AcDbLine
 10
7038.2908662921
 20
5368.9729201348
 30
0.0
 11
7224.7172738393
 21
5368.9729201348
 31
0.0
  0
LINE
  5
4A0
330
1F
100
AcDbEntity
  8
0
  6
Continuous
 62
     7
100
AcDbLine
 10
7224.7172786077
 20
5371.5597011614
 30
0.0
 11
7224.7172786077
 21
5373.5597012564
 31
0.0
  0
LINE
  5
4A1
330
1F
100
AcDbEntity
  8
0
  6
Continuous
 62
     7
100
AcDbLine
 10
7224.7172786077
 20
5371.5597011614
 30
0.0
 11
7239.7172643025
 21
5371.5597011614
 31
0.0
  0
LINE
  5
4A2
330
1F
100
AcDbEntity
  8
0
  6
Continuous
 62
     7
100
AcDbLine
 10
7239.7172643025
 20
5371.5597011614
 30
0.0
 11
7239.7172738393
 21
5370.3799481242
 31
0.0
  0
LINE
  5
4A3
330
1F
100
AcDbEntity
  8
0
  6
Continuous
 62
     7
100
AcDbLine
 10
7139.7172738393
 20
5368.2528830744
 30
0.0
 11
7158.4672672828
 21
5368.2528830744
 31
0.0
  0
LINE
  5
4A4
330
1F
100
AcDbEntity
  8
0
  6
Continuous
 62
     7
100
AcDbLine
 10
7174.9672783692
 20
5368.2528830744
 30
0.0
 11
7221.2172738393
 21
5368.2528830744
 31
0.0
  0
LINE
  5
4A5
330
1F
100
AcDbEntity
  8
0
  6
Continuous
 62
     7
100
AcDbLine
 10
7221.2172738393
 20
5368.6392467112
 30
0.0
 11
7174.9672783692
 21
5368.6392467112
 31
0.0
  0
LINE
  5
4A6
330
1F
100
AcDbEntity
  8
0
  6
Continuous
 62
     7
100
AcDbLine
 10
7158.4672672828
 20
5368.6392467112
 30
0.0
 11
7139.7172738393
 21
5368.6392467112
 31
0.0
  0
LINE
  5
4A7
330
1F
100
AcDbEntity
  8
0
  6
Continuous
 62
     7
100
AcDbLine
 10
7043.7172738393
 20
5368.2528830744
 30
0.0
 11
7048.4672753294
 21
5368.2528831996
 31
0.0
  0
LINE
  5
4A8
330
1F
100
AcDbEntity
  8
0
  6
Continuous
 62
     7
100
AcDbLine
 10
7064.9672715147
 20
5368.2528830744
 30
0.0
 11
7116.2172738393
 21
5368.2528830744
 31
0.0
  0
LINE
  5
4A9
330
1F
100
AcDbEntity
  8
0
  6
Continuous
 62
     7
100
AcDbLine
 10
7116.2172738393
 20
5368.6392467112
 30
0.0
 11
7064.9672715147
 21
5368.6392467112
 31
0.0
  0
LINE
  5
4AA
330
1F
100
AcDbEntity
  8
0
  6
Continuous
 62
     7
100
AcDbLine
 10
7048.4672753294
 20
5368.6392465607
 30
0.0
 11
7043.7172738393
 21
5368.6392467112
 31
0.0
  0
LINE
  5
4AB
330
1F
100
AcDbEntity
  8
0
  6
Continuous
 62
     7
100
AcDbLine
 10
6980.217273863
 20
5368.1030917822
 30
0.0
 11
6980.217273863
 21
5368.4047383166
 31
0.0
  0
LINE
  5
4AC
330
1F
100
AcDbEntity
  8
0
  6
Continuous
 62
     7
100
AcDbLine
 10
6980.217273863
 20
5368.4047383166
 30
0.0
 11
7018.2908662921
 21
5368.4047383166
 31
0.0
  0
LINE
  5
4AD
330
1F
100
AcDbEntity
  8
0
  6
Continuous
 62
     7
100
AcDbLine
 10
7237.7172602494
 20
5368.3820110745
 30
0.0
 11
7237.7172602494
 21
5368.0597012862
 31
0.0
  0
LINE
  5
4AE
330
1F
100
AcDbEntity
  8
0
  6
Continuous
 62
     7
100
AcDbLine
 10
7237.7172602494
 20
5368.0597012862
 30
0.0
 11
7225.5448443969
 21
5368.0597012862
 31
0.0
  0
LINE
  5
4AF
330
1F
100
AcDbEntity
  8
0
  6
Continuous
 62
     7
100
AcDbLine
 10
6980.217273863
 20
5371.5597011614
 30
0.0
 11
6980.217273863
 21
5373.5597012564
 31
0.0
  0
LINE
  5
4B0
330
1F
100
AcDbEntity
  8
0
  6
Continuous
 62
     7
100
AcDbLine
 10
6979.7172738393
 20
5371.5597011614
 30
0.0
 11
6980.217273863
 21
5371.5597011614
 31
0.0
  0
LINE
  5
4B1
330
1F
100
AcDbEntity
  8
0
  6
Continuous
 62
     7
100
AcDbLine
 10
6979.7172738393
 20
5373.0597012326
 30
0.0
 11
6979.7172738393
 21
5371.5597011614
 31
0.0
  0
LINE
  5
4B2
330
1F
100
AcDbEntity
  8
0
  6
Continuous
 62
     7
100
AcDbLine
 10
6980.217273863
 20
5370.402675397
 30
0.0
 11
6980.217273863
 21
5371.5597011614
 31
0.0
  0
LINE
  5
4B3
330
1F
100
AcDbEntity
  8
0
  6
Continuous
 62
     7
100
AcDbLine
 10
6980.217273863
 20
5371.5597011614
 30
0.0
 11
7017.7172738393
 21
5371.5597011614
 31
0.0
  0
LINE
  5
4B4
330
1F
100
AcDbEntity
  8
0
  6
Continuous
 62
     7
100
AcDbLine
 10
7017.7173638814
 20
5370.402675397
 30
0.0
 11
6980.217273863
 21
5370.402675397
 31
0.0
  0
LINE
  5
4B5
330
1F
100
AcDbEntity
  8
0
  6
Continuous
 62
     7
100
AcDbLine
 10
6980.217273863
 20
5368.4047383166
 30
0.0
 11
6980.217273863
 21
5370.402675397
 31
0.0
  0
LINE
  5
4B6
330
1F
100
AcDbEntity
  8
0
  6
Continuous
 62
     7
100
AcDbLine
 10
6979.7172738393
 20
5370.402675397
 30
0.0
 11
6979.7172738393
 21
5368.9042229115
 31
0.0
  0
LINE
  5
4B7
330
1F
100
AcDbEntity
  8
0
  6
Continuous
 62
     7
100
AcDbLine
 10
6979.7172738393
 20
5370.402675397
 30
0.0
 11
6980.217273863
 21
5370.402675397
 31
0.0
  0
LINE
  5
4B8
330
1F
100
AcDbEntity
  8
0
  6
Continuous
 62
     7
100
AcDbLine
 10
6979.7172738393
 20
5371.5597011614
 30
0.0
 11
6979.7172738393
 21
5370.402675397
 31
0.0
  0
LINE
  5
4B9
330
1F
100
AcDbEntity
  8
0
  6
Continuous
 62
     7
100
AcDbLine
 10
6982.4379229606
 20
5373.5597012564
 30
0.0
 11
6980.217273863
 21
5373.5597012564
 31
0.0
  0
LINE
  5
4BA
330
1F
100
AcDbEntity
  8
0
  6
Continuous
 62
     7
100
AcDbLine
 10
6979.7172738393
 20
5368.9042229115
 30
0.0
 11
6979.7172738393
 21
5368.6025763771
 31
0.0
  0
LINE
  5
4BB
330
1F
100
AcDbEntity
  8
0
  6
Continuous
 62
     7
100
AcDbLine
 10
7239.7172643025
 20
5369.8117663152
 30
0.0
 11
7239.7172738393
 21
5370.3799481242
 31
0.0
  0
LINE
  5
4BC
330
1F
100
AcDbEntity
  8
0
  6
Continuous
 62
     7
100
AcDbLine
 10
7237.7172602494
 20
5368.0597012862
 30
0.0
 11
7238.6850608666
 21
5368.0597012862
 31
0.0
  0
LINE
  5
4BD
330
1F
100
AcDbEntity
  8
0
  6
Continuous
 62
     7
100
AcDbLine
 10
6980.217273863
 20
5367.1041235237
 30
0.0
 11
6980.217273863
 21
5368.1030917822
 31
0.0
  0
LINE
  5
4BE
330
1F
100
AcDbEntity
  8
0
  6
Continuous
 62
     7
100
AcDbLine
 10
7211.4801778461
 20
5367.1041231532
 30
0.0
 11
7211.4801778461
 21
5368.103091817
 31
0.0
  0
LINE
  5
4BF
330
1F
100
AcDbEntity
  8
0
  6
Continuous
 62
     7
100
AcDbLine
 10
6980.217273863
 20
5367.1041235237
 30
0.0
 11
6979.7172738393
 21
5367.1041235237
 31
0.0
  0
LINE
  5
4C0
330
1F
100
AcDbEntity
  8
0
  6
Continuous
 62
     7
100
AcDbLine
 10
6979.7172738393
 20
5368.6025763771
 30
0.0
 11
6979.7172738393
 21
5367.1041235237
 31
0.0
  0
LINE
  5
4C1
330
1F
100
AcDbEntity
  8
0
  6
Continuous
 62
     7
100
AcDbLine
 10
7225.330759414
 20
5367.9128577932
 30
0.0
 11
7226.6094429572
 21
5367.9895862005
 31
0.0
  0
LINE
  5
4C2
330
1F
100
AcDbEntity
  8
0
  6
Continuous
 62
     7
100
AcDbLine
 10
7226.6094429572
 20
5367.9895862005
 30
0.0
 11
7227.3933632453
 21
5368.0366249754
 31
0.0
  0
LINE
  5
4C3
330
1F
100
AcDbEntity
  8
0
  6
Continuous
 62
     7
100
AcDbLine
 10
7227.3933632453
 20
5368.0366249754
 30
0.0
 11
7227.6574863275
 21
5368.0524732917
 31
0.0
  0
LINE
  5
4C4
330
1F
100
AcDbEntity
  8
0
  6
Continuous
 62
     7
100
AcDbLine
 10
6980.217273863
 20
5264.5597038791
 30
0.0
 11
6979.7172738393
 21
5264.5597038791
 31
0.0
  0
LINE
  5
4C5
330
1F
100
AcDbEntity
  8
0
  6
Continuous
 62
     7
100
AcDbLine
 10
6980.217273863
 20
5263.5597018525
 30
0.0
 11
6980.217273863
 21
5264.5597038791
 31
0.0
  0
LINE
  5
4C6
330
1F
100
AcDbEntity
  8
0
  6
Continuous
 62
     7
100
AcDbLine
 10
6979.7172738393
 20
5264.5597038791
 30
0.0
 11
6979.7172738393
 21
5264.0597028658
 31
0.0
  0
LINE
  5
4C7
330
1F
100
AcDbEntity
  8
0
  6
Continuous
 62
     7
100
AcDbLine
 10
6980.217273863
 20
5264.5597038791
 30
0.0
 11
6980.217273863
 21
5367.1041235237
 31
0.0
  0
LINE
  5
4C8
330
1F
100
AcDbEntity
  8
0
  6
Continuous
 62
     7
100
AcDbLine
 10
6979.7172738393
 20
5367.1041235237
 30
0.0
 11
6979.7172738393
 21
5264.5597038791
 31
0.0
  0
LINE
  5
4C9
330
1F
100
AcDbEntity
  8
0
  6
Continuous
 62
     7
100
AcDbLine
 10
6986.0439871594
 20
5264.5597018525
 30
0.0
 11
6980.217273863
 21
5264.5597038791
 31
0.0
  0
LINE
  5
4CA
330
1F
100
AcDbEntity
  8
0
  6
Continuous
 62
     7
100
AcDbLine
 10
6986.0439871594
 20
5264.5597018525
 30
0.0
 11
6986.0439883699
 21
5263.5597018525
 31
0.0
  0
LINE
  5
4CB
330
1F
100
AcDbEntity
  8
0
  6
Continuous
 62
     7
100
AcDbLine
 10
6980.217273863
 20
5263.5597018525
 30
0.0
 11
6986.0439883699
 21
5263.5597018525
 31
0.0
  0
LINE
  5
4CC
330
1F
100
AcDbEntity
  8
0
  6
Continuous
 62
     7
100
AcDbLine
 10
7015.7907201131
 20
5337.8303265199
 30
0.0
 11
6986.0439871594
 21
5264.5597018525
 31
0.0
  0
LINE
  5
4CD
330
1F
100
AcDbEntity
  8
0
  6
Continuous
 62
     7
100
AcDbLine
 10
6986.9705407103
 20
5264.1835389659
 30
0.0
 11
6986.9527375479
 21
5264.1907660291
 31
0.0
  0
LINE
  5
4CE
330
1F
100
AcDbEntity
  8
0
  6
Continuous
 62
     7
100
AcDbLine
 10
6986.9527375479
 20
5264.1907660291
 30
0.0
 11
6986.900011186
 21
5264.2121715471
 31
0.0
  0
LINE
  5
4CF
330
1F
100
AcDbEntity
  8
0
  6
Continuous
 62
     7
100
AcDbLine
 10
6986.900011186
 20
5264.2121715471
 30
0.0
 11
6986.8143886481
 21
5264.2469285056
 31
0.0
  0
LINE
  5
4D0
330
1F
100
AcDbEntity
  8
0
  6
Continuous
 62
     7
100
AcDbLine
 10
6986.8143886481
 20
5264.2469285056
 30
0.0
 11
6986.6991598313
 21
5264.2937107012
 31
0.0
  0
LINE
  5
4D1
330
1F
100
AcDbEntity
  8
0
  6
Continuous
 62
     7
100
AcDbLine
 10
6986.6991598313
 20
5264.2937107012
 30
0.0
 11
6986.5587531743
 21
5264.3507150933
 31
0.0
  0
LINE
  5
4D2
330
1F
100
AcDbEntity
  8
0
  6
Continuous
 62
     7
100
AcDbLine
 10
6986.5587531743
 20
5264.3507150933
 30
0.0
 11
6986.3985647601
 21
5264.4157512114
 31
0.0
  0
LINE
  5
4D3
330
1F
100
AcDbEntity
  8
0
  6
Continuous
 62
     7
100
AcDbLine
 10
6986.3985647601
 20
5264.4157512114
 30
0.0
 11
6986.2247496997
 21
5264.4863156602
 31
0.0
  0
LINE
  5
4D4
330
1F
100
AcDbEntity
  8
0
  6
Continuous
 62
     7
100
AcDbLine
 10
6986.2247496997
 20
5264.4863156602
 30
0.0
 11
6986.0439871594
 21
5264.5597018525
 31
0.0
  0
LINE
  5
4D5
330
1F
100
AcDbEntity
  8
0
  6
Continuous
 62
     7
100
AcDbLine
 10
7015.7907201131
 20
5337.8303265199
 30
0.0
 11
7015.9714823742
 21
5337.756938301
 31
0.0
  0
LINE
  5
4D6
330
1F
100
AcDbEntity
  8
0
  6
Continuous
 62
     7
100
AcDbLine
 10
7015.9714823742
 20
5337.756938301
 30
0.0
 11
7016.145296969
 21
5337.6863738522
 31
0.0
  0
LINE
  5
4D7
330
1F
100
AcDbEntity
  8
0
  6
Continuous
 62
     7
100
AcDbLine
 10
7016.145296969
 20
5337.6863738522
 30
0.0
 11
7016.3054881771
 21
5337.6213377342
 31
0.0
  0
LINE
  5
4D8
330
1F
100
AcDbEntity
  8
0
  6
Continuous
 62
     7
100
AcDbLine
 10
7016.3054881771
 20
5337.6213377342
 30
0.0
 11
7016.4458943685
 21
5337.5643370673
 31
0.0
  0
LINE
  5
4D9
330
1F
100
AcDbEntity
  8
0
  6
Continuous
 62
     7
100
AcDbLine
 10
7016.4458943685
 20
5337.5643370673
 30
0.0
 11
7016.5611213227
 21
5337.5175548718
 31
0.0
  0
LINE
  5
4DA
330
1F
100
AcDbEntity
  8
0
  6
Continuous
 62
     7
100
AcDbLine
 10
7016.5611213227
 20
5337.5175548718
 30
0.0
 11
7016.6467433949
 21
5337.482794188
 31
0.0
  0
LINE
  5
4DB
330
1F
100
AcDbEntity
  8
0
  6
Continuous
 62
     7
100
AcDbLine
 10
7016.6467433949
 20
5337.482794188
 30
0.0
 11
7016.6994711538
 21
5337.4613886699
 31
0.0
  0
LINE
  5
4DC
330
1F
100
AcDbEntity
  8
0
  6
Continuous
 62
     7
100
AcDbLine
 10
7016.6994711538
 20
5337.4613886699
 30
0.0
 11
7016.7172743161
 21
5337.4541578815
 31
0.0
  0
LINE
  5
4DD
330
1F
100
AcDbEntity
  8
0
  6
Continuous
 62
     7
100
AcDbLine
 10
6986.9705407103
 20
5264.1835389659
 30
0.0
 11
7016.7172743161
 21
5337.4541578815
 31
0.0
  0
LINE
  5
4DE
330
1F
100
AcDbEntity
  8
0
  6
Continuous
 62
     7
100
AcDbLine
 10
7024.5185646921
 20
5344.5028448501
 30
0.0
 11
7024.5419783671
 21
5344.3091632798
 31
0.0
  0
LINE
  5
4DF
330
1F
100
AcDbEntity
  8
0
  6
Continuous
 62
     7
100
AcDbLine
 10
7024.5419783671
 20
5344.3091632798
 30
0.0
 11
7024.5644902964
 21
5344.1229248419
 31
0.0
  0
LINE
  5
4E0
330
1F
100
AcDbEntity
  8
0
  6
Continuous
 62
     7
100
AcDbLine
 10
7024.5644902964
 20
5344.1229248419
 30
0.0
 11
7024.5852401634
 21
5343.9512876793
 31
0.0
  0
LINE
  5
4E1
330
1F
100
AcDbEntity
  8
0
  6
Continuous
 62
     7
100
AcDbLine
 10
7024.5852401634
 20
5343.9512876793
 30
0.0
 11
7024.6034270306
 21
5343.8008474185
 31
0.0
  0
LINE
  5
4E2
330
1F
100
AcDbEntity
  8
0
  6
Continuous
 62
     7
100
AcDbLine
 10
7024.6034270306
 20
5343.8008474185
 30
0.0
 11
7024.6183505435
 21
5343.6773819848
 31
0.0
  0
LINE
  5
4E3
330
1F
100
AcDbEntity
  8
0
  6
Continuous
 62
     7
100
AcDbLine
 10
7024.6183505435
 20
5343.6773819848
 30
0.0
 11
7024.6294444581
 21
5343.5856411233
 31
0.0
  0
LINE
  5
4E4
330
1F
100
AcDbEntity
  8
0
  6
Continuous
 62
     7
100
AcDbLine
 10
7024.6294444581
 20
5343.5856411233
 30
0.0
 11
7024.6362729152
 21
5343.5291470959
 31
0.0
  0
LINE
  5
4E5
330
1F
100
AcDbEntity
  8
0
  6
Continuous
 62
     7
100
AcDbLine
 10
7024.6362729152
 20
5343.5291470959
 30
0.0
 11
7024.6385788699
 21
5343.5100698843
 31
0.0
  0
LINE
  5
4E6
330
1F
100
AcDbEntity
  8
0
  6
Continuous
 62
     7
100
AcDbLine
 10
7024.6385788699
 20
5343.5100698843
 30
0.0
 11
7227.6574863275
 21
5368.0524732917
 31
0.0
  0
LINE
  5
4E7
330
1F
100
AcDbEntity
  8
0
  6
Continuous
 62
     7
100
AcDbLine
 10
6979.7172738393
 20
5404.5597007497
 30
0.0
 11
6979.7172738393
 21
5373.5597012564
 31
0.0
  0
LINE
  5
4E8
330
1F
100
AcDbEntity
  8
0
  6
Continuous
 62
     7
100
AcDbLine
 10
7019.7172729452
 20
5404.5597007497
 30
0.0
 11
6979.7172738393
 21
5404.5597007497
 31
0.0
  0
LINE
  5
4E9
330
1F
100
AcDbEntity
  8
0
  6
Continuous
 62
     7
100
AcDbLine
 10
7019.7172729452
 20
5404.5597007497
 30
0.0
 11
7019.7172729452
 21
5373.5597012564
 31
0.0
  0
LINE
  5
4EA
330
1F
100
AcDbEntity
  8
0
  6
Continuous
 62
     7
100
AcDbLine
 10
6979.7172738393
 20
5373.5597012564
 30
0.0
 11
6980.217273863
 21
5373.5597012564
 31
0.0
  0
LINE
  5
4EB
330
1F
100
AcDbEntity
  8
0
  6
Continuous
 62
     7
100
AcDbLine
 10
6982.4379229606
 20
5373.5597012564
 30
0.0
 11
7019.7172729452
 21
5373.5597012564
 31
0.0
  0
LINE
  5
4EC
330
1F
100
AcDbEntity
  8
0
  6
Continuous
 62
     7
100
AcDbLine
 10
6981.7172739343
 20
5406.5597010776
 30
0.0
 11
7019.7172729452
 21
5406.5597010776
 31
0.0
  0
LINE
  5
4ED
330
1F
100
AcDbEntity
  8
0
  6
Continuous
 62
     7
100
AcDbLine
 10
7019.7172729452
 20
5406.5597010776
 30
0.0
 11
7019.7172729452
 21
5404.5597007497
 31
0.0
  0
LINE
  5
4EE
330
1F
100
AcDbEntity
  8
0
  6
Continuous
 62
     7
100
AcDbLine
 10
7019.7172729452
 20
5406.5597010776
 30
0.0
 11
7299.7172666867
 21
5406.5597010776
 31
0.0
  0
LINE
  5
4EF
330
1F
100
AcDbEntity
  8
0
  6
Continuous
 62
     7
100
AcDbLine
 10
7299.7172666867
 20
5406.5597010776
 30
0.0
 11
7299.7172666867
 21
5404.5597007497
 31
0.0
  0
LINE
  5
4F0
330
1F
100
AcDbEntity
  8
0
  6
Continuous
 62
     7
100
AcDbLine
 10
7299.7172666867
 20
5404.5597007497
 30
0.0
 11
7019.7172729452
 21
5404.5597007497
 31
0.0
  0
LINE
  5
4F1
330
1F
100
AcDbEntity
  8
0
  6
Continuous
 62
     7
100
AcDbLine
 10
7299.7172666867
 20
5404.5597007497
 30
0.0
 11
7299.7172666867
 21
5373.5597012564
 31
0.0
  0
LINE
  5
4F2
330
1F
100
AcDbEntity
  8
0
  6
Continuous
 62
     7
100
AcDbLine
 10
7019.7172729452
 20
5373.5597012564
 30
0.0
 11
7299.7172666867
 21
5373.5597012564
 31
0.0
  0
LINE
  5
4F3
330
1F
100
AcDbEntity
  8
0
  6
Continuous
 62
     7
100
AcDbLine
 10
7299.7172666867
 20
5406.5597010776
 30
0.0
 11
7397.7172864755
 21
5406.5597010776
 31
0.0
  0
LINE
  5
4F4
330
1F
100
AcDbEntity
  8
0
  6
Continuous
 62
     7
100
AcDbLine
 10
7399.7172607263
 20
5404.5597007497
 30
0.0
 11
7299.7172666867
 21
5404.5597007497
 31
0.0
  0
LINE
  5
4F5
330
1F
100
AcDbEntity
  8
0
  6
Continuous
 62
     7
100
AcDbLine
 10
7399.7172607263
 20
5404.5597007497
 30
0.0
 11
7399.7172607263
 21
5373.5597012564
 31
0.0
  0
LINE
  5
4F6
330
1F
100
AcDbEntity
  8
0
  6
Continuous
 62
     7
100
AcDbLine
 10
7299.7172666867
 20
5373.5597012564
 30
0.0
 11
7399.7172607263
 21
5373.5597012564
 31
0.0
  0
LINE
  5
4F7
330
1F
100
AcDbEntity
  8
0
  6
Continuous
 62
     7
100
AcDbLine
 10
7179.2172683557
 20
5258.5596991703
 30
0.0
 11
7104.217272826
 21
5258.5596991703
 31
0.0
  0
LINE
  5
4F8
330
1F
100
AcDbEntity
  8
0
  6
Continuous
 62
     7
100
AcDbLine
 10
7363.7278271993
 20
5373.3504815464
 30
0.0
 11
7363.7270821412
 21
5373.3559008106
 31
0.0
  0
LINE
  5
4F9
330
1F
100
AcDbEntity
  8
0
  6
Continuous
 62
     7
100
AcDbLine
 10
7179.2172683557
 20
5250.1249937341
 30
0.0
 11
7104.217272826
 21
5250.1249937341
 31
0.0
  0
LINE
  5
4FA
330
1F
100
AcDbEntity
  8
0
  6
Continuous
 62
     7
100
AcDbLine
 10
7177.3387385686
 20
5247.7034656331
 30
0.0
 11
7106.0958100636
 21
5247.7034656331
 31
0.0
  0
LINE
  5
4FB
330
1F
100
AcDbEntity
  8
0
  6
Continuous
 62
     7
100
AcDbLine
 10
7100.2172721704
 20
5230.1908163354
 30
0.0
 11
7100.2172721704
 21
5215.6908093021
 31
0.0
  0
LINE
  5
4FC
330
1F
100
AcDbEntity
  8
0
  6
Continuous
 62
     7
100
AcDbLine
 10
7100.2172721704
 20
5244.6908084676
 30
0.0
 11
7100.2172721704
 21
5230.1908163354
 31
0.0
  0
LINE
  5
4FD
330
1F
100
AcDbEntity
  8
0
  6
Continuous
 62
     7
100
AcDbLine
 10
7080.2172763427
 20
5230.1908163354
 30
0.0
 11
7080.2172763427
 21
5218.9408121631
 31
0.0
  0
LINE
  5
4FE
330
1F
100
AcDbEntity
  8
0
  6
Continuous
 62
     7
100
AcDbLine
 10
7080.2172763427
 20
5241.4408205077
 30
0.0
 11
7080.2172763427
 21
5230.1908163354
 31
0.0
  0
LINE
  5
4FF
330
1F
100
AcDbEntity
  8
0
  6
Continuous
 62
     7
100
AcDbLine
 10
7055.1716057737
 20
5361.7642465979
 30
0.0
 11
7060.2172730644
 21
5361.7642465979
 31
0.0
  0
LINE
  5
500
330
1F
100
AcDbEntity
  8
0
  6
Continuous
 62
     7
100
AcDbLine
 10
7053.2172737797
 20
5361.7642465979
 30
0.0
 11
7055.1716057737
 21
5361.7642465979
 31
0.0
  0
LINE
  5
501
330
1F
100
AcDbEntity
  8
0
  6
Continuous
 62
     7
100
AcDbLine
 10
7165.1716126283
 20
5361.7642465979
 30
0.0
 11
7170.217279919
 21
5361.7642465979
 31
0.0
  0
LINE
  5
502
330
1F
100
AcDbEntity
  8
0
  6
Continuous
 62
     7
100
AcDbLine
 10
7163.2172806342
 20
5361.7642465979
 30
0.0
 11
7165.1716126283
 21
5361.7642465979
 31
0.0
  0
LINE
  5
503
330
1F
100
AcDbEntity
  8
0
  6
Continuous
 62
     7
100
AcDbLine
 10
6989.7701261719
 20
5271.0793344304
 30
0.0
 11
6989.7701265906
 21
5269.6575556937
 31
0.0
  0
LINE
  5
504
330
1F
100
AcDbEntity
  8
0
  6
Continuous
 62
     7
100
AcDbLine
 10
7113.7172771771
 20
5196.8514947221
 30
0.0
 11
7169.7172714551
 21
5196.8514947221
 31
0.0
  0
LINE
  5
505
330
1F
100
AcDbEntity
  8
0
  6
Continuous
 62
     7
100
AcDbLine
 10
7114.6110637267
 20
5021.2458251044
 30
0.0
 11
7168.8234849055
 21
5021.2458251044
 31
0.0
  0
LINE
  5
506
330
1F
100
AcDbEntity
  8
0
  6
Continuous
 62
     7
100
AcDbLine
 10
7169.026721843
 20
5145.8991346881
 30
0.0
 11
7116.4955241759
 21
5145.8991346881
 31
0.0
  0
LINE
  5
507
330
1F
100
AcDbEntity
  8
0
  6
Continuous
 62
     7
100
AcDbLine
 10
7084.717270561
 20
5152.5514898822
 30
0.0
 11
7084.717270561
 21
5100.5515037105
 31
0.0
  0
LINE
  5
508
330
1F
100
AcDbEntity
  8
0
  6
Continuous
 62
     7
100
AcDbLine
 10
7118.7172724088
 20
5162.0515016839
 30
0.0
 11
7164.7172762235
 21
5162.0515016839
 31
0.0
  0
LINE
  5
509
330
1F
100
AcDbEntity
  8
0
  6
Continuous
 62
     7
100
AcDbLine
 10
7211.4801778461
 20
5368.103091817
 30
0.0
 11
7174.967278376
 21
5368.103091817
 31
0.0
  0
LINE
  5
50A
330
1F
100
AcDbEntity
  8
0
  6
Continuous
 62
     7
100
AcDbLine
 10
7158.4672672828
 20
5368.103091605
 30
0.0
 11
7064.9672715147
 21
5368.103091605
 31
0.0
  0
LINE
  5
50B
330
1F
100
AcDbEntity
  8
0
  6
Continuous
 62
     7
100
AcDbLine
 10
7048.4672753294
 20
5368.1030917822
 30
0.0
 11
6980.217273863
 21
5368.1030917822
 31
0.0
  0
LINE
  5
50C
330
1F
100
AcDbEntity
  8
0
  6
Continuous
 62
     7
100
AcDbLine
 10
7043.7172738393
 20
5368.2528830744
 30
0.0
 11
7043.7172738393
 21
5368.6392467112
 31
0.0
  0
LINE
  5
50D
330
1F
100
AcDbEntity
  8
0
  6
Continuous
 62
     7
100
AcDbLine
 10
7139.7172738393
 20
5368.2528830744
 30
0.0
 11
7139.7172738393
 21
5368.6392467112
 31
0.0
  0
LINE
  5
50E
330
1F
100
AcDbEntity
  8
0
  6
Continuous
 62
     7
100
AcDbLine
 10
7116.2172738393
 20
5368.2528830744
 30
0.0
 11
7116.2172738393
 21
5368.6392467112
 31
0.0
  0
LINE
  5
50F
330
1F
100
AcDbEntity
  8
0
  6
Continuous
 62
     7
100
AcDbLine
 10
7221.2172738393
 20
5368.2528830744
 30
0.0
 11
7221.2172738393
 21
5368.6392467112
 31
0.0
  0
LINE
  5
510
330
1F
100
AcDbEntity
  8
0
  6
Continuous
 62
     7
100
AcDbLine
 10
6980.217273863
 20
5367.1041235237
 30
0.0
 11
7048.4672753294
 21
5367.1041235237
 31
0.0
  0
LINE
  5
511
330
1F
100
AcDbEntity
  8
0
  6
Continuous
 62
     7
100
AcDbLine
 10
7064.9672715147
 20
5367.1041233465
 30
0.0
 11
7158.4672672828
 21
5367.1041233465
 31
0.0
  0
LINE
  5
512
330
1F
100
AcDbEntity
  8
0
  6
Continuous
 62
     7
100
AcDbLine
 10
7174.9672783759
 20
5367.1041231532
 30
0.0
 11
7211.4801778461
 21
5367.1041231532
 31
0.0
  0
LINE
  5
513
330
1F
100
AcDbEntity
  8
0
  6
Continuous
 62
     7
100
AcDbLine
 10
7211.4801778461
 20
5367.1041231532
 30
0.0
 11
7170.2172799257
 21
5362.1159632388
 31
0.0
  0
LINE
  5
514
330
1F
100
AcDbEntity
  8
0
  6
Continuous
 62
     7
100
AcDbLine
 10
7163.5172258824
 20
5361.3060135418
 30
0.0
 11
7024.5185646921
 21
5344.5028448501
 31
0.0
  0
LINE
  5
515
330
1F
100
AcDbEntity
  8
0
  6
Continuous
 62
     7
100
AcDbLine
 10
7363.7096179803
 20
5373.4599220334
 30
0.0
 11
7363.7011541207
 21
5373.3971472102
 31
0.0
  0
LINE
  5
516
330
1F
100
AcDbEntity
  8
0
  6
Continuous
 62
     7
100
AcDbLine
 10
7363.7011541207
 20
5373.3971472102
 30
0.0
 11
7363.6536790212
 21
5373.2029803214
 31
0.0
  0
LINE
  5
517
330
1F
100
AcDbEntity
  8
0
  6
Continuous
 62
     7
100
AcDbLine
 10
7105.2361769755
 20
5256.7949099466
 30
0.0
 11
7178.1983716567
 21
5256.7949099466
 31
0.0
  0
LINE
  5
518
330
1F
100
AcDbEntity
  8
0
  6
Continuous
 62
     7
100
AcDbLine
 10
7176.9501609881
 20
5255.8543188498
 30
0.0
 11
7106.4843876441
 21
5255.8543188498
 31
0.0
  0
LINE
  5
519
330
1F
100
AcDbEntity
  8
0
  6
Continuous
 62
     7
100
AcDbLine
 10
6294.0187548891
 20
4597.2317382387
 30
0.0
 11
6294.0187548891
 21
4642.7959911219
 31
0.0
  0
LINE
  5
51A
330
1F
100
AcDbEntity
  8
0
  6
Continuous
 62
     7
100
AcDbLine
 10
6254.0187557831
 20
4642.7959911219
 30
0.0
 11
6254.0187557831
 21
4597.2317382387
 31
0.0
  0
LINE
  5
51B
330
1F
100
AcDbEntity
  8
0
  6
Continuous
 62
     7
100
AcDbLine
 10
6355.8687550619
 20
4513.2257640055
 30
0.0
 11
6355.8687550619
 21
4512.4176963857
 31
0.0
  0
LINE
  5
51C
330
1F
100
AcDbEntity
  8
0
  6
Continuous
 62
     7
100
AcDbLine
 10
6392.1687511399
 20
4512.4173089555
 30
0.0
 11
6392.1687585905
 21
4513.2257640055
 31
0.0
  0
LINE
  5
51D
330
1F
100
AcDbEntity
  8
0
  6
Continuous
 62
     7
100
AcDbLine
 10
6360.5187518194
 20
4514.1834243825
 30
0.0
 11
6360.5187518194
 21
4513.9957964114
 31
0.0
  0
LINE
  5
51E
330
1F
100
AcDbEntity
  8
0
  6
Continuous
 62
     7
100
AcDbLine
 10
6386.7068497136
 20
4514.2739340356
 30
0.0
 11
6386.9926316336
 21
4514.438606768
 31
0.0
  0
LINE
  5
51F
330
1F
100
AcDbEntity
  8
0
  6
Continuous
 62
     7
100
AcDbLine
 10
6386.7068497136
 20
4513.9051451972
 30
0.0
 11
6386.7068497136
 21
4514.2770483783
 31
0.0
  0
LINE
  5
520
330
1F
100
AcDbEntity
  8
0
  6
Continuous
 62
     7
100
AcDbLine
 10
6273.9278399538
 20
4642.7959911219
 30
0.0
 11
6294.0187548891
 21
4642.7959911219
 31
0.0
  0
LINE
  5
521
330
1F
100
AcDbEntity
  8
0
  6
Continuous
 62
     7
100
AcDbLine
 10
6254.0187557831
 20
4642.7959911219
 30
0.0
 11
6273.9278399538
 21
4642.7959911219
 31
0.0
  0
LINE
  5
522
330
1F
100
AcDbEntity
  8
0
  6
Continuous
 62
     7
100
AcDbLine
 10
6262.0829885498
 20
4440.7372101835
 30
0.0
 11
6259.2890003368
 21
4442.3503204873
 31
0.0
  0
LINE
  5
523
330
1F
100
AcDbEntity
  8
0
  6
Continuous
 62
     7
100
AcDbLine
 10
6289.7621003583
 20
4442.9355188898
 30
0.0
 11
6285.3532015949
 21
4440.39004293
 31
0.0
  0
LINE
  5
524
330
1F
100
AcDbEntity
  8
0
  6
Continuous
 62
     7
100
AcDbLine
 10
6272.8187552791
 20
4415.9428998521
 30
0.0
 11
6272.8187552791
 21
4423.796705871
 31
0.0
  0
LINE
  5
525
330
1F
100
AcDbEntity
  8
0
  6
Continuous
 62
     7
100
AcDbLine
 10
6273.2687553361
 20
4440.4278906614
 30
0.0
 11
6273.2687553361
 21
4430.035585816
 31
0.0
  0
LINE
  5
526
330
1F
100
AcDbEntity
  8
0
  6
Continuous
 62
     7
100
AcDbLine
 10
6274.7687553361
 20
4430.035585816
 30
0.0
 11
6274.7687553361
 21
4440.4278906614
 31
0.0
  0
LINE
  5
527
330
1F
100
AcDbEntity
  8
0
  6
Continuous
 62
     7
100
AcDbLine
 10
6372.4389878705
 20
4512.5432833722
 30
0.0
 11
6374.9700022533
 21
4512.5448554448
 31
0.0
  0
LINE
  5
528
330
1F
100
AcDbEntity
  8
0
  6
Continuous
 62
     7
100
AcDbLine
 10
6374.9700022533
 20
4512.5448554448
 30
0.0
 11
6377.4816451266
 21
4512.5338360361
 31
0.0
  0
LINE
  5
529
330
1F
100
AcDbEntity
  8
0
  6
Continuous
 62
     7
100
AcDbLine
 10
6377.4816451266
 20
4512.5338360361
 30
0.0
 11
6379.9227980569
 21
4512.5104561141
 31
0.0
  0
LINE
  5
52A
330
1F
100
AcDbEntity
  8
0
  6
Continuous
 62
     7
100
AcDbLine
 10
6379.9227980569
 20
4512.5104561141
 30
0.0
 11
6382.2437656715
 21
4512.4751850656
 31
0.0
  0
LINE
  5
52B
330
1F
100
AcDbEntity
  8
0
  6
Continuous
 62
     7
100
AcDbLine
 10
6382.2437656715
 20
4512.4751850656
 30
0.0
 11
6384.3972963884
 21
4512.4287530473
 31
0.0
  0
LINE
  5
52C
330
1F
100
AcDbEntity
  8
0
  6
Continuous
 62
     7
100
AcDbLine
 10
6384.3972963884
 20
4512.4287530473
 30
0.0
 11
6386.3395435408
 21
4512.3720913819
 31
0.0
  0
LINE
  5
52D
330
1F
100
AcDbEntity
  8
0
  6
Continuous
 62
     7
100
AcDbLine
 10
6386.3395435408
 20
4512.3720913819
 30
0.0
 11
6388.0309743479
 21
4512.3063623598
 31
0.0
  0
LINE
  5
52E
330
1F
100
AcDbEntity
  8
0
  6
Continuous
 62
     7
100
AcDbLine
 10
6388.0309743479
 20
4512.3063623598
 30
0.0
 11
6389.4371671274
 21
4512.2328996352
 31
0.0
  0
LINE
  5
52F
330
1F
100
AcDbEntity
  8
0
  6
Continuous
 62
     7
100
AcDbLine
 10
6389.4371671274
 20
4512.2328996352
 30
0.0
 11
6390.529474397
 21
4512.1532082251
 31
0.0
  0
LINE
  5
530
330
1F
100
AcDbEntity
  8
0
  6
Continuous
 62
     7
100
AcDbLine
 10
6390.529474397
 20
4512.1532082251
 30
0.0
 11
6391.2856785253
 21
4512.0688974551
 31
0.0
  0
LINE
  5
531
330
1F
100
AcDbEntity
  8
0
  6
Continuous
 62
     7
100
AcDbLine
 10
6391.2856785253
 20
4512.0688974551
 30
0.0
 11
6391.6903717115
 21
4511.9816884092
 31
0.0
  0
LINE
  5
532
330
1F
100
AcDbEntity
  8
0
  6
Continuous
 62
     7
100
AcDbLine
 10
6391.6903717115
 20
4511.9816884092
 30
0.0
 11
6391.7475623682
 21
4511.9505077294
 31
0.0
  0
LINE
  5
533
330
1F
100
AcDbEntity
  8
0
  6
Continuous
 62
     7
100
AcDbLine
 10
6391.7544392541
 20
4511.9099169663
 30
0.0
 11
6391.7353285149
 21
4511.8933543256
 31
0.0
  0
LINE
  5
534
330
1F
100
AcDbEntity
  8
0
  6
Continuous
 62
     7
100
AcDbLine
 10
6391.7353285149
 20
4511.8933543256
 30
0.0
 11
6391.4447409704
 21
4511.810190945
 31
0.0
  0
LINE
  5
535
330
1F
100
AcDbEntity
  8
0
  6
Continuous
 62
     7
100
AcDbLine
 10
6356.5925566152
 20
4511.8102281979
 30
0.0
 11
6356.3471419409
 21
4511.8714198163
 31
0.0
  0
LINE
  5
536
330
1F
100
AcDbEntity
  8
0
  6
Continuous
 62
     7
100
AcDbLine
 10
6356.3471419409
 20
4511.8714198163
 30
0.0
 11
6356.2810403898
 21
4511.9128077916
 31
0.0
  0
LINE
  5
537
330
1F
100
AcDbEntity
  8
0
  6
Continuous
 62
     7
100
AcDbLine
 10
6372.4026662901
 20
4513.8566717199
 30
0.0
 11
6374.9343512252
 21
4513.8583779028
 31
0.0
  0
LINE
  5
538
330
1F
100
AcDbEntity
  8
0
  6
Continuous
 62
     7
100
AcDbLine
 10
6374.9343512252
 20
4513.8583779028
 30
0.0
 11
6377.4482143715
 21
4513.8477757266
 31
0.0
  0
LINE
  5
539
330
1F
100
AcDbEntity
  8
0
  6
Continuous
 62
     7
100
AcDbLine
 10
6377.4482143715
 20
4513.8477757266
 30
0.0
 11
6379.8953277662
 21
4513.825066357
 31
0.0
  0
LINE
  5
53A
330
1F
100
AcDbEntity
  8
0
  6
Continuous
 62
     7
100
AcDbLine
 10
6379.8953277662
 20
4513.825066357
 30
0.0
 11
6382.2280672982
 21
4513.7906893781
 31
0.0
  0
LINE
  5
53B
330
1F
100
AcDbEntity
  8
0
  6
Continuous
 62
     7
100
AcDbLine
 10
6382.2280672982
 20
4513.7906893781
 30
0.0
 11
6384.4010142282
 21
4513.7453227929
 31
0.0
  0
LINE
  5
53C
330
1F
100
AcDbEntity
  8
0
  6
Continuous
 62
     7
100
AcDbLine
 10
6384.4010142282
 20
4513.7453227929
 30
0.0
 11
6386.3718865111
 21
4513.6898383191
 31
0.0
  0
LINE
  5
53D
330
1F
100
AcDbEntity
  8
0
  6
Continuous
 62
     7
100
AcDbLine
 10
6386.3718865111
 20
4513.6898383191
 30
0.0
 11
6388.1023136571
 21
4513.6253162912
 31
0.0
  0
LINE
  5
53E
330
1F
100
AcDbEntity
  8
0
  6
Continuous
 62
     7
100
AcDbLine
 10
6388.1023136571
 20
4513.6253162912
 30
0.0
 11
6389.5586264923
 21
4513.5530233076
 31
0.0
  0
LINE
  5
53F
330
1F
100
AcDbEntity
  8
0
  6
Continuous
 62
     7
100
AcDbLine
 10
6389.5586264923
 20
4513.5530233076
 30
0.0
 11
6390.712468107
 21
4513.4743600777
 31
0.0
  0
LINE
  5
540
330
1F
100
AcDbEntity
  8
0
  6
Continuous
 62
     7
100
AcDbLine
 10
6390.712468107
 20
4513.4743600777
 30
0.0
 11
6391.5413899019
 21
4513.390861421
 31
0.0
  0
LINE
  5
541
330
1F
100
AcDbEntity
  8
0
  6
Continuous
 62
     7
100
AcDbLine
 10
6391.5413899019
 20
4513.390861421
 30
0.0
 11
6392.0292464688
 21
4513.3041441134
 31
0.0
  0
LINE
  5
542
330
1F
100
AcDbEntity
  8
0
  6
Continuous
 62
     7
100
AcDbLine
 10
6392.0292464688
 20
4513.3041441134
 30
0.0
 11
6392.1687585905
 21
4513.2257640055
 31
0.0
  0
LINE
  5
543
330
1F
100
AcDbEntity
  8
0
  6
Continuous
 62
     7
100
AcDbLine
 10
6355.8687550619
 20
4513.2257640055
 30
0.0
 11
6355.9348640636
 21
4513.2797732643
 31
0.0
  0
LINE
  5
544
330
1F
100
AcDbEntity
  8
0
  6
Continuous
 62
     7
100
AcDbLine
 10
6355.9348640636
 20
4513.2797732643
 30
0.0
 11
6356.3262430623
 21
4513.3670791677
 31
0.0
  0
LINE
  5
545
330
1F
100
AcDbEntity
  8
0
  6
Continuous
 62
     7
100
AcDbLine
 10
6356.3262430623
 20
4513.3670791677
 30
0.0
 11
6357.0619953468
 21
4513.4516432575
 31
0.0
  0
LINE
  5
546
330
1F
100
AcDbEntity
  8
0
  6
Continuous
 62
     7
100
AcDbLine
 10
6357.0619953468
 20
4513.4516432575
 30
0.0
 11
6358.1277860001
 21
4513.5318040541
 31
0.0
  0
LINE
  5
547
330
1F
100
AcDbEntity
  8
0
  6
Continuous
 62
     7
100
AcDbLine
 10
6358.1277860001
 20
4513.5318040541
 30
0.0
 11
6359.5028726056
 21
4513.6060043863
 31
0.0
  0
LINE
  5
548
330
1F
100
AcDbEntity
  8
0
  6
Continuous
 62
     7
100
AcDbLine
 10
6359.5028726056
 20
4513.6060043863
 30
0.0
 11
6361.1605001286
 21
4513.6728137425
 31
0.0
  0
LINE
  5
549
330
1F
100
AcDbEntity
  8
0
  6
Continuous
 62
     7
100
AcDbLine
 10
6361.1605001286
 20
4513.6728137425
 30
0.0
 11
6363.0684001043
 21
4513.73091337
 31
0.0
  0
LINE
  5
54A
330
1F
100
AcDbEntity
  8
0
  6
Continuous
 62
     7
100
AcDbLine
 10
6363.0684001043
 20
4513.73091337
 30
0.0
 11
6365.1894388393
 21
4513.7791856817
 31
0.0
  0
LINE
  5
54B
330
1F
100
AcDbEntity
  8
0
  6
Continuous
 62
     7
100
AcDbLine
 10
6365.1894388393
 20
4513.7791856817
 30
0.0
 11
6367.4823252156
 21
4513.8166844538
 31
0.0
  0
LINE
  5
54C
330
1F
100
AcDbEntity
  8
0
  6
Continuous
 62
     7
100
AcDbLine
 10
6367.4823252156
 20
4513.8166844538
 30
0.0
 11
6369.9024377063
 21
4513.8426795295
 31
0.0
  0
LINE
  5
54D
330
1F
100
AcDbEntity
  8
0
  6
Continuous
 62
     7
100
AcDbLine
 10
6369.9024377063
 20
4513.8426795295
 30
0.0
 11
6372.4026662901
 21
4513.8566717199
 31
0.0
  0
LINE
  5
54E
330
1F
100
AcDbEntity
  8
0
  6
Continuous
 62
     7
100
AcDbLine
 10
6386.0733789995
 20
4511.0148489169
 30
0.0
 11
6386.0385177329
 21
4510.995268791
 31
0.0
  0
LINE
  5
54F
330
1F
100
AcDbEntity
  8
0
  6
Continuous
 62
     7
100
AcDbLine
 10
6386.0385177329
 20
4510.995268791
 30
0.0
 11
6385.6772763327
 21
4510.9229758075
 31
0.0
  0
LINE
  5
550
330
1F
100
AcDbEntity
  8
0
  6
Continuous
 62
     7
100
AcDbLine
 10
6385.6772763327
 20
4510.9229758075
 30
0.0
 11
6384.9618045285
 21
4510.85396853
 31
0.0
  0
LINE
  5
551
330
1F
100
AcDbEntity
  8
0
  6
Continuous
 62
     7
100
AcDbLine
 10
6384.9618045285
 20
4510.85396853
 30
0.0
 11
6383.9138356641
 21
4510.7903405717
 31
0.0
  0
LINE
  5
552
330
1F
100
AcDbEntity
  8
0
  6
Continuous
 62
     7
100
AcDbLine
 10
6383.9138356641
 20
4510.7903405717
 30
0.0
 11
6382.5652060702
 21
4510.7340290836
 31
0.0
  0
LINE
  5
553
330
1F
100
AcDbEntity
  8
0
  6
Continuous
 62
     7
100
AcDbLine
 10
6382.5652060702
 20
4510.7340290836
 30
0.0
 11
6380.9568939403
 21
4510.6867551497
 31
0.0
  0
LINE
  5
554
330
1F
100
AcDbEntity
  8
0
  6
Continuous
 62
     7
100
AcDbLine
 10
6380.9568939403
 20
4510.6867551497
 30
0.0
 11
6379.1377750829
 21
4510.649941831
 31
0.0
  0
LINE
  5
555
330
1F
100
AcDbEntity
  8
0
  6
Continuous
 62
     7
100
AcDbLine
 10
6379.1377750829
 20
4510.649941831
 30
0.0
 11
6377.163117905
 21
4510.6247067145
 31
0.0
  0
LINE
  5
556
330
1F
100
AcDbEntity
  8
0
  6
Continuous
 62
     7
100
AcDbLine
 10
6377.163117905
 20
4510.6247067145
 30
0.0
 11
6375.0929144815
 21
4510.6118246606
 31
0.0
  0
LINE
  5
557
330
1F
100
AcDbEntity
  8
0
  6
Continuous
 62
     7
100
AcDbLine
 10
6375.0929144815
 20
4510.6118246606
 30
0.0
 11
6372.9900775149
 21
4510.6116905502
 31
0.0
  0
LINE
  5
558
330
1F
100
AcDbEntity
  8
0
  6
Continuous
 62
     7
100
AcDbLine
 10
6372.9900775149
 20
4510.6116905502
 30
0.0
 11
6370.918495734
 21
4510.6242969325
 31
0.0
  0
LINE
  5
559
330
1F
100
AcDbEntity
  8
0
  6
Continuous
 62
     7
100
AcDbLine
 10
6370.918495734
 20
4510.6242969325
 30
0.0
 11
6368.9411190942
 21
4510.6492638281
 31
0.0
  0
LINE
  5
55A
330
1F
100
AcDbEntity
  8
0
  6
Continuous
 62
     7
100
AcDbLine
 10
6368.9411190942
 20
4510.6492638281
 30
0.0
 11
6367.1180141762
 21
4510.6858387283
 31
0.0
  0
LINE
  5
55B
330
1F
100
AcDbEntity
  8
0
  6
Continuous
 62
     7
100
AcDbLine
 10
6367.1180141762
 20
4510.6858387283
 30
0.0
 11
6365.5045909479
 21
4510.7329040459
 31
0.0
  0
LINE
  5
55C
330
1F
100
AcDbEntity
  8
0
  6
Continuous
 62
     7
100
AcDbLine
 10
6365.5045909479
 20
4510.7329040459
 30
0.0
 11
6364.1498667791
 21
4510.7890367201
 31
0.0
  0
LINE
  5
55D
330
1F
100
AcDbEntity
  8
0
  6
Continuous
 62
     7
100
AcDbLine
 10
6364.1498667791
 20
4510.7890367201
 30
0.0
 11
6363.0949986771
 21
4510.8525231174
 31
0.0
  0
LINE
  5
55E
330
1F
100
AcDbEntity
  8
0
  6
Continuous
 62
     7
100
AcDbLine
 10
6363.0949986771
 20
4510.8525231174
 30
0.0
 11
6362.37204649
 21
4510.9214335373
 31
0.0
  0
LINE
  5
55F
330
1F
100
AcDbEntity
  8
0
  6
Continuous
 62
     7
100
AcDbLine
 10
6362.37204649
 20
4510.9214335373
 30
0.0
 11
6362.0029745296
 21
4510.9936818174
 31
0.0
  0
LINE
  5
560
330
1F
100
AcDbEntity
  8
0
  6
Continuous
 62
     7
100
AcDbLine
 10
6362.0029745296
 20
4510.9936818174
 30
0.0
 11
6361.9592917755
 21
4511.0200196198
 31
0.0
  0
LINE
  5
561
330
1F
100
AcDbEntity
  8
0
  6
Continuous
 62
     7
100
AcDbLine
 10
6360.5359403089
 20
4513.96036145
 30
0.0
 11
6360.5906201199
 21
4513.9330252698
 31
0.0
  0
LINE
  5
562
330
1F
100
AcDbEntity
  8
0
  6
Continuous
 62
     7
100
AcDbLine
 10
6514.0187470614
 20
4597.2317394044
 30
0.0
 11
6528.5187540947
 21
4597.2317394044
 31
0.0
  0
LINE
  5
563
330
1F
100
AcDbEntity
  8
0
  6
Continuous
 62
     7
100
AcDbLine
 10
6528.5187540947
 20
4597.2317394044
 30
0.0
 11
6528.5187540947
 21
4596.7317393806
 31
0.0
  0
LINE
  5
564
330
1F
100
AcDbEntity
  8
0
  6
Continuous
 62
     7
100
AcDbLine
 10
6528.5187540947
 20
4597.2317394044
 30
0.0
 11
6530.0187645851
 21
4597.2317394044
 31
0.0
  0
LINE
  5
565
330
1F
100
AcDbEntity
  8
0
  6
Continuous
 62
     7
100
AcDbLine
 10
6530.5187581478
 20
4596.7317393806
 30
0.0
 11
6528.5187540947
 21
4596.7317393806
 31
0.0
  0
LINE
  5
566
330
1F
100
AcDbEntity
  8
0
  6
Continuous
 62
     7
100
AcDbLine
 10
6530.5187581478
 20
4596.7317393806
 30
0.0
 11
6530.5187581478
 21
4593.6700433667
 31
0.0
  0
LINE
  5
567
330
1F
100
AcDbEntity
  8
0
  6
Continuous
 62
     7
100
AcDbLine
 10
6019.5187507569
 20
4597.2317394044
 30
0.0
 11
6019.5187507569
 21
4596.7317393806
 31
0.0
  0
LINE
  5
568
330
1F
100
AcDbEntity
  8
0
  6
Continuous
 62
     7
100
AcDbLine
 10
6034.0187577902
 20
4597.2317394044
 30
0.0
 11
6019.5187507569
 21
4597.2317394044
 31
0.0
  0
LINE
  5
569
330
1F
100
AcDbEntity
  8
0
  6
Continuous
 62
     7
100
AcDbLine
 10
6017.5187467038
 20
4596.7317393806
 30
0.0
 11
6019.5187507569
 21
4596.7317393806
 31
0.0
  0
LINE
  5
56A
330
1F
100
AcDbEntity
  8
0
  6
Continuous
 62
     7
100
AcDbLine
 10
6019.5187507569
 20
4597.2317394044
 30
0.0
 11
6018.0187402665
 21
4597.2317394044
 31
0.0
  0
LINE
  5
56B
330
1F
100
AcDbEntity
  8
0
  6
Continuous
 62
     7
100
AcDbLine
 10
6017.5187467038
 20
4596.7317393806
 30
0.0
 11
6017.5187467038
 21
4593.6700433667
 31
0.0
  0
LINE
  5
56C
330
1F
100
AcDbEntity
  8
0
  6
Continuous
 62
     7
100
AcDbLine
 10
6444.8649776603
 20
4503.765810703
 30
0.0
 11
6529.6304133925
 21
4514.4738703814
 31
0.0
  0
LINE
  5
56D
330
1F
100
AcDbEntity
  8
0
  6
Continuous
 62
     7
100
AcDbLine
 10
6529.6304133925
 20
4514.4738703814
 30
0.0
 11
6530.5253473315
 21
4507.3894336668
 31
0.0
  0
LINE
  5
56E
330
1F
100
AcDbEntity
  8
0
  6
Continuous
 62
     7
100
AcDbLine
 10
6455.6243748131
 20
4497.9275090299
 30
0.0
 11
6530.5253473315
 21
4507.3894336668
 31
0.0
  0
LINE
  5
56F
330
1F
100
AcDbEntity
  8
0
  6
Continuous
 62
     7
100
AcDbLine
 10
6462.0803800448
 20
4483.9489907148
 30
0.0
 11
6461.1629751547
 21
4483.6871475103
 31
0.0
  0
LINE
  5
570
330
1F
100
AcDbEntity
  8
0
  6
Continuous
 62
     7
100
AcDbLine
 10
6461.1629751547
 20
4483.6871475103
 30
0.0
 11
6460.2792766913
 21
4483.4349304559
 31
0.0
  0
LINE
  5
571
330
1F
100
AcDbEntity
  8
0
  6
Continuous
 62
     7
100
AcDbLine
 10
6460.2792766913
 20
4483.4349304559
 30
0.0
 11
6459.4617542847
 21
4483.2016080739
 31
0.0
  0
LINE
  5
572
330
1F
100
AcDbEntity
  8
0
  6
Continuous
 62
     7
100
AcDbLine
 10
6459.4617542847
 20
4483.2016080739
 30
0.0
 11
6458.7404635771
 21
4482.9957410814
 31
0.0
  0
LINE
  5
573
330
1F
100
AcDbEntity
  8
0
  6
Continuous
 62
     7
100
AcDbLine
 10
6458.7404635771
 20
4482.9957410814
 30
0.0
 11
6458.1418988331
 21
4482.8249067189
 31
0.0
  0
LINE
  5
574
330
1F
100
AcDbEntity
  8
0
  6
Continuous
 62
     7
100
AcDbLine
 10
6458.1418988331
 20
4482.8249067189
 30
0.0
 11
6457.6880541667
 21
4482.6953709247
 31
0.0
  0
LINE
  5
575
330
1F
100
AcDbEntity
  8
0
  6
Continuous
 62
     7
100
AcDbLine
 10
6457.6880541667
 20
4482.6953709247
 30
0.0
 11
6457.3956039771
 21
4482.6119095208
 31
0.0
  0
LINE
  5
576
330
1F
100
AcDbEntity
  8
0
  6
Continuous
 62
     7
100
AcDbLine
 10
6457.3956039771
 20
4482.6119095208
 30
0.0
 11
6457.2753069027
 21
4482.5775697949
 31
0.0
  0
LINE
  5
577
330
1F
100
AcDbEntity
  8
0
  6
Continuous
 62
     7
100
AcDbLine
 10
6018.4070972399
 20
4514.4738703659
 30
0.0
 11
6017.5121633009
 21
4507.3894336513
 31
0.0
  0
LINE
  5
578
330
1F
100
AcDbEntity
  8
0
  6
Continuous
 62
     7
100
AcDbLine
 10
6018.4070972399
 20
4514.4738703659
 30
0.0
 11
6103.172532972
 21
4503.7658106875
 31
0.0
  0
LINE
  5
579
330
1F
100
AcDbEntity
  8
0
  6
Continuous
 62
     7
100
AcDbLine
 10
6017.5121633009
 20
4507.3894336513
 30
0.0
 11
6092.4131358192
 21
4497.9275090143
 31
0.0
  0
LINE
  5
57A
330
1F
100
AcDbEntity
  8
0
  6
Continuous
 62
     7
100
AcDbLine
 10
6085.9571305707
 20
4483.948990672
 30
0.0
 11
6086.8745354608
 21
4483.6871474675
 31
0.0
  0
LINE
  5
57B
330
1F
100
AcDbEntity
  8
0
  6
Continuous
 62
     7
100
AcDbLine
 10
6086.8745354608
 20
4483.6871474675
 30
0.0
 11
6087.7582339242
 21
4483.4349304131
 31
0.0
  0
LINE
  5
57C
330
1F
100
AcDbEntity
  8
0
  6
Continuous
 62
     7
100
AcDbLine
 10
6087.7582339242
 20
4483.4349304131
 30
0.0
 11
6088.5757563308
 21
4483.2016080311
 31
0.0
  0
LINE
  5
57D
330
1F
100
AcDbEntity
  8
0
  6
Continuous
 62
     7
100
AcDbLine
 10
6088.5757563308
 20
4483.2016080311
 30
0.0
 11
6089.2970470384
 21
4482.9957410386
 31
0.0
  0
LINE
  5
57E
330
1F
100
AcDbEntity
  8
0
  6
Continuous
 62
     7
100
AcDbLine
 10
6089.2970470384
 20
4482.9957410386
 30
0.0
 11
6089.8956117824
 21
4482.8249066761
 31
0.0
  0
LINE
  5
57F
330
1F
100
AcDbEntity
  8
0
  6
Continuous
 62
     7
100
AcDbLine
 10
6089.8956117824
 20
4482.8249066761
 30
0.0
 11
6090.3494564488
 21
4482.6953708819
 31
0.0
  0
LINE
  5
580
330
1F
100
AcDbEntity
  8
0
  6
Continuous
 62
     7
100
AcDbLine
 10
6090.3494564488
 20
4482.6953708819
 30
0.0
 11
6090.6419066384
 21
4482.611909478
 31
0.0
  0
LINE
  5
581
330
1F
100
AcDbEntity
  8
0
  6
Continuous
 62
     7
100
AcDbLine
 10
6090.6419066384
 20
4482.611909478
 30
0.0
 11
6090.7622037128
 21
4482.5775697521
 31
0.0
  0
LINE
  5
582
330
1F
100
AcDbEntity
  8
0
  6
Continuous
 62
     7
100
AcDbLine
 10
6514.0187470614
 20
4595.2317353513
 30
0.0
 11
6034.0187577902
 21
4595.2317353513
 31
0.0
  0
LINE
  5
583
330
1F
100
AcDbEntity
  8
0
  6
Continuous
 62
     7
100
AcDbLine
 10
6034.0187577902
 20
4595.2317353513
 30
0.0
 11
6034.0187577902
 21
4597.2317394044
 31
0.0
  0
LINE
  5
584
330
1F
100
AcDbEntity
  8
0
  6
Continuous
 62
     7
100
AcDbLine
 10
6034.0187577902
 20
4597.2317394044
 30
0.0
 11
6514.0187470614
 21
4597.2317394044
 31
0.0
  0
LINE
  5
585
330
1F
100
AcDbEntity
  8
0
  6
Continuous
 62
     7
100
AcDbLine
 10
6514.0187470614
 20
4595.2317353513
 30
0.0
 11
6514.0187470614
 21
4597.2317394044
 31
0.0
  0
LINE
  5
586
330
1F
100
AcDbEntity
  8
0
  6
Continuous
 62
     7
100
AcDbLine
 10
6554.0187536179
 20
4557.2317363403
 30
0.0
 11
6552.0187495648
 21
4557.2317363403
 31
0.0
  0
LINE
  5
587
330
1F
100
AcDbEntity
  8
0
  6
Continuous
 62
     7
100
AcDbLine
 10
5996.0187552868
 20
4557.2317363403
 30
0.0
 11
5994.0187512337
 21
4557.2317363403
 31
0.0
  0
LINE
  5
588
330
1F
100
AcDbEntity
  8
0
  6
Continuous
 62
     7
100
AcDbLine
 10
6448.0187503293
 20
4208.2509025625
 30
0.0
 11
6100.0187603429
 21
4208.2509025625
 31
0.0
  0
LINE
  5
589
330
1F
100
AcDbEntity
  8
0
  6
Continuous
 62
     7
100
AcDbLine
 10
6462.0803800448
 20
4483.9489907148
 30
0.0
 11
6515.3124091252
 21
4297.4379882338
 31
0.0
  0
LINE
  5
58A
330
1F
100
AcDbEntity
  8
0
  6
Continuous
 62
     7
100
AcDbLine
 10
6548.0187385481
 20
4527.2317351482
 30
0.0
 11
6548.0187385481
 21
4557.2317363403
 31
0.0
  0
LINE
  5
58B
330
1F
100
AcDbEntity
  8
0
  6
Continuous
 62
     7
100
AcDbLine
 10
6514.0187499717
 20
4591.2317243346
 30
0.0
 11
6034.0187607005
 21
4591.2317243346
 31
0.0
  0
LINE
  5
58C
330
1F
100
AcDbEntity
  8
0
  6
Continuous
 62
     7
100
AcDbLine
 10
6000.0187663035
 20
4557.2317391327
 30
0.0
 11
6000.0187663035
 21
4527.2317379406
 31
0.0
  0
LINE
  5
58D
330
1F
100
AcDbEntity
  8
0
  6
Continuous
 62
     7
100
AcDbLine
 10
6032.7251014903
 20
4297.437988191
 30
0.0
 11
6085.9571305707
 21
4483.948990672
 31
0.0
  0
LINE
  5
58E
330
1F
100
AcDbEntity
  8
0
  6
Continuous
 62
     7
100
AcDbLine
 10
6552.0187495648
 20
4277.2317425988
 30
0.0
 11
6552.0187495648
 21
4557.2317363403
 31
0.0
  0
LINE
  5
58F
330
1F
100
AcDbEntity
  8
0
  6
Continuous
 62
     7
100
AcDbLine
 10
6094.0187452732
 20
4179.2317228101
 30
0.0
 11
6454.0187595784
 21
4179.2317228101
 31
0.0
  0
LINE
  5
590
330
1F
100
AcDbEntity
  8
0
  6
Continuous
 62
     7
100
AcDbLine
 10
5996.0187552868
 20
4557.2317363403
 30
0.0
 11
5996.0187552868
 21
4277.2317425988
 31
0.0
  0
LINE
  5
591
330
1F
100
AcDbEntity
  8
0
  6
Continuous
 62
     7
100
AcDbLine
 10
6540.8780126971
 20
4557.2317363403
 30
0.0
 11
6548.0187385481
 21
4557.2317363403
 31
0.0
  0
LINE
  5
592
330
1F
100
AcDbEntity
  8
0
  6
Continuous
 62
     7
100
AcDbLine
 10
6514.0187499717
 20
4584.0909984836
 30
0.0
 11
6514.0187499717
 21
4591.2317243346
 31
0.0
  0
LINE
  5
593
330
1F
100
AcDbEntity
  8
0
  6
Continuous
 62
     7
100
AcDbLine
 10
6514.0187499717
 20
4584.0909984836
 30
0.0
 11
6423.9791689113
 21
4584.0909984836
 31
0.0
  0
LINE
  5
594
330
1F
100
AcDbEntity
  8
0
  6
Continuous
 62
     7
100
AcDbLine
 10
6423.9791689113
 20
4584.0909984836
 30
0.0
 11
6421.0879413083
 21
4587.6613679284
 31
0.0
  0
LINE
  5
595
330
1F
100
AcDbEntity
  8
0
  6
Continuous
 62
     7
100
AcDbLine
 10
6421.0879413083
 20
4587.6613679284
 30
0.0
 11
6126.9495693639
 21
4587.6613679284
 31
0.0
  0
LINE
  5
596
330
1F
100
AcDbEntity
  8
0
  6
Continuous
 62
     7
100
AcDbLine
 10
6124.0583417609
 20
4584.0909984836
 30
0.0
 11
6126.9495693639
 21
4587.6613679284
 31
0.0
  0
LINE
  5
597
330
1F
100
AcDbEntity
  8
0
  6
Continuous
 62
     7
100
AcDbLine
 10
6124.0583417609
 20
4584.0909984836
 30
0.0
 11
6034.0187607005
 21
4584.0909984836
 31
0.0
  0
LINE
  5
598
330
1F
100
AcDbEntity
  8
0
  6
Continuous
 62
     7
100
AcDbLine
 10
6034.0187607005
 20
4584.0909984836
 30
0.0
 11
6034.0187607005
 21
4591.2317243346
 31
0.0
  0
LINE
  5
599
330
1F
100
AcDbEntity
  8
0
  6
Continuous
 62
     7
100
AcDbLine
 10
6007.1594921545
 20
4557.2317391327
 30
0.0
 11
6000.0187663035
 21
4557.2317391327
 31
0.0
  0
LINE
  5
59A
330
1F
100
AcDbEntity
  8
0
  6
Continuous
 62
     7
100
AcDbLine
 10
5996.0187552868
 20
4277.2317425988
 30
0.0
 11
5994.0187512337
 21
4277.2317425988
 31
0.0
  0
LINE
  5
59B
330
1F
100
AcDbEntity
  8
0
  6
Continuous
 62
     7
100
AcDbLine
 10
5994.0187512337
 20
4277.2317425988
 30
0.0
 11
5994.0187512337
 21
4557.2317363403
 31
0.0
  0
LINE
  5
59C
330
1F
100
AcDbEntity
  8
0
  6
Continuous
 62
     7
100
AcDbLine
 10
6540.8780126971
 20
4527.2317351482
 30
0.0
 11
6548.0187385481
 21
4527.2317351482
 31
0.0
  0
LINE
  5
59D
330
1F
100
AcDbEntity
  8
0
  6
Continuous
 62
     7
100
AcDbLine
 10
6540.8780126971
 20
4527.2317351482
 30
0.0
 11
6540.8780126971
 21
4557.2317363403
 31
0.0
  0
LINE
  5
59E
330
1F
100
AcDbEntity
  8
0
  6
Continuous
 62
     7
100
AcDbLine
 10
6007.1594921545
 20
4557.2317391327
 30
0.0
 11
6007.1594921545
 21
4527.2317379406
 31
0.0
  0
LINE
  5
59F
330
1F
100
AcDbEntity
  8
0
  6
Continuous
 62
     7
100
AcDbLine
 10
6007.1594921545
 20
4527.2317379406
 30
0.0
 11
6000.0187663035
 21
4527.2317379406
 31
0.0
  0
LINE
  5
5A0
330
1F
100
AcDbEntity
  8
0
  6
Continuous
 62
     7
100
AcDbLine
 10
6554.0187536179
 20
4557.2317363403
 30
0.0
 11
6554.0187536179
 21
4277.2317425988
 31
0.0
  0
LINE
  5
5A1
330
1F
100
AcDbEntity
  8
0
  6
Continuous
 62
     7
100
AcDbLine
 10
6554.0187536179
 20
4277.2317425988
 30
0.0
 11
6552.0187495648
 21
4277.2317425988
 31
0.0
  0
LINE
  5
5A2
330
1F
100
AcDbEntity
  8
0
  6
Continuous
 62
     7
100
AcDbLine
 10
6515.3124091252
 20
4297.4379882338
 30
0.0
 11
6514.3950042473
 21
4297.1761449865
 31
0.0
  0
LINE
  5
5A3
330
1F
100
AcDbEntity
  8
0
  6
Continuous
 62
     7
100
AcDbLine
 10
6514.3950042473
 20
4297.1761449865
 30
0.0
 11
6513.5113057839
 21
4296.9239279321
 31
0.0
  0
LINE
  5
5A4
330
1F
100
AcDbEntity
  8
0
  6
Continuous
 62
     7
100
AcDbLine
 10
6513.5113057839
 20
4296.9239279321
 30
0.0
 11
6512.6937833773
 21
4296.6906055501
 31
0.0
  0
LINE
  5
5A5
330
1F
100
AcDbEntity
  8
0
  6
Continuous
 62
     7
100
AcDbLine
 10
6512.6937833773
 20
4296.6906055501
 30
0.0
 11
6511.9724926697
 21
4296.4847609094
 31
0.0
  0
LINE
  5
5A6
330
1F
100
AcDbEntity
  8
0
  6
Continuous
 62
     7
100
AcDbLine
 10
6511.9724926697
 20
4296.4847609094
 30
0.0
 11
6511.3739279257
 21
4296.3139041952
 31
0.0
  0
LINE
  5
5A7
330
1F
100
AcDbEntity
  8
0
  6
Continuous
 62
     7
100
AcDbLine
 10
6511.3739279257
 20
4296.3139041952
 30
0.0
 11
6510.9200832592
 21
4296.1843833021
 31
0.0
  0
LINE
  5
5A8
330
1F
100
AcDbEntity
  8
0
  6
Continuous
 62
     7
100
AcDbLine
 10
6510.9200832592
 20
4296.1843833021
 30
0.0
 11
6510.6276330697
 21
4296.1009069971
 31
0.0
  0
LINE
  5
5A9
330
1F
100
AcDbEntity
  8
0
  6
Continuous
 62
     7
100
AcDbLine
 10
6510.6276330697
 20
4296.1009069971
 30
0.0
 11
6510.5073359953
 21
4296.0665747217
 31
0.0
  0
LINE
  5
5AA
330
1F
100
AcDbEntity
  8
0
  6
Continuous
 62
     7
100
AcDbLine
 10
6510.5073359953
 20
4296.0665747217
 30
0.0
 11
6457.2753069027
 21
4482.5775697949
 31
0.0
  0
LINE
  5
5AB
330
1F
100
AcDbEntity
  8
0
  6
Continuous
 62
     7
100
AcDbLine
 10
6090.7622037128
 20
4482.5775697521
 30
0.0
 11
6037.5301746324
 21
4296.0665747217
 31
0.0
  0
LINE
  5
5AC
330
1F
100
AcDbEntity
  8
0
  6
Continuous
 62
     7
100
AcDbLine
 10
6032.7251014903
 20
4297.437988191
 30
0.0
 11
6033.6425063804
 21
4297.1761449865
 31
0.0
  0
LINE
  5
5AD
330
1F
100
AcDbEntity
  8
0
  6
Continuous
 62
     7
100
AcDbLine
 10
6033.6425063804
 20
4297.1761449865
 30
0.0
 11
6034.5262048438
 21
4296.9239279321
 31
0.0
  0
LINE
  5
5AE
330
1F
100
AcDbEntity
  8
0
  6
Continuous
 62
     7
100
AcDbLine
 10
6034.5262048438
 20
4296.9239279321
 30
0.0
 11
6035.3437272504
 21
4296.6906055501
 31
0.0
  0
LINE
  5
5AF
330
1F
100
AcDbEntity
  8
0
  6
Continuous
 62
     7
100
AcDbLine
 10
6035.3437272504
 20
4296.6906055501
 30
0.0
 11
6036.065017958
 21
4296.4847609094
 31
0.0
  0
LINE
  5
5B0
330
1F
100
AcDbEntity
  8
0
  6
Continuous
 62
     7
100
AcDbLine
 10
6036.065017958
 20
4296.4847609094
 30
0.0
 11
6036.663582702
 21
4296.3139041952
 31
0.0
  0
LINE
  5
5B1
330
1F
100
AcDbEntity
  8
0
  6
Continuous
 62
     7
100
AcDbLine
 10
6036.663582702
 20
4296.3139041952
 30
0.0
 11
6037.1174273685
 21
4296.1843833021
 31
0.0
  0
LINE
  5
5B2
330
1F
100
AcDbEntity
  8
0
  6
Continuous
 62
     7
100
AcDbLine
 10
6037.1174273685
 20
4296.1843833021
 30
0.0
 11
6037.409877558
 21
4296.1009069971
 31
0.0
  0
LINE
  5
5B3
330
1F
100
AcDbEntity
  8
0
  6
Continuous
 62
     7
100
AcDbLine
 10
6037.409877558
 20
4296.1009069971
 30
0.0
 11
6037.5301746324
 21
4296.0665747217
 31
0.0
  0
LINE
  5
5B4
330
1F
100
AcDbEntity
  8
0
  6
Continuous
 62
     7
100
AcDbLine
 10
6100.0187603429
 20
4208.2509025625
 30
0.0
 11
6100.0187603429
 21
4213.2478519123
 31
0.0
  0
LINE
  5
5B5
330
1F
100
AcDbEntity
  8
0
  6
Continuous
 62
     7
100
AcDbLine
 10
6448.0187503293
 20
4208.2509025625
 30
0.0
 11
6448.0187503293
 21
4213.2478519123
 31
0.0
  0
LINE
  5
5B6
330
1F
100
AcDbEntity
  8
0
  6
Continuous
 62
     7
100
AcDbLine
 10
6454.0187595784
 20
4177.2317485593
 30
0.0
 11
6454.0187595784
 21
4179.2317228101
 31
0.0
  0
LINE
  5
5B7
330
1F
100
AcDbEntity
  8
0
  6
Continuous
 62
     7
100
AcDbLine
 10
6094.0187452732
 20
4177.2317485593
 30
0.0
 11
6094.0187452732
 21
4179.2317228101
 31
0.0
  0
LINE
  5
5B8
330
1F
100
AcDbEntity
  8
0
  6
Continuous
 62
     7
100
AcDbLine
 10
6100.0187603429
 20
4213.2478519123
 30
0.0
 11
6448.0187503293
 21
4213.2478519123
 31
0.0
  0
LINE
  5
5B9
330
1F
100
AcDbEntity
  8
0
  6
Continuous
 62
     7
100
AcDbLine
 10
6454.0187595784
 20
4177.2317485593
 30
0.0
 11
6094.0187452732
 21
4177.2317485593
 31
0.0
  0
LINE
  5
5BA
330
1F
100
AcDbEntity
  8
0
  6
Continuous
 62
     7
100
AcDbLine
 10
6423.9791689113
 20
4584.0909984836
 30
0.0
 11
6409.4624313896
 21
4515.7951386814
 31
0.0
  0
LINE
  5
5BB
330
1F
100
AcDbEntity
  8
0
  6
Continuous
 62
     7
100
AcDbLine
 10
6406.7326940935
 20
4520.1252657002
 30
0.0
 11
6421.0879413083
 21
4587.6613679284
 31
0.0
  0
LINE
  5
5BC
330
1F
100
AcDbEntity
  8
0
  6
Continuous
 62
     7
100
AcDbLine
 10
6141.3048165787
 20
4520.1252657002
 30
0.0
 11
6406.7326940935
 21
4520.1252657002
 31
0.0
  0
LINE
  5
5BD
330
1F
100
AcDbEntity
  8
0
  6
Continuous
 62
     7
100
AcDbLine
 10
6126.9495693639
 20
4587.6613679284
 30
0.0
 11
6141.3048165787
 21
4520.1252657002
 31
0.0
  0
LINE
  5
5BE
330
1F
100
AcDbEntity
  8
0
  6
Continuous
 62
     7
100
AcDbLine
 10
6138.5750792826
 20
4515.7951386814
 30
0.0
 11
6124.0583417609
 21
4584.0909984836
 31
0.0
  0
LINE
  5
5BF
330
1F
100
AcDbEntity
  8
0
  6
Continuous
 62
     7
100
AcDbLine
 10
6134.0187547401
 20
4515.7951415458
 30
0.0
 11
6138.5750792826
 21
4515.7951386814
 31
0.0
  0
LINE
  5
5C0
330
1F
100
AcDbEntity
  8
0
  6
Continuous
 62
     7
100
AcDbLine
 10
6409.4624313896
 20
4515.7951386814
 30
0.0
 11
6414.0187559321
 21
4515.7951415458
 31
0.0
  0
LINE
  5
5C1
330
1F
100
AcDbEntity
  8
0
  6
Continuous
 62
     7
100
AcDbLine
 10
6414.0187559321
 20
4515.7951415458
 30
0.0
 11
6414.0187559321
 21
4515.1283139241
 31
0.0
  0
LINE
  5
5C2
330
1F
100
AcDbEntity
  8
0
  6
Continuous
 62
     7
100
AcDbLine
 10
6414.0187559321
 20
4515.1283139241
 30
0.0
 11
6134.0187547401
 21
4515.1283139237
 31
0.0
  0
LINE
  5
5C3
330
1F
100
AcDbEntity
  8
0
  6
Continuous
 62
     7
100
AcDbLine
 10
6134.0187547401
 20
4515.7951415458
 30
0.0
 11
6134.0187547401
 21
4515.1283139237
 31
0.0
  0
LINE
  5
5C4
330
1F
100
AcDbEntity
  8
0
  6
Continuous
 62
     7
100
AcDbLine
 10
6134.0187547401
 20
4515.1283139237
 30
0.0
 11
6134.0187547401
 21
4514.2317471854
 31
0.0
  0
LINE
  5
5C5
330
1F
100
AcDbEntity
  8
0
  6
Continuous
 62
     7
100
AcDbLine
 10
6090.7622037128
 20
4482.5775697521
 30
0.0
 11
6091.7082933381
 21
4482.3075458101
 31
0.0
  0
LINE
  5
5C6
330
1F
100
AcDbEntity
  8
0
  6
Continuous
 62
     7
100
AcDbLine
 10
6414.0187559321
 20
4515.1283139241
 30
0.0
 11
6414.0187559321
 21
4514.2317471854
 31
0.0
  0
LINE
  5
5C7
330
1F
100
AcDbEntity
  8
0
  6
Continuous
 62
     7
100
AcDbLine
 10
6457.2753069027
 20
4482.5775697949
 30
0.0
 11
6456.3292172774
 21
4482.3075458529
 31
0.0
  0
LINE
  5
5C8
330
1F
100
AcDbEntity
  8
0
  6
Continuous
 62
     7
100
AcDbLine
 10
6091.7082933381
 20
4482.3075458101
 30
0.0
 11
6038.4762791589
 21
4295.7965656808
 31
0.0
  0
LINE
  5
5C9
330
1F
100
AcDbEntity
  8
0
  6
Continuous
 62
     7
100
AcDbLine
 10
6037.5301746324
 20
4296.0665747217
 30
0.0
 11
6038.4762791589
 21
4295.7965656808
 31
0.0
  0
LINE
  5
5CA
330
1F
100
AcDbEntity
  8
0
  6
Continuous
 62
     7
100
AcDbLine
 10
6509.5612314688
 20
4295.7965656808
 30
0.0
 11
6456.3292172774
 21
4482.3075458529
 31
0.0
  0
LINE
  5
5CB
330
1F
100
AcDbEntity
  8
0
  6
Continuous
 62
     7
100
AcDbLine
 10
6510.5073359953
 20
4296.0665747217
 30
0.0
 11
6509.5612314688
 21
4295.7965656808
 31
0.0
  0
LINE
  5
5CC
330
1F
100
AcDbEntity
  8
0
  6
Continuous
 62
     7
100
AcDbLine
 10
6448.0187503293
 20
4213.2478519123
 30
0.0
 11
6448.0187503293
 21
4214.2317518285
 31
0.0
  0
LINE
  5
5CD
330
1F
100
AcDbEntity
  8
0
  6
Continuous
 62
     7
100
AcDbLine
 10
6100.0187603429
 20
4213.2478519123
 30
0.0
 11
6100.0187603429
 21
4214.2317518285
 31
0.0
  0
LINE
  5
5CE
330
1F
100
AcDbEntity
  8
0
  6
Continuous
 62
     7
100
AcDbLine
 10
6388.5163945749
 20
4514.2342745951
 30
0.0
 11
6415.0187579587
 21
4514.2355113915
 31
0.0
  0
LINE
  5
5CF
330
1F
100
AcDbEntity
  8
0
  6
Continuous
 62
     7
100
AcDbLine
 10
6359.5205453828
 20
4514.2330974034
 30
0.0
 11
6359.7511557534
 21
4514.3153890661
 31
0.0
  0
LINE
  5
5D0
330
1F
100
AcDbEntity
  8
0
  6
Continuous
 62
     7
100
AcDbLine
 10
6359.7511557534
 20
4514.3153890661
 30
0.0
 11
6360.3626547053
 21
4514.3952667406
 31
0.0
  0
LINE
  5
5D1
330
1F
100
AcDbEntity
  8
0
  6
Continuous
 62
     7
100
AcDbLine
 10
6360.3626547053
 20
4514.3952667406
 30
0.0
 11
6361.3387105659
 21
4514.4706070116
 31
0.0
  0
LINE
  5
5D2
330
1F
100
AcDbEntity
  8
0
  6
Continuous
 62
     7
100
AcDbLine
 10
6361.3387105659
 20
4514.4706070116
 30
0.0
 11
6362.6532761052
 21
4514.5393907717
 31
0.0
  0
LINE
  5
5D3
330
1F
100
AcDbEntity
  8
0
  6
Continuous
 62
     7
100
AcDbLine
 10
6362.6532761052
 20
4514.5393907717
 30
0.0
 11
6364.2712590888
 21
4514.5997926286
 31
0.0
  0
LINE
  5
5D4
330
1F
100
AcDbEntity
  8
0
  6
Continuous
 62
     7
100
AcDbLine
 10
6364.2712590888
 20
4514.5997926286
 30
0.0
 11
6366.1494535997
 21
4514.6501883558
 31
0.0
  0
LINE
  5
5D5
330
1F
100
AcDbEntity
  8
0
  6
Continuous
 62
     7
100
AcDbLine
 10
6366.1494535997
 20
4514.6501883558
 30
0.0
 11
6368.2377321318
 21
4514.6892368487
 31
0.0
  0
LINE
  5
5D6
330
1F
100
AcDbEntity
  8
0
  6
Continuous
 62
     7
100
AcDbLine
 10
6368.2377321318
 20
4514.6892368487
 30
0.0
 11
6370.4803419903
 21
4514.7158950261
 31
0.0
  0
LINE
  5
5D7
330
1F
100
AcDbEntity
  8
0
  6
Continuous
 62
     7
100
AcDbLine
 10
6370.4803419903
 20
4514.7158950261
 30
0.0
 11
6372.8174103096
 21
4514.7294550827
 31
0.0
  0
LINE
  5
5D8
330
1F
100
AcDbEntity
  8
0
  6
Continuous
 62
     7
100
AcDbLine
 10
6372.8174103096
 20
4514.7294550827
 30
0.0
 11
6375.1865459278
 21
4514.7295519403
 31
0.0
  0
LINE
  5
5D9
330
1F
100
AcDbEntity
  8
0
  6
Continuous
 62
     7
100
AcDbLine
 10
6375.1865459278
 20
4514.7295519403
 30
0.0
 11
6377.5245157674
 21
4514.7161781481
 31
0.0
  0
LINE
  5
5DA
330
1F
100
AcDbEntity
  8
0
  6
Continuous
 62
     7
100
AcDbLine
 10
6377.5245157674
 20
4514.7161781481
 30
0.0
 11
6379.7688839629
 21
4514.6897062353
 31
0.0
  0
LINE
  5
5DB
330
1F
100
AcDbEntity
  8
0
  6
Continuous
 62
     7
100
AcDbLine
 10
6379.7688839629
 20
4514.6897062353
 30
0.0
 11
6381.859755297
 21
4514.6508216551
 31
0.0
  0
LINE
  5
5DC
330
1F
100
AcDbEntity
  8
0
  6
Continuous
 62
     7
100
AcDbLine
 10
6381.859755297
 20
4514.6508216551
 30
0.0
 11
6383.7413025692
 21
4514.6005823902
 31
0.0
  0
LINE
  5
5DD
330
1F
100
AcDbEntity
  8
0
  6
Continuous
 62
     7
100
AcDbLine
 10
6383.7413025692
 20
4514.6005823902
 30
0.0
 11
6385.3632939652
 21
4514.5403146437
 31
0.0
  0
LINE
  5
5DE
330
1F
100
AcDbEntity
  8
0
  6
Continuous
 62
     7
100
AcDbLine
 10
6385.3632939652
 20
4514.5403146437
 30
0.0
 11
6386.682434161
 21
4514.4716351918
 31
0.0
  0
LINE
  5
5DF
330
1F
100
AcDbEntity
  8
0
  6
Continuous
 62
     7
100
AcDbLine
 10
6386.682434161
 20
4514.4716351918
 30
0.0
 11
6387.6635042623
 21
4514.3963768772
 31
0.0
  0
LINE
  5
5E0
330
1F
100
AcDbEntity
  8
0
  6
Continuous
 62
     7
100
AcDbLine
 10
6387.6635042623
 20
4514.3963768772
 30
0.0
 11
6388.2803154781
 21
4514.3165439061
 31
0.0
  0
LINE
  5
5E1
330
1F
100
AcDbEntity
  8
0
  6
Continuous
 62
     7
100
AcDbLine
 10
6388.2803154781
 20
4514.3165439061
 30
0.0
 11
6388.5163945749
 21
4514.2342745951
 31
0.0
  0
LINE
  5
5E2
330
1F
100
AcDbEntity
  8
0
  6
Continuous
 62
     7
100
AcDbLine
 10
6353.0193922713
 20
4214.228652387
 30
0.0
 11
6099.0187583163
 21
4214.228652387
 31
0.0
  0
LINE
  5
5E3
330
1F
100
AcDbEntity
  8
0
  6
Continuous
 62
     7
100
AcDbLine
 10
6388.51774313
 20
4514.2317413977
 30
0.0
 11
6388.3153108552
 21
4514.3102332643
 31
0.0
  0
LINE
  5
5E4
330
1F
100
AcDbEntity
  8
0
  6
Continuous
 62
     7
100
AcDbLine
 10
6388.3153108552
 20
4514.3102332643
 30
0.0
 11
6387.7661136582
 21
4514.3866762212
 31
0.0
  0
LINE
  5
5E5
330
1F
100
AcDbEntity
  8
0
  6
Continuous
 62
     7
100
AcDbLine
 10
6387.7661136582
 20
4514.3866762212
 30
0.0
 11
6386.8834731772
 21
4514.4592225245
 31
0.0
  0
LINE
  5
5E6
330
1F
100
AcDbEntity
  8
0
  6
Continuous
 62
     7
100
AcDbLine
 10
6386.8834731772
 20
4514.4592225245
 30
0.0
 11
6385.6888023809
 21
4514.5260989359
 31
0.0
  0
LINE
  5
5E7
330
1F
100
AcDbEntity
  8
0
  6
Continuous
 62
     7
100
AcDbLine
 10
6385.6888023809
 20
4514.5260989359
 30
0.0
 11
6384.2110691264
 21
4514.5856961301
 31
0.0
  0
LINE
  5
5E8
330
1F
100
AcDbEntity
  8
0
  6
Continuous
 62
     7
100
AcDbLine
 10
6384.2110691264
 20
4514.5856961301
 30
0.0
 11
6382.4861181572
 21
4514.6365612439
 31
0.0
  0
LINE
  5
5E9
330
1F
100
AcDbEntity
  8
0
  6
Continuous
 62
     7
100
AcDbLine
 10
6382.4861181572
 20
4514.6365612439
 30
0.0
 11
6380.5557919338
 21
4514.6774574808
 31
0.0
  0
LINE
  5
5EA
330
1F
100
AcDbEntity
  8
0
  6
Continuous
 62
     7
100
AcDbLine
 10
6380.5557919338
 20
4514.6774574808
 30
0.0
 11
6378.4669099048
 21
4514.7074013642
 31
0.0
  0
LINE
  5
5EB
330
1F
100
AcDbEntity
  8
0
  6
Continuous
 62
     7
100
AcDbLine
 10
6378.4669099048
 20
4514.7074013642
 30
0.0
 11
6376.2701360181
 21
4514.7256627372
 31
0.0
  0
LINE
  5
5EC
330
1F
100
AcDbEntity
  8
0
  6
Continuous
 62
     7
100
AcDbLine
 10
6376.2701360181
 20
4514.7256627372
 30
0.0
 11
6374.0187568262
 21
4514.7318020156
 31
0.0
  0
LINE
  5
5ED
330
1F
100
AcDbEntity
  8
0
  6
Continuous
 62
     7
100
AcDbLine
 10
6374.0187568262
 20
4514.7318020156
 30
0.0
 11
6371.7673776343
 21
4514.7256627372
 31
0.0
  0
LINE
  5
5EE
330
1F
100
AcDbEntity
  8
0
  6
Continuous
 62
     7
100
AcDbLine
 10
6371.7673776343
 20
4514.7256627372
 30
0.0
 11
6369.5706037477
 21
4514.7074013642
 31
0.0
  0
LINE
  5
5EF
330
1F
100
AcDbEntity
  8
0
  6
Continuous
 62
     7
100
AcDbLine
 10
6369.5706037477
 20
4514.7074013642
 30
0.0
 11
6367.4817217186
 21
4514.6774574808
 31
0.0
  0
LINE
  5
5F0
330
1F
100
AcDbEntity
  8
0
  6
Continuous
 62
     7
100
AcDbLine
 10
6367.4817217186
 20
4514.6774574808
 30
0.0
 11
6365.5513954952
 21
4514.6365612439
 31
0.0
  0
LINE
  5
5F1
330
1F
100
AcDbEntity
  8
0
  6
Continuous
 62
     7
100
AcDbLine
 10
6365.5513954952
 20
4514.6365612439
 30
0.0
 11
6363.826444526
 21
4514.5856961301
 31
0.0
  0
LINE
  5
5F2
330
1F
100
AcDbEntity
  8
0
  6
Continuous
 62
     7
100
AcDbLine
 10
6363.826444526
 20
4514.5856961301
 30
0.0
 11
6362.3487112716
 21
4514.5260989359
 31
0.0
  0
LINE
  5
5F3
330
1F
100
AcDbEntity
  8
0
  6
Continuous
 62
     7
100
AcDbLine
 10
6362.3487112716
 20
4514.5260989359
 30
0.0
 11
6361.1540330246
 21
4514.4592225245
 31
0.0
  0
LINE
  5
5F4
330
1F
100
AcDbEntity
  8
0
  6
Continuous
 62
     7
100
AcDbLine
 10
6361.1540330246
 20
4514.4592225245
 30
0.0
 11
6360.2713925436
 21
4514.3866762212
 31
0.0
  0
LINE
  5
5F5
330
1F
100
AcDbEntity
  8
0
  6
Continuous
 62
     7
100
AcDbLine
 10
6360.2713925436
 20
4514.3866762212
 30
0.0
 11
6359.7222027972
 21
4514.3102332643
 31
0.0
  0
LINE
  5
5F6
330
1F
100
AcDbEntity
  8
0
  6
Continuous
 62
     7
100
AcDbLine
 10
6359.7222027972
 20
4514.3102332643
 30
0.0
 11
6359.5197705224
 21
4514.2317413977
 31
0.0
  0
LINE
  5
5F7
330
1F
100
AcDbEntity
  8
0
  6
Continuous
 62
     7
100
AcDbLine
 10
6391.7475623682
 20
4511.9505077294
 30
0.0
 11
6391.7544392541
 21
4511.9099169663
 31
0.0
  0
LINE
  5
5F8
330
1F
100
AcDbEntity
  8
0
  6
Continuous
 62
     7
100
AcDbLine
 10
6356.2810403898
 20
4511.9128077916
 30
0.0
 11
6356.2901971534
 21
4511.9507312468
 31
0.0
  0
LINE
  5
5F9
330
1F
100
AcDbEntity
  8
0
  6
Continuous
 62
     7
100
AcDbLine
 10
6372.4026662901
 20
4513.0486115507
 30
0.0
 11
6374.9343512252
 21
4513.0503177336
 31
0.0
  0
LINE
  5
5FA
330
1F
100
AcDbEntity
  8
0
  6
Continuous
 62
     7
100
AcDbLine
 10
6374.9343512252
 20
4513.0503177336
 30
0.0
 11
6377.4482143715
 21
4513.0397155574
 31
0.0
  0
LINE
  5
5FB
330
1F
100
AcDbEntity
  8
0
  6
Continuous
 62
     7
100
AcDbLine
 10
6377.4482143715
 20
4513.0397155574
 30
0.0
 11
6379.8953277662
 21
4513.0170061878
 31
0.0
  0
LINE
  5
5FC
330
1F
100
AcDbEntity
  8
0
  6
Continuous
 62
     7
100
AcDbLine
 10
6379.8953277662
 20
4513.0170061878
 30
0.0
 11
6382.2280672982
 21
4512.9826292089
 31
0.0
  0
LINE
  5
5FD
330
1F
100
AcDbEntity
  8
0
  6
Continuous
 62
     7
100
AcDbLine
 10
6382.2280672982
 20
4512.9826292089
 30
0.0
 11
6384.4010142282
 21
4512.9372551731
 31
0.0
  0
LINE
  5
5FE
330
1F
100
AcDbEntity
  8
0
  6
Continuous
 62
     7
100
AcDbLine
 10
6384.4010142282
 20
4512.9372551731
 30
0.0
 11
6386.3718865111
 21
4512.8817781499
 31
0.0
  0
LINE
  5
5FF
330
1F
100
AcDbEntity
  8
0
  6
Continuous
 62
     7
100
AcDbLine
 10
6386.3718865111
 20
4512.8817781499
 30
0.0
 11
6388.1023136571
 21
4512.817256122
 31
0.0
  0
LINE
  5
600
330
1F
100
AcDbEntity
  8
0
  6
Continuous
 62
     7
100
AcDbLine
 10
6388.1023136571
 20
4512.817256122
 30
0.0
 11
6389.5586264923
 21
4512.7449631384
 31
0.0
  0
LINE
  5
601
330
1F
100
AcDbEntity
  8
0
  6
Continuous
 62
     7
100
AcDbLine
 10
6389.5586264923
 20
4512.7449631384
 30
0.0
 11
6390.712468107
 21
4512.6662999085
 31
0.0
  0
LINE
  5
602
330
1F
100
AcDbEntity
  8
0
  6
Continuous
 62
     7
100
AcDbLine
 10
6390.712468107
 20
4512.6662999085
 30
0.0
 11
6391.5413899019
 21
4512.5828012517
 31
0.0
  0
LINE
  5
603
330
1F
100
AcDbEntity
  8
0
  6
Continuous
 62
     7
100
AcDbLine
 10
6391.5413899019
 20
4512.5828012517
 30
0.0
 11
6392.0292464688
 21
4512.4960839442
 31
0.0
  0
LINE
  5
604
330
1F
100
AcDbEntity
  8
0
  6
Continuous
 62
     7
100
AcDbLine
 10
6392.0292464688
 20
4512.4960839442
 30
0.0
 11
6392.1687511399
 21
4512.4173089555
 31
0.0
  0
LINE
  5
605
330
1F
100
AcDbEntity
  8
0
  6
Continuous
 62
     7
100
AcDbLine
 10
6355.8687997654
 20
4512.4162658742
 30
0.0
 11
6355.9348640636
 21
4512.471713095
 31
0.0
  0
LINE
  5
606
330
1F
100
AcDbEntity
  8
0
  6
Continuous
 62
     7
100
AcDbLine
 10
6355.9348640636
 20
4512.471713095
 30
0.0
 11
6356.3262430623
 21
4512.5590189985
 31
0.0
  0
LINE
  5
607
330
1F
100
AcDbEntity
  8
0
  6
Continuous
 62
     7
100
AcDbLine
 10
6356.3262430623
 20
4512.5590189985
 30
0.0
 11
6357.0619953468
 21
4512.6435830882
 31
0.0
  0
LINE
  5
608
330
1F
100
AcDbEntity
  8
0
  6
Continuous
 62
     7
100
AcDbLine
 10
6357.0619953468
 20
4512.6435830882
 30
0.0
 11
6358.1277860001
 21
4512.7237438849
 31
0.0
  0
LINE
  5
609
330
1F
100
AcDbEntity
  8
0
  6
Continuous
 62
     7
100
AcDbLine
 10
6358.1277860001
 20
4512.7237438849
 30
0.0
 11
6359.5028726056
 21
4512.7979442171
 31
0.0
  0
LINE
  5
60A
330
1F
100
AcDbEntity
  8
0
  6
Continuous
 62
     7
100
AcDbLine
 10
6359.5028726056
 20
4512.7979442171
 30
0.0
 11
6361.1605001286
 21
4512.8647535733
 31
0.0
  0
LINE
  5
60B
330
1F
100
AcDbEntity
  8
0
  6
Continuous
 62
     7
100
AcDbLine
 10
6361.1605001286
 20
4512.8647535733
 30
0.0
 11
6363.0684001043
 21
4512.9228532008
 31
0.0
  0
LINE
  5
60C
330
1F
100
AcDbEntity
  8
0
  6
Continuous
 62
     7
100
AcDbLine
 10
6363.0684001043
 20
4512.9228532008
 30
0.0
 11
6365.1894388393
 21
4512.9711255124
 31
0.0
  0
LINE
  5
60D
330
1F
100
AcDbEntity
  8
0
  6
Continuous
 62
     7
100
AcDbLine
 10
6365.1894388393
 20
4512.9711255124
 30
0.0
 11
6367.4823252156
 21
4513.0086242846
 31
0.0
  0
LINE
  5
60E
330
1F
100
AcDbEntity
  8
0
  6
Continuous
 62
     7
100
AcDbLine
 10
6367.4823252156
 20
4513.0086242846
 30
0.0
 11
6369.9024377063
 21
4513.0346193603
 31
0.0
  0
LINE
  5
60F
330
1F
100
AcDbEntity
  8
0
  6
Continuous
 62
     7
100
AcDbLine
 10
6369.9024377063
 20
4513.0346193603
 30
0.0
 11
6372.4026662901
 21
4513.0486115507
 31
0.0
  0
LINE
  5
610
330
1F
100
AcDbEntity
  8
0
  6
Continuous
 62
     7
100
AcDbLine
 10
6386.0747946098
 20
4511.0461711577
 30
0.0
 11
6386.0733789995
 21
4511.0148489169
 31
0.0
  0
LINE
  5
611
330
1F
100
AcDbEntity
  8
0
  6
Continuous
 62
     7
100
AcDbLine
 10
6361.9592917755
 20
4511.0200196198
 30
0.0
 11
6361.9639930919
 21
4511.0473781517
 31
0.0
  0
LINE
  5
612
330
1F
100
AcDbEntity
  8
0
  6
Continuous
 62
     7
100
AcDbLine
 10
6528.5187540947
 20
4596.7317393806
 30
0.0
 11
6520.3235177695
 21
4596.7317393806
 31
0.0
  0
LINE
  5
613
330
1F
100
AcDbEntity
  8
0
  6
Continuous
 62
     7
100
AcDbLine
 10
6528.5187540947
 20
4594.511090283
 30
0.0
 11
6528.5187540947
 21
4596.7317393806
 31
0.0
  0
LINE
  5
614
330
1F
100
AcDbEntity
  8
0
  6
Continuous
 62
     7
100
AcDbLine
 10
6019.5187507569
 20
4596.7317393806
 30
0.0
 11
6027.7139870821
 21
4596.7317393806
 31
0.0
  0
LINE
  5
615
330
1F
100
AcDbEntity
  8
0
  6
Continuous
 62
     7
100
AcDbLine
 10
6019.5187507569
 20
4594.511090283
 30
0.0
 11
6019.5187507569
 21
4596.7317393806
 31
0.0
  0
LWPOLYLINE
  5
616
330
1F
100
AcDbEntity
  8
0
  6
Continuous
 62
     7
100
AcDbPolyline
 90
        5
 70
   128
 43
0.0
 10
6350.1739501953
 20
5264.1176534817
 10
6336.1044315161
 20
5254.2570250472
 10
6325.2826766814
 20
5250.5436216132
 10
6313.9247337684
 20
5247.8412667187
 10
6302.1619526342
 20
5245.7842109725
  0
LWPOLYLINE
  5
617
330
1F
100
AcDbEntity
  8
0
  6
Continuous
 62
     7
100
AcDbPolyline
 90
        3
 70
   128
 43
0.0
 10
6297.7409362793
 20
5219.9310092256
 10
6355.2846535184
 20
5236.0590766
 10
6381.8600682214
 20
5273.5920948908
  0
LWPOLYLINE
  5
618
330
1F
100
AcDbEntity
  8
0
  6
Continuous
 62
     7
100
AcDbPolyline
 90
        3
 70
   128
 43
0.0
 10
6034.1644287109
 20
5373.5597012565
 10
6149.776781892
 20
5280.237543964
 10
6236.5187910989
 20
5258.5596991703
  0
LWPOLYLINE
  5
619
330
1F
100
AcDbEntity
  8
0
  6
Continuous
 62
     7
100
AcDbPolyline
 90
        3
 70
   128
 43
0.0
 10
6311.5158081055
 20
5258.5596991703
 10
6422.9870440513
 20
5292.8417118007
 10
6513.8696340516
 20
5373.5597012565
  0
LWPOLYLINE
  5
61A
330
1F
100
AcDbEntity
  8
0
  6
Continuous
 62
     7
100
AcDbPolyline
 90
        3
 70
   128
 43
0.0
 10
6515.5181884766
 20
5368.0597012863
 10
6514.9719641364
 20
5368.2220938189
 10
6514.6839229062
 20
5368.5092031956
  0
LWPOLYLINE
  5
61B
330
1F
100
AcDbEntity
  8
0
  6
Continuous
 62
     7
100
AcDbPolyline
 90
        3
 70
   128
 43
0.0
 10
6514.6827697754
 20
5368.5092031956
 10
6515.1168829573
 20
5369.2203100147
 10
6515.5187604621
 20
5369.8117663153
  0
LWPOLYLINE
  5
61C
330
1F
100
AcDbEntity
  8
0
  6
Continuous
 62
     7
100
AcDbPolyline
 90
        3
 70
   128
 43
0.0
 10
6520.99609375
 20
5368.058713299
 10
6520.7269648895
 20
5368.0069625159
 10
6520.5301131089
 20
5367.9128578883
  0
LWPOLYLINE
  5
61D
330
1F
100
AcDbEntity
  8
0
  6
Continuous
 62
     7
100
AcDbPolyline
 90
        3
 70
   128
 43
0.0
 10
6515.0871276855
 20
5264.2200375641
 10
6514.602678298
 20
5264.4376865916
 10
6514.2553070225
 20
5264.5597012565
  0
LWPOLYLINE
  5
61E
330
1F
100
AcDbEntity
  8
0
  6
Continuous
 62
     7
100
AcDbPolyline
 90
        3
 70
   128
 43
0.0
 10
6515.5181884766
 20
5263.5597012565
 10
6515.2286835765
 20
5263.7871555257
 10
6515.089038075
 20
5264.2200375641
  0
LINE
  5
61F
330
1F
100
AcDbEntity
  8
0
  6
Continuous
 62
     7
100
AcDbLine
 10
6515.5181884766
 20
5263.5597012565
 30
0.0
 11
6514.2553070225
 21
5263.5597012565
 31
0.0
  0
LWPOLYLINE
  5
620
330
1F
100
AcDbEntity
  8
0
  6
Continuous
 62
     7
100
AcDbPolyline
 90
        3
 70
   128
 43
0.0
 10
6514.2517089844
 20
5263.5597012565
 10
6514.2553070225
 20
5263.7046631518
 10
6514.2553070225
 20
5263.8525944753
  0
LWPOLYLINE
  5
621
330
1F
100
AcDbEntity
  8
0
  6
Continuous
 62
     7
100
AcDbPolyline
 90
        3
 70
   128
 43
0.0
 10
6514.2517089844
 20
5263.8525944753
 10
6514.2553070225
 20
5264.2213195755
 10
6514.2553070225
 20
5264.5597012565
  0
LWPOLYLINE
  5
622
330
1F
100
AcDbEntity
  8
0
  6
Continuous
 62
     7
100
AcDbPolyline
 90
        3
 70
   128
 43
0.0
 10
6033.3518981934
 20
5368.5092031956
 10
6032.9206277149
 20
5369.2203100147
 10
6032.5187502101
 20
5369.8117663153
  0
LWPOLYLINE
  5
623
330
1F
100
AcDbEntity
  8
0
  6
Continuous
 62
     7
100
AcDbPolyline
 90
        3
 70
   128
 43
0.0
 10
6032.5164794922
 20
5368.0597012863
 10
6033.0655465358
 20
5368.2220938189
 10
6033.353587766
 20
5368.5092031956
  0
LWPOLYLINE
  5
624
330
1F
100
AcDbEntity
  8
0
  6
Continuous
 62
     7
100
AcDbPolyline
 90
        3
 70
   128
 43
0.0
 10
6027.0385742188
 20
5368.058713299
 10
6027.3105457827
 20
5368.0069625159
 10
6027.5073975633
 20
5367.9128578883
  0
LWPOLYLINE
  5
625
330
1F
100
AcDbEntity
  8
0
  6
Continuous
 62
     7
100
AcDbPolyline
 90
        3
 70
   128
 43
0.0
 10
6033.7791442871
 20
5264.5597012565
 10
6033.3030632415
 20
5264.3855257568
 10
6032.9484725972
 20
5264.2200375641
  0
LWPOLYLINE
  5
626
330
1F
100
AcDbEntity
  8
0
  6
Continuous
 62
     7
100
AcDbPolyline
 90
        3
 70
   128
 43
0.0
 10
6032.9475402832
 20
5264.2200375641
 10
6032.7531198155
 20
5263.7013673949
 10
6032.5187533413
 20
5263.5597012565
  0
LWPOLYLINE
  5
627
330
1F
100
AcDbEntity
  8
0
  6
Continuous
 62
     7
100
AcDbPolyline
 90
        3
 70
   128
 43
0.0
 10
6033.7791442871
 20
5264.5597012565
 10
6033.7822036497
 20
5264.3553097792
 10
6033.7822036497
 20
5264.1916065469
  0
LWPOLYLINE
  5
628
330
1F
100
AcDbEntity
  8
0
  6
Continuous
 62
     7
100
AcDbPolyline
 90
        3
 70
   128
 43
0.0
 10
6033.7791442871
 20
5264.1916065469
 10
6033.7822036497
 20
5263.9921134189
 10
6033.7822036497
 20
5263.8525944753
  0
LWPOLYLINE
  5
629
330
1F
100
AcDbEntity
  8
0
  6
Continuous
 62
     7
100
AcDbPolyline
 90
        3
 70
   128
 43
0.0
 10
6033.7791442871
 20
5263.8525944753
 10
6033.7822036497
 20
5263.7097273721
 10
6033.7822036497
 20
5263.6299129554
  0
LWPOLYLINE
  5
62A
330
1F
100
AcDbEntity
  8
0
  6
Continuous
 62
     7
100
AcDbPolyline
 90
        3
 70
   128
 43
0.0
 10
6033.7791442871
 20
5263.6299129554
 10
6033.7822036497
 20
5263.5838789639
 10
6033.7822036497
 20
5263.5597012565
  0
LINE
  5
62B
330
1F
100
AcDbEntity
  8
0
  6
Continuous
 62
     7
100
AcDbLine
 10
6033.7791442871
 20
5263.5597012565
 30
0.0
 11
6032.5187533413
 21
5263.5597012565
 31
0.0
  0
LINE
  5
62C
330
1F
100
AcDbEntity
  8
0
  6
Continuous
 62
     7
100
AcDbLine
 10
6236.4864627179
 20
5258.5596991703
 30
0.0
 11
6311.5510479543
 21
5258.5596991703
 31
0.0
  0
LWPOLYLINE
  5
62D
330
1F
100
AcDbEntity
  8
0
  6
Continuous
 62
     7
100
AcDbPolyline
 90
        3
 70
   128
 43
0.0
 10
6099.250793457
 20
5373.2029799721
 10
6097.2045335333
 20
5373.282193652
 10
6095.6169424251
 20
5373.5597012565
  0
LWPOLYLINE
  5
62E
330
1F
100
AcDbEntity
  8
0
  6
Continuous
 62
     7
100
AcDbPolyline
 90
        3
 70
   128
 43
0.0
 10
6168.7278747559
 20
5373.5597012565
 10
6129.8236507265
 20
5373.3757958143
 10
6099.2535112098
 20
5373.2029799721
  0
LWPOLYLINE
  5
62F
330
1F
100
AcDbEntity
  8
0
  6
Continuous
 62
     7
100
AcDbPolyline
 90
        3
 70
   128
 43
0.0
 10
6379.3029785156
 20
5373.5597012565
 10
6261.3842487531
 20
5373.3536109987
 10
6168.7313134179
 20
5373.5597012565
  0
LWPOLYLINE
  5
630
330
1F
100
AcDbEntity
  8
0
  6
Continuous
 62
     7
100
AcDbPolyline
 90
        3
 70
   128
 43
0.0
 10
6448.7838745117
 20
5373.2029799721
 10
6409.8765255105
 20
5373.419130502
 10
6379.3061954573
 20
5373.5597012565
  0
LWPOLYLINE
  5
631
330
1F
100
AcDbEntity
  8
0
  6
Continuous
 62
     7
100
AcDbPolyline
 90
        3
 70
   128
 43
0.0
 10
6452.4192810059
 20
5373.5597012565
 10
6450.3954778571
 20
5373.2350172887
 10
6448.7839994624
 20
5373.2029799721
  0
LWPOLYLINE
  5
632
330
1F
100
AcDbEntity
  8
0
  6
Continuous
 62
     7
100
AcDbPolyline
 90
        3
 70
   128
 43
0.0
 10
6513.5154724121
 20
5288.7522608615
 10
6513.8589386069
 20
5290.1747224375
 10
6514.5187585754
 20
5291.1222905494
  0
LWPOLYLINE
  5
633
330
1F
100
AcDbEntity
  8
0
  6
Continuous
 62
     7
100
AcDbPolyline
 90
        3
 70
   128
 43
0.0
 10
6034.5153808594
 20
5288.7522608615
 10
6034.1785720653
 20
5290.1747224375
 10
6033.5187520968
 20
5291.1222905494
  0
LWPOLYLINE
  5
634
330
1F
100
AcDbEntity
  8
0
  6
Continuous
 62
     7
100
AcDbPolyline
 90
        5
 70
   128
 43
0.0
 10
7036.1709594727
 20
5325.8790215478
 10
7019.9503372702
 20
5239.5288407951
 10
7021.6916665093
 20
5226.248973374
 10
7033.1483244018
 20
5219.6138490018
 10
7079.7112627109
 20
5217.6908282563
  0
LWPOLYLINE
  5
635
330
1F
100
AcDbEntity
  8
0
  6
Continuous
 62
     7
100
AcDbPolyline
 90
       10
 70
   128
 43
0.0
 10
7079.719543457
 20
5242.6908044145
 10
7054.5672870699
 20
5242.9367052371
 10
7039.6082711243
 20
5243.8514713281
 10
7038.1589012446
 20
5244.1051951786
 10
7038.1289987801
 20
5244.1098000933
 10
7038.1204981803
 20
5244.1090708281
 10
7038.120305854
 20
5244.1084943877
 10
7038.1205686294
 20
5244.1077721092
 10
7038.1224578901
 20
5244.1058864385
 10
7038.158748873
 20
5244.0864769742
  0
LWPOLYLINE
  5
636
330
1F
100
AcDbEntity
  8
0
  6
Continuous
 62
     7
100
AcDbPolyline
 90
        5
 70
   128
 43
0.0
 10
7051.4526367188
 20
5243.0330542848
 10
7059.0955267553
 20
5267.3945994755
 10
7060.8829670503
 20
5286.5137699392
 10
7061.2693947719
 20
5306.1412256662
 10
7061.1730856975
 20
5325.8594414219
  0
LWPOLYLINE
  5
637
330
1F
100
AcDbEntity
  8
0
  6
Continuous
 62
     7
100
AcDbPolyline
 90
        4
 70
   128
 43
0.0
 10
7179.2144775391
 20
5258.5596991703
 10
7302.1740156483
 20
5276.4638231337
 10
7351.2202032416
 20
5313.0662477184
 10
7363.7221349557
 20
5373.3836102038
  0
LWPOLYLINE
  5
638
330
1F
100
AcDbEntity
  8
0
  6
Continuous
 62
     7
100
AcDbPolyline
 90
        4
 70
   128
 43
0.0
 10
7062.0079040527
 20
5348.0278654024
 10
7068.0286738194
 20
5293.879229831
 10
7079.8027378612
 20
5269.8476122355
 10
7104.217272826
 20
5258.5596991703
  0
ARC
  5
639
330
1F
100
AcDbEntity
  8
0
  6
Continuous
 62
     7
100
AcDbCircle
 10
7079.2095238074
 20
5225.4289137175
 30
0.0
 40
40.39558054724501
100
AcDbArc
 50
14.4233295097
 51
28.4075323336
  0
ARC
  5
63A
330
1F
100
AcDbEntity
  8
0
  6
Continuous
 62
     7
100
AcDbCircle
 10
7098.475801067
 20
5225.0544244043
 30
0.0
 40
22.43241118565059
100
AcDbArc
 50
337.5577559297
 51
27.7255745117
  0
ARC
  5
63B
330
1F
100
AcDbEntity
  8
0
  6
Continuous
 62
     7
100
AcDbCircle
 10
7112.6865514344
 20
5220.0100769622
 30
0.0
 40
7.414878566502712
100
AcDbArc
 50
324.6753298163
 51
331.665218942
  0
LWPOLYLINE
  5
63C
330
1F
100
AcDbEntity
  8
0
  6
Continuous
 62
     7
100
AcDbPolyline
 90
       12
 70
   128
 43
0.0
 10
7116.4932250977
 20
5145.8991346881
 10
7120.1383712256
 20
5120.6794436166
 10
7110.6163957087
 20
5105.8525928602
 10
7109.6290315506
 20
5104.6077910028
 10
7109.5902652403
 20
5104.5593891136
 10
7109.5877027084
 20
5104.5561961361
 10
7109.5875526798
 20
5104.5560104127
 10
7109.5875472963
 20
5104.556004211
 10
7109.5876430617
 20
5104.5561251264
 10
7109.5879004348
 20
5104.556447747
 10
7109.5929067397
 20
5104.5627036592
 10
7109.6121562798
 20
5104.5867381618
  0
LWPOLYLINE
  5
63D
330
1F
100
AcDbEntity
  8
0
  6
Continuous
 62
     7
100
AcDbPolyline
 90
        3
 70
   128
 43
0.0
 10
7114.7155761719
 20
5148.5514966771
 10
7115.3104938406
 20
5147.6923361789
 10
7116.4955241759
 20
5145.8991346881
  0
LINE
  5
63E
330
1F
100
AcDbEntity
  8
0
  6
Continuous
 62
     7
100
AcDbLine
 10
7114.7155761719
 20
5148.5514966771
 30
0.0
 11
7119.2475153287
 21
5148.5514966771
 31
0.0
  0
ARC
  5
63F
330
1F
100
AcDbEntity
  8
0
  6
Continuous
 62
     7
100
AcDbCircle
 10
7225.5091518743
 20
5365.4626662
 30
0.0
 40
2.597268555002448
100
AcDbArc
 50
89.2317600452
 51
91.7572564888
  0
LWPOLYLINE
  5
640
330
1F
100
AcDbEntity
  8
0
  6
Continuous
 62
     7
100
AcDbPolyline
 90
        3
 70
   128
 43
0.0
 10
7239.2654418945
 20
5368.5092031955
 10
7239.6368521139
 20
5369.2203100146
 10
7239.7172643025
 20
5369.8117663152
  0
LWPOLYLINE
  5
641
330
1F
100
AcDbEntity
  8
0
  6
Continuous
 62
     7
100
AcDbPolyline
 90
        3
 70
   128
 43
0.0
 10
7238.6817932129
 20
5368.0597012862
 10
7238.9656575386
 20
5368.2220938188
 10
7239.2677856763
 20
5368.5092031955
  0
LWPOLYLINE
  5
642
330
1F
100
AcDbEntity
  8
0
  6
Continuous
 62
     7
100
AcDbPolyline
 90
        3
 70
   128
 43
0.0
 10
7225.4257202148
 20
5368.0587132989
 10
7225.3725549415
 20
5368.0069625156
 10
7225.330759414
 20
5367.9128577932
  0
LWPOLYLINE
  5
643
330
1F
100
AcDbEntity
  8
0
  6
Continuous
 62
     7
100
AcDbPolyline
 90
        3
 70
   128
 43
0.0
 10
6979.7172546387
 20
5264.9059696123
 10
6979.7243190659
 20
5264.7223102562
 10
6979.7641029757
 20
5264.5848346874
  0
LWPOLYLINE
  5
644
330
1F
100
AcDbEntity
  8
0
  6
Continuous
 62
     7
100
AcDbPolyline
 90
        7
 70
   128
 43
0.0
 10
7363.6512756348
 20
5373.2029803214
 10
7363.6520049066
 20
5373.1869121846
 10
7363.6513750492
 20
5373.1862392825
 10
7363.6508503318
 20
5373.1862011795
 10
7363.6502847445
 20
5373.1865574503
 10
7363.6490452858
 20
5373.1884331453
 10
7363.6371983369
 20
5373.2547174732
  0
LWPOLYLINE
  5
645
330
1F
100
AcDbEntity
  8
0
  6
Continuous
 62
     7
100
AcDbPolyline
 90
        3
 70
   128
 43
0.0
 10
7363.6360168457
 20
5373.2547174732
 10
7363.6296043317
 20
5373.4011684775
 10
7363.6279298146
 20
5373.5596882067
  0
LWPOLYLINE
  5
646
330
1F
100
AcDbEntity
  8
0
  6
Continuous
 62
     7
100
AcDbPolyline
 90
        3
 70
   128
 43
0.0
 10
7363.712310791
 20
5373.5363788383
 10
7363.7136125162
 20
5373.4953992147
 10
7363.7096179803
 20
5373.4599220334
  0
LWPOLYLINE
  5
647
330
1F
100
AcDbEntity
  8
0
  6
Continuous
 62
     7
100
AcDbPolyline
 90
        3
 70
   128
 43
0.0
 10
6392.0478820801
 20
4512.1045335821
 10
6392.1305190316
 20
4512.2360810692
 10
6392.1644521549
 20
4512.4110132149
  0
LWPOLYLINE
  5
648
330
1F
100
AcDbEntity
  8
0
  6
Continuous
 62
     7
100
AcDbPolyline
 90
        3
 70
   128
 43
0.0
 10
6355.8883666992
 20
4512.3914628914
 10
6355.9139888761
 20
4512.2049766628
 10
6355.9814599946
 20
4512.1109708837
  0
LWPOLYLINE
  5
649
330
1F
100
AcDbEntity
  8
0
  6
Continuous
 62
     7
100
AcDbPolyline
 90
        3
 70
   128
 43
0.0
 10
6385.6353759766
 20
4510.9246074847
 10
6388.8092578077
 20
4511.3356814154
 10
6391.2801278427
 20
4511.7930769614
  0
LWPOLYLINE
  5
64A
330
1F
100
AcDbEntity
  8
0
  6
Continuous
 62
     7
100
AcDbPolyline
 90
        3
 70
   128
 43
0.0
 10
6356.7543029785
 20
4511.7962136558
 10
6359.9842283526
 20
4511.2358256795
 10
6362.5381795362
 20
4510.9132826022
  0
LWPOLYLINE
  5
64B
330
1F
100
AcDbEntity
  8
0
  6
Continuous
 62
     7
100
AcDbPolyline
 90
        3
 70
   128
 43
0.0
 10
6361.385345459
 20
4514.7147252849
 10
6360.9312916585
 20
4514.4530739109
 10
6360.5744821623
 20
4514.2474770239
  0
LWPOLYLINE
  5
64C
330
1F
100
AcDbEntity
  8
0
  6
Continuous
 62
     7
100
AcDbPolyline
 90
        3
 70
   128
 43
0.0
 10
6387.134552002
 20
4513.6567204884
 10
6386.8934805972
 20
4513.7976005282
 10
6386.7013586357
 20
4513.908311694
  0
LWPOLYLINE
  5
64D
330
1F
100
AcDbEntity
  8
0
  6
Continuous
 62
     7
100
AcDbPolyline
 90
        3
 70
   128
 43
0.0
 10
6360.5728149414
 20
4513.9330774239
 10
6360.8317843996
 20
4513.7838883239
 10
6361.0352037147
 20
4513.6666744641
  0
LWPOLYLINE
  5
64E
330
1F
100
AcDbEntity
  8
0
  6
Continuous
 62
     7
100
AcDbPolyline
 90
        3
 70
   128
 43
0.0
 10
6275.2151489258
 20
4423.9645525506
 10
6275.2187553931
 20
4419.3750318981
 10
6275.2187553931
 20
4415.7695695451
  0
LWPOLYLINE
  5
64F
330
1F
100
AcDbEntity
  8
0
  6
Continuous
 62
     7
100
AcDbPolyline
 90
        4
 70
   128
 43
0.0
 10
6361.7973327637
 20
4514.4886746696
 10
6360.5848107331
 20
4514.2605903899
 10
6360.5393275804
 20
4514.2219188064
 10
6360.5519292548
 20
4514.1834467343
  0
LWPOLYLINE
  5
650
330
1F
100
AcDbEntity
  8
0
  6
Continuous
 62
     7
100
AcDbPolyline
 90
        3
 70
   128
 43
0.0
 10
6386.6806030273
 20
4513.9081105283
 10
6379.5003316212
 20
4514.0347693402
 10
6368.9654824927
 20
4513.8319879464
  0
LWPOLYLINE
  5
651
330
1F
100
AcDbEntity
  8
0
  6
Continuous
 62
     7
100
AcDbPolyline
 90
        6
 70
   128
 43
0.0
 10
6367.9161071777
 20
4514.6782323411
 10
6361.0264496711
 20
4514.1901550178
 10
6360.5511369934
 20
4514.0443446231
 10
6360.5243048369
 20
4514.0200087145
 10
6360.5188224293
 20
4514.0078858977
 10
6360.5216128424
 20
4513.9957964114
  0
LWPOLYLINE
  5
652
330
1F
100
AcDbEntity
  8
0
  6
Continuous
 62
     7
100
AcDbPolyline
 90
        9
 70
   128
 43
0.0
 10
6386.6767883301
 20
4514.2772867969
 10
6386.7321486917
 20
4514.2863591483
 10
6386.7351261035
 20
4514.2880916739
 10
6386.7359854682
 20
4514.2898323825
 10
6386.7347838082
 20
4514.2915803535
 10
6386.731578146
 20
4514.2933346666
 10
6386.5575542277
 20
4514.3145460499
 10
6383.5021495929
 20
4514.3978179283
 10
6361.7623505786
 20
4513.6869549445
  0
LWPOLYLINE
  5
653
330
1F
100
AcDbEntity
  8
0
  6
Continuous
 62
     7
100
AcDbPolyline
 90
        3
 70
   128
 43
0.0
 10
6444.8623657227
 20
4503.765810703
 10
6442.3238694078
 20
4505.2750434524
 10
6440.4123495659
 20
4506.5508856475
  0
LWPOLYLINE
  5
654
330
1F
100
AcDbEntity
  8
0
  6
Continuous
 62
     7
100
AcDbPolyline
 90
        5
 70
   128
 43
0.0
 10
6444.3511962891
 20
4503.4498238834
 10
6447.6607103071
 20
4500.8857903203
 10
6450.015879833
 20
4499.4493278662
 10
6452.6471266049
 20
4498.3055084552
 10
6455.6243748131
 20
4497.9275090299
  0
LWPOLYLINE
  5
655
330
1F
100
AcDbEntity
  8
0
  6
Continuous
 62
     7
100
AcDbPolyline
 90
        3
 70
   128
 43
0.0
 10
6107.6240539551
 20
4506.550885632
 10
6105.1797242688
 20
4504.9404128379
 10
6103.172532972
 20
4503.7658106875
  0
LWPOLYLINE
  5
656
330
1F
100
AcDbEntity
  8
0
  6
Continuous
 62
     7
100
AcDbPolyline
 90
        5
 70
   128
 43
0.0
 10
6092.4110412598
 20
4497.9275090143
 10
6096.8385331951
 20
4498.8654219027
 10
6099.3182300237
 20
4500.1985933477
 10
6101.5818666927
 20
4501.7456772887
 10
6103.6854764325
 20
4503.4498238678
  0
LWPOLYLINE
  5
657
330
1F
100
AcDbEntity
  8
0
  6
Continuous
 62
     7
100
AcDbPolyline
 90
        3
 70
   128
 43
0.0
 10
6415.0161743164
 20
4514.2355113915
 10
6415.4955316953
 20
4514.2242609157
 10
6415.8692268327
 20
4514.1912698439
  0
LWPOLYLINE
  5
658
330
1F
100
AcDbEntity
  8
0
  6
Continuous
 62
     7
100
AcDbPolyline
 90
        3
 70
   128
 43
0.0
 10
6211.4906311035
 20
4514.2323474116
 10
6167.5474649963
 20
4514.2339319597
 10
6133.0187553523
 20
4514.2355101762
  0
LWPOLYLINE
  5
659
330
1F
100
AcDbEntity
  8
0
  6
Continuous
 62
     7
100
AcDbPolyline
 90
        3
 70
   128
 43
0.0
 10
6211.4906311035
 20
4514.2323474116
 10
6294.3885146895
 20
4514.2315155338
 10
6359.5205453828
 20
4514.2330974034
  0
LWPOLYLINE
  5
65A
330
1F
100
AcDbEntity
  8
0
  6
Continuous
 62
     7
100
AcDbPolyline
 90
        3
 70
   128
 43
0.0
 10
6035.4156494141
 20
4285.5040692097
 10
6036.3560852094
 20
4291.3148857747
 10
6037.4631938644
 20
4295.8002856341
  0
LWPOLYLINE
  5
65B
330
1F
100
AcDbEntity
  8
0
  6
Continuous
 62
     7
100
AcDbPolyline
 90
        3
 70
   128
 43
0.0
 10
6036.6516113281
 20
4263.7981737689
 10
6035.0452672059
 20
4275.9418557029
 10
6035.4190389868
 20
4285.5040692097
  0
LWPOLYLINE
  5
65C
330
1F
100
AcDbEntity
  8
0
  6
Continuous
 62
     7
100
AcDbPolyline
 90
        3
 70
   128
 43
0.0
 10
6045.7496643066
 20
4242.7326026764
 10
6039.7118800962
 20
4254.138318224
 10
6036.6528661416
 20
4263.7981737689
  0
LWPOLYLINE
  5
65D
330
1F
100
AcDbEntity
  8
0
  6
Continuous
 62
     7
100
AcDbPolyline
 90
        3
 70
   128
 43
0.0
 10
6050.220489502
 20
4236.8001904503
 10
6047.6326300923
 20
4240.0595895891
 10
6045.7506045232
 20
4242.7326026764
  0
LWPOLYLINE
  5
65E
330
1F
100
AcDbEntity
  8
0
  6
Continuous
 62
     7
100
AcDbPolyline
 90
        3
 70
   128
 43
0.0
 10
6055.7136535645
 20
4231.0897960379
 10
6052.5514326981
 20
4234.2051199318
 10
6050.2229984399
 20
4236.8001904503
  0
LWPOLYLINE
  5
65F
330
1F
100
AcDbEntity
  8
0
  6
Continuous
 62
     7
100
AcDbPolyline
 90
        3
 70
   128
 43
0.0
 10
6061.3441467285
 20
4226.482210689
 10
6058.1268476834
 20
4228.9845591507
 10
6055.7160474898
 20
4231.0897960379
  0
LWPOLYLINE
  5
660
330
1F
100
AcDbEntity
  8
0
  6
Continuous
 62
     7
100
AcDbPolyline
 90
        3
 70
   128
 43
0.0
 10
6067.9817199707
 20
4222.2499555596
 10
6064.1993977291
 20
4224.5203311506
 10
6061.3444810159
 20
4226.482210689
  0
LWPOLYLINE
  5
661
330
1F
100
AcDbEntity
  8
0
  6
Continuous
 62
     7
100
AcDbPolyline
 90
        3
 70
   128
 43
0.0
 10
6074.520111084
 20
4219.0959080747
 10
6070.815177093
 20
4220.7713376376
 10
6067.9824629792
 20
4222.2499555596
  0
LWPOLYLINE
  5
662
330
1F
100
AcDbEntity
  8
0
  6
Continuous
 62
     7
100
AcDbPolyline
 90
        3
 70
   128
 43
0.0
 10
6099.0180969238
 20
4214.228652387
 10
6085.0537440669
 20
4215.7685172969
 10
6074.5237527087
 20
4219.0959080747
  0
ARC
  5
663
330
1F
100
AcDbEntity
  8
0
  6
Continuous
 62
     7
100
AcDbCircle
 10
6133.0038522428
 20
4470.2364027953
 30
0.0
 40
43.99910990483595
100
AcDbArc
 50
89.9805931236
 51
143.6874347956
  0
LWPOLYLINE
  5
664
330
1F
100
AcDbEntity
  8
0
  6
Continuous
 62
     7
100
AcDbPolyline
 90
        3
 70
   128
 43
0.0
 10
6095.6344604492
 20
4493.4648647402
 10
6096.6812685361
 20
4495.0666290154
 10
6097.5500705911
 20
4496.2922316424
  0
LWPOLYLINE
  5
665
330
1F
100
AcDbEntity
  8
0
  6
Continuous
 62
     7
100
AcDbPolyline
 90
        3
 70
   128
 43
0.0
 10
6090.6944274902
 20
4482.3114584518
 10
6093.0882004147
 20
4488.7462635686
 10
6095.6365941992
 20
4493.4648647402
  0
LWPOLYLINE
  5
666
330
1F
100
AcDbEntity
  8
0
  6
Continuous
 62
     7
100
AcDbPolyline
 90
        3
 70
   128
 43
0.0
 10
6037.4603271484
 20
4295.8002856341
 10
6067.273015999
 20
4400.2464758834
 10
6090.6945980798
 20
4482.3114584518
  0
LWPOLYLINE
  5
667
330
1F
100
AcDbEntity
  8
0
  6
Continuous
 62
     7
100
AcDbPolyline
 90
        3
 70
   128
 43
0.0
 10
6388.5154724121
 20
4514.2342745951
 10
6388.4043423025
 20
4513.8884858598
 10
6388.0080340102
 20
4513.6197134546
  0
LWPOLYLINE
  5
668
330
1F
100
AcDbEntity
  8
0
  6
Continuous
 62
     7
100
AcDbPolyline
 90
        3
 70
   128
 43
0.0
 10
6360.8551025391
 20
4513.6616974762
 10
6359.7759124547
 20
4513.997062789
 10
6359.5205453828
 20
4514.2330974034
  0
LWPOLYLINE
  5
669
330
1F
100
AcDbEntity
  8
0
  6
Continuous
 62
     7
100
AcDbPolyline
 90
        3
 70
   128
 43
0.0
 10
6387.5122070312
 20
4514.4035443357
 10
6387.1231051747
 20
4514.2393404375
 10
6386.7068497136
 20
4514.1207351974
  0
LWPOLYLINE
  5
66A
330
1F
100
AcDbEntity
  8
0
  6
Continuous
 62
     7
100
AcDbPolyline
 90
        5
 70
   128
 43
0.0
 10
6274.0478515625
 20
4472.6593873127
 10
6247.5380102077
 20
4461.7180898733
 10
6236.5501667291
 20
4435.2135228146
 10
6247.5110561682
 20
4408.72423026
 10
6274.0187553361
 20
4397.7408649116
  0
LWPOLYLINE
  5
66B
330
1F
100
AcDbEntity
  8
0
  6
Continuous
 62
     7
100
AcDbPolyline
 90
        5
 70
   128
 43
0.0
 10
6274.0173339844
 20
4397.7408649116
 10
6300.508035511
 20
4408.705820617
 10
6311.4873481649
 20
4435.1613489485
 10
6300.5206127805
 20
4461.6969878306
 10
6274.050300318
 20
4472.6593873127
  0
ENDSEC
  0
SECTION
  2
OBJECTS
  0
DICTIONARY
  5
C
330
0
100
AcDbDictionary
281
     1
  3
ACAD_GROUP
350
D
  3
ACAD_LAYOUT
350
1A
  3
ACAD_MLINESTYLE
350
17
  3
ACAD_PLOTSETTINGS
350
19
  3
ACAD_PLOTSTYLENAME
350
E
  3
ACAD_SCALELIST
350
47
  3
DWGPROPS
350
66C
  0
DICTIONARY
  5
D
102
{ACAD_REACTORS
330
C
102
}
330
C
100
AcDbDictionary
281
     1
  0
DICTIONARY
  5
1A
102
{ACAD_REACTORS
330
C
102
}
330
C
100
AcDbDictionary
281
     1
  3
Layout1
350
1E
  3
Layout2
350
26
  3
Model
350
22
  0
DICTIONARY
  5
17
102
{ACAD_REACTORS
330
C
102
}
330
C
100
AcDbDictionary
281
     1
  3
Standard
350
18
  0
DICTIONARY
  5
19
102
{ACAD_REACTORS
330
C
102
}
330
C
100
AcDbDictionary
281
     1
  0
ACDBDICTIONARYWDFLT
  5
E
102
{ACAD_REACTORS
330
C
102
}
330
C
100
AcDbDictionary
281
     1
  3
Normal
350
F
100
AcDbDictionaryWithDefault
340
F
  0
DICTIONARY
  5
47
102
{ACAD_REACTORS
330
C
102
}
330
C
100
AcDbDictionary
281
     1
  3
A0
350
48
  3
A1
350
49
  3
A2
350
4A
  3
A3
350
4B
  3
A4
350
4C
  3
A5
350
4D
  3
A6
350
4E
  3
A7
350
4F
  3
A8
350
50
  3
A9
350
51
  3
B0
350
52
  3
B1
350
53
  3
B2
350
54
  3
B3
350
55
  3
B4
350
56
  3
B5
350
57
  3
B6
350
58
  3
B7
350
59
  3
B8
350
5A
  3
B9
350
5B
  3
C0
350
5C
  3
C1
350
5D
  3
C2
350
5E
  3
C3
350
5F
  3
C4
350
60
  3
C5
350
61
  3
C6
350
62
  3
C7
350
63
  3
C8
350
64
  3
C9
350
65
  3
D0
350
66
  3
D1
350
67
  3
D2
350
68
  0
XRECORD
  5
66C
102
{ACAD_REACTORS
330
C
102
}
330
C
100
AcDbXrecord
280
     1
  1
DWGPROPS COOKIE
  2

  3

  4

  6

  7

  8
radek.stransky
  9

300
=
301
=
302
=
303
=
304
=
305
=
306
=
307
=
308
=
309
=
 40
0.0
 41
2459096.339265139
 42
2459096.339295
  1

 90
        0
  0
LAYOUT
  5
1E
102
{ACAD_REACTORS
330
1A
102
}
330
1A
100
AcDbPlotSettings
  1

  2
none_device
  4

  6

 40
0.0
 41
0.0
 42
0.0
 43
0.0
 44
0.0
 45
0.0
 46
0.0
 47
0.0
 48
0.0
 49
0.0
140
0.0
141
0.0
142
1.0
143
1.0
 70
   688
 72
     1
 73
     0
 74
     5
  7

 75
    16
147
1.0
148
0.0
149
0.0
100
AcDbLayout
  1
Layout1
 70
     1
 71
     1
 10
0.0
 20
0.0
 11
420.0
 21
297.0
 12
0.0
 22
0.0
 32
0.0
 14
1.0000000000E+20
 24
1.0000000000E+20
 34
1.0000000000E+20
 15
-1.0000000000E+20
 25
-1.0000000000E+20
 35
-1.0000000000E+20
146
0.0
 13
0.0
 23
0.0
 33
0.0
 16
1.0
 26
0.0
 36
0.0
 17
0.0
 27
1.0
 37
0.0
 76
     0
330
1B
  0
LAYOUT
  5
26
102
{ACAD_REACTORS
330
1A
102
}
330
1A
100
AcDbPlotSettings
  1

  2
none_device
  4

  6

 40
0.0
 41
0.0
 42
0.0
 43
0.0
 44
0.0
 45
0.0
 46
0.0
 47
0.0
 48
0.0
 49
0.0
140
0.0
141
0.0
142
1.0
143
1.0
 70
   688
 72
     1
 73
     0
 74
     5
  7

 75
    16
147
1.0
148
0.0
149
0.0
100
AcDbLayout
  1
Layout2
 70
     1
 71
     2
 10
0.0
 20
0.0
 11
0.0
 21
0.0
 12
0.0
 22
0.0
 32
0.0
 14
0.0
 24
0.0
 34
0.0
 15
0.0
 25
0.0
 35
0.0
146
0.0
 13
0.0
 23
0.0
 33
0.0
 16
1.0
 26
0.0
 36
0.0
 17
0.0
 27
1.0
 37
0.0
 76
     0
330
23
  0
LAYOUT
  5
22
102
{ACAD_REACTORS
330
1A
102
}
330
1A
100
AcDbPlotSettings
  1

  2
none_device
  4
ANSI_A_(11.00_x_8.50_Inches)
  6

 40
6.35
 41
19.05
 42
6.35000508
 43
19.05000254
 44
279.4
 45
215.9
 46
-1031.0221796583
 47
-744.2581361845
 48
0.0
 49
0.0
140
0.0
141
0.0
142
0.0068452035
143
1.0
 70
  1696
 72
     0
 73
     0
 74
     0
  7

 75
     0
147
0.0179189148
148
-1300.4909072572
149
0.0
100
AcDbLayout
  1
Model
 70
     1
 71
     0
 10
0.0
 20
0.0
 11
420.0
 21
297.0
 12
0.0
 22
0.0
 32
0.0
 14
5994.0187512337
 24
4177.2317485593
 34
0.0
 15
7399.7172607263
 25
5406.5597010777
 35
0.0
146
0.0
 13
0.0
 23
0.0
 33
0.0
 16
1.0
 26
0.0
 36
0.0
 17
0.0
 27
1.0
 37
0.0
 76
     0
330
1F
331
29
  0
MLINESTYLE
  5
18
102
{ACAD_REACTORS
330
17
102
}
330
17
100
AcDbMlineStyle
  2
Standard
 70
     0
  3

 62
   256
 51
90.0
 52
90.0
 71
     2
 49
0.5
 62
   256
  6
BYLAYER
 49
-0.5
 62
   256
  6
BYLAYER
  0
ACDBPLACEHOLDER
  5
F
102
{ACAD_REACTORS
330
E
102
}
330
E
  0
SCALE
  5
48
102
{ACAD_REACTORS
330
47
102
}
330
47
100
AcDbScale
 70
     0
300
1:1
140
1.0
141
1.0
290
     1
  0
SCALE
  5
49
102
{ACAD_REACTORS
330
47
102
}
330
47
100
AcDbScale
 70
     0
300
1:2
140
1.0
141
2.0
290
     0
  0
SCALE
  5
4A
102
{ACAD_REACTORS
330
47
102
}
330
47
100
AcDbScale
 70
     0
300
1:4
140
1.0
141
4.0
290
     0
  0
SCALE
  5
4B
102
{ACAD_REACTORS
330
47
102
}
330
47
100
AcDbScale
 70
     0
300
1:5
140
1.0
141
5.0
290
     0
  0
SCALE
  5
4C
102
{ACAD_REACTORS
330
47
102
}
330
47
100
AcDbScale
 70
     0
300
1:8
140
1.0
141
8.0
290
     0
  0
SCALE
  5
4D
102
{ACAD_REACTORS
330
47
102
}
330
47
100
AcDbScale
 70
     0
300
1:10
140
1.0
141
10.0
290
     0
  0
SCALE
  5
4E
102
{ACAD_REACTORS
330
47
102
}
330
47
100
AcDbScale
 70
     0
300
1:16
140
1.0
141
16.0
290
     0
  0
SCALE
  5
4F
102
{ACAD_REACTORS
330
47
102
}
330
47
100
AcDbScale
 70
     0
300
1:20
140
1.0
141
20.0
290
     0
  0
SCALE
  5
50
102
{ACAD_REACTORS
330
47
102
}
330
47
100
AcDbScale
 70
     0
300
1:30
140
1.0
141
30.0
290
     0
  0
SCALE
  5
51
102
{ACAD_REACTORS
330
47
102
}
330
47
100
AcDbScale
 70
     0
300
1:40
140
1.0
141
40.0
290
     0
  0
SCALE
  5
52
102
{ACAD_REACTORS
330
47
102
}
330
47
100
AcDbScale
 70
     0
300
1:50
140
1.0
141
50.0
290
     0
  0
SCALE
  5
53
102
{ACAD_REACTORS
330
47
102
}
330
47
100
AcDbScale
 70
     0
300
1:100
140
1.0
141
100.0
290
     0
  0
SCALE
  5
54
102
{ACAD_REACTORS
330
47
102
}
330
47
100
AcDbScale
 70
     0
300
2:1
140
2.0
141
1.0
290
     0
  0
SCALE
  5
55
102
{ACAD_REACTORS
330
47
102
}
330
47
100
AcDbScale
 70
     0
300
4:1
140
4.0
141
1.0
290
     0
  0
SCALE
  5
56
102
{ACAD_REACTORS
330
47
102
}
330
47
100
AcDbScale
 70
     0
300
8:1
140
8.0
141
1.0
290
     0
  0
SCALE
  5
57
102
{ACAD_REACTORS
330
47
102
}
330
47
100
AcDbScale
 70
     0
300
10:1
140
10.0
141
1.0
290
     0
  0
SCALE
  5
58
102
{ACAD_REACTORS
330
47
102
}
330
47
100
AcDbScale
 70
     0
300
100:1
140
100.0
141
1.0
290
     0
  0
SCALE
  5
59
102
{ACAD_REACTORS
330
47
102
}
330
47
100
AcDbScale
 70
     0
300
1/128" = 1'-0"
140
0.0078125
141
12.0
290
     0
  0
SCALE
  5
5A
102
{ACAD_REACTORS
330
47
102
}
330
47
100
AcDbScale
 70
     0
300
1/64" = 1'-0"
140
0.015625
141
12.0
290
     0
  0
SCALE
  5
5B
102
{ACAD_REACTORS
330
47
102
}
330
47
100
AcDbScale
 70
     0
300
1/32" = 1'-0"
140
0.03125
141
12.0
290
     0
  0
SCALE
  5
5C
102
{ACAD_REACTORS
330
47
102
}
330
47
100
AcDbScale
 70
     0
300
1/16" = 1'-0"
140
0.0625
141
12.0
290
     0
  0
SCALE
  5
5D
102
{ACAD_REACTORS
330
47
102
}
330
47
100
AcDbScale
 70
     0
300
3/32" = 1'-0"
140
0.09375
141
12.0
290
     0
  0
SCALE
  5
5E
102
{ACAD_REACTORS
330
47
102
}
330
47
100
AcDbScale
 70
     0
300
1/8" = 1'-0"
140
0.125
141
12.0
290
     0
  0
SCALE
  5
5F
102
{ACAD_REACTORS
330
47
102
}
330
47
100
AcDbScale
 70
     0
300
3/16" = 1'-0"
140
0.1875
141
12.0
290
     0
  0
SCALE
  5
60
102
{ACAD_REACTORS
330
47
102
}
330
47
100
AcDbScale
 70
     0
300
1/4" = 1'-0"
140
0.25
141
12.0
290
     0
  0
SCALE
  5
61
102
{ACAD_REACTORS
330
47
102
}
330
47
100
AcDbScale
 70
     0
300
3/8" = 1'-0"
140
0.375
141
12.0
290
     0
  0
SCALE
  5
62
102
{ACAD_REACTORS
330
47
102
}
330
47
100
AcDbScale
 70
     0
300
1/2" = 1'-0"
140
0.5
141
12.0
290
     0
  0
SCALE
  5
63
102
{ACAD_REACTORS
330
47
102
}
330
47
100
AcDbScale
 70
     0
300
3/4" = 1'-0"
140
0.75
141
12.0
290
     0
  0
SCALE
  5
64
102
{ACAD_REACTORS
330
47
102
}
330
47
100
AcDbScale
 70
     0
300
1" = 1'-0"
140
1.0
141
12.0
290
     0
  0
SCALE
  5
65
102
{ACAD_REACTORS
330
47
102
}
330
47
100
AcDbScale
 70
     0
300
1-1/2" = 1'-0"
140
1.5
141
12.0
290
     0
  0
SCALE
  5
66
102
{ACAD_REACTORS
330
47
102
}
330
47
100
AcDbScale
 70
     0
300
3" = 1'-0"
140
3.0
141
12.0
290
     0
  0
SCALE
  5
67
102
{ACAD_REACTORS
330
47
102
}
330
47
100
AcDbScale
 70
     0
300
6" = 1'-0"
140
6.0
141
12.0
290
     0
  0
SCALE
  5
68
102
{ACAD_REACTORS
330
47
102
}
330
47
100
AcDbScale
 70
     0
300
1'-0" = 1'-0"
140
12.0
141
12.0
290
     0
  0
ENDSEC
  0
EOF
