  0
SECTION
  2
HEADER
  9
$ACADVER
  1
AC1015
  9
$ACADMAINTVER
 70
     6
  9
$DWGCODEPAGE
  3
ANSI_1250
  9
$INSBASE
 10
0.0
 20
0.0
 30
0.0
  9
$EXTMIN
 10
6099.0187601673
 20
4288.6972864492
 30
0.0
  9
$EXTMAX
 10
7247.7965264891
 20
5345.2843817605
 30
0.0
  9
$LIMMIN
 10
0.0
 20
0.0
  9
$LIMMAX
 10
420.0
 20
297.0
  9
$ORTHOMODE
 70
     0
  9
$REGENMODE
 70
     1
  9
$FILLMODE
 70
     1
  9
$QTEXTMODE
 70
     0
  9
$MIRRTEXT
 70
     1
  9
$LTSCALE
 40
1.0
  9
$ATTMODE
 70
     1
  9
$TEXTSIZE
 40
3.5
  9
$TRACEWID
 40
1.0
  9
$TEXTSTYLE
  7
Standard
  9
$CLAYER
  8
0
  9
$CELTYPE
  6
ByLayer
  9
$CECOLOR
 62
   256
  9
$CELTSCALE
 40
1.0
  9
$DISPSILH
 70
     0
  9
$DIMSCALE
 40
1.0
  9
$DIMASZ
 40
3.302
  9
$DIMEXO
 40
0.0
  9
$DIMDLI
 40
3.75
  9
$DIMRND
 40
0.0
  9
$DIMDLE
 40
0.0
  9
$DIMEXE
 40
1.0
  9
$DIMTP
 40
0.0
  9
$DIMTM
 40
0.0
  9
$DIMTXT
 40
3.5
  9
$DIMCEN
 40
2.5
  9
$DIMTSZ
 40
0.0
  9
$DIMTOL
 70
     0
  9
$DIMLIM
 70
     0
  9
$DIMTIH
 70
     1
  9
$DIMTOH
 70
     1
  9
$DIMSE1
 70
     0
  9
$DIMSE2
 70
     0
  9
$DIMTAD
 70
     1
  9
$DIMZIN
 70
     0
  9
$DIMBLK
  1

  9
$DIMASO
 70
     1
  9
$DIMSHO
 70
     1
  9
$DIMPOST
  1

  9
$DIMAPOST
  1

  9
$DIMALT
 70
     0
  9
$DIMALTD
 70
     3
  9
$DIMALTF
 40
0.0393700787
  9
$DIMLFAC
 40
1.0
  9
$DIMTOFL
 70
     1
  9
$DIMTVP
 40
0.0
  9
$DIMTIX
 70
     0
  9
$DIMSOXD
 70
     0
  9
$DIMSAH
 70
     0
  9
$DIMBLK1
  1

  9
$DIMBLK2
  1

  9
$DIMSTYLE
  2
ISO-25
  9
$DIMCLRD
 70
     0
  9
$DIMCLRE
 70
     0
  9
$DIMCLRT
 70
     0
  9
$DIMTFAC
 40
1.0
  9
$DIMGAP
 40
1.524
  9
$DIMJUST
 70
     0
  9
$DIMSD1
 70
     0
  9
$DIMSD2
 70
     0
  9
$DIMTOLJ
 70
     0
  9
$DIMTZIN
 70
     0
  9
$DIMALTZ
 70
     0
  9
$DIMALTTZ
 70
     0
  9
$DIMUPT
 70
     0
  9
$DIMDEC
 70
     2
  9
$DIMTDEC
 70
     2
  9
$DIMALTU
 70
     2
  9
$DIMALTTD
 70
     3
  9
$DIMTXSTY
  7
Standard
  9
$DIMAUNIT
 70
     0
  9
$DIMADEC
 70
     2
  9
$DIMALTRND
 40
0.0
  9
$DIMAZIN
 70
     0
  9
$DIMDSEP
 70
    44
  9
$DIMATFIT
 70
     3
  9
$DIMFRAC
 70
     0
  9
$DIMLDRBLK
  1

  9
$DIMLUNIT
 70
     2
  9
$DIMLWD
 70
    -2
  9
$DIMLWE
 70
    -2
  9
$DIMTMOVE
 70
     0
  9
$LUNITS
 70
     2
  9
$LUPREC
 70
     2
  9
$SKETCHINC
 40
1.0
  9
$FILLETRAD
 40
10.0
  9
$AUNITS
 70
     0
  9
$AUPREC
 70
     2
  9
$MENU
  1
.
  9
$ELEVATION
 40
0.0
  9
$PELEVATION
 40
0.0
  9
$THICKNESS
 40
0.0
  9
$LIMCHECK
 70
     0
  9
$CHAMFERA
 40
0.0
  9
$CHAMFERB
 40
0.0
  9
$CHAMFERC
 40
0.0
  9
$CHAMFERD
 40
0.0
  9
$SKPOLY
 70
     0
  9
$TDCREATE
 40
2459096.477186076
  9
$TDUCREATE
 40
2459096.393852743
  9
$TDUPDATE
 40
2459096.477222106
  9
$TDUUPDATE
 40
2459096.393888773
  9
$TDINDWG
 40
0.0000000116
  9
$TDUSRTIMER
 40
0.0000000116
  9
$USRTIMER
 70
     1
  9
$ANGBASE
 50
0.0
  9
$ANGDIR
 70
     0
  9
$PDMODE
 70
     0
  9
$PDSIZE
 40
-1.0
  9
$PLINEWID
 40
0.0
  9
$SPLFRAME
 70
     0
  9
$SPLINETYPE
 70
     6
  9
$SPLINESEGS
 70
     8
  9
$HANDSEED
  5
672
  9
$SURFTAB1
 70
     6
  9
$SURFTAB2
 70
     6
  9
$SURFTYPE
 70
     6
  9
$SURFU
 70
     6
  9
$SURFV
 70
     6
  9
$UCSBASE
  2

  9
$UCSNAME
  2

  9
$UCSORG
 10
0.0
 20
0.0
 30
0.0
  9
$UCSXDIR
 10
1.0
 20
0.0
 30
0.0
  9
$UCSYDIR
 10
0.0
 20
1.0
 30
0.0
  9
$UCSORTHOREF
  2

  9
$UCSORTHOVIEW
 70
     0
  9
$UCSORGTOP
 10
0.0
 20
0.0
 30
0.0
  9
$UCSORGBOTTOM
 10
0.0
 20
0.0
 30
0.0
  9
$UCSORGLEFT
 10
0.0
 20
0.0
 30
0.0
  9
$UCSORGRIGHT
 10
0.0
 20
0.0
 30
0.0
  9
$UCSORGFRONT
 10
0.0
 20
0.0
 30
0.0
  9
$UCSORGBACK
 10
0.0
 20
0.0
 30
0.0
  9
$PUCSBASE
  2

  9
$PUCSNAME
  2

  9
$PUCSORG
 10
0.0
 20
0.0
 30
0.0
  9
$PUCSXDIR
 10
1.0
 20
0.0
 30
0.0
  9
$PUCSYDIR
 10
0.0
 20
1.0
 30
0.0
  9
$PUCSORTHOREF
  2

  9
$PUCSORTHOVIEW
 70
     0
  9
$PUCSORGTOP
 10
0.0
 20
0.0
 30
0.0
  9
$PUCSORGBOTTOM
 10
0.0
 20
0.0
 30
0.0
  9
$PUCSORGLEFT
 10
0.0
 20
0.0
 30
0.0
  9
$PUCSORGRIGHT
 10
0.0
 20
0.0
 30
0.0
  9
$PUCSORGFRONT
 10
0.0
 20
0.0
 30
0.0
  9
$PUCSORGBACK
 10
0.0
 20
0.0
 30
0.0
  9
$USERI1
 70
     0
  9
$USERI2
 70
     0
  9
$USERI3
 70
     0
  9
$USERI4
 70
     0
  9
$USERI5
 70
     0
  9
$USERR1
 40
0.0
  9
$USERR2
 40
0.0
  9
$USERR3
 40
0.0
  9
$USERR4
 40
0.0
  9
$USERR5
 40
0.0
  9
$WORLDVIEW
 70
     1
  9
$SHADEDGE
 70
     3
  9
$SHADEDIF
 70
    70
  9
$TILEMODE
 70
     1
  9
$MAXACTVP
 70
    64
  9
$PINSBASE
 10
0.0
 20
0.0
 30
0.0
  9
$PLIMCHECK
 70
     0
  9
$PEXTMIN
 10
1.0000000000E+20
 20
1.0000000000E+20
 30
1.0000000000E+20
  9
$PEXTMAX
 10
-1.0000000000E+20
 20
-1.0000000000E+20
 30
-1.0000000000E+20
  9
$PLIMMIN
 10
0.0
 20
0.0
  9
$PLIMMAX
 10
420.0
 20
297.0
  9
$UNITMODE
 70
     0
  9
$VISRETAIN
 70
     1
  9
$PLINEGEN
 70
     0
  9
$PSLTSCALE
 70
     1
  9
$TREEDEPTH
 70
  3020
  9
$CMLSTYLE
  2
Standard
  9
$CMLJUST
 70
     0
  9
$CMLSCALE
 40
20.0
  9
$PROXYGRAPHICS
 70
     1
  9
$MEASUREMENT
 70
     1
  9
$CELWEIGHT
370
    -1
  9
$ENDCAPS
280
     0
  9
$JOINSTYLE
280
     0
  9
$LWDISPLAY
290
     1
  9
$INSUNITS
 70
     4
  9
$HYPERLINKBASE
  1

  9
$STYLESHEET
  1

  9
$XEDIT
290
     1
  9
$CEPSNTYPE
380
     0
  9
$PSTYLEMODE
290
     1
  9
$FINGERPRINTGUID
  2
{f840d08e-00ac-4553-aa78-39411725e792}
  9
$VERSIONGUID
  2
{FAEB1C32-E019-11D5-929B-00C0DF256EC4}
  9
$EXTNAMES
290
     1
  9
$PSVPSCALE
 40
0.0
  9
$OLESTARTUP
290
     0
  0
ENDSEC
  0
SECTION
  2
CLASSES
  0
CLASS
  1
ACDBDICTIONARYWDFLT
  2
AcDbDictionaryWithDefault
  3
ObjectDBX Classes
 90
        0
280
     0
281
     0
  0
CLASS
  1
VISUALSTYLE
  2
AcDbVisualStyle
  3
ObjectDBX Classes
 90
     4095
280
     0
281
     0
  0
CLASS
  1
MATERIAL
  2
AcDbMaterial
  3
ObjectDBX Classes
 90
     1153
280
     0
281
     0
  0
CLASS
  1
SCALE
  2
AcDbScale
  3
ObjectDBX Classes
 90
     1153
280
     0
281
     0
  0
CLASS
  1
TABLESTYLE
  2
AcDbTableStyle
  3
ObjectDBX Classes
 90
     4095
280
     0
281
     0
  0
CLASS
  1
MLEADERSTYLE
  2
AcDbMLeaderStyle
  3
ACDB_MLEADERSTYLE_CLASS
 90
     4095
280
     0
281
     0
  0
CLASS
  1
SUN
  2
AcDbSun
  3
SCENEOE
 90
     1153
280
     0
281
     0
  0
CLASS
  1
ACDBPLACEHOLDER
  2
AcDbPlaceHolder
  3
ObjectDBX Classes
 90
        0
280
     0
281
     0
  0
CLASS
  1
LAYOUT
  2
AcDbLayout
  3
ObjectDBX Classes
 90
        0
280
     0
281
     0
  0
ENDSEC
  0
SECTION
  2
TABLES
  0
TABLE
  2
VPORT
  5
8
330
0
100
AcDbSymbolTable
 70
     1
  0
VPORT
  5
29
330
8
100
AcDbSymbolTableRecord
100
AcDbViewportTableRecord
  2
*Active
 70
     0
 10
0.0
 20
0.0
 11
1.0
 21
1.0
 12
6673.4076433282
 22
4816.9908341049
 13
0.0
 23
0.0
 14
10.0
 24
10.0
 15
10.0
 25
10.0
 16
0.0
 26
0.0
 36
1.0
 17
0.0
 27
0.0
 37
0.0
 40
1077.7188372175
 41
1.0872532623
 42
50.0
 43
0.0
 44
0.0
 50
0.0
 51
0.0
 71
     0
 72
   100
 73
     1
 74
     3
 75
     0
 76
     0
 77
     0
 78
     0
281
     0
 65
     1
110
0.0
120
0.0
130
0.0
111
1.0
121
0.0
131
0.0
112
0.0
122
1.0
132
0.0
 79
     0
146
0.0
  0
ENDTAB
  0
TABLE
  2
LTYPE
  5
5
330
0
100
AcDbSymbolTable
 70
     6
  0
LTYPE
  5
14
330
5
100
AcDbSymbolTableRecord
100
AcDbLinetypeTableRecord
  2
ByBlock
 70
     0
  3

 72
    65
 73
     0
 40
0.0
  0
LTYPE
  5
15
330
5
100
AcDbSymbolTableRecord
100
AcDbLinetypeTableRecord
  2
ByLayer
 70
     0
  3

 72
    65
 73
     0
 40
0.0
  0
LTYPE
  5
16
330
5
100
AcDbSymbolTableRecord
100
AcDbLinetypeTableRecord
  2
Continuous
 70
     0
  3
Solid line
 72
    65
 73
     0
 40
0.0
  0
LTYPE
  5
6E
330
5
100
AcDbSymbolTableRecord
100
AcDbLinetypeTableRecord
  2
HIDDEN
 70
     0
  3
Hidden __ __ __ __ __ __ __ __ __ __ __ __ __ __
 72
    65
 73
     2
 40
1.905
 49
1.27
 74
     0
 49
-0.635
 74
     0
  0
LTYPE
  5
6F
330
5
100
AcDbSymbolTableRecord
100
AcDbLinetypeTableRecord
  2
PHANTOM
 70
     0
  3
Phantom ______  __  __  ______  __  __  ______
 72
    65
 73
     6
 40
12.7
 49
6.35
 74
     0
 49
-1.27
 74
     0
 49
1.27
 74
     0
 49
-1.27
 74
     0
 49
1.27
 74
     0
 49
-1.27
 74
     0
  0
LTYPE
  5
70
330
5
100
AcDbSymbolTableRecord
100
AcDbLinetypeTableRecord
  2
CENTER
 70
     0
  3
Center ____ _ ____ _ ____ _ ____ _ ____ _ ____
 72
    65
 73
     4
 40
10.16
 49
6.35
 74
     0
 49
-1.27
 74
     0
 49
1.27
 74
     0
 49
-1.27
 74
     0
  0
LTYPE
  5
71
330
5
100
AcDbSymbolTableRecord
100
AcDbLinetypeTableRecord
  2
CENTERX2
 70
     0
  3
Center (2x) ________  __  ________  __  _____
 72
    65
 73
     4
 40
20.32
 49
12.7
 74
     0
 49
-2.54
 74
     0
 49
2.54
 74
     0
 49
-2.54
 74
     0
  0
LTYPE
  5
72
330
5
100
AcDbSymbolTableRecord
100
AcDbLinetypeTableRecord
  2
DOT2
 70
     0
  3
Dot (.5x) ........................................
 72
    65
 73
     2
 40
0.635
 49
0.0
 74
     0
 49
-0.635
 74
     0
  0
ENDTAB
  0
TABLE
  2
LAYER
  5
2
330
0
100
AcDbSymbolTable
 70
     1
  0
LAYER
  5
10
330
2
100
AcDbSymbolTableRecord
100
AcDbLayerTableRecord
  2
0
 70
     0
 62
     7
  6
Continuous
370
    -3
390
F
  0
ENDTAB
  0
TABLE
  2
STYLE
  5
3
330
0
100
AcDbSymbolTable
 70
     1
  0
STYLE
  5
11
330
3
100
AcDbSymbolTableRecord
100
AcDbTextStyleTableRecord
  2
Standard
 70
     0
 40
0.0
 41
1.0
 50
0.0
 71
     0
 42
3.5
  3
txt
  4

  0
ENDTAB
  0
TABLE
  2
VIEW
  5
6
330
0
100
AcDbSymbolTable
 70
     0
  0
ENDTAB
  0
TABLE
  2
UCS
  5
7
330
0
100
AcDbSymbolTable
 70
     0
  0
ENDTAB
  0
TABLE
  2
APPID
  5
9
330
0
100
AcDbSymbolTable
 70
     1
  0
APPID
  5
12
330
9
100
AcDbSymbolTableRecord
100
AcDbRegAppTableRecord
  2
ACAD
 70
     0
  0
ENDTAB
  0
TABLE
  2
DIMSTYLE
  5
A
330
0
100
AcDbSymbolTable
 70
     1
100
AcDbDimStyleTable
  0
DIMSTYLE
105
27
330
A
100
AcDbSymbolTableRecord
100
AcDbDimStyleTableRecord
  2
ISO-25
 70
     0
 41
2.5
 42
0.625
 43
3.75
 44
1.25
 73
     0
 74
     0
 77
     1
 78
     8
140
2.5
141
2.5
143
0.0393700787
147
0.625
171
     3
172
     1
178
     0
271
     2
272
     2
274
     3
278
    44
283
     0
284
     8
340
11
  0
ENDTAB
  0
TABLE
  2
BLOCK_RECORD
  5
1
330
0
100
AcDbSymbolTable
 70
     1
  0
BLOCK_RECORD
  5
1F
330
1
100
AcDbSymbolTableRecord
100
AcDbBlockTableRecord
  2
*Model_Space
340
22
  0
BLOCK_RECORD
  5
1B
330
1
100
AcDbSymbolTableRecord
100
AcDbBlockTableRecord
  2
*Paper_Space
340
1E
  0
BLOCK_RECORD
  5
23
330
1
100
AcDbSymbolTableRecord
100
AcDbBlockTableRecord
  2
*Paper_Space0
340
26
  0
ENDTAB
  0
ENDSEC
  0
SECTION
  2
BLOCKS
  0
BLOCK
  5
20
330
1F
100
AcDbEntity
  8
0
100
AcDbBlockBegin
  2
*Model_Space
 70
     0
 10
0.0
 20
0.0
 30
0.0
  3
*Model_Space
  1

  0
ENDBLK
  5
21
330
1F
100
AcDbEntity
  8
0
100
AcDbBlockEnd
  0
BLOCK
  5
1C
330
1B
100
AcDbEntity
 67
     1
  8
0
100
AcDbBlockBegin
  2
*Paper_Space
 70
     0
 10
0.0
 20
0.0
 30
0.0
  3
*Paper_Space
  1

  0
ENDBLK
  5
1D
330
1B
100
AcDbEntity
 67
     1
  8
0
100
AcDbBlockEnd
  0
BLOCK
  5
24
330
23
100
AcDbEntity
  8
0
100
AcDbBlockBegin
  2
*Paper_Space0
 70
     0
 10
0.0
 20
0.0
 30
0.0
  3
*Paper_Space0
  1

  0
ENDBLK
  5
25
330
23
100
AcDbEntity
  8
0
100
AcDbBlockEnd
  0
ENDSEC
  0
SECTION
  2
ENTITIES
  0
ARC
  5
73
330
1F
100
AcDbEntity
  8
0
  6
Continuous
 62
     7
100
AcDbCircle
 10
6395.7941499195
 20
5344.2843817602
 30
0.0
 40
0.9999999999995377
100
AcDbArc
 50
17.9435291569
 51
89.9998031132
  0
ARC
  5
74
330
1F
100
AcDbEntity
  8
0
  6
Continuous
 62
     7
100
AcDbCircle
 10
6382.0193832718
 20
5344.2843817603
 30
0.0
 40
1.000000000000364
100
AcDbArc
 50
90.0007067559
 51
122.8796728228
  0
ARC
  5
75
330
1F
100
AcDbEntity
  8
0
  6
Continuous
 62
     7
100
AcDbCircle
 10
6099.5187601673
 20
5281.6145447622
 30
0.0
 40
0.5000000000005045
100
AcDbArc
 50
90.0007375977
 51
180.0026774364
  0
ARC
  5
76
330
1F
100
AcDbEntity
  8
0
  6
Continuous
 62
     7
100
AcDbCircle
 10
6448.5187542078
 20
5281.6145447622
 30
0.0
 40
0.5000000000005045
100
AcDbArc
 50
359.9973225636
 51
89.9992624023
  0
ARC
  5
77
330
1F
100
AcDbEntity
  8
0
  6
Continuous
 62
     7
100
AcDbCircle
 10
6392.9859281117
 20
5342.8663396318
 30
0.0
 40
0.594626919089702
100
AcDbArc
 50
130.0549309665
 51
200.4279806499
  0
ARC
  5
78
330
1F
100
AcDbEntity
  8
0
  6
Continuous
 62
     7
100
AcDbCircle
 10
6399.2075819391
 20
5324.1471116765
 30
0.0
 40
2.861335428927379
100
AcDbArc
 50
272.8358508682
 51
301.4193723014
  0
ARC
  5
79
330
1F
100
AcDbEntity
  8
0
  6
Continuous
 62
     7
100
AcDbCircle
 10
6395.3024804663
 20
5343.971191522
 30
0.0
 40
1.238332276954799
100
AcDbArc
 50
14.6491417352
 51
80.8373706827
  0
ARC
  5
7A
330
1F
100
AcDbEntity
  8
0
  6
Continuous
 62
     7
100
AcDbCircle
 10
6379.2111217112
 20
5342.8663423509
 30
0.0
 40
0.5946123770255808
100
AcDbArc
 50
130.0536714118
 51
200.4287821469
  0
ARC
  5
7B
330
1F
100
AcDbEntity
  8
0
  6
Continuous
 62
     7
100
AcDbCircle
 10
6406.5737017008
 20
5323.5431180197
 30
0.0
 40
3.193000630895187
100
AcDbArc
 50
197.4612176069
 51
216.4962305769
  0
ARC
  5
7C
330
1F
100
AcDbEntity
  8
0
  6
Continuous
 62
     7
100
AcDbCircle
 10
6396.7475585234
 20
5320.4549391093
 30
0.0
 40
4.14473798115577
100
AcDbArc
 50
347.6552594875
 51
17.5584932431
  0
ARC
  5
7D
330
1F
100
AcDbEntity
  8
0
  6
Continuous
 62
     7
100
AcDbCircle
 10
6398.8246095377
 20
5318.0103176318
 30
0.0
 40
0.6516364259545204
100
AcDbArc
 50
15.4415040024
 51
74.5753938113
  0
ARC
  5
7E
330
1F
100
AcDbEntity
  8
0
  6
Continuous
 62
     7
100
AcDbCircle
 10
6402.5290526234
 20
5320.164303223
 30
0.0
 40
0.6428045178121207
100
AcDbArc
 50
15.2793597066
 51
76.1292349191
  0
ARC
  5
7F
330
1F
100
AcDbEntity
  8
0
  6
Continuous
 62
     7
100
AcDbCircle
 10
6396.7146929417
 20
5320.4556870221
 30
0.0
 40
2.76319005493616
100
AcDbArc
 50
347.6553087102
 51
17.5584077019
  0
ARC
  5
80
330
1F
100
AcDbEntity
  8
0
  6
Continuous
 62
     7
100
AcDbCircle
 10
6399.2820684797
 20
5315.8737995745
 30
0.0
 40
3.993318170392642
100
AcDbArc
 50
67.7138312654
 51
88.1067769168
  0
ARC
  5
81
330
1F
100
AcDbEntity
  8
0
  6
Continuous
 62
     7
100
AcDbCircle
 10
6403.6816166039
 20
5320.8464407193
 30
0.0
 40
0.6401361288280083
100
AcDbArc
 50
15.2236724311
 51
76.6182511844
  0
ARC
  5
82
330
1F
100
AcDbEntity
  8
0
  6
Continuous
 62
     7
100
AcDbCircle
 10
6408.8839266722
 20
5321.1616838961
 30
0.0
 40
0.9769891468303866
100
AcDbArc
 50
351.3373143066
 51
77.2376919965
  0
ARC
  5
83
330
1F
100
AcDbEntity
  8
0
  6
Continuous
 62
     7
100
AcDbCircle
 10
6404.6345317297
 20
5321.508184007
 30
0.0
 40
0.5259582042871435
100
AcDbArc
 50
74.4205047933
 51
105.5794952067
  0
ARC
  5
84
330
1F
100
AcDbEntity
  8
0
  6
Continuous
 62
     7
100
AcDbCircle
 10
6404.6290257249
 20
5321.5194868318
 30
0.0
 40
0.5950784380625477
100
AcDbArc
 50
90.5642120739
 51
123.6560617424
  0
ARC
  5
85
330
1F
100
AcDbEntity
  8
0
  6
Continuous
 62
     7
100
AcDbCircle
 10
6405.734305601
 20
5323.2069457712
 30
0.0
 40
1.910074391917369
100
AcDbArc
 50
325.1157923515
 51
6.9937315813
  0
ARC
  5
86
330
1F
100
AcDbEntity
  8
0
  6
Continuous
 62
     7
100
AcDbCircle
 10
6409.2287599988
 20
5321.172630789
 30
0.0
 40
0.9690816210223755
100
AcDbArc
 50
351.3974100085
 51
76.3990160314
  0
ARC
  5
87
330
1F
100
AcDbEntity
  8
0
  6
Continuous
 62
     7
100
AcDbCircle
 10
6395.797251239
 20
5344.7507069483
 30
0.0
 40
0.5336838031959176
100
AcDbArc
 50
90.3325876239
 51
123.8899827561
  0
ARC
  5
88
330
1F
100
AcDbEntity
  8
0
  6
Continuous
 62
     7
100
AcDbCircle
 10
6382.0224610969
 20
5344.7507075788
 30
0.0
 40
0.5336831279166216
100
AcDbArc
 50
90.3317589054
 51
123.8899962282
  0
ARC
  5
89
330
1F
100
AcDbEntity
  8
0
  6
Continuous
 62
     7
100
AcDbCircle
 10
6382.9515339719
 20
5320.4577348465
 30
0.0
 40
2.751490798624059
100
AcDbArc
 50
354.8141220308
 51
17.5907700137
  0
ARC
  5
8A
330
1F
100
AcDbEntity
  8
0
  6
Continuous
 62
     7
100
AcDbCircle
 10
6381.7150524375
 20
5344.7504411278
 30
0.0
 40
0.4433908770284535
100
AcDbArc
 50
88.7300524452
 51
122.5478102234
  0
ARC
  5
8B
330
1F
100
AcDbEntity
  8
0
  6
Continuous
 62
     7
100
AcDbCircle
 10
7247.2965264891
 20
5281.6145447627
 30
0.0
 40
0.5000000000011614
100
AcDbArc
 50
359.9973225058
 51
90.0026774943
  0
ARC
  5
8C
330
1F
100
AcDbEntity
  8
0
  6
Continuous
 62
     7
100
AcDbCircle
 10
6945.0803365274
 20
5344.2843817605
 30
0.0
 40
1.000000000000467
100
AcDbArc
 50
89.9986145834
 51
162.0887751703
  0
ARC
  5
8D
330
1F
100
AcDbEntity
  8
0
  6
Continuous
 62
     7
100
AcDbCircle
 10
6958.8827209569
 20
5344.2843817603
 30
0.0
 40
0.9999999999993068
100
AcDbArc
 50
57.0700354102
 51
90.0006120348
  0
ARC
  5
8E
330
1F
100
AcDbEntity
  8
0
  6
Continuous
 62
     7
100
AcDbCircle
 10
6889.7965291113
 20
5283.1145313272
 30
0.0
 40
1.000000000001066
100
AcDbArc
 50
179.9999678897
 51
269.999548515
  0
ARC
  5
8F
330
1F
100
AcDbEntity
  8
0
  6
Continuous
 62
     7
100
AcDbCircle
 10
6889.7965121834
 20
5283.1145469984
 30
0.0
 40
1.999999999999984
100
AcDbArc
 50
180.0004328921
 51
210.0005183999
  0
ARC
  5
90
330
1F
100
AcDbEntity
  8
0
  6
Continuous
 62
     7
100
AcDbCircle
 10
6887.7465187876
 20
5313.0645247827
 30
0.0
 40
1.050010323651804
100
AcDbArc
 50
0.0
 51
180.0
  0
ARC
  5
91
330
1F
100
AcDbEntity
  8
0
  6
Continuous
 62
     7
100
AcDbCircle
 10
6887.7465187876
 20
5313.0645247827
 30
0.0
 40
0.0499933958508336
100
AcDbArc
 50
0.0
 51
180.0
  0
ARC
  5
92
330
1F
100
AcDbEntity
  8
0
  6
Continuous
 62
     7
100
AcDbCircle
 10
6947.8811147388
 20
5342.8663492286
 30
0.0
 40
0.5953199295167937
100
AcDbArc
 50
339.5958736852
 51
49.8643684813
  0
ARC
  5
93
330
1F
100
AcDbEntity
  8
0
  6
Continuous
 62
     7
100
AcDbCircle
 10
6941.6724535442
 20
5324.1424632159
 30
0.0
 40
2.856615589061105
100
AcDbArc
 50
238.5567552638
 51
267.1908690777
  0
ARC
  5
94
330
1F
100
AcDbEntity
  8
0
  6
Continuous
 62
     7
100
AcDbCircle
 10
6945.5702321161
 20
5343.9714212116
 30
0.0
 40
1.237915285043702
100
AcDbArc
 50
99.1095820592
 51
165.3568013738
  0
ARC
  5
95
330
1F
100
AcDbEntity
  8
0
  6
Continuous
 62
     7
100
AcDbCircle
 10
6961.6834322571
 20
5342.8663146477
 30
0.0
 40
0.5953658463189851
100
AcDbArc
 50
339.60106804
 51
49.8639875801
  0
ARC
  5
96
330
1F
100
AcDbEntity
  8
0
  6
Continuous
 62
     7
100
AcDbCircle
 10
6934.3109063117
 20
5323.5417556575
 30
0.0
 40
3.194996269973983
100
AcDbArc
 50
323.5606174576
 51
342.5756472382
  0
ARC
  5
97
330
1F
100
AcDbEntity
  8
0
  6
Continuous
 62
     7
100
AcDbCircle
 10
6944.1419325622
 20
5320.4549705043
 30
0.0
 40
4.152366735905866
100
AcDbArc
 50
162.4752658314
 51
192.3221475176
  0
ARC
  5
98
330
1F
100
AcDbEntity
  8
0
  6
Continuous
 62
     7
100
AcDbCircle
 10
6943.7646728852
 20
5320.4591441435
 30
0.0
 40
2.381580977732265
100
AcDbArc
 50
159.6004207575
 51
229.8603860681
  0
ARC
  5
99
330
1F
100
AcDbEntity
  8
0
  6
Continuous
 62
     7
100
AcDbCircle
 10
6938.3555856555
 20
5320.1645021625
 30
0.0
 40
0.6424204042561733
100
AcDbArc
 50
103.8058934847
 51
164.7296744485
  0
ARC
  5
9A
330
1F
100
AcDbEntity
  8
0
  6
Continuous
 62
     7
100
AcDbCircle
 10
6937.2050257174
 20
5320.8465285506
 30
0.0
 40
0.639881771595682
100
AcDbArc
 50
103.3198527537
 51
164.7782800371
  0
ARC
  5
9B
330
1F
100
AcDbEntity
  8
0
  6
Continuous
 62
     7
100
AcDbCircle
 10
6932.0131582381
 20
5321.1611199706
 30
0.0
 40
0.9772609532634742
100
AcDbArc
 50
102.68275324
 51
188.6268156327
  0
ARC
  5
9C
330
1F
100
AcDbEntity
  8
0
  6
Continuous
 62
     7
100
AcDbCircle
 10
6936.2548648684
 20
5321.5080171826
 30
0.0
 40
0.526123902629732
100
AcDbArc
 50
74.4234301961
 51
105.5765698039
  0
ARC
  5
9D
330
1F
100
AcDbEntity
  8
0
  6
Continuous
 62
     7
100
AcDbCircle
 10
6936.2613751648
 20
5321.5214660688
 30
0.0
 40
0.5930997188868133
100
AcDbArc
 50
56.2860775821
 51
89.4297982042
  0
ARC
  5
9E
330
1F
100
AcDbEntity
  8
0
  6
Continuous
 62
     7
100
AcDbCircle
 10
6935.1839996551
 20
5323.2063305196
 30
0.0
 40
1.925313856735896
100
AcDbArc
 50
173.0434544683
 51
214.5463898953
  0
ARC
  5
9F
330
1F
100
AcDbEntity
  8
0
  6
Continuous
 62
     7
100
AcDbCircle
 10
6931.668940103
 20
5321.1720394901
 30
0.0
 40
0.9693541899059106
100
AcDbArc
 50
103.5187057524
 51
188.5648069286
  0
ARC
  5
A0
330
1F
100
AcDbEntity
  8
0
  6
Continuous
 62
     7
100
AcDbCircle
 10
6945.0772429241
 20
5344.7526213764
 30
0.0
 40
0.5317695237385837
100
AcDbArc
 50
56.0471977585
 51
89.6640709086
  0
ARC
  5
A1
330
1F
100
AcDbEntity
  8
0
  6
Continuous
 62
     7
100
AcDbCircle
 10
6958.8795901026
 20
5344.7525159942
 30
0.0
 40
0.5318749181661556
100
AcDbArc
 50
56.0506615699
 51
89.6638801256
  0
ARC
  5
A2
330
1F
100
AcDbEntity
  8
0
  6
Continuous
 62
     7
100
AcDbCircle
 10
6957.9532436607
 20
5320.4589184505
 30
0.0
 40
2.746920848265864
100
AcDbArc
 50
162.4049081539
 51
184.7238857582
  0
ARC
  5
A3
330
1F
100
AcDbEntity
  8
0
  6
Continuous
 62
     7
100
AcDbCircle
 10
6959.1849310618
 20
5344.7429929329
 30
0.0
 40
0.450806766005595
100
AcDbArc
 50
57.6227223738
 51
91.0562644205
  0
ARC
  5
A4
330
1F
100
AcDbEntity
  8
0
  6
Continuous
 62
     7
100
AcDbCircle
 10
6274.0187553361
 20
4463.6972816175
 30
0.0
 40
5.250000000000043
100
AcDbArc
 50
278.2132107017
 51
81.7867892983
  0
ARC
  5
A5
330
1F
100
AcDbEntity
  8
0
  6
Continuous
 62
     7
100
AcDbCircle
 10
6274.0187553361
 20
4463.6972816175
 30
0.0
 40
5.250000000000043
100
AcDbArc
 50
98.2132107017
 51
261.7867892983
  0
ARC
  5
A6
330
1F
100
AcDbEntity
  8
0
  6
Continuous
 62
     7
100
AcDbCircle
 10
6274.0187553361
 20
4463.6972816175
 30
0.0
 40
5.250000000000043
100
AcDbArc
 50
81.7867892983
 51
98.2132107017
  0
ARC
  5
A7
330
1F
100
AcDbEntity
  8
0
  6
Continuous
 62
     7
100
AcDbCircle
 10
6274.0187553361
 20
4463.6972816175
 30
0.0
 40
5.249999999999143
100
AcDbArc
 50
261.7867892983
 51
278.2132107017
  0
ARC
  5
A8
330
1F
100
AcDbEntity
  8
0
  6
Continuous
 62
     7
100
AcDbCircle
 10
6274.0187553361
 20
4463.6972816175
 30
0.0
 40
20.33791521683024
100
AcDbArc
 50
215.8951621556
 51
233.7596427172
  0
ARC
  5
A9
330
1F
100
AcDbEntity
  8
0
  6
Continuous
 62
     7
100
AcDbCircle
 10
6274.0187553361
 20
4463.6972816175
 30
0.0
 40
20.33791521683011
100
AcDbArc
 50
172.2306639657
 51
188.8577278671
  0
ARC
  5
AA
330
1F
100
AcDbEntity
  8
0
  6
Continuous
 62
     7
100
AcDbCircle
 10
6274.0187553361
 20
4463.6972816175
 30
0.0
 40
20.33791521682985
100
AcDbArc
 50
125.987713697
 51
143.7572225704
  0
ARC
  5
AB
330
1F
100
AcDbEntity
  8
0
  6
Continuous
 62
     7
100
AcDbCircle
 10
6274.0187553361
 20
4463.6972816175
 30
0.0
 40
20.33791521682998
100
AcDbArc
 50
81.1289618678
 51
98.809477101
  0
ARC
  5
AC
330
1F
100
AcDbEntity
  8
0
  6
Continuous
 62
     7
100
AcDbCircle
 10
6274.0187553361
 20
4463.6972816175
 30
0.0
 40
20.33791521683079
100
AcDbArc
 50
35.9524344728
 51
53.7209560145
  0
ARC
  5
AD
330
1F
100
AcDbEntity
  8
0
  6
Continuous
 62
     7
100
AcDbCircle
 10
6274.0187553361
 20
4463.6972816175
 30
0.0
 40
20.33791521682988
100
AcDbArc
 50
350.9919128664
 51
8.757217923
  0
ARC
  5
AE
330
1F
100
AcDbEntity
  8
0
  6
Continuous
 62
     7
100
AcDbCircle
 10
6274.0187553361
 20
4463.6972816175
 30
0.0
 40
20.33791521682976
100
AcDbArc
 50
306.1234926487
 51
323.9014904753
  0
ARC
  5
AF
330
1F
100
AcDbEntity
  8
0
  6
Continuous
 62
     7
100
AcDbCircle
 10
6389.2522220967
 20
4584.8570409124
 30
0.0
 40
11.00000000000082
100
AcDbArc
 50
163.6763562527
 51
192.2197857628
  0
CIRCLE
  5
B0
330
1F
100
AcDbEntity
  8
0
  6
Continuous
 62
     7
100
AcDbCircle
 10
6274.0187553361
 20
4461.1972816175
 30
0.0
 40
140.2711677207471
  0
ARC
  5
B1
330
1F
100
AcDbEntity
  8
0
  6
Continuous
 62
     7
100
AcDbCircle
 10
6274.0187553361
 20
4463.6972816175
 30
0.0
 40
174.5000016056003
100
AcDbArc
 50
179.9999978121
 51
0.0000021879
  0
CIRCLE
  5
B2
330
1F
100
AcDbEntity
  8
0
  6
Continuous
 62
     7
100
AcDbCircle
 10
6274.0187553361
 20
4461.1972816175
 30
0.0
 40
140.034356342112
  0
ARC
  5
B3
330
1F
100
AcDbEntity
  8
0
  6
Continuous
 62
     7
100
AcDbCircle
 10
6274.0187553361
 20
4463.6972816175
 30
0.0
 40
174.9999951683004
100
AcDbArc
 50
179.9999978183
 51
0.0000021817
  0
ARC
  5
B4
330
1F
100
AcDbEntity
  8
0
  6
Continuous
 62
     7
100
AcDbCircle
 10
6395.791041424
 20
4577.546849457
 30
0.0
 40
0.9579068805269156
100
AcDbArc
 50
317.7906118702
 51
47.5318238722
  0
ARC
  5
B5
330
1F
100
AcDbEntity
  8
0
  6
Continuous
 62
     7
100
AcDbCircle
 10
6381.9551055291
 20
4591.4104391605
 30
0.0
 40
0.9579266959505255
100
AcDbArc
 50
42.3538472993
 51
132.0929092243
  0
ARC
  5
B6
330
1F
100
AcDbEntity
  8
0
  6
Continuous
 62
     7
100
AcDbCircle
 10
6388.9823973193
 20
4598.4237053971
 30
0.0
 40
0.9579116101803958
100
AcDbArc
 50
42.354271819
 51
132.0950083982
  0
ARC
  5
B7
330
1F
100
AcDbEntity
  8
0
  6
Continuous
 62
     7
100
AcDbCircle
 10
6402.8183359743
 20
4584.5600818416
 30
0.0
 40
0.9578936207165619
100
AcDbArc
 50
317.7898223123
 51
47.5326134303
  0
ARC
  5
B8
330
1F
100
AcDbEntity
  8
0
  6
Continuous
 62
     7
100
AcDbCircle
 10
6397.2328834527
 20
4592.8217572067
 30
0.0
 40
13.99999999999999
100
AcDbArc
 50
134.9427053748
 51
164.3532486564
  0
ARC
  5
B9
330
1F
100
AcDbEntity
  8
0
  6
Continuous
 62
     7
100
AcDbCircle
 10
6397.2328834527
 20
4592.8217572067
 30
0.0
 40
14.00000000000078
100
AcDbArc
 50
285.5321620933
 51
315.1006257737
  0
ARC
  5
BA
330
1F
100
AcDbEntity
  8
0
  6
Continuous
 62
     7
100
AcDbCircle
 10
6391.0048721487
 20
4600.2959049977
 30
0.0
 40
1.537613814605691
100
AcDbArc
 50
176.8567645929
 51
187.4077796784
  0
ARC
  5
BB
330
1F
100
AcDbEntity
  8
0
  6
Continuous
 62
     7
100
AcDbCircle
 10
6404.6945309762
 20
4586.5778607092
 30
0.0
 40
1.536666016332189
100
AcDbArc
 50
262.4742995642
 51
273.0312571028
  0
ARC
  5
BC
330
1F
100
AcDbEntity
  8
0
  6
Continuous
 62
     7
100
AcDbCircle
 10
6386.629682806
 20
4582.2397373592
 30
0.0
 40
6.600560297072783
100
AcDbArc
 50
148.8191000847
 51
301.0663370352
  0
ARC
  5
BD
330
1F
100
AcDbEntity
  8
0
  6
Continuous
 62
     7
100
AcDbCircle
 10
6388.3545374743
 20
4583.9611498303
 30
0.0
 40
9.95665952029092
100
AcDbArc
 50
158.7547253751
 51
291.1306853746
  0
ARC
  5
BE
330
1F
100
AcDbEntity
  8
0
  6
Continuous
 62
     7
100
AcDbCircle
 10
6388.2072937837
 20
4583.814200327
 30
0.0
 40
9.456659520289781
100
AcDbArc
 50
158.7139536961
 51
291.1714570535
  0
ARC
  5
BF
330
1F
100
AcDbEntity
  8
0
  6
Continuous
 62
     7
100
AcDbCircle
 10
6411.3509243446
 20
4607.4727893654
 30
0.0
 40
12.49845201509357
100
AcDbArc
 50
136.6830494816
 51
226.7639952227
  0
ARC
  5
C0
330
1F
100
AcDbEntity
  8
0
  6
Continuous
 62
     7
100
AcDbCircle
 10
6411.9121225467
 20
4606.9104539041
 30
0.0
 40
12.49844240337774
100
AcDbArc
 50
223.1213990429
 51
313.2024101688
  0
ELLIPSE
  5
C1
330
1F
100
AcDbEntity
  8
0
  6
Continuous
 62
     7
100
AcDbEllipse
 10
6388.2072948779
 20
5316.3397926001
 30
0.0
 11
9.406409109691594
 21
3.360902850036837
 31
0.0
210
0.0
220
0.0
230
1.0
 40
0.2896810065
 41
3.368780588399118
 42
5.129282581439684
  0
ELLIPSE
  5
C2
330
1F
100
AcDbEntity
  8
0
  6
Continuous
 62
     7
100
AcDbEllipse
 10
6388.3545414591
 20
5315.8851161572
 30
0.0
 11
9.913368355560124
 21
3.333900906774034
 31
0.0
210
0.0
220
0.0
230
1.0
 40
0.2781929925
 41
3.023184320966608
 42
3.048306907674011
  0
ELLIPSE
  5
C3
330
1F
100
AcDbEntity
  8
0
  6
Continuous
 62
     7
100
AcDbEllipse
 10
6393.2195819729
 20
5342.6201690067
 30
0.0
 11
1.060425544125792
 21
-0.0288191525351067
 31
0.0
210
0.0
220
0.0
230
1.0
 40
0.0242415699
 41
0.8424246145765858
 42
2.41322094134169
  0
ELLIPSE
  5
C4
330
1F
100
AcDbEntity
  8
0
  6
Continuous
 62
     7
100
AcDbEllipse
 10
6393.2195819729
 20
5342.6201690067
 30
0.0
 11
0.9034458798287233
 21
-0.5853950439950496
 31
0.0
210
0.0
220
0.0
230
1.0
 40
0.4274807189
 41
0.9876078212386121
 42
2.558404148034651
  0
ELLIPSE
  5
C5
330
1F
100
AcDbEntity
  8
0
  6
Continuous
 62
     7
100
AcDbEllipse
 10
6388.2072948779
 20
5316.3397926001
 30
0.0
 11
9.406409109691594
 21
3.360902850037746
 31
0.0
210
0.0
220
0.0
230
1.0
 40
0.2896810065
 41
2.516427807397546
 42
3.368780588398777
  0
ELLIPSE
  5
C6
330
1F
100
AcDbEntity
  8
0
  6
Continuous
 62
     7
100
AcDbEllipse
 10
6388.3545414591
 20
5315.8851161572
 30
0.0
 11
9.913368355560124
 21
3.333900906773124
 31
0.0
210
0.0
220
0.0
230
1.0
 40
0.2781929925
 41
3.04830690767428
 42
5.14117561887171
  0
ELLIPSE
  5
C7
330
1F
100
AcDbEntity
  8
0
  6
Continuous
 62
     7
100
AcDbEllipse
 10
6379.444794936
 20
5342.6201690067
 30
0.0
 11
1.060425544124882
 21
-0.0288191525351067
 31
0.0
210
0.0
220
0.0
230
1.0
 40
0.0242415699
 41
2.413220941325084
 42
3.152893321746724
  0
ELLIPSE
  5
C8
330
1F
100
AcDbEntity
  8
0
  6
Continuous
 62
     7
100
AcDbEllipse
 10
6379.444794936
 20
5342.6201690067
 30
0.0
 11
0.9034458798287233
 21
-0.5853950439950496
 31
0.0
210
0.0
220
0.0
230
1.0
 40
0.4274807189
 41
2.558404148035176
 42
2.938623261103078
  0
ELLIPSE
  5
C9
330
1F
100
AcDbEntity
  8
0
  6
Continuous
 62
     7
100
AcDbEllipse
 10
6952.6795994322
 20
5316.3397886861
 30
0.0
 11
9.406327332731053
 21
-3.35567586036359
 31
0.0
210
0.0
220
0.0
230
1.0
 40
0.2903675836
 41
4.293578443589112
 42
6.03917495537028
  0
ELLIPSE
  5
CA
330
1F
100
AcDbEntity
  8
0
  6
Continuous
 62
     7
100
AcDbEllipse
 10
6952.5326474683
 20
5315.8851129374
 30
0.0
 11
9.913304464094836
 21
-3.328569057353889
 31
0.0
210
0.0
220
0.0
230
1.0
 40
0.2788437053
 41
0.0933546086357562
 42
0.1656719945321622
  0
ELLIPSE
  5
CB
330
1F
100
AcDbEntity
  8
0
  6
Continuous
 62
     7
100
AcDbEllipse
 10
6947.6497796403
 20
5342.6201690067
 30
0.0
 11
1.06019117476535
 21
0.02876801397542295
 31
0.0
210
0.0
220
0.0
230
1.0
 40
0.0243008968
 41
0.7303588335121859
 42
2.301155160319765
  0
ELLIPSE
  5
CC
330
1F
100
AcDbEntity
  8
0
  6
Continuous
 62
     7
100
AcDbEllipse
 10
6947.6497796403
 20
5342.6201690067
 30
0.0
 11
0.9036263534717364
 21
0.5847341564913222
 31
0.0
210
0.0
220
0.0
230
1.0
 40
0.4285018686
 41
0.5848975247110375
 42
2.155693851409025
  0
ELLIPSE
  5
CD
330
1F
100
AcDbEntity
  8
0
  6
Continuous
 62
     7
100
AcDbEllipse
 10
6952.6795994322
 20
5316.3397886861
 30
0.0
 11
9.406327332731053
 21
-3.35567586036359
 31
0.0
210
0.0
220
0.0
230
1.0
 40
0.2903675836
 41
6.03917495537028
 42
6.90643309630908
  0
ELLIPSE
  5
CE
330
1F
100
AcDbEntity
  8
0
  6
Continuous
 62
     7
100
AcDbEllipse
 10
6952.5326474683
 20
5315.8851129374
 30
0.0
 11
9.913304464094836
 21
-3.328569057353889
 31
0.0
210
0.0
220
0.0
230
1.0
 40
0.2788437053
 41
4.28167047436115
 42
6.376539915815342
  0
ELLIPSE
  5
CF
330
1F
100
AcDbEntity
  8
0
  6
Continuous
 62
     7
100
AcDbEllipse
 10
6961.4521432817
 20
5342.6201690067
 30
0.0
 11
1.060191174764441
 21
0.02876801397542295
 31
0.0
210
0.0
220
0.0
230
1.0
 40
0.0243008968
 41
6.274464215734736
 42
7.013544140664554
  0
ELLIPSE
  5
D0
330
1F
100
AcDbEntity
  8
0
  6
Continuous
 62
     7
100
AcDbEllipse
 10
6961.4521432817
 20
5342.6201690067
 30
0.0
 11
0.903626353470827
 21
0.5847341564913223
 31
0.0
210
0.0
220
0.0
230
1.0
 40
0.4285018687
 41
0.1945512654857653
 42
0.5848975247073055
  0
ELLIPSE
  5
D1
330
1F
100
AcDbEntity
  8
0
  6
Continuous
 62
     7
100
AcDbEllipse
 10
6379.444794936
 20
4588.8440232084
 30
0.0
 11
-0.7063993352303441
 21
0.7078135200654287
 31
0.0
210
0.0
220
0.0
230
1.0
 40
0.8707225759
 41
0.0
 42
1.570796326795745
  0
ELLIPSE
  5
D2
330
1F
100
AcDbEntity
  8
0
  6
Continuous
 62
     7
100
AcDbEllipse
 10
6393.2195819729
 20
4575.0416595671
 30
0.0
 11
-0.7063993352312536
 21
0.7078135200645193
 31
0.0
210
0.0
220
0.0
230
1.0
 40
0.8707225759
 41
1.570796326793983
 42
3.141592653588315
  0
ELLIPSE
  5
D3
330
1F
100
AcDbEntity
  8
0
  6
Continuous
 62
     7
100
AcDbEllipse
 10
6379.444794936
 20
4588.8440232084
 30
0.0
 11
0.7908873509495604
 21
0.7893071877197143
 31
0.0
210
0.0
220
0.0
230
1.0
 40
0.8949612346
 41
1.570796326794338
 42
3.141592653589793
  0
ELLIPSE
  5
D4
330
1F
100
AcDbEntity
  8
0
  6
Continuous
 62
     7
100
AcDbEllipse
 10
6393.2195819729
 20
4575.0416595671
 30
0.0
 11
0.7908873509504702
 21
0.7893071877197144
 31
0.0
210
0.0
220
0.0
230
1.0
 40
0.8949612346
 41
3.141592653591095
 42
4.712388980385233
  0
LINE
  5
D5
330
1F
100
AcDbEntity
  8
0
  6
Continuous
 62
     7
100
AcDbLine
 10
6284.5711342201
 20
5282.1145447622
 30
0.0
 11
6284.5711342201
 21
5282.1207734476
 31
0.0
  0
LINE
  5
D6
330
1F
100
AcDbEntity
  8
0
  6
Continuous
 62
     7
100
AcDbLine
 10
6287.6153207876
 20
5282.1145447622
 30
0.0
 11
6287.6153207876
 21
5282.1207734476
 31
0.0
  0
LINE
  5
D7
330
1F
100
AcDbEntity
  8
0
  6
Continuous
 62
     7
100
AcDbLine
 10
6285.0558365721
 20
5282.1207734476
 30
0.0
 11
6285.0558365721
 21
5282.1145447622
 31
0.0
  0
LINE
  5
D8
330
1F
100
AcDbEntity
  8
0
  6
Continuous
 62
     7
100
AcDbLine
 10
6284.6152949173
 20
5282.1145447622
 30
0.0
 11
6284.6152949173
 21
5282.1207734476
 31
0.0
  0
LINE
  5
D9
330
1F
100
AcDbEntity
  8
0
  6
Continuous
 62
     7
100
AcDbLine
 10
6285.8173916142
 20
5282.1145447622
 30
0.0
 11
6285.8173916142
 21
5282.1207734476
 31
0.0
  0
LINE
  5
DA
330
1F
100
AcDbEntity
  8
0
  6
Continuous
 62
     7
100
AcDbLine
 10
6449.0187542073
 20
5314.1145202051
 30
0.0
 11
6421.2372229926
 21
5314.1145202051
 31
0.0
  0
LINE
  5
DB
330
1F
100
AcDbEntity
  8
0
  6
Continuous
 62
     7
100
AcDbLine
 10
6378.9063768022
 20
5314.1145202051
 30
0.0
 11
6101.0187493198
 21
5314.1145202051
 31
0.0
  0
LINE
  5
DC
330
1F
100
AcDbEntity
  8
0
  6
Continuous
 62
     7
100
AcDbLine
 10
6378.3978819388
 20
5312.8226041436
 30
0.0
 11
6378.3978786612
 21
5282.1145365323
 31
0.0
  0
LINE
  5
DD
330
1F
100
AcDbEntity
  8
0
  6
Continuous
 62
     7
100
AcDbLine
 10
6392.689213299
 20
5317.242303742
 30
0.0
 11
6392.3947216503
 21
5318.1516322027
 31
0.0
  0
LINE
  5
DE
330
1F
100
AcDbEntity
  8
0
  6
Continuous
 62
     7
100
AcDbLine
 10
6380.0270931356
 20
5314.14640869
 30
0.0
 11
6380.3215847842
 21
5313.2370802293
 31
0.0
  0
LINE
  5
DF
330
1F
100
AcDbEntity
  8
0
  6
Continuous
 62
     7
100
AcDbLine
 10
6403.7727864019
 20
5322.8930922876
 30
0.0
 11
6396.7455105416
 21
5344.5924612413
 31
0.0
  0
LINE
  5
E0
330
1F
100
AcDbEntity
  8
0
  6
Continuous
 62
     7
100
AcDbLine
 10
6395.7941533558
 20
5345.2843817602
 30
0.0
 11
6382.0193709366
 21
5345.2843817602
 31
0.0
  0
LINE
  5
E1
330
1F
100
AcDbEntity
  8
0
  6
Continuous
 62
     7
100
AcDbLine
 10
6378.3844040267
 20
5342.6487537752
 30
0.0
 11
6385.2666468851
 21
5321.39722432
 31
0.0
  0
LINE
  5
E2
330
1F
100
AcDbEntity
  8
0
  6
Continuous
 62
     7
100
AcDbLine
 10
6381.4765067332
 20
5345.1241942773
 30
0.0
 11
6378.604717695
 21
5343.2678672205
 31
0.0
  0
LINE
  5
E3
330
1F
100
AcDbEntity
  8
0
  6
Continuous
 62
     7
100
AcDbLine
 10
6412.6402662627
 20
5282.1145447622
 30
0.0
 11
6412.6402662627
 21
5284.4722958933
 31
0.0
  0
LINE
  5
E4
330
1F
100
AcDbEntity
  8
0
  6
Continuous
 62
     7
100
AcDbLine
 10
6423.3327285878
 20
5323.8207491766
 30
0.0
 11
6423.8451944224
 21
5325.8099349867
 31
0.0
  0
LINE
  5
E5
330
1F
100
AcDbEntity
  8
0
  6
Continuous
 62
     7
100
AcDbLine
 10
6421.6353969209
 20
5329.8028203378
 30
0.0
 11
6421.3004486196
 21
5330.0297054182
 31
0.0
  0
LINE
  5
E6
330
1F
100
AcDbEntity
  8
0
  6
Continuous
 62
     7
100
AcDbLine
 10
6449.0187542073
 20
5281.6145213972
 30
0.0
 11
6099.0187601678
 21
5281.6145213972
 31
0.0
  0
LINE
  5
E7
330
1F
100
AcDbEntity
  8
0
  6
Continuous
 62
     7
100
AcDbLine
 10
6099.5187537305
 20
5282.1145447622
 30
0.0
 11
6448.5187606446
 21
5282.1145447622
 31
0.0
  0
LINE
  5
E8
330
1F
100
AcDbEntity
  8
0
  6
Continuous
 62
     7
100
AcDbLine
 10
6099.0187601678
 20
5082.1145566831
 30
0.0
 11
6099.0187601678
 21
5281.6145213972
 31
0.0
  0
LINE
  5
E9
330
1F
100
AcDbEntity
  8
0
  6
Continuous
 62
     7
100
AcDbLine
 10
6449.0187542073
 20
5082.1145566831
 30
0.0
 11
6449.0187542073
 21
5281.6145213972
 31
0.0
  0
LINE
  5
EA
330
1F
100
AcDbEntity
  8
0
  6
Continuous
 62
     7
100
AcDbLine
 10
6099.0187601678
 20
5082.1145566831
 30
0.0
 11
6449.0187542073
 21
5082.1145566831
 31
0.0
  0
LINE
  5
EB
330
1F
100
AcDbEntity
  8
0
  6
Continuous
 62
     7
100
AcDbLine
 10
6101.0187493198
 20
5283.1145318876
 30
0.0
 11
6101.0187493198
 21
5282.1145447622
 31
0.0
  0
LINE
  5
EC
330
1F
100
AcDbEntity
  8
0
  6
Continuous
 62
     7
100
AcDbLine
 10
6447.0187501542
 20
5282.1145447622
 30
0.0
 11
6447.0187501542
 21
5283.1145318876
 31
0.0
  0
LINE
  5
ED
330
1F
100
AcDbEntity
  8
0
  6
Continuous
 62
     7
100
AcDbLine
 10
6449.0187542073
 20
5283.1145318876
 30
0.0
 11
6447.0187501542
 21
5283.1145318876
 31
0.0
  0
LINE
  5
EE
330
1F
100
AcDbEntity
  8
0
  6
Continuous
 62
     7
100
AcDbLine
 10
6449.0187542073
 20
5313.0645247827
 30
0.0
 11
6449.0187542073
 21
5283.1145318876
 31
0.0
  0
LINE
  5
EF
330
1F
100
AcDbEntity
  8
0
  6
Continuous
 62
     7
100
AcDbLine
 10
6101.0187493198
 20
5283.1145318876
 30
0.0
 11
6101.0187493198
 21
5313.0645247827
 31
0.0
  0
LINE
  5
F0
330
1F
100
AcDbEntity
  8
0
  6
Continuous
 62
     7
100
AcDbLine
 10
6101.0187493198
 20
5313.0645247827
 30
0.0
 11
6101.0187493198
 21
5314.1145202051
 31
0.0
  0
LINE
  5
F1
330
1F
100
AcDbEntity
  8
0
  6
Continuous
 62
     7
100
AcDbLine
 10
6449.0187542073
 20
5314.1145202051
 30
0.0
 11
6449.0187542073
 21
5313.0645247827
 31
0.0
  0
LINE
  5
F2
330
1F
100
AcDbEntity
  8
0
  6
Continuous
 62
     7
100
AcDbLine
 10
6381.4296287742
 20
5316.2889252988
 30
0.0
 11
6380.0101765285
 21
5315.209219808
 31
0.0
  0
LINE
  5
F3
330
1F
100
AcDbEntity
  8
0
  6
Continuous
 62
     7
100
AcDbLine
 10
6382.3217154972
 20
5312.5353547464
 30
0.0
 11
6383.4933789007
 21
5312.608251227
 31
0.0
  0
LINE
  5
F4
330
1F
100
AcDbEntity
  8
0
  6
Continuous
 62
     7
100
AcDbLine
 10
6383.4933789007
 20
5312.608251227
 30
0.0
 11
6384.8274277083
 21
5312.8230067621
 31
0.0
  0
LINE
  5
F5
330
1F
100
AcDbEntity
  8
0
  6
Continuous
 62
     7
100
AcDbLine
 10
6384.8274277083
 20
5312.8230067621
 30
0.0
 11
6386.251934015
 21
5313.1680282484
 31
0.0
  0
LINE
  5
F6
330
1F
100
AcDbEntity
  8
0
  6
Continuous
 62
     7
100
AcDbLine
 10
6386.251934015
 20
5313.1680282484
 30
0.0
 11
6387.6900972359
 21
5313.6247786413
 31
0.0
  0
LINE
  5
F7
330
1F
100
AcDbEntity
  8
0
  6
Continuous
 62
     7
100
AcDbLine
 10
6387.6900972359
 20
5313.6247786413
 30
0.0
 11
6389.0644015305
 21
5314.1685518156
 31
0.0
  0
LINE
  5
F8
330
1F
100
AcDbEntity
  8
0
  6
Continuous
 62
     7
100
AcDbLine
 10
6389.0644015305
 20
5314.1685518156
 30
0.0
 11
6390.3007508747
 21
5314.7700818906
 31
0.0
  0
LINE
  5
F9
330
1F
100
AcDbEntity
  8
0
  6
Continuous
 62
     7
100
AcDbLine
 10
6390.3007508747
 20
5314.7700818906
 30
0.0
 11
6391.332484924
 21
5315.3969439397
 31
0.0
  0
LINE
  5
FA
330
1F
100
AcDbEntity
  8
0
  6
Continuous
 62
     7
100
AcDbLine
 10
6391.332484924
 20
5315.3969439397
 30
0.0
 11
6392.1039925448
 21
5316.015312327
 31
0.0
  0
LINE
  5
FB
330
1F
100
AcDbEntity
  8
0
  6
Continuous
 62
     7
100
AcDbLine
 10
6392.1039925448
 20
5316.015312327
 30
0.0
 11
6392.5736771457
 21
5316.5918680559
 31
0.0
  0
LINE
  5
FC
330
1F
100
AcDbEntity
  8
0
  6
Continuous
 62
     7
100
AcDbLine
 10
6392.5736771457
 20
5316.5918680559
 30
0.0
 11
6392.7162216537
 21
5317.0955273042
 31
0.0
  0
LINE
  5
FD
330
1F
100
AcDbEntity
  8
0
  6
Continuous
 62
     7
100
AcDbLine
 10
6392.7162216537
 20
5317.0955273042
 30
0.0
 11
6392.689213299
 21
5317.242303742
 31
0.0
  0
LINE
  5
FE
330
1F
100
AcDbEntity
  8
0
  6
Continuous
 62
     7
100
AcDbLine
 10
6380.3215847842
 20
5313.2370802293
 30
0.0
 11
6380.3490923278
 21
5313.1680282484
 31
0.0
  0
LINE
  5
FF
330
1F
100
AcDbEntity
  8
0
  6
Continuous
 62
     7
100
AcDbLine
 10
6380.3490923278
 20
5313.1680282484
 30
0.0
 11
6380.7060198419
 21
5312.8230067621
 31
0.0
  0
LINE
  5
100
330
1F
100
AcDbEntity
  8
0
  6
Continuous
 62
     7
100
AcDbLine
 10
6380.7060198419
 20
5312.8230067621
 30
0.0
 11
6381.375588619
 21
5312.608251227
 31
0.0
  0
LINE
  5
101
330
1F
100
AcDbEntity
  8
0
  6
Continuous
 62
     7
100
AcDbLine
 10
6381.375588619
 20
5312.608251227
 30
0.0
 11
6382.3217154972
 21
5312.5353547464
 31
0.0
  0
LINE
  5
102
330
1F
100
AcDbEntity
  8
0
  6
Continuous
 62
     7
100
AcDbLine
 10
6393.3230863444
 20
5314.7438856493
 30
0.0
 11
6393.3230863444
 21
5282.1145447622
 31
0.0
  0
LINE
  5
103
330
1F
100
AcDbEntity
  8
0
  6
Continuous
 62
     7
100
AcDbLine
 10
6390.3945909373
 20
5318.8533576856
 30
0.0
 11
6390.0731132857
 21
5318.8471290003
 31
0.0
  0
LINE
  5
104
330
1F
100
AcDbEntity
  8
0
  6
Continuous
 62
     7
100
AcDbLine
 10
6381.5002591841
 20
5316.0708340536
 30
0.0
 11
6381.3838215105
 21
5315.9917982946
 31
0.0
  0
LINE
  5
105
330
1F
100
AcDbEntity
  8
0
  6
Continuous
 62
     7
100
AcDbLine
 10
6381.3838215105
 20
5315.9917982946
 30
0.0
 11
6380.6123138897
 21
5315.3734001051
 31
0.0
  0
LINE
  5
106
330
1F
100
AcDbEntity
  8
0
  6
Continuous
 62
     7
100
AcDbLine
 10
6380.6123138897
 20
5315.3734001051
 30
0.0
 11
6380.1426292889
 21
5314.7968443762
 31
0.0
  0
LINE
  5
107
330
1F
100
AcDbEntity
  8
0
  6
Continuous
 62
     7
100
AcDbLine
 10
6380.1426292889
 20
5314.7968443762
 30
0.0
 11
6380.0000847809
 21
5314.2931851278
 31
0.0
  0
LINE
  5
108
330
1F
100
AcDbEntity
  8
0
  6
Continuous
 62
     7
100
AcDbLine
 10
6380.0000847809
 20
5314.2931851278
 30
0.0
 11
6380.1923693649
 21
5313.8895722757
 31
0.0
  0
LINE
  5
109
330
1F
100
AcDbEntity
  8
0
  6
Continuous
 62
     7
100
AcDbLine
 10
6380.1923693649
 20
5313.8895722757
 30
0.0
 11
6380.7091118328
 21
5313.6077913175
 31
0.0
  0
LINE
  5
10A
330
1F
100
AcDbEntity
  8
0
  6
Continuous
 62
     7
100
AcDbLine
 10
6380.7091118328
 20
5313.6077913175
 30
0.0
 11
6381.5224619143
 21
5313.462981833
 31
0.0
  0
LINE
  5
10B
330
1F
100
AcDbEntity
  8
0
  6
Continuous
 62
     7
100
AcDbLine
 10
6381.5224619143
 20
5313.462981833
 30
0.0
 11
6382.5885654919
 21
5313.462981833
 31
0.0
  0
LINE
  5
10C
330
1F
100
AcDbEntity
  8
0
  6
Continuous
 62
     7
100
AcDbLine
 10
6382.5885654919
 20
5313.462981833
 30
0.0
 11
6383.8499487869
 21
5313.6077913175
 31
0.0
  0
LINE
  5
10D
330
1F
100
AcDbEntity
  8
0
  6
Continuous
 62
     7
100
AcDbLine
 10
6383.8499487869
 20
5313.6077913175
 30
0.0
 11
6385.2386178009
 21
5313.8895722757
 31
0.0
  0
LINE
  5
10E
330
1F
100
AcDbEntity
  8
0
  6
Continuous
 62
     7
100
AcDbLine
 10
6385.2386178009
 20
5313.8895722757
 30
0.0
 11
6386.6796941988
 21
5314.2931851278
 31
0.0
  0
LINE
  5
10F
330
1F
100
AcDbEntity
  8
0
  6
Continuous
 62
     7
100
AcDbLine
 10
6386.6796941988
 20
5314.2931851278
 30
0.0
 11
6388.0955056779
 21
5314.7968443762
 31
0.0
  0
LINE
  5
110
330
1F
100
AcDbEntity
  8
0
  6
Continuous
 62
     7
100
AcDbLine
 10
6388.0955056779
 20
5314.7968443762
 30
0.0
 11
6389.4097135894
 21
5315.3734001051
 31
0.0
  0
LINE
  5
111
330
1F
100
AcDbEntity
  8
0
  6
Continuous
 62
     7
100
AcDbLine
 10
6389.4097135894
 20
5315.3734001051
 30
0.0
 11
6390.551477813
 21
5315.9917982946
 31
0.0
  0
LINE
  5
112
330
1F
100
AcDbEntity
  8
0
  6
Continuous
 62
     7
100
AcDbLine
 10
6390.551477813
 20
5315.9917982946
 30
0.0
 11
6391.4592342012
 21
5316.6186305414
 31
0.0
  0
LINE
  5
113
330
1F
100
AcDbEntity
  8
0
  6
Continuous
 62
     7
100
AcDbLine
 10
6391.4592342012
 20
5316.6186305414
 30
0.0
 11
6392.0840622418
 21
5317.2201606165
 31
0.0
  0
LINE
  5
114
330
1F
100
AcDbEntity
  8
0
  6
Continuous
 62
     7
100
AcDbLine
 10
6392.0840622418
 20
5317.2201606165
 30
0.0
 11
6392.3922555081
 21
5317.7639337907
 31
0.0
  0
LINE
  5
115
330
1F
100
AcDbEntity
  8
0
  6
Continuous
 62
     7
100
AcDbLine
 10
6392.3922555081
 20
5317.7639337907
 30
0.0
 11
6392.3672215573
 21
5318.2206841837
 31
0.0
  0
LINE
  5
116
330
1F
100
AcDbEntity
  8
0
  6
Continuous
 62
     7
100
AcDbLine
 10
6392.3672215573
 20
5318.2206841837
 30
0.0
 11
6392.0102940433
 21
5318.5657056699
 31
0.0
  0
LINE
  5
117
330
1F
100
AcDbEntity
  8
0
  6
Continuous
 62
     7
100
AcDbLine
 10
6392.0102940433
 20
5318.5657056699
 30
0.0
 11
6391.3407178156
 21
5318.7804612051
 31
0.0
  0
LINE
  5
118
330
1F
100
AcDbEntity
  8
0
  6
Continuous
 62
     7
100
AcDbLine
 10
6391.3407178156
 20
5318.7804612051
 30
0.0
 11
6390.3945909373
 21
5318.8533576856
 31
0.0
  0
LINE
  5
119
330
1F
100
AcDbEntity
  8
0
  6
Continuous
 62
     7
100
AcDbLine
 10
6381.8324582212
 20
5315.045038117
 30
0.0
 11
6383.5376502506
 21
5314.2348619829
 31
0.0
  0
LINE
  5
11A
330
1F
100
AcDbEntity
  8
0
  6
Continuous
 62
     7
100
AcDbLine
 10
6383.5376502506
 20
5314.2348619829
 30
0.0
 11
6387.9161105983
 21
5315.3388592134
 31
0.0
  0
LINE
  5
11B
330
1F
100
AcDbEntity
  8
0
  6
Continuous
 62
     7
100
AcDbLine
 10
6387.9161105983
 20
5315.3388592134
 30
0.0
 11
6390.5893640153
 21
5317.2530027757
 31
0.0
  0
LINE
  5
11C
330
1F
100
AcDbEntity
  8
0
  6
Continuous
 62
     7
100
AcDbLine
 10
6393.9259813081
 20
5342.6201690067
 30
0.0
 11
6400.6991909377
 21
5321.7053207288
 31
0.0
  0
LINE
  5
11D
330
1F
100
AcDbEntity
  8
0
  6
Continuous
 62
     7
100
AcDbLine
 10
6399.3491457336
 20
5321.2892803083
 30
0.0
 11
6392.4286962978
 21
5342.6587971578
 31
0.0
  0
LINE
  5
11E
330
1F
100
AcDbEntity
  8
0
  6
Continuous
 62
     7
100
AcDbLine
 10
6404.2992891304
 20
5321.0145326982
 30
0.0
 11
6403.1491355531
 21
5320.3336986433
 31
0.0
  0
LINE
  5
11F
330
1F
100
AcDbEntity
  8
0
  6
Continuous
 62
     7
100
AcDbLine
 10
6410.1869390838
 20
5321.0276755224
 30
0.0
 11
6409.8497705094
 21
5321.0145326982
 31
0.0
  0
LINE
  5
120
330
1F
100
AcDbEntity
  8
0
  6
Continuous
 62
     7
100
AcDbLine
 10
6410.7102231614
 20
5321.0785182844
 30
0.0
 11
6410.1869390838
 21
5321.0276755224
 31
0.0
  0
LINE
  5
121
330
1F
100
AcDbEntity
  8
0
  6
Continuous
 62
     7
100
AcDbLine
 10
6396.5005578034
 20
5344.2843648325
 30
0.0
 11
6393.9259813081
 21
5342.6201690067
 31
0.0
  0
LINE
  5
122
330
1F
100
AcDbEntity
  8
0
  6
Continuous
 62
     7
100
AcDbLine
 10
6392.6032727614
 20
5343.3214836264
 30
0.0
 11
6395.4996691577
 21
5345.1937230955
 31
0.0
  0
LINE
  5
123
330
1F
100
AcDbEntity
  8
0
  6
Continuous
 62
     7
100
AcDbLine
 10
6378.6539064281
 20
5342.6587971578
 30
0.0
 11
6392.4286962978
 21
5342.6587971578
 31
0.0
  0
LINE
  5
124
330
1F
100
AcDbEntity
  8
0
  6
Continuous
 62
     7
100
AcDbLine
 10
6378.8284857245
 20
5343.3214836264
 30
0.0
 11
6392.6032727614
 21
5343.3214836264
 31
0.0
  0
LINE
  5
125
330
1F
100
AcDbEntity
  8
0
  6
Continuous
 62
     7
100
AcDbLine
 10
6385.5743633144
 20
5321.2892803083
 30
0.0
 11
6399.3491457336
 21
5321.2892803083
 31
0.0
  0
LINE
  5
126
330
1F
100
AcDbEntity
  8
0
  6
Continuous
 62
     7
100
AcDbLine
 10
6378.6539064281
 20
5342.6587971578
 30
0.0
 11
6385.5743633144
 21
5321.2892803083
 31
0.0
  0
LINE
  5
127
330
1F
100
AcDbEntity
  8
0
  6
Continuous
 62
     7
100
AcDbLine
 10
6403.5278336637
 20
5322.5850256811
 30
0.0
 11
6396.5005578034
 21
5344.2843648325
 31
0.0
  0
LINE
  5
128
330
1F
100
AcDbEntity
  8
0
  6
Continuous
 62
     7
100
AcDbLine
 10
6402.6831538908
 20
5320.7883628736
 30
0.0
 11
6404.0068612925
 21
5321.6440173517
 31
0.0
  0
LINE
  5
129
330
1F
100
AcDbEntity
  8
0
  6
Continuous
 62
     7
100
AcDbLine
 10
6400.796465718
 20
5319.5688220392
 30
0.0
 11
6402.6831538908
 21
5320.7883628736
 31
0.0
  0
LINE
  5
12A
330
1F
100
AcDbEntity
  8
0
  6
Continuous
 62
     7
100
AcDbLine
 10
6381.7248792879
 20
5345.1937230954
 30
0.0
 11
6378.8284857245
 21
5343.3214836264
 31
0.0
  0
LINE
  5
12B
330
1F
100
AcDbEntity
  8
0
  6
Continuous
 62
     7
100
AcDbLine
 10
6381.7248792879
 20
5345.1937230954
 30
0.0
 11
6395.4996691577
 21
5345.1937230955
 31
0.0
  0
LINE
  5
12C
330
1F
100
AcDbEntity
  8
0
  6
Continuous
 62
     7
100
AcDbLine
 10
6388.0007044904
 20
5320.7912238966
 30
0.0
 11
6383.6222515933
 21
5319.687226666
 31
0.0
  0
LINE
  5
12D
330
1F
100
AcDbEntity
  8
0
  6
Continuous
 62
     7
100
AcDbLine
 10
6389.7059039704
 20
5319.9810179601
 30
0.0
 11
6388.0007044904
 21
5320.7912238966
 31
0.0
  0
LINE
  5
12E
330
1F
100
AcDbEntity
  8
0
  6
Continuous
 62
     7
100
AcDbLine
 10
6387.0326431028
 20
5318.0668743978
 30
0.0
 11
6389.7059039704
 21
5319.9810179601
 31
0.0
  0
LINE
  5
12F
330
1F
100
AcDbEntity
  8
0
  6
Continuous
 62
     7
100
AcDbLine
 10
6382.6541902058
 20
5316.9628771673
 30
0.0
 11
6387.0326431028
 21
5318.0668743978
 31
0.0
  0
LINE
  5
130
330
1F
100
AcDbEntity
  8
0
  6
Continuous
 62
     7
100
AcDbLine
 10
6380.9489907257
 20
5317.7730533014
 30
0.0
 11
6382.6541902058
 21
5316.9628771673
 31
0.0
  0
LINE
  5
131
330
1F
100
AcDbEntity
  8
0
  6
Continuous
 62
     7
100
AcDbLine
 10
6383.6222515933
 20
5319.687226666
 30
0.0
 11
6380.9489907257
 21
5317.7730533014
 31
0.0
  0
LINE
  5
132
330
1F
100
AcDbEntity
  8
0
  6
Continuous
 62
     7
100
AcDbLine
 10
6386.6504953734
 20
5319.7322579752
 30
0.0
 11
6385.9941066734
 21
5319.6671697031
 31
0.0
  0
LINE
  5
133
330
1F
100
AcDbEntity
  8
0
  6
Continuous
 62
     7
100
AcDbLine
 10
6385.9941066734
 20
5319.6671697031
 30
0.0
 11
6385.2362336151
 21
5319.4817694555
 31
0.0
  0
LINE
  5
134
330
1F
100
AcDbEntity
  8
0
  6
Continuous
 62
     7
100
AcDbLine
 10
6385.2362336151
 20
5319.4817694555
 30
0.0
 11
6384.4922409885
 21
5319.2043396364
 31
0.0
  0
LINE
  5
135
330
1F
100
AcDbEntity
  8
0
  6
Continuous
 62
     7
100
AcDbLine
 10
6384.4922409885
 20
5319.2043396364
 30
0.0
 11
6383.8753999703
 21
5318.8770505319
 31
0.0
  0
LINE
  5
136
330
1F
100
AcDbEntity
  8
0
  6
Continuous
 62
     7
100
AcDbLine
 10
6383.8753999703
 20
5318.8770505319
 30
0.0
 11
6383.4796251289
 21
5318.5497614275
 31
0.0
  0
LINE
  5
137
330
1F
100
AcDbEntity
  8
0
  6
Continuous
 62
     7
100
AcDbLine
 10
6383.4796251289
 20
5318.5497614275
 30
0.0
 11
6383.3651618592
 21
5318.2723316084
 31
0.0
  0
LINE
  5
138
330
1F
100
AcDbEntity
  8
0
  6
Continuous
 62
     7
100
AcDbLine
 10
6383.3651618592
 20
5318.2723316084
 30
0.0
 11
6383.5494370691
 21
5318.0869313608
 31
0.0
  0
LINE
  5
139
330
1F
100
AcDbEntity
  8
0
  6
Continuous
 62
     7
100
AcDbLine
 10
6383.5494370691
 20
5318.0869313608
 30
0.0
 11
6384.0043993227
 21
5318.0218430887
 31
0.0
  0
LINE
  5
13A
330
1F
100
AcDbEntity
  8
0
  6
Continuous
 62
     7
100
AcDbLine
 10
6384.0043993227
 20
5318.0218430887
 30
0.0
 11
6384.6607880227
 21
5318.0869313608
 31
0.0
  0
LINE
  5
13B
330
1F
100
AcDbEntity
  8
0
  6
Continuous
 62
     7
100
AcDbLine
 10
6384.6607880227
 20
5318.0869313608
 30
0.0
 11
6385.418661081
 21
5318.2723316084
 31
0.0
  0
LINE
  5
13C
330
1F
100
AcDbEntity
  8
0
  6
Continuous
 62
     7
100
AcDbLine
 10
6385.418661081
 20
5318.2723316084
 30
0.0
 11
6386.1626537077
 21
5318.5497614275
 31
0.0
  0
LINE
  5
13D
330
1F
100
AcDbEntity
  8
0
  6
Continuous
 62
     7
100
AcDbLine
 10
6386.1626537077
 20
5318.5497614275
 30
0.0
 11
6386.7794947259
 21
5318.8770505319
 31
0.0
  0
LINE
  5
13E
330
1F
100
AcDbEntity
  8
0
  6
Continuous
 62
     7
100
AcDbLine
 10
6386.7794947259
 20
5318.8770505319
 30
0.0
 11
6387.1752695672
 21
5319.2043396364
 31
0.0
  0
LINE
  5
13F
330
1F
100
AcDbEntity
  8
0
  6
Continuous
 62
     7
100
AcDbLine
 10
6387.1752695672
 20
5319.2043396364
 30
0.0
 11
6387.2897328369
 21
5319.4817694555
 31
0.0
  0
LINE
  5
140
330
1F
100
AcDbEntity
  8
0
  6
Continuous
 62
     7
100
AcDbLine
 10
6387.2897328369
 20
5319.4817694555
 30
0.0
 11
6387.105457627
 21
5319.6671697031
 31
0.0
  0
LINE
  5
141
330
1F
100
AcDbEntity
  8
0
  6
Continuous
 62
     7
100
AcDbLine
 10
6387.105457627
 20
5319.6671697031
 30
0.0
 11
6386.6504953734
 21
5319.7322579752
 31
0.0
  0
LINE
  5
142
330
1F
100
AcDbEntity
  8
0
  6
Continuous
 62
     7
100
AcDbLine
 10
6382.6541902058
 20
5316.9628771673
 30
0.0
 11
6383.5376502506
 21
5314.2348619829
 31
0.0
  0
LINE
  5
143
330
1F
100
AcDbEntity
  8
0
  6
Continuous
 62
     7
100
AcDbLine
 10
6387.0326431028
 20
5318.0668743978
 30
0.0
 11
6387.9161105983
 21
5315.3388592134
 31
0.0
  0
LINE
  5
144
330
1F
100
AcDbEntity
  8
0
  6
Continuous
 62
     7
100
AcDbLine
 10
6389.7059039704
 20
5319.9810179601
 30
0.0
 11
6390.5893640153
 21
5317.2530027757
 31
0.0
  0
LINE
  5
145
330
1F
100
AcDbEntity
  8
0
  6
Continuous
 62
     7
100
AcDbLine
 10
6380.9489907257
 20
5317.7730533014
 30
0.0
 11
6381.8324582212
 21
5315.045038117
 31
0.0
  0
LINE
  5
146
330
1F
100
AcDbEntity
  8
0
  6
Continuous
 62
     7
100
AcDbLine
 10
6398.9979253642
 20
5318.6384829412
 30
0.0
 11
6399.3591891162
 21
5318.9167770277
 31
0.0
  0
LINE
  5
147
330
1F
100
AcDbEntity
  8
0
  6
Continuous
 62
     7
100
AcDbLine
 10
6399.9554069273
 20
5319.0251382719
 30
0.0
 11
6400.796465718
 21
5319.5688220392
 31
0.0
  0
LINE
  5
148
330
1F
100
AcDbEntity
  8
0
  6
Continuous
 62
     7
100
AcDbLine
 10
6402.6831538908
 20
5320.7883628736
 30
0.0
 11
6403.8297684424
 21
5321.4691969286
 31
0.0
  0
LINE
  5
149
330
1F
100
AcDbEntity
  8
0
  6
Continuous
 62
     7
100
AcDbLine
 10
6404.4932724468
 20
5322.0148178468
 30
0.0
 11
6404.2992295258
 21
5322.0148178469
 31
0.0
  0
LINE
  5
14A
330
1F
100
AcDbEntity
  8
0
  6
Continuous
 62
     7
100
AcDbLine
 10
6404.6537430517
 20
5322.1145364175
 30
0.0
 11
6409.0997503631
 21
5322.1145364175
 31
0.0
  0
LINE
  5
14B
330
1F
100
AcDbEntity
  8
0
  6
Continuous
 62
     7
100
AcDbLine
 10
6411.8125216596
 20
5322.4570843111
 30
0.0
 11
6411.6051869027
 21
5322.2710284124
 31
0.0
  0
LINE
  5
14C
330
1F
100
AcDbEntity
  8
0
  6
Continuous
 62
     7
100
AcDbLine
 10
6404.623165869
 20
5322.1145364176
 30
0.0
 11
6404.6537430517
 21
5322.1145364175
 31
0.0
  0
LINE
  5
14D
330
1F
100
AcDbEntity
  8
0
  6
Continuous
 62
     7
100
AcDbLine
 10
6409.4566480748
 20
5322.1145364175
 30
0.0
 11
6411.6051869027
 21
5322.2710284124
 31
0.0
  0
LINE
  5
14E
330
1F
100
AcDbEntity
  8
0
  6
Continuous
 62
     7
100
AcDbLine
 10
6409.0997503631
 20
5322.1145364175
 30
0.0
 11
6409.4566480748
 21
5322.1145364175
 31
0.0
  0
LINE
  5
14F
330
1F
100
AcDbEntity
  8
0
  6
Continuous
 62
     7
100
AcDbLine
 10
6407.0821331374
 20
5330.3353878389
 30
0.0
 11
6405.4017291896
 21
5323.8126727472
 31
0.0
  0
LINE
  5
150
330
1F
100
AcDbEntity
  8
0
  6
Continuous
 62
     7
100
AcDbLine
 10
6407.0821331374
 20
5330.3353878389
 30
0.0
 11
6417.5775127046
 21
5327.3452910314
 31
0.0
  0
LINE
  5
151
330
1F
100
AcDbEntity
  8
0
  6
Continuous
 62
     7
100
AcDbLine
 10
6417.5775127046
 20
5327.3452910314
 30
0.0
 11
6415.9675912492
 21
5321.0961910616
 31
0.0
  0
LINE
  5
152
330
1F
100
AcDbEntity
  8
0
  6
Continuous
 62
     7
100
AcDbLine
 10
6401.4875592224
 20
5329.9495967756
 30
0.0
 11
6407.0821331374
 21
5330.3353878389
 31
0.0
  0
LINE
  5
153
330
1F
100
AcDbEntity
  8
0
  6
Continuous
 62
     7
100
AcDbLine
 10
6421.293459975
 20
5323.8876553903
 30
0.0
 11
6420.0584517352
 21
5319.093832625
 31
0.0
  0
LINE
  5
154
330
1F
100
AcDbEntity
  8
0
  6
Continuous
 62
     7
100
AcDbLine
 10
6417.5775127046
 20
5327.3452910314
 30
0.0
 11
6421.293459975
 21
5323.8876553903
 31
0.0
  0
LINE
  5
155
330
1F
100
AcDbEntity
  8
0
  6
Continuous
 62
     7
100
AcDbLine
 10
6401.1877404086
 20
5330.8754357229
 30
0.0
 11
6401.792444431
 21
5330.959567679
 31
0.0
  0
LINE
  5
156
330
1F
100
AcDbEntity
  8
0
  6
Continuous
 62
     7
100
AcDbLine
 10
6401.792444431
 20
5330.959567679
 30
0.0
 11
6403.103463494
 21
5331.0200663934
 31
0.0
  0
LINE
  5
157
330
1F
100
AcDbEntity
  8
0
  6
Continuous
 62
     7
100
AcDbLine
 10
6403.103463494
 20
5331.0200663934
 30
0.0
 11
6404.6498687498
 21
5330.959567679
 31
0.0
  0
LINE
  5
158
330
1F
100
AcDbEntity
  8
0
  6
Continuous
 62
     7
100
AcDbLine
 10
6404.6498687498
 20
5330.959567679
 30
0.0
 11
6406.3846768372
 21
5330.7798298727
 31
0.0
  0
LINE
  5
159
330
1F
100
AcDbEntity
  8
0
  6
Continuous
 62
     7
100
AcDbLine
 10
6406.3846768372
 20
5330.7798298727
 30
0.0
 11
6408.2551674478
 21
5330.4863664041
 31
0.0
  0
LINE
  5
15A
330
1F
100
AcDbEntity
  8
0
  6
Continuous
 62
     7
100
AcDbLine
 10
6408.2551674478
 20
5330.4863664041
 30
0.0
 11
6410.204522454
 21
5330.0880881677
 31
0.0
  0
LINE
  5
15B
330
1F
100
AcDbEntity
  8
0
  6
Continuous
 62
     7
100
AcDbLine
 10
6410.204522454
 20
5330.0880881677
 30
0.0
 11
6412.1734873883
 21
5329.5970949064
 31
0.0
  0
LINE
  5
15C
330
1F
100
AcDbEntity
  8
0
  6
Continuous
 62
     7
100
AcDbLine
 10
6412.1734873883
 20
5329.5970949064
 30
0.0
 11
6414.1022638909
 21
5329.0282877813
 31
0.0
  0
LINE
  5
15D
330
1F
100
AcDbEntity
  8
0
  6
Continuous
 62
     7
100
AcDbLine
 10
6414.1022638909
 20
5329.0282877813
 30
0.0
 11
6415.9322158925
 21
5328.3989521394
 31
0.0
  0
LINE
  5
15E
330
1F
100
AcDbEntity
  8
0
  6
Continuous
 62
     7
100
AcDbLine
 10
6415.9322158925
 20
5328.3989521394
 30
0.0
 11
6417.607776963
 21
5327.7282210718
 31
0.0
  0
LINE
  5
15F
330
1F
100
AcDbEntity
  8
0
  6
Continuous
 62
     7
100
AcDbLine
 10
6417.607776963
 20
5327.7282210718
 30
0.0
 11
6419.0780149333
 21
5327.0364793668
 31
0.0
  0
LINE
  5
160
330
1F
100
AcDbEntity
  8
0
  6
Continuous
 62
     7
100
AcDbLine
 10
6419.0780149333
 20
5327.0364793668
 30
0.0
 11
6420.2982561223
 21
5326.3447376619
 31
0.0
  0
LINE
  5
161
330
1F
100
AcDbEntity
  8
0
  6
Continuous
 62
     7
100
AcDbLine
 10
6420.2982561223
 20
5326.3447376619
 30
0.0
 11
6421.2314264409
 21
5325.6740065942
 31
0.0
  0
LINE
  5
162
330
1F
100
AcDbEntity
  8
0
  6
Continuous
 62
     7
100
AcDbLine
 10
6421.2314264409
 20
5325.6740065942
 30
0.0
 11
6421.8491838805
 21
5325.0446709524
 31
0.0
  0
LINE
  5
163
330
1F
100
AcDbEntity
  8
0
  6
Continuous
 62
     7
100
AcDbLine
 10
6421.8491838805
 20
5325.0446709524
 30
0.0
 11
6422.1327380769
 21
5324.4758638273
 31
0.0
  0
LINE
  5
164
330
1F
100
AcDbEntity
  8
0
  6
Continuous
 62
     7
100
AcDbLine
 10
6422.1327380769
 20
5324.4758638273
 30
0.0
 11
6422.07349106
 21
5323.984870566
 31
0.0
  0
LINE
  5
165
330
1F
100
AcDbEntity
  8
0
  6
Continuous
 62
     7
100
AcDbLine
 10
6422.07349106
 20
5323.984870566
 30
0.0
 11
6421.6732309692
 21
5323.5865625272
 31
0.0
  0
LINE
  5
166
330
1F
100
AcDbEntity
  8
0
  6
Continuous
 62
     7
100
AcDbLine
 10
6421.6732309692
 20
5323.5865625272
 30
0.0
 11
6421.1565481059
 21
5323.3562203775
 31
0.0
  0
LINE
  5
167
330
1F
100
AcDbEntity
  8
0
  6
Continuous
 62
     7
100
AcDbLine
 10
6401.0191039674
 20
5331.3961418996
 30
0.0
 11
6402.2769556872
 21
5331.445077313
 31
0.0
  0
LINE
  5
168
330
1F
100
AcDbEntity
  8
0
  6
Continuous
 62
     7
100
AcDbLine
 10
6402.2769556872
 20
5331.445077313
 30
0.0
 11
6403.8925917379
 21
5331.3849660288
 31
0.0
  0
LINE
  5
169
330
1F
100
AcDbEntity
  8
0
  6
Continuous
 62
     7
100
AcDbLine
 10
6403.8925917379
 20
5331.3849660288
 30
0.0
 11
6405.6980164282
 21
5331.2062116991
 31
0.0
  0
LINE
  5
16A
330
1F
100
AcDbEntity
  8
0
  6
Continuous
 62
     7
100
AcDbLine
 10
6405.6980164282
 20
5331.2062116991
 30
0.0
 11
6407.6439814202
 21
5330.9137317072
 31
0.0
  0
LINE
  5
16B
330
1F
100
AcDbEntity
  8
0
  6
Continuous
 62
     7
100
AcDbLine
 10
6407.6439814202
 20
5330.9137317072
 30
0.0
 11
6409.6774087779
 21
5330.5154832731
 31
0.0
  0
LINE
  5
16C
330
1F
100
AcDbEntity
  8
0
  6
Continuous
 62
     7
100
AcDbLine
 10
6409.6774087779
 20
5330.5154832731
 30
0.0
 11
6411.7428438298
 21
5330.0223442445
 31
0.0
  0
LINE
  5
16D
330
1F
100
AcDbEntity
  8
0
  6
Continuous
 62
     7
100
AcDbLine
 10
6411.7428438298
 20
5330.0223442445
 30
0.0
 11
6413.7839154832
 21
5329.4477554689
 31
0.0
  0
LINE
  5
16E
330
1F
100
AcDbEntity
  8
0
  6
Continuous
 62
     7
100
AcDbLine
 10
6413.7839154832
 20
5329.4477554689
 30
0.0
 11
6415.7449828021
 21
5328.8073929678
 31
0.0
  0
LINE
  5
16F
330
1F
100
AcDbEntity
  8
0
  6
Continuous
 62
     7
100
AcDbLine
 10
6415.7449828021
 20
5328.8073929678
 30
0.0
 11
6417.5725357167
 21
5328.118720902
 31
0.0
  0
LINE
  5
170
330
1F
100
AcDbEntity
  8
0
  6
Continuous
 62
     7
100
AcDbLine
 10
6417.5725357167
 20
5328.118720902
 30
0.0
 11
6419.2167149417
 21
5327.4005445371
 31
0.0
  0
LINE
  5
171
330
1F
100
AcDbEntity
  8
0
  6
Continuous
 62
     7
100
AcDbLine
 10
6419.2167149417
 20
5327.4005445371
 30
0.0
 11
6420.6326977841
 21
5326.6724141966
 31
0.0
  0
LINE
  5
172
330
1F
100
AcDbEntity
  8
0
  6
Continuous
 62
     7
100
AcDbLine
 10
6420.6326977841
 20
5326.6724141966
 30
0.0
 11
6421.7818306319
 21
5325.9542378317
 31
0.0
  0
LINE
  5
173
330
1F
100
AcDbEntity
  8
0
  6
Continuous
 62
     7
100
AcDbLine
 10
6421.7818306319
 20
5325.9542378317
 30
0.0
 11
6422.6327912442
 21
5325.2655657659
 31
0.0
  0
LINE
  5
174
330
1F
100
AcDbEntity
  8
0
  6
Continuous
 62
     7
100
AcDbLine
 10
6422.6327912442
 20
5325.2655657659
 30
0.0
 11
6423.1623636119
 21
5324.6252032648
 31
0.0
  0
LINE
  5
175
330
1F
100
AcDbEntity
  8
0
  6
Continuous
 62
     7
100
AcDbLine
 10
6423.1623636119
 20
5324.6252032648
 30
0.0
 11
6423.3560936086
 21
5324.0506144891
 31
0.0
  0
LINE
  5
176
330
1F
100
AcDbEntity
  8
0
  6
Continuous
 62
     7
100
AcDbLine
 10
6423.3560936086
 20
5324.0506144891
 30
0.0
 11
6423.208691322
 21
5323.5574754606
 31
0.0
  0
LINE
  5
177
330
1F
100
AcDbEntity
  8
0
  6
Continuous
 62
     7
100
AcDbLine
 10
6423.208691322
 20
5323.5574754606
 30
0.0
 11
6422.724194967
 21
5323.1592270265
 31
0.0
  0
LINE
  5
178
330
1F
100
AcDbEntity
  8
0
  6
Continuous
 62
     7
100
AcDbLine
 10
6422.724194967
 20
5323.1592270265
 30
0.0
 11
6421.9158069722
 21
5322.8667470346
 31
0.0
  0
LINE
  5
179
330
1F
100
AcDbEntity
  8
0
  6
Continuous
 62
     7
100
AcDbLine
 10
6421.9158069722
 20
5322.8667470346
 30
0.0
 11
6420.9893570773
 21
5322.7072152029
 31
0.0
  0
LINE
  5
17A
330
1F
100
AcDbEntity
  8
0
  6
Continuous
 62
     7
100
AcDbLine
 10
6403.9990754358
 20
5334.7429725061
 30
0.0
 11
6405.5566714637
 21
5334.6820267568
 31
0.0
  0
LINE
  5
17B
330
1F
100
AcDbEntity
  8
0
  6
Continuous
 62
     7
100
AcDbLine
 10
6405.5566714637
 20
5334.6820267568
 30
0.0
 11
6407.3040337793
 21
5334.5010074506
 31
0.0
  0
LINE
  5
17C
330
1F
100
AcDbEntity
  8
0
  6
Continuous
 62
     7
100
AcDbLine
 10
6407.3040337793
 20
5334.5010074506
 30
0.0
 11
6409.1880695455
 21
5334.2054280172
 31
0.0
  0
LINE
  5
17D
330
1F
100
AcDbEntity
  8
0
  6
Continuous
 62
     7
100
AcDbLine
 10
6409.1880695455
 20
5334.2054280172
 30
0.0
 11
6411.1515210502
 21
5333.8042589555
 31
0.0
  0
LINE
  5
17E
330
1F
100
AcDbEntity
  8
0
  6
Continuous
 62
     7
100
AcDbLine
 10
6411.1515210502
 20
5333.8042589555
 30
0.0
 11
6413.1347463958
 21
5333.3096894155
 31
0.0
  0
LINE
  5
17F
330
1F
100
AcDbEntity
  8
0
  6
Continuous
 62
     7
100
AcDbLine
 10
6413.1347463958
 20
5333.3096894155
 30
0.0
 11
6415.0774703853
 21
5332.7367695699
 31
0.0
  0
LINE
  5
180
330
1F
100
AcDbEntity
  8
0
  6
Continuous
 62
     7
100
AcDbLine
 10
6415.0774703853
 20
5332.7367695699
 30
0.0
 11
6416.9206844203
 21
5332.1028741728
 31
0.0
  0
LINE
  5
181
330
1F
100
AcDbEntity
  8
0
  6
Continuous
 62
     7
100
AcDbLine
 10
6416.9206844203
 20
5332.1028741728
 30
0.0
 11
6418.6083601348
 21
5331.4273151289
 31
0.0
  0
LINE
  5
182
330
1F
100
AcDbEntity
  8
0
  6
Continuous
 62
     7
100
AcDbLine
 10
6418.6083601348
 20
5331.4273151289
 30
0.0
 11
6420.0892375342
 21
5330.7305368314
 31
0.0
  0
LINE
  5
183
330
1F
100
AcDbEntity
  8
0
  6
Continuous
 62
     7
100
AcDbLine
 10
6420.0892375342
 20
5330.7305368314
 30
0.0
 11
6421.3183151118
 21
5330.0337883363
 31
0.0
  0
LINE
  5
184
330
1F
100
AcDbEntity
  8
0
  6
Continuous
 62
     7
100
AcDbLine
 10
6421.3183151118
 20
5330.0337883363
 30
0.0
 11
6422.2582356565
 21
5329.3582292925
 31
0.0
  0
LINE
  5
185
330
1F
100
AcDbEntity
  8
0
  6
Continuous
 62
     7
100
AcDbLine
 10
6422.2582356565
 20
5329.3582292925
 30
0.0
 11
6422.4167542092
 21
5329.2203339468
 31
0.0
  0
LINE
  5
186
330
1F
100
AcDbEntity
  8
0
  6
Continuous
 62
     7
100
AcDbLine
 10
6402.653820955
 20
5334.6794637571
 30
0.0
 11
6402.6785643332
 21
5334.6820267568
 31
0.0
  0
LINE
  5
187
330
1F
100
AcDbEntity
  8
0
  6
Continuous
 62
     7
100
AcDbLine
 10
6402.6785643332
 20
5334.6820267568
 30
0.0
 11
6403.9990754358
 21
5334.7429725061
 31
0.0
  0
LINE
  5
188
330
1F
100
AcDbEntity
  8
0
  6
Continuous
 62
     7
100
AcDbLine
 10
6401.9979612462
 20
5329.9847933183
 30
0.0
 11
6401.9858391516
 21
5329.9924525152
 31
0.0
  0
LINE
  5
189
330
1F
100
AcDbEntity
  8
0
  6
Continuous
 62
     7
100
AcDbLine
 10
6401.9858391516
 20
5329.9924525152
 30
0.0
 11
6401.3269992106
 21
5330.4454180132
 31
0.0
  0
LINE
  5
18A
330
1F
100
AcDbEntity
  8
0
  6
Continuous
 62
     7
100
AcDbLine
 10
6421.4015977017
 20
5325.5255016218
 30
0.0
 11
6420.4916433923
 21
5325.3776224981
 31
0.0
  0
LINE
  5
18B
330
1F
100
AcDbEntity
  8
0
  6
Continuous
 62
     7
100
AcDbLine
 10
6420.4916433923
 20
5325.3776224981
 30
0.0
 11
6419.7463618152
 21
5325.3272267709
 31
0.0
  0
LINE
  5
18C
330
1F
100
AcDbEntity
  8
0
  6
Continuous
 62
     7
100
AcDbLine
 10
6447.0187501542
 20
5283.1145318876
 30
0.0
 11
6412.6402662627
 21
5283.1145318876
 31
0.0
  0
LINE
  5
18D
330
1F
100
AcDbEntity
  8
0
  6
Continuous
 62
     7
100
AcDbLine
 10
6378.3978746764
 20
5283.1145318876
 30
0.0
 11
6101.0187493198
 21
5283.1145318876
 31
0.0
  0
LINE
  5
18E
330
1F
100
AcDbEntity
  8
0
  6
Continuous
 62
     7
100
AcDbLine
 10
6449.0187542073
 20
5313.0645247827
 30
0.0
 11
6420.907698714
 21
5313.0645247827
 31
0.0
  0
LINE
  5
18F
330
1F
100
AcDbEntity
  8
0
  6
Continuous
 62
     7
100
AcDbLine
 10
6378.4440012209
 20
5313.0645247827
 30
0.0
 11
6101.0187493198
 21
5313.0645247827
 31
0.0
  0
LINE
  5
190
330
1F
100
AcDbEntity
  8
0
  6
Continuous
 62
     7
100
AcDbLine
 10
6398.9979253642
 20
5318.6384829412
 30
0.0
 11
6391.8558211557
 21
5318.6384829412
 31
0.0
  0
LINE
  5
191
330
1F
100
AcDbEntity
  8
0
  6
Continuous
 62
     7
100
AcDbLine
 10
6396.5005578034
 20
5344.2843648325
 30
0.0
 11
6396.6125549309
 21
5344.3655463586
 31
0.0
  0
LINE
  5
192
330
1F
100
AcDbEntity
  8
0
  6
Continuous
 62
     7
100
AcDbLine
 10
6396.6125549309
 20
5344.3655463586
 30
0.0
 11
6396.6930957071
 21
5344.443598641
 31
0.0
  0
LINE
  5
193
330
1F
100
AcDbEntity
  8
0
  6
Continuous
 62
     7
100
AcDbLine
 10
6396.6930957071
 20
5344.443598641
 30
0.0
 11
6396.7390955917
 21
5344.5155116449
 31
0.0
  0
LINE
  5
194
330
1F
100
AcDbEntity
  8
0
  6
Continuous
 62
     7
100
AcDbLine
 10
6396.7390955917
 20
5344.5155116449
 30
0.0
 11
6396.7487813465
 21
5344.5785733591
 31
0.0
  0
LINE
  5
195
330
1F
100
AcDbEntity
  8
0
  6
Continuous
 62
     7
100
AcDbLine
 10
6396.7487813465
 20
5344.5785733591
 30
0.0
 11
6396.7455105416
 21
5344.5924612413
 31
0.0
  0
LINE
  5
196
330
1F
100
AcDbEntity
  8
0
  6
Continuous
 62
     7
100
AcDbLine
 10
6403.5278336637
 20
5322.5850256811
 30
0.0
 11
6403.6398307912
 21
5322.6661774049
 31
0.0
  0
LINE
  5
197
330
1F
100
AcDbEntity
  8
0
  6
Continuous
 62
     7
100
AcDbLine
 10
6403.6398307912
 20
5322.6661774049
 30
0.0
 11
6403.7203715674
 21
5322.7442296873
 31
0.0
  0
LINE
  5
198
330
1F
100
AcDbEntity
  8
0
  6
Continuous
 62
     7
100
AcDbLine
 10
6403.7203715674
 20
5322.7442296873
 30
0.0
 11
6403.7663714521
 21
5322.8161724935
 31
0.0
  0
LINE
  5
199
330
1F
100
AcDbEntity
  8
0
  6
Continuous
 62
     7
100
AcDbLine
 10
6403.7663714521
 20
5322.8161724935
 30
0.0
 11
6403.7760572068
 21
5322.8792044054
 31
0.0
  0
LINE
  5
19A
330
1F
100
AcDbEntity
  8
0
  6
Continuous
 62
     7
100
AcDbLine
 10
6403.7760572068
 20
5322.8792044054
 30
0.0
 11
6403.7727864019
 21
5322.8930922876
 31
0.0
  0
LINE
  5
19B
330
1F
100
AcDbEntity
  8
0
  6
Continuous
 62
     7
100
AcDbLine
 10
6385.5743633144
 20
5321.2892803083
 30
0.0
 11
6385.4489178888
 21
5321.2972673307
 31
0.0
  0
LINE
  5
19C
330
1F
100
AcDbEntity
  8
0
  6
Continuous
 62
     7
100
AcDbLine
 10
6385.4489178888
 20
5321.2972673307
 30
0.0
 11
6385.3530289166
 21
5321.320960177
 31
0.0
  0
LINE
  5
19D
330
1F
100
AcDbEntity
  8
0
  6
Continuous
 62
     7
100
AcDbLine
 10
6385.3530289166
 20
5321.320960177
 30
0.0
 11
6385.2903769843
 21
5321.3594051729
 31
0.0
  0
LINE
  5
19E
330
1F
100
AcDbEntity
  8
0
  6
Continuous
 62
     7
100
AcDbLine
 10
6385.2903769843
 20
5321.3594051729
 30
0.0
 11
6385.2666468851
 21
5321.39722432
 31
0.0
  0
LINE
  5
19F
330
1F
100
AcDbEntity
  8
0
  6
Continuous
 62
     7
100
AcDbLine
 10
6402.7894215219
 20
5333.4342929254
 30
0.0
 11
6401.4076517455
 21
5333.3741816412
 31
0.0
  0
LINE
  5
1A0
330
1F
100
AcDbEntity
  8
0
  6
Continuous
 62
     7
100
AcDbLine
 10
6401.4076517455
 20
5333.3741816412
 30
0.0
 11
6400.4266636006
 21
5333.2255276571
 31
0.0
  0
LINE
  5
1A1
330
1F
100
AcDbEntity
  8
0
  6
Continuous
 62
     7
100
AcDbLine
 10
6423.8451944224
 20
5325.8099349867
 30
0.0
 11
6423.8685594432
 21
5326.0398301016
 31
0.0
  0
LINE
  5
1A2
330
1F
100
AcDbEntity
  8
0
  6
Continuous
 62
     7
100
AcDbLine
 10
6423.8685594432
 20
5326.0398301016
 30
0.0
 11
6423.6748294465
 21
5326.6144188772
 31
0.0
  0
LINE
  5
1A3
330
1F
100
AcDbEntity
  8
0
  6
Continuous
 62
     7
100
AcDbLine
 10
6423.6748294465
 20
5326.6144188772
 30
0.0
 11
6423.1452570788
 21
5327.2547813783
 31
0.0
  0
LINE
  5
1A4
330
1F
100
AcDbEntity
  8
0
  6
Continuous
 62
     7
100
AcDbLine
 10
6423.1452570788
 20
5327.2547813783
 30
0.0
 11
6422.2943113677
 21
5327.9434236417
 31
0.0
  0
LINE
  5
1A5
330
1F
100
AcDbEntity
  8
0
  6
Continuous
 62
     7
100
AcDbLine
 10
6422.2943113677
 20
5327.9434236417
 30
0.0
 11
6421.1451636188
 21
5328.661629809
 31
0.0
  0
LINE
  5
1A6
330
1F
100
AcDbEntity
  8
0
  6
Continuous
 62
     7
100
AcDbLine
 10
6421.1451636188
 20
5328.661629809
 30
0.0
 11
6419.7291807763
 21
5329.3897601495
 31
0.0
  0
LINE
  5
1A7
330
1F
100
AcDbEntity
  8
0
  6
Continuous
 62
     7
100
AcDbLine
 10
6419.7291807763
 20
5329.3897601495
 30
0.0
 11
6418.0850015513
 21
5330.1079365144
 31
0.0
  0
LINE
  5
1A8
330
1F
100
AcDbEntity
  8
0
  6
Continuous
 62
     7
100
AcDbLine
 10
6418.0850015513
 20
5330.1079365144
 30
0.0
 11
6416.2574486367
 21
5330.7966085802
 31
0.0
  0
LINE
  5
1A9
330
1F
100
AcDbEntity
  8
0
  6
Continuous
 62
     7
100
AcDbLine
 10
6416.2574486367
 20
5330.7966085802
 30
0.0
 11
6414.2963813178
 21
5331.4369710813
 31
0.0
  0
LINE
  5
1AA
330
1F
100
AcDbEntity
  8
0
  6
Continuous
 62
     7
100
AcDbLine
 10
6414.2963813178
 20
5331.4369710813
 30
0.0
 11
6412.2553096644
 21
5332.011559857
 31
0.0
  0
LINE
  5
1AB
330
1F
100
AcDbEntity
  8
0
  6
Continuous
 62
     7
100
AcDbLine
 10
6412.2553096644
 20
5332.011559857
 30
0.0
 11
6410.1898746125
 21
5332.5046988855
 31
0.0
  0
LINE
  5
1AC
330
1F
100
AcDbEntity
  8
0
  6
Continuous
 62
     7
100
AcDbLine
 10
6410.1898746125
 20
5332.5046988855
 30
0.0
 11
6408.1564472549
 21
5332.9029473196
 31
0.0
  0
LINE
  5
1AD
330
1F
100
AcDbEntity
  8
0
  6
Continuous
 62
     7
100
AcDbLine
 10
6408.1564472549
 20
5332.9029473196
 30
0.0
 11
6406.2104822628
 21
5333.1954273115
 31
0.0
  0
LINE
  5
1AE
330
1F
100
AcDbEntity
  8
0
  6
Continuous
 62
     7
100
AcDbLine
 10
6406.2104822628
 20
5333.1954273115
 30
0.0
 11
6404.4050575726
 21
5333.3741816412
 31
0.0
  0
LINE
  5
1AF
330
1F
100
AcDbEntity
  8
0
  6
Continuous
 62
     7
100
AcDbLine
 10
6404.4050575726
 20
5333.3741816412
 30
0.0
 11
6402.7894215219
 21
5333.4342929254
 31
0.0
  0
LINE
  5
1B0
330
1F
100
AcDbEntity
  8
0
  6
Continuous
 62
     7
100
AcDbLine
 10
6886.7965250581
 20
5225.4063876997
 30
0.0
 11
6876.7965345948
 21
5225.4063876997
 31
0.0
  0
LINE
  5
1B1
330
1F
100
AcDbEntity
  8
0
  6
Continuous
 62
     7
100
AcDbLine
 10
6876.7965345948
 20
5185.406366242
 30
0.0
 11
6886.7965250581
 21
5185.406366242
 31
0.0
  0
LINE
  5
1B2
330
1F
100
AcDbEntity
  8
0
  6
Continuous
 62
     7
100
AcDbLine
 10
6875.5467444032
 20
5149.3331583868
 30
0.0
 11
6875.3442972272
 21
5149.6832164655
 31
0.0
  0
LINE
  5
1B3
330
1F
100
AcDbEntity
  8
0
  6
Continuous
 62
     7
100
AcDbLine
 10
6885.41986638
 20
5130.4063590894
 30
0.0
 11
6886.4412813752
 21
5130.4063590894
 31
0.0
  0
LINE
  5
1B4
330
1F
100
AcDbEntity
  8
0
  6
Continuous
 62
     7
100
AcDbLine
 10
6883.4660261243
 20
5130.4063590894
 30
0.0
 11
6883.7104647725
 21
5130.4063590894
 31
0.0
  0
LINE
  5
1B5
330
1F
100
AcDbEntity
  8
0
  6
Continuous
 62
     7
100
AcDbLine
 10
6881.5121858685
 20
5130.4063590894
 30
0.0
 11
6881.7566245168
 21
5130.4063590894
 31
0.0
  0
LINE
  5
1B6
330
1F
100
AcDbEntity
  8
0
  6
Continuous
 62
     7
100
AcDbLine
 10
6879.5583456128
 20
5130.4063590894
 30
0.0
 11
6879.8027544587
 21
5130.4063590894
 31
0.0
  0
LINE
  5
1B7
330
1F
100
AcDbEntity
  8
0
  6
Continuous
 62
     7
100
AcDbLine
 10
6877.6045053571
 20
5130.4063590894
 30
0.0
 11
6877.848914203
 21
5130.4063590894
 31
0.0
  0
LINE
  5
1B8
330
1F
100
AcDbEntity
  8
0
  6
Continuous
 62
     7
100
AcDbLine
 10
6876.872262296
 20
5150.4063996206
 30
0.0
 11
6876.6279726594
 21
5150.4063996206
 31
0.0
  0
LINE
  5
1B9
330
1F
100
AcDbEntity
  8
0
  6
Continuous
 62
     7
100
AcDbLine
 10
6878.8261025517
 20
5150.4063996206
 30
0.0
 11
6878.5818129151
 21
5150.4063996206
 31
0.0
  0
LINE
  5
1BA
330
1F
100
AcDbEntity
  8
0
  6
Continuous
 62
     7
100
AcDbLine
 10
6880.7799428075
 20
5150.4063996206
 30
0.0
 11
6880.5356531709
 21
5150.4063996206
 31
0.0
  0
LINE
  5
1BB
330
1F
100
AcDbEntity
  8
0
  6
Continuous
 62
     7
100
AcDbLine
 10
6882.7338128655
 20
5150.4063996206
 30
0.0
 11
6882.4894934266
 21
5150.4063996206
 31
0.0
  0
LINE
  5
1BC
330
1F
100
AcDbEntity
  8
0
  6
Continuous
 62
     7
100
AcDbLine
 10
6886.4412813752
 20
5150.4063996206
 30
0.0
 11
6884.4433634847
 21
5150.4063996206
 31
0.0
  0
LINE
  5
1BD
330
1F
100
AcDbEntity
  8
0
  6
Continuous
 62
     7
100
AcDbLine
 10
6886.4412813752
 20
5130.2063855062
 30
0.0
 11
6886.7965250581
 21
5130.2063855062
 31
0.0
  0
LINE
  5
1BE
330
1F
100
AcDbEntity
  8
0
  6
Continuous
 62
     7
100
AcDbLine
 10
6886.7965250581
 20
5150.6063732038
 30
0.0
 11
6886.4412813752
 21
5150.6063732038
 31
0.0
  0
LINE
  5
1BF
330
1F
100
AcDbEntity
  8
0
  6
Continuous
 62
     7
100
AcDbLine
 10
6875.2782552808
 20
5149.7433575521
 30
0.0
 11
6874.4412868588
 21
5148.9063891302
 31
0.0
  0
LINE
  5
1C0
330
1F
100
AcDbEntity
  8
0
  6
Continuous
 62
     7
100
AcDbLine
 10
6875.2542048066
 20
5131.0934218298
 30
0.0
 11
6875.8720963567
 21
5130.475560082
 31
0.0
  0
LINE
  5
1C1
330
1F
100
AcDbEntity
  8
0
  6
Continuous
 62
     7
100
AcDbLine
 10
6874.4412868588
 20
5131.9063695799
 30
0.0
 11
6874.883732137
 21
5131.4639243017
 31
0.0
  0
LINE
  5
1C2
330
1F
100
AcDbEntity
  8
0
  6
Continuous
 62
     7
100
AcDbLine
 10
6876.5056937306
 20
5131.4639243017
 30
0.0
 11
6876.9941537946
 21
5131.4639243017
 31
0.0
  0
LINE
  5
1C3
330
1F
100
AcDbEntity
  8
0
  6
Continuous
 62
     7
100
AcDbLine
 10
6878.4595339864
 20
5131.4639243017
 30
0.0
 11
6878.9479940503
 21
5131.4639243017
 31
0.0
  0
LINE
  5
1C4
330
1F
100
AcDbEntity
  8
0
  6
Continuous
 62
     7
100
AcDbLine
 10
6880.4134040444
 20
5131.4639243017
 30
0.0
 11
6880.9018641084
 21
5131.4639243017
 31
0.0
  0
LINE
  5
1C5
330
1F
100
AcDbEntity
  8
0
  6
Continuous
 62
     7
100
AcDbLine
 10
6882.3672443002
 20
5131.4639243017
 30
0.0
 11
6882.8557043641
 21
5131.4639243017
 31
0.0
  0
LINE
  5
1C6
330
1F
100
AcDbEntity
  8
0
  6
Continuous
 62
     7
100
AcDbLine
 10
6884.3210845559
 20
5131.4639243017
 30
0.0
 11
6884.8095446198
 21
5131.4639243017
 31
0.0
  0
LINE
  5
1C7
330
1F
100
AcDbEntity
  8
0
  6
Continuous
 62
     7
100
AcDbLine
 10
6878.4595339864
 20
5131.4639243017
 30
0.0
 11
6878.9479940503
 21
5131.4639243017
 31
0.0
  0
LINE
  5
1C8
330
1F
100
AcDbEntity
  8
0
  6
Continuous
 62
     7
100
AcDbLine
 10
6880.4134040444
 20
5131.4639243017
 30
0.0
 11
6880.9018641084
 21
5131.4639243017
 31
0.0
  0
LINE
  5
1C9
330
1F
100
AcDbEntity
  8
0
  6
Continuous
 62
     7
100
AcDbLine
 10
6882.3672443002
 20
5131.4639243017
 30
0.0
 11
6882.8557043641
 21
5131.4639243017
 31
0.0
  0
LINE
  5
1CA
330
1F
100
AcDbEntity
  8
0
  6
Continuous
 62
     7
100
AcDbLine
 10
6884.3210845559
 20
5131.4639243017
 30
0.0
 11
6884.8095446198
 21
5131.4639243017
 31
0.0
  0
LINE
  5
1CB
330
1F
100
AcDbEntity
  8
0
  6
Continuous
 62
     7
100
AcDbLine
 10
6877.9710739224
 20
5149.3488344083
 30
0.0
 11
6877.4915247529
 21
5149.3488344083
 31
0.0
  0
LINE
  5
1CC
330
1F
100
AcDbEntity
  8
0
  6
Continuous
 62
     7
100
AcDbLine
 10
6879.9249439805
 20
5149.3488344083
 30
0.0
 11
6879.4453650086
 21
5149.3488344083
 31
0.0
  0
LINE
  5
1CD
330
1F
100
AcDbEntity
  8
0
  6
Continuous
 62
     7
100
AcDbLine
 10
6881.8787842362
 20
5149.3488344083
 30
0.0
 11
6881.3992052644
 21
5149.3488344083
 31
0.0
  0
LINE
  5
1CE
330
1F
100
AcDbEntity
  8
0
  6
Continuous
 62
     7
100
AcDbLine
 10
6883.832624492
 20
5149.3488344083
 30
0.0
 11
6883.3530753224
 21
5149.3488344083
 31
0.0
  0
LINE
  5
1CF
330
1F
100
AcDbEntity
  8
0
  6
Continuous
 62
     7
100
AcDbLine
 10
6876.0172336667
 20
5149.3488344083
 30
0.0
 11
6875.5376844972
 21
5149.3488344083
 31
0.0
  0
LINE
  5
1D0
330
1F
100
AcDbEntity
  8
0
  6
Continuous
 62
     7
100
AcDbLine
 10
6876.5056937306
 20
5131.4639243017
 30
0.0
 11
6876.9941537946
 21
5131.4639243017
 31
0.0
  0
LINE
  5
1D1
330
1F
100
AcDbEntity
  8
0
  6
Continuous
 62
     7
100
AcDbLine
 10
7247.7965264886
 20
5082.1145566831
 30
0.0
 11
7247.7965264886
 21
5281.6145213972
 31
0.0
  0
LINE
  5
1D2
330
1F
100
AcDbEntity
  8
0
  6
Continuous
 62
     7
100
AcDbLine
 10
6906.9859295457
 20
5282.1145447622
 30
0.0
 11
6906.9859295457
 21
5282.1207734476
 31
0.0
  0
LINE
  5
1D3
330
1F
100
AcDbEntity
  8
0
  6
Continuous
 62
     7
100
AcDbLine
 10
6906.9006054967
 20
5282.1145447622
 30
0.0
 11
6906.9006054967
 21
5282.1207734476
 31
0.0
  0
LINE
  5
1D4
330
1F
100
AcDbEntity
  8
0
  6
Continuous
 62
     7
100
AcDbLine
 10
6962.4892979234
 20
5282.1145447622
 30
0.0
 11
6962.4892979234
 21
5312.828728808
 31
0.0
  0
LINE
  5
1D5
330
1F
100
AcDbEntity
  8
0
  6
Continuous
 62
     7
100
AcDbLine
 10
6960.5630844205
 20
5313.2406863104
 30
0.0
 11
6960.8569949239
 21
5314.1500445734
 31
0.0
  0
LINE
  5
1D6
330
1F
100
AcDbEntity
  8
0
  6
Continuous
 62
     7
100
AcDbLine
 10
6948.4870045751
 20
5318.1480261217
 30
0.0
 11
6948.193123874
 21
5317.2386678587
 31
0.0
  0
LINE
  5
1D7
330
1F
100
AcDbEntity
  8
0
  6
Continuous
 62
     7
100
AcDbLine
 10
6944.1288023561
 20
5344.5919247995
 30
0.0
 11
6937.1155708402
 21
5322.8925558458
 31
0.0
  0
LINE
  5
1D8
330
1F
100
AcDbEntity
  8
0
  6
Continuous
 62
     7
100
AcDbLine
 10
6958.8827102749
 20
5345.2843817602
 30
0.0
 11
6945.0803607075
 21
5345.2843817602
 31
0.0
  0
LINE
  5
1D9
330
1F
100
AcDbEntity
  8
0
  6
Continuous
 62
     7
100
AcDbLine
 10
6955.6440024941
 20
5321.3977905641
 30
0.0
 11
6962.5123053163
 21
5342.6487239729
 31
0.0
  0
LINE
  5
1DA
330
1F
100
AcDbEntity
  8
0
  6
Continuous
 62
     7
100
AcDbLine
 10
6962.2922151653
 20
5343.2674797903
 30
0.0
 11
6959.4263344376
 21
5345.1237174402
 31
0.0
  0
LINE
  5
1DB
330
1F
100
AcDbEntity
  8
0
  6
Continuous
 62
     7
100
AcDbLine
 10
6927.8140574067
 20
5285.9814556966
 30
0.0
 11
6927.8140574067
 21
5282.1145447622
 31
0.0
  0
LINE
  5
1DC
330
1F
100
AcDbEntity
  8
0
  6
Continuous
 62
     7
100
AcDbLine
 10
6917.08641344
 20
5325.8159848581
 30
0.0
 11
6917.5978510945
 21
5323.8267692457
 31
0.0
  0
LINE
  5
1DD
330
1F
100
AcDbEntity
  8
0
  6
Continuous
 62
     7
100
AcDbLine
 10
6876.7965345948
 20
5225.4063876997
 30
0.0
 11
6876.7965345948
 21
5185.406366242
 31
0.0
  0
LINE
  5
1DE
330
1F
100
AcDbEntity
  8
0
  6
Continuous
 62
     7
100
AcDbLine
 10
6886.4412813752
 20
5140.4063495527
 30
0.0
 11
6886.4412813752
 21
5150.6063732038
 31
0.0
  0
LINE
  5
1DF
330
1F
100
AcDbEntity
  8
0
  6
Continuous
 62
     7
100
AcDbLine
 10
6886.4412813752
 20
5130.2063855062
 30
0.0
 11
6886.4412813752
 21
5140.4063495527
 31
0.0
  0
LINE
  5
1E0
330
1F
100
AcDbEntity
  8
0
  6
Continuous
 62
     7
100
AcDbLine
 10
6875.2542048066
 20
5131.0934218298
 30
0.0
 11
6874.883732137
 21
5131.4639243017
 31
0.0
  0
LINE
  5
1E1
330
1F
100
AcDbEntity
  8
0
  6
Continuous
 62
     7
100
AcDbLine
 10
6874.4412868588
 20
5131.9063695799
 30
0.0
 11
6874.4412868588
 21
5148.9063891302
 31
0.0
  0
LINE
  5
1E2
330
1F
100
AcDbEntity
  8
0
  6
Continuous
 62
     7
100
AcDbLine
 10
6887.7965121835
 20
5282.1145447622
 30
0.0
 11
7072.7965145677
 21
5282.1145447622
 31
0.0
  0
LINE
  5
1E3
330
1F
100
AcDbEntity
  8
0
  6
Continuous
 62
     7
100
AcDbLine
 10
7072.7965145677
 20
5281.6145213972
 30
0.0
 11
7072.7965145677
 21
5282.1145447622
 31
0.0
  0
LINE
  5
1E4
330
1F
100
AcDbEntity
  8
0
  6
Continuous
 62
     7
100
AcDbLine
 10
7072.7965145677
 20
5281.6145213972
 30
0.0
 11
6887.7965121835
 21
5281.6145213972
 31
0.0
  0
LINE
  5
1E5
330
1F
100
AcDbEntity
  8
0
  6
Continuous
 62
     7
100
AcDbLine
 10
6887.7965121835
 20
5281.6145213972
 30
0.0
 11
6887.7965121835
 21
5282.1145447622
 31
0.0
  0
LINE
  5
1E6
330
1F
100
AcDbEntity
  8
0
  6
Continuous
 62
     7
100
AcDbLine
 10
6886.7965250581
 20
5281.6145213972
 30
0.0
 11
6887.7965121835
 21
5281.6145213972
 31
0.0
  0
LINE
  5
1E7
330
1F
100
AcDbEntity
  8
0
  6
Continuous
 62
     7
100
AcDbLine
 10
7072.7965145677
 20
5082.1145566831
 30
0.0
 11
7072.7965145677
 21
5281.6145213972
 31
0.0
  0
LINE
  5
1E8
330
1F
100
AcDbEntity
  8
0
  6
Continuous
 62
     7
100
AcDbLine
 10
6886.7965250581
 20
5082.1145566831
 30
0.0
 11
7072.7965145677
 21
5082.1145566831
 31
0.0
  0
LINE
  5
1E9
330
1F
100
AcDbEntity
  8
0
  6
Continuous
 62
     7
100
AcDbLine
 10
6886.7965250581
 20
5082.1145566831
 30
0.0
 11
6886.7965250581
 21
5281.6145213972
 31
0.0
  0
LINE
  5
1EA
330
1F
100
AcDbEntity
  8
0
  6
Continuous
 62
     7
100
AcDbLine
 10
7072.7965145677
 20
5082.1145566831
 30
0.0
 11
7247.7965264886
 21
5082.1145566831
 31
0.0
  0
LINE
  5
1EB
330
1F
100
AcDbEntity
  8
0
  6
Continuous
 62
     7
100
AcDbLine
 10
7072.7965145677
 20
5282.1145447622
 30
0.0
 11
7247.2965031236
 21
5282.1145447622
 31
0.0
  0
LINE
  5
1EC
330
1F
100
AcDbEntity
  8
0
  6
Continuous
 62
     7
100
AcDbLine
 10
6888.7965291113
 20
5283.1145318876
 30
0.0
 11
6888.7965291113
 21
5313.0645247827
 31
0.0
  0
LINE
  5
1ED
330
1F
100
AcDbEntity
  8
0
  6
Continuous
 62
     7
100
AcDbLine
 10
6887.7965121835
 20
5283.1145318876
 30
0.0
 11
6887.7965121835
 21
5313.0645247827
 31
0.0
  0
LINE
  5
1EE
330
1F
100
AcDbEntity
  8
0
  6
Continuous
 62
     7
100
AcDbLine
 10
6887.7965121835
 20
5313.0645247827
 30
0.0
 11
6888.7965291113
 21
5313.0645247827
 31
0.0
  0
LINE
  5
1EF
330
1F
100
AcDbEntity
  8
0
  6
Continuous
 62
     7
100
AcDbLine
 10
6887.6965253919
 20
5313.0645247827
 30
0.0
 11
6886.6965084641
 21
5313.0645247827
 31
0.0
  0
LINE
  5
1F0
330
1F
100
AcDbEntity
  8
0
  6
Continuous
 62
     7
100
AcDbLine
 10
6887.6965253919
 20
5308.1145378481
 30
0.0
 11
6886.6965084641
 21
5308.1145378481
 31
0.0
  0
LINE
  5
1F1
330
1F
100
AcDbEntity
  8
0
  6
Continuous
 62
     7
100
AcDbLine
 10
6886.6965084641
 20
5313.0645247827
 30
0.0
 11
6886.6965084641
 21
5308.1145378481
 31
0.0
  0
LINE
  5
1F2
330
1F
100
AcDbEntity
  8
0
  6
Continuous
 62
     7
100
AcDbLine
 10
6887.6965253919
 20
5313.0645247827
 30
0.0
 11
6887.6965253919
 21
5308.1145378481
 31
0.0
  0
LINE
  5
1F3
330
1F
100
AcDbEntity
  8
0
  6
Continuous
 62
     7
100
AcDbLine
 10
6942.3277884095
 20
5318.3814677129
 30
0.0
 11
6947.9641228288
 21
5315.209219111
 31
0.0
  0
LINE
  5
1F4
330
1F
100
AcDbEntity
  8
0
  6
Continuous
 62
     7
100
AcDbLine
 10
6958.5534244149
 20
5312.5353547464
 30
0.0
 11
6959.5018833249
 21
5312.608251227
 31
0.0
  0
LINE
  5
1F5
330
1F
100
AcDbEntity
  8
0
  6
Continuous
 62
     7
100
AcDbLine
 10
6959.5018833249
 20
5312.608251227
 30
0.0
 11
6960.174134311
 21
5312.8230067621
 31
0.0
  0
LINE
  5
1F6
330
1F
100
AcDbEntity
  8
0
  6
Continuous
 62
     7
100
AcDbLine
 10
6960.174134311
 20
5312.8230067621
 30
0.0
 11
6960.5339079469
 21
5313.1680282484
 31
0.0
  0
LINE
  5
1F7
330
1F
100
AcDbEntity
  8
0
  6
Continuous
 62
     7
100
AcDbLine
 10
6960.5339079469
 20
5313.1680282484
 30
0.0
 11
6960.5630844205
 21
5313.2406863104
 31
0.0
  0
LINE
  5
1F8
330
1F
100
AcDbEntity
  8
0
  6
Continuous
 62
     7
100
AcDbLine
 10
6948.193123874
 20
5317.2386678587
 30
0.0
 11
6948.1663315862
 21
5317.0955273042
 31
0.0
  0
LINE
  5
1F9
330
1F
100
AcDbEntity
  8
0
  6
Continuous
 62
     7
100
AcDbLine
 10
6948.1663315862
 20
5317.0955273042
 30
0.0
 11
6948.3060448735
 21
5316.5918680559
 31
0.0
  0
LINE
  5
1FA
330
1F
100
AcDbEntity
  8
0
  6
Continuous
 62
     7
100
AcDbLine
 10
6948.3060448735
 20
5316.5918680559
 30
0.0
 11
6948.77310687
 21
5316.015312327
 31
0.0
  0
LINE
  5
1FB
330
1F
100
AcDbEntity
  8
0
  6
Continuous
 62
     7
100
AcDbLine
 10
6948.77310687
 20
5316.015312327
 30
0.0
 11
6949.5423346131
 21
5315.3969439397
 31
0.0
  0
LINE
  5
1FC
330
1F
100
AcDbEntity
  8
0
  6
Continuous
 62
     7
100
AcDbLine
 10
6949.5423346131
 20
5315.3969439397
 30
0.0
 11
6950.5722432702
 21
5314.7700818906
 31
0.0
  0
LINE
  5
1FD
330
1F
100
AcDbEntity
  8
0
  6
Continuous
 62
     7
100
AcDbLine
 10
6950.5722432702
 20
5314.7700818906
 30
0.0
 11
6951.8073409169
 21
5314.1685518156
 31
0.0
  0
LINE
  5
1FE
330
1F
100
AcDbEntity
  8
0
  6
Continuous
 62
     7
100
AcDbLine
 10
6951.8073409169
 20
5314.1685518156
 30
0.0
 11
6953.1810193627
 21
5313.6247786413
 31
0.0
  0
LINE
  5
1FF
330
1F
100
AcDbEntity
  8
0
  6
Continuous
 62
     7
100
AcDbLine
 10
6953.1810193627
 20
5313.6247786413
 30
0.0
 11
6954.6192496388
 21
5313.1680282484
 31
0.0
  0
LINE
  5
200
330
1F
100
AcDbEntity
  8
0
  6
Continuous
 62
     7
100
AcDbLine
 10
6954.6192496388
 20
5313.1680282484
 30
0.0
 11
6956.0444861024
 21
5312.8230067621
 31
0.0
  0
LINE
  5
201
330
1F
100
AcDbEntity
  8
0
  6
Continuous
 62
     7
100
AcDbLine
 10
6956.0444861024
 20
5312.8230067621
 30
0.0
 11
6957.3798685639
 21
5312.608251227
 31
0.0
  0
LINE
  5
202
330
1F
100
AcDbEntity
  8
0
  6
Continuous
 62
     7
100
AcDbLine
 10
6957.3798685639
 20
5312.608251227
 30
0.0
 11
6958.5534244149
 21
5312.5353547464
 31
0.0
  0
LINE
  5
203
330
1F
100
AcDbEntity
  8
0
  6
Continuous
 62
     7
100
AcDbLine
 10
6947.546860513
 20
5314.7438856493
 30
0.0
 11
6947.546860513
 21
5282.1145447622
 31
0.0
  0
LINE
  5
204
330
1F
100
AcDbEntity
  8
0
  6
Continuous
 62
     7
100
AcDbLine
 10
6951.0628491014
 20
5318.8348504434
 30
0.0
 11
6950.4966645806
 21
5318.8533576856
 31
0.0
  0
LINE
  5
205
330
1F
100
AcDbEntity
  8
0
  6
Continuous
 62
     7
100
AcDbLine
 10
6950.4966645806
 20
5318.8533576856
 30
0.0
 11
6949.5482056706
 21
5318.7804612051
 31
0.0
  0
LINE
  5
206
330
1F
100
AcDbEntity
  8
0
  6
Continuous
 62
     7
100
AcDbLine
 10
6949.5482056706
 20
5318.7804612051
 30
0.0
 11
6948.8759546845
 21
5318.5657056699
 31
0.0
  0
LINE
  5
207
330
1F
100
AcDbEntity
  8
0
  6
Continuous
 62
     7
100
AcDbLine
 10
6948.8759546845
 20
5318.5657056699
 30
0.0
 11
6948.5161810487
 21
5318.2206841837
 31
0.0
  0
LINE
  5
208
330
1F
100
AcDbEntity
  8
0
  6
Continuous
 62
     7
100
AcDbLine
 10
6948.5161810487
 20
5318.2206841837
 30
0.0
 11
6948.4882562726
 21
5317.7639337907
 31
0.0
  0
LINE
  5
209
330
1F
100
AcDbEntity
  8
0
  6
Continuous
 62
     7
100
AcDbLine
 10
6948.4882562726
 20
5317.7639337907
 30
0.0
 11
6948.7937300771
 21
5317.2201606165
 31
0.0
  0
LINE
  5
20A
330
1F
100
AcDbEntity
  8
0
  6
Continuous
 62
     7
100
AcDbLine
 10
6948.7937300771
 20
5317.2201606165
 30
0.0
 11
6949.4160621732
 21
5316.6186305414
 31
0.0
  0
LINE
  5
20B
330
1F
100
AcDbEntity
  8
0
  6
Continuous
 62
     7
100
AcDbLine
 10
6949.4160621732
 20
5316.6186305414
 30
0.0
 11
6950.3217547505
 21
5315.9917982946
 31
0.0
  0
LINE
  5
20C
330
1F
100
AcDbEntity
  8
0
  6
Continuous
 62
     7
100
AcDbLine
 10
6950.3217547505
 20
5315.9917982946
 30
0.0
 11
6951.4619916051
 21
5315.3734001051
 31
0.0
  0
LINE
  5
20D
330
1F
100
AcDbEntity
  8
0
  6
Continuous
 62
     7
100
AcDbLine
 10
6951.4619916051
 20
5315.3734001051
 30
0.0
 11
6952.7752607434
 21
5314.7968443762
 31
0.0
  0
LINE
  5
20E
330
1F
100
AcDbEntity
  8
0
  6
Continuous
 62
     7
100
AcDbLine
 10
6952.7752607434
 20
5314.7968443762
 30
0.0
 11
6954.1907816499
 21
5314.2931851278
 31
0.0
  0
LINE
  5
20F
330
1F
100
AcDbEntity
  8
0
  6
Continuous
 62
     7
100
AcDbLine
 10
6954.1907816499
 20
5314.2931851278
 30
0.0
 11
6955.6322603791
 21
5313.8895722757
 31
0.0
  0
LINE
  5
210
330
1F
100
AcDbEntity
  8
0
  6
Continuous
 62
     7
100
AcDbLine
 10
6955.6322603791
 20
5313.8895722757
 30
0.0
 11
6957.0219724744
 21
5313.6077913175
 31
0.0
  0
LINE
  5
211
330
1F
100
AcDbEntity
  8
0
  6
Continuous
 62
     7
100
AcDbLine
 10
6957.0219724744
 20
5313.6077913175
 30
0.0
 11
6958.2849650949
 21
5313.462981833
 31
0.0
  0
LINE
  5
212
330
1F
100
AcDbEntity
  8
0
  6
Continuous
 62
     7
100
AcDbLine
 10
6958.2849650949
 20
5313.462981833
 30
0.0
 11
6959.3531995385
 21
5313.462981833
 31
0.0
  0
LINE
  5
213
330
1F
100
AcDbEntity
  8
0
  6
Continuous
 62
     7
100
AcDbLine
 10
6959.3531995385
 20
5313.462981833
 30
0.0
 11
6960.1690679162
 21
5313.6077913175
 31
0.0
  0
LINE
  5
214
330
1F
100
AcDbEntity
  8
0
  6
Continuous
 62
     7
100
AcDbLine
 10
6960.1690679162
 20
5313.6077913175
 30
0.0
 11
6960.6886118024
 21
5313.8895722757
 31
0.0
  0
LINE
  5
215
330
1F
100
AcDbEntity
  8
0
  6
Continuous
 62
     7
100
AcDbLine
 10
6960.6886118024
 20
5313.8895722757
 30
0.0
 11
6960.8837574094
 21
5314.2931851278
 31
0.0
  0
LINE
  5
216
330
1F
100
AcDbEntity
  8
0
  6
Continuous
 62
     7
100
AcDbLine
 10
6960.8837574094
 20
5314.2931851278
 30
0.0
 11
6960.7440739243
 21
5314.7968443762
 31
0.0
  0
LINE
  5
217
330
1F
100
AcDbEntity
  8
0
  6
Continuous
 62
     7
100
AcDbLine
 10
6960.7440739243
 20
5314.7968443762
 30
0.0
 11
6960.2770119279
 21
5315.3734001051
 31
0.0
  0
LINE
  5
218
330
1F
100
AcDbEntity
  8
0
  6
Continuous
 62
     7
100
AcDbLine
 10
6960.2770119279
 20
5315.3734001051
 30
0.0
 11
6959.5077841847
 21
5315.9917982946
 31
0.0
  0
LINE
  5
219
330
1F
100
AcDbEntity
  8
0
  6
Continuous
 62
     7
100
AcDbLine
 10
6959.5077841847
 20
5315.9917982946
 30
0.0
 11
6959.1703622907
 21
5316.2144812475
 31
0.0
  0
LINE
  5
21A
330
1F
100
AcDbEntity
  8
0
  6
Continuous
 62
     7
100
AcDbLine
 10
6953.7005632489
 20
5315.045038117
 30
0.0
 11
6957.9159229367
 21
5314.2348619829
 31
0.0
  0
LINE
  5
21B
330
1F
100
AcDbEntity
  8
0
  6
Continuous
 62
     7
100
AcDbLine
 10
6957.9159229367
 20
5314.2348619829
 30
0.0
 11
6958.8873594373
 21
5315.3388592134
 31
0.0
  0
LINE
  5
21C
330
1F
100
AcDbEntity
  8
0
  6
Continuous
 62
     7
100
AcDbLine
 10
6950.4566400617
 20
5316.9592114816
 30
0.0
 11
6953.7005632489
 21
5315.045038117
 31
0.0
  0
LINE
  5
21D
330
1F
100
AcDbEntity
  8
0
  6
Continuous
 62
     7
100
AcDbLine
 10
6930.710396108
 20
5321.0276755224
 30
0.0
 11
6930.2630632489
 21
5321.0679384599
 31
0.0
  0
LINE
  5
21E
330
1F
100
AcDbEntity
  8
0
  6
Continuous
 62
     7
100
AcDbLine
 10
6931.0469537347
 20
5321.0145326982
 30
0.0
 11
6930.710396108
 21
5321.0276755224
 31
0.0
  0
LINE
  5
21F
330
1F
100
AcDbEntity
  8
0
  6
Continuous
 62
     7
100
AcDbLine
 10
6948.4390824407
 20
5342.6587971578
 30
0.0
 11
6941.532453832
 21
5321.2892803083
 31
0.0
  0
LINE
  5
220
330
1F
100
AcDbEntity
  8
0
  6
Continuous
 62
     7
100
AcDbLine
 10
6940.1822894185
 20
5321.7053207289
 30
0.0
 11
6946.9419661203
 21
5342.6201690067
 31
0.0
  0
LINE
  5
221
330
1F
100
AcDbEntity
  8
0
  6
Continuous
 62
     7
100
AcDbLine
 10
6940.7785742848
 20
5318.5572120081
 30
0.0
 11
6939.8446291059
 21
5319.1893788706
 31
0.0
  0
LINE
  5
222
330
1F
100
AcDbEntity
  8
0
  6
Continuous
 62
     7
100
AcDbLine
 10
6937.735846576
 20
5320.3336986433
 30
0.0
 11
6936.5875928967
 21
5321.0145326982
 31
0.0
  0
LINE
  5
223
330
1F
100
AcDbEntity
  8
0
  6
Continuous
 62
     7
100
AcDbLine
 10
6945.3742414086
 20
5345.1937230955
 30
0.0
 11
6948.2648574891
 21
5343.3214836263
 31
0.0
  0
LINE
  5
224
330
1F
100
AcDbEntity
  8
0
  6
Continuous
 62
     7
100
AcDbLine
 10
6946.9419661203
 20
5342.6201690067
 30
0.0
 11
6944.3725257485
 21
5344.2843648325
 31
0.0
  0
LINE
  5
225
330
1F
100
AcDbEntity
  8
0
  6
Continuous
 62
     7
100
AcDbLine
 10
6948.4390824407
 20
5342.6587971578
 30
0.0
 11
6962.2414618104
 21
5342.6587971578
 31
0.0
  0
LINE
  5
226
330
1F
100
AcDbEntity
  8
0
  6
Continuous
 62
     7
100
AcDbLine
 10
6948.2648574891
 20
5343.3214836263
 30
0.0
 11
6962.0672076313
 21
5343.3214815984
 31
0.0
  0
LINE
  5
227
330
1F
100
AcDbEntity
  8
0
  6
Continuous
 62
     7
100
AcDbLine
 10
6955.3348332017
 20
5321.2892803083
 30
0.0
 11
6962.2414618104
 21
5342.6587971578
 31
0.0
  0
LINE
  5
228
330
1F
100
AcDbEntity
  8
0
  6
Continuous
 62
     7
100
AcDbLine
 10
6941.532453832
 20
5321.2892803083
 30
0.0
 11
6955.3348332017
 21
5321.2892803083
 31
0.0
  0
LINE
  5
229
330
1F
100
AcDbEntity
  8
0
  6
Continuous
 62
     7
100
AcDbLine
 10
6938.2022827237
 20
5320.7883628736
 30
0.0
 11
6936.8812351792
 21
5321.6440173517
 31
0.0
  0
LINE
  5
22A
330
1F
100
AcDbEntity
  8
0
  6
Continuous
 62
     7
100
AcDbLine
 10
6944.3725257485
 20
5344.2843648325
 30
0.0
 11
6937.3592942327
 21
5322.5850256811
 31
0.0
  0
LINE
  5
22B
330
1F
100
AcDbEntity
  8
0
  6
Continuous
 62
     7
100
AcDbLine
 10
6940.0852232545
 20
5319.5688220392
 30
0.0
 11
6938.2022827237
 21
5320.7883628736
 31
0.0
  0
LINE
  5
22C
330
1F
100
AcDbEntity
  8
0
  6
Continuous
 62
     7
100
AcDbLine
 10
6962.0672076313
 20
5343.3214815984
 30
0.0
 11
6959.1766207783
 21
5345.1937230955
 31
0.0
  0
LINE
  5
22D
330
1F
100
AcDbEntity
  8
0
  6
Continuous
 62
     7
100
AcDbLine
 10
6945.3742414086
 20
5345.1937230955
 30
0.0
 11
6959.1766207783
 21
5345.1937230955
 31
0.0
  0
LINE
  5
22E
330
1F
100
AcDbEntity
  8
0
  6
Continuous
 62
     7
100
AcDbLine
 10
6952.3097782701
 20
5320.7912238966
 30
0.0
 11
6951.3383417695
 21
5319.687226666
 31
0.0
  0
LINE
  5
22F
330
1F
100
AcDbEntity
  8
0
  6
Continuous
 62
     7
100
AcDbLine
 10
6956.5251379579
 20
5319.9810179601
 30
0.0
 11
6952.3097782701
 21
5320.7912238966
 31
0.0
  0
LINE
  5
230
330
1F
100
AcDbEntity
  8
0
  6
Continuous
 62
     7
100
AcDbLine
 10
6959.7690611451
 20
5318.0668743978
 30
0.0
 11
6956.5251379579
 21
5319.9810179601
 31
0.0
  0
LINE
  5
231
330
1F
100
AcDbEntity
  8
0
  6
Continuous
 62
     7
100
AcDbLine
 10
6958.7976246446
 20
5316.9628771673
 30
0.0
 11
6959.7690611451
 21
5318.0668743978
 31
0.0
  0
LINE
  5
232
330
1F
100
AcDbEntity
  8
0
  6
Continuous
 62
     7
100
AcDbLine
 10
6954.5822649568
 20
5317.7730533014
 30
0.0
 11
6958.7976246446
 21
5316.9628771673
 31
0.0
  0
LINE
  5
233
330
1F
100
AcDbEntity
  8
0
  6
Continuous
 62
     7
100
AcDbLine
 10
6951.3383417695
 20
5319.687226666
 30
0.0
 11
6954.5822649568
 21
5317.7730533014
 31
0.0
  0
LINE
  5
234
330
1F
100
AcDbEntity
  8
0
  6
Continuous
 62
     7
100
AcDbLine
 10
6954.2332797616
 20
5319.7322579752
 30
0.0
 11
6953.7770062058
 21
5319.6671697031
 31
0.0
  0
LINE
  5
235
330
1F
100
AcDbEntity
  8
0
  6
Continuous
 62
     7
100
AcDbLine
 10
6953.7770062058
 20
5319.6671697031
 30
0.0
 11
6953.5912185281
 21
5319.4817694555
 31
0.0
  0
LINE
  5
236
330
1F
100
AcDbEntity
  8
0
  6
Continuous
 62
     7
100
AcDbLine
 10
6953.5912185281
 20
5319.4817694555
 30
0.0
 11
6953.7041991323
 21
5319.2043396364
 31
0.0
  0
LINE
  5
237
330
1F
100
AcDbEntity
  8
0
  6
Continuous
 62
     7
100
AcDbLine
 10
6953.7041991323
 20
5319.2043396364
 30
0.0
 11
6954.0987520783
 21
5318.8770505319
 31
0.0
  0
LINE
  5
238
330
1F
100
AcDbEntity
  8
0
  6
Continuous
 62
     7
100
AcDbLine
 10
6954.0987520783
 20
5318.8770505319
 30
0.0
 11
6954.7147958844
 21
5318.5497614275
 31
0.0
  0
LINE
  5
239
330
1F
100
AcDbEntity
  8
0
  6
Continuous
 62
     7
100
AcDbLine
 10
6954.7147958844
 20
5318.5497614275
 30
0.0
 11
6955.4585426419
 21
5318.2723316084
 31
0.0
  0
LINE
  5
23A
330
1F
100
AcDbEntity
  8
0
  6
Continuous
 62
     7
100
AcDbLine
 10
6955.4585426419
 20
5318.2723316084
 30
0.0
 11
6956.2168031304
 21
5318.0869313608
 31
0.0
  0
LINE
  5
23B
330
1F
100
AcDbEntity
  8
0
  6
Continuous
 62
     7
100
AcDbLine
 10
6956.2168031304
 20
5318.0869313608
 30
0.0
 11
6956.8740933507
 21
5318.0218430887
 31
0.0
  0
LINE
  5
23C
330
1F
100
AcDbEntity
  8
0
  6
Continuous
 62
     7
100
AcDbLine
 10
6956.8740933507
 20
5318.0218430887
 30
0.0
 11
6957.3303669065
 21
5318.0869313608
 31
0.0
  0
LINE
  5
23D
330
1F
100
AcDbEntity
  8
0
  6
Continuous
 62
     7
100
AcDbLine
 10
6957.3303669065
 20
5318.0869313608
 30
0.0
 11
6957.5161545842
 21
5318.2723316084
 31
0.0
  0
LINE
  5
23E
330
1F
100
AcDbEntity
  8
0
  6
Continuous
 62
     7
100
AcDbLine
 10
6957.5161545842
 20
5318.2723316084
 30
0.0
 11
6957.4032037824
 21
5318.5497614275
 31
0.0
  0
LINE
  5
23F
330
1F
100
AcDbEntity
  8
0
  6
Continuous
 62
     7
100
AcDbLine
 10
6957.4032037824
 20
5318.5497614275
 30
0.0
 11
6957.0086508363
 21
5318.8770505319
 31
0.0
  0
LINE
  5
240
330
1F
100
AcDbEntity
  8
0
  6
Continuous
 62
     7
100
AcDbLine
 10
6957.0086508363
 20
5318.8770505319
 30
0.0
 11
6956.3926070302
 21
5319.2043396364
 31
0.0
  0
LINE
  5
241
330
1F
100
AcDbEntity
  8
0
  6
Continuous
 62
     7
100
AcDbLine
 10
6956.3926070302
 20
5319.2043396364
 30
0.0
 11
6955.6488304704
 21
5319.4817694555
 31
0.0
  0
LINE
  5
242
330
1F
100
AcDbEntity
  8
0
  6
Continuous
 62
     7
100
AcDbLine
 10
6955.6488304704
 20
5319.4817694555
 30
0.0
 11
6954.8905997842
 21
5319.6671697031
 31
0.0
  0
LINE
  5
243
330
1F
100
AcDbEntity
  8
0
  6
Continuous
 62
     7
100
AcDbLine
 10
6954.8905997842
 20
5319.6671697031
 30
0.0
 11
6954.2332797616
 21
5319.7322579752
 31
0.0
  0
LINE
  5
244
330
1F
100
AcDbEntity
  8
0
  6
Continuous
 62
     7
100
AcDbLine
 10
6954.5822649568
 20
5317.7730533014
 30
0.0
 11
6953.7005632489
 21
5315.045038117
 31
0.0
  0
LINE
  5
245
330
1F
100
AcDbEntity
  8
0
  6
Continuous
 62
     7
100
AcDbLine
 10
6958.7976246446
 20
5316.9628771673
 30
0.0
 11
6957.9159229367
 21
5314.2348619829
 31
0.0
  0
LINE
  5
246
330
1F
100
AcDbEntity
  8
0
  6
Continuous
 62
     7
100
AcDbLine
 10
6951.3383417695
 20
5319.687226666
 30
0.0
 11
6950.4566400617
 21
5316.9592114816
 31
0.0
  0
LINE
  5
247
330
1F
100
AcDbEntity
  8
0
  6
Continuous
 62
     7
100
AcDbLine
 10
6959.7690611451
 20
5318.0668743978
 30
0.0
 11
6958.8873594373
 21
5315.3388592134
 31
0.0
  0
LINE
  5
248
330
1F
100
AcDbEntity
  8
0
  6
Continuous
 62
     7
100
AcDbLine
 10
6941.2356823056
 20
5319.0118762384
 30
0.0
 11
6942.3277884095
 21
5318.3814677129
 31
0.0
  0
LINE
  5
249
330
1F
100
AcDbEntity
  8
0
  6
Continuous
 62
     7
100
AcDbLine
 10
6937.0576053231
 20
5321.4691969286
 30
0.0
 11
6938.2022827237
 21
5320.7883628736
 31
0.0
  0
LINE
  5
24A
330
1F
100
AcDbEntity
  8
0
  6
Continuous
 62
     7
100
AcDbLine
 10
6936.590573129
 20
5322.0148178468
 30
0.0
 11
6936.3961427777
 21
5322.0148178468
 31
0.0
  0
LINE
  5
24B
330
1F
100
AcDbEntity
  8
0
  6
Continuous
 62
     7
100
AcDbLine
 10
6931.7985981076
 20
5322.1145364175
 30
0.0
 11
6936.2366407483
 21
5322.1145364175
 31
0.0
  0
LINE
  5
24C
330
1F
100
AcDbEntity
  8
0
  6
Continuous
 62
     7
100
AcDbLine
 10
6936.2366407483
 20
5322.1145364175
 30
0.0
 11
6936.2672775357
 21
5322.1145364175
 31
0.0
  0
LINE
  5
24D
330
1F
100
AcDbEntity
  8
0
  6
Continuous
 62
     7
100
AcDbLine
 10
6929.0513604253
 20
5322.2841414343
 30
0.0
 11
6931.4423411458
 21
5322.1145364175
 31
0.0
  0
LINE
  5
24E
330
1F
100
AcDbEntity
  8
0
  6
Continuous
 62
     7
100
AcDbLine
 10
6931.4423411458
 20
5322.1145364175
 30
0.0
 11
6931.7985981076
 21
5322.1145364175
 31
0.0
  0
LINE
  5
24F
330
1F
100
AcDbEntity
  8
0
  6
Continuous
 62
     7
100
AcDbLine
 10
6921.5226679414
 20
5326.4102729688
 30
0.0
 11
6923.0868726342
 21
5320.3263970743
 31
0.0
  0
LINE
  5
250
330
1F
100
AcDbEntity
  8
0
  6
Continuous
 62
     7
100
AcDbLine
 10
6921.5226679414
 20
5326.4102729688
 30
0.0
 11
6931.2473743527
 21
5329.8679086099
 31
0.0
  0
LINE
  5
251
330
1F
100
AcDbEntity
  8
0
  6
Continuous
 62
     7
100
AcDbLine
 10
6931.2473743527
 20
5329.8679086099
 30
0.0
 11
6932.9198806851
 21
5323.3628066908
 31
0.0
  0
LINE
  5
252
330
1F
100
AcDbEntity
  8
0
  6
Continuous
 62
     7
100
AcDbLine
 10
6931.2473743527
 20
5329.8679086099
 30
0.0
 11
6939.5150750249
 21
5330.3167613874
 31
0.0
  0
LINE
  5
253
330
1F
100
AcDbEntity
  8
0
  6
Continuous
 62
     7
100
AcDbLine
 10
6920.4092233747
 20
5323.4201761614
 30
0.0
 11
6921.4232771962
 21
5319.4761964212
 31
0.0
  0
LINE
  5
254
330
1F
100
AcDbEntity
  8
0
  6
Continuous
 62
     7
100
AcDbLine
 10
6920.4092233747
 20
5323.4201761614
 30
0.0
 11
6921.5226679414
 21
5326.4102729688
 31
0.0
  0
LINE
  5
255
330
1F
100
AcDbEntity
  8
0
  6
Continuous
 62
     7
100
AcDbLine
 10
6920.468231973
 20
5323.1906684766
 30
0.0
 11
6919.9969380467
 21
5323.293128861
 31
0.0
  0
LINE
  5
256
330
1F
100
AcDbEntity
  8
0
  6
Continuous
 62
     7
100
AcDbLine
 10
6919.9969380467
 20
5323.293128861
 30
0.0
 11
6919.2640691369
 21
5323.5865625272
 31
0.0
  0
LINE
  5
257
330
1F
100
AcDbEntity
  8
0
  6
Continuous
 62
     7
100
AcDbLine
 10
6919.2640691369
 20
5323.5865625272
 30
0.0
 11
6918.859919843
 21
5323.984870566
 31
0.0
  0
LINE
  5
258
330
1F
100
AcDbEntity
  8
0
  6
Continuous
 62
     7
100
AcDbLine
 10
6918.859919843
 20
5323.984870566
 30
0.0
 11
6918.7967389195
 21
5324.4758638273
 31
0.0
  0
LINE
  5
259
330
1F
100
AcDbEntity
  8
0
  6
Continuous
 62
     7
100
AcDbLine
 10
6918.7967389195
 20
5324.4758638273
 30
0.0
 11
6919.0764337152
 21
5325.0446709524
 31
0.0
  0
LINE
  5
25A
330
1F
100
AcDbEntity
  8
0
  6
Continuous
 62
     7
100
AcDbLine
 10
6919.0764337152
 20
5325.0446709524
 30
0.0
 11
6919.6905403703
 21
5325.6740065942
 31
0.0
  0
LINE
  5
25B
330
1F
100
AcDbEntity
  8
0
  6
Continuous
 62
     7
100
AcDbLine
 10
6919.6905403703
 20
5325.6740065942
 30
0.0
 11
6920.6203430264
 21
5326.3447376619
 31
0.0
  0
LINE
  5
25C
330
1F
100
AcDbEntity
  8
0
  6
Continuous
 62
     7
100
AcDbLine
 10
6920.6203430264
 20
5326.3447376619
 30
0.0
 11
6921.8376486867
 21
5327.0364793668
 31
0.0
  0
LINE
  5
25D
330
1F
100
AcDbEntity
  8
0
  6
Continuous
 62
     7
100
AcDbLine
 10
6921.8376486867
 20
5327.0364793668
 30
0.0
 11
6923.3054428666
 21
5327.7282210718
 31
0.0
  0
LINE
  5
25E
330
1F
100
AcDbEntity
  8
0
  6
Continuous
 62
     7
100
AcDbLine
 10
6923.3054428666
 20
5327.7282210718
 30
0.0
 11
6924.9791412919
 21
5328.3989521394
 31
0.0
  0
LINE
  5
25F
330
1F
100
AcDbEntity
  8
0
  6
Continuous
 62
     7
100
AcDbLine
 10
6924.9791412919
 20
5328.3989521394
 30
0.0
 11
6926.8078713983
 21
5329.0282877813
 31
0.0
  0
LINE
  5
260
330
1F
100
AcDbEntity
  8
0
  6
Continuous
 62
     7
100
AcDbLine
 10
6926.8078713983
 20
5329.0282877813
 30
0.0
 11
6928.7360816567
 21
5329.5970949064
 31
0.0
  0
LINE
  5
261
330
1F
100
AcDbEntity
  8
0
  6
Continuous
 62
     7
100
AcDbLine
 10
6928.7360816567
 20
5329.5970949064
 30
0.0
 11
6930.7051807015
 21
5330.0880881677
 31
0.0
  0
LINE
  5
262
330
1F
100
AcDbEntity
  8
0
  6
Continuous
 62
     7
100
AcDbLine
 10
6930.7051807015
 20
5330.0880881677
 30
0.0
 11
6932.6553254693
 21
5330.4863664041
 31
0.0
  0
LINE
  5
263
330
1F
100
AcDbEntity
  8
0
  6
Continuous
 62
     7
100
AcDbLine
 10
6932.6553254693
 20
5330.4863664041
 30
0.0
 11
6934.5272689431
 21
5330.7798298727
 31
0.0
  0
LINE
  5
264
330
1F
100
AcDbEntity
  8
0
  6
Continuous
 62
     7
100
AcDbLine
 10
6934.5272689431
 20
5330.7798298727
 30
0.0
 11
6936.2641482919
 21
5330.959567679
 31
0.0
  0
LINE
  5
265
330
1F
100
AcDbEntity
  8
0
  6
Continuous
 62
     7
100
AcDbLine
 10
6936.2641482919
 20
5330.959567679
 30
0.0
 11
6937.8131836026
 21
5331.0200663934
 31
0.0
  0
LINE
  5
266
330
1F
100
AcDbEntity
  8
0
  6
Continuous
 62
     7
100
AcDbLine
 10
6937.8131836026
 20
5331.0200663934
 30
0.0
 11
6939.1273170083
 21
5330.959567679
 31
0.0
  0
LINE
  5
267
330
1F
100
AcDbEntity
  8
0
  6
Continuous
 62
     7
100
AcDbLine
 10
6939.1273170083
 20
5330.959567679
 30
0.0
 11
6939.6977334588
 21
5330.8818730245
 31
0.0
  0
LINE
  5
268
330
1F
100
AcDbEntity
  8
0
  6
Continuous
 62
     7
100
AcDbLine
 10
6920.6065445512
 20
5322.6527067552
 30
0.0
 11
6920.140436229
 21
5322.6879927049
 31
0.0
  0
LINE
  5
269
330
1F
100
AcDbEntity
  8
0
  6
Continuous
 62
     7
100
AcDbLine
 10
6920.140436229
 20
5322.6879927049
 30
0.0
 11
6919.0266042321
 21
5322.8667470346
 31
0.0
  0
LINE
  5
26A
330
1F
100
AcDbEntity
  8
0
  6
Continuous
 62
     7
100
AcDbLine
 10
6919.0266042321
 20
5322.8667470346
 30
0.0
 11
6918.2143419354
 21
5323.1592270265
 31
0.0
  0
LINE
  5
26B
330
1F
100
AcDbEntity
  8
0
  6
Continuous
 62
     7
100
AcDbLine
 10
6918.2143419354
 20
5323.1592270265
 30
0.0
 11
6917.7257626622
 21
5323.5574754606
 31
0.0
  0
LINE
  5
26C
330
1F
100
AcDbEntity
  8
0
  6
Continuous
 62
     7
100
AcDbLine
 10
6917.7257626622
 20
5323.5574754606
 30
0.0
 11
6917.5742476552
 21
5324.0506144891
 31
0.0
  0
LINE
  5
26D
330
1F
100
AcDbEntity
  8
0
  6
Continuous
 62
     7
100
AcDbLine
 10
6917.5742476552
 20
5324.0506144891
 30
0.0
 11
6917.7638798326
 21
5324.6252032648
 31
0.0
  0
LINE
  5
26E
330
1F
100
AcDbEntity
  8
0
  6
Continuous
 62
     7
100
AcDbLine
 10
6917.7638798326
 20
5324.6252032648
 30
0.0
 11
6918.2895331948
 21
5325.2655657659
 31
0.0
  0
LINE
  5
26F
330
1F
100
AcDbEntity
  8
0
  6
Continuous
 62
     7
100
AcDbLine
 10
6918.2895331948
 20
5325.2655657659
 30
0.0
 11
6919.1368430226
 21
5325.9542378317
 31
0.0
  0
LINE
  5
270
330
1F
100
AcDbEntity
  8
0
  6
Continuous
 62
     7
100
AcDbLine
 10
6919.1368430226
 20
5325.9542378317
 30
0.0
 11
6920.2826827138
 21
5326.6724141966
 31
0.0
  0
LINE
  5
271
330
1F
100
AcDbEntity
  8
0
  6
Continuous
 62
     7
100
AcDbLine
 10
6920.2826827138
 20
5326.6724141966
 30
0.0
 11
6921.6958492368
 21
5327.4005445371
 31
0.0
  0
LINE
  5
272
330
1F
100
AcDbEntity
  8
0
  6
Continuous
 62
     7
100
AcDbLine
 10
6921.6958492368
 20
5327.4005445371
 30
0.0
 11
6923.3377187818
 21
5328.118720902
 31
0.0
  0
LINE
  5
273
330
1F
100
AcDbEntity
  8
0
  6
Continuous
 62
     7
100
AcDbLine
 10
6923.3377187818
 20
5328.118720902
 30
0.0
 11
6925.1635878652
 21
5328.8073929678
 31
0.0
  0
LINE
  5
274
330
1F
100
AcDbEntity
  8
0
  6
Continuous
 62
     7
100
AcDbLine
 10
6925.1635878652
 20
5328.8073929678
 30
0.0
 11
6927.1235972016
 21
5329.4477554689
 31
0.0
  0
LINE
  5
275
330
1F
100
AcDbEntity
  8
0
  6
Continuous
 62
     7
100
AcDbLine
 10
6927.1235972016
 20
5329.4477554689
 30
0.0
 11
6929.1642814248
 21
5330.0223442445
 31
0.0
  0
LINE
  5
276
330
1F
100
AcDbEntity
  8
0
  6
Continuous
 62
     7
100
AcDbLine
 10
6929.1642814248
 20
5330.0223442445
 30
0.0
 11
6931.2299995988
 21
5330.5154832731
 31
0.0
  0
LINE
  5
277
330
1F
100
AcDbEntity
  8
0
  6
Continuous
 62
     7
100
AcDbLine
 10
6931.2299995988
 20
5330.5154832731
 30
0.0
 11
6933.2644253343
 21
5330.9137317072
 31
0.0
  0
LINE
  5
278
330
1F
100
AcDbEntity
  8
0
  6
Continuous
 62
     7
100
AcDbLine
 10
6933.2644253343
 20
5330.9137317072
 30
0.0
 11
6935.2120071023
 21
5331.2062116991
 31
0.0
  0
LINE
  5
279
330
1F
100
AcDbEntity
  8
0
  6
Continuous
 62
     7
100
AcDbLine
 10
6935.2120071023
 20
5331.2062116991
 30
0.0
 11
6937.0196371644
 21
5331.3849660288
 31
0.0
  0
LINE
  5
27A
330
1F
100
AcDbEntity
  8
0
  6
Continuous
 62
     7
100
AcDbLine
 10
6937.0196371644
 20
5331.3849660288
 30
0.0
 11
6938.6380522817
 21
5331.445077313
 31
0.0
  0
LINE
  5
27B
330
1F
100
AcDbEntity
  8
0
  6
Continuous
 62
     7
100
AcDbLine
 10
6938.6380522817
 20
5331.445077313
 30
0.0
 11
6939.8648350804
 21
5331.3989731203
 31
0.0
  0
LINE
  5
27C
330
1F
100
AcDbEntity
  8
0
  6
Continuous
 62
     7
100
AcDbLine
 10
6936.9193821519
 20
5334.7429725061
 30
0.0
 11
6938.2429926961
 21
5334.6820267568
 31
0.0
  0
LINE
  5
27D
330
1F
100
AcDbEntity
  8
0
  6
Continuous
 62
     7
100
AcDbLine
 10
6938.2429926961
 20
5334.6820267568
 30
0.0
 11
6938.2635264962
 21
5334.6799107919
 31
0.0
  0
LINE
  5
27E
330
1F
100
AcDbEntity
  8
0
  6
Continuous
 62
     7
100
AcDbLine
 10
6918.523332414
 20
5329.2344304453
 30
0.0
 11
6918.6655490964
 21
5329.3582292925
 31
0.0
  0
LINE
  5
27F
330
1F
100
AcDbEntity
  8
0
  6
Continuous
 62
     7
100
AcDbLine
 10
6918.6655490964
 20
5329.3582292925
 30
0.0
 11
6919.6020870774
 21
5330.0337883363
 31
0.0
  0
LINE
  5
280
330
1F
100
AcDbEntity
  8
0
  6
Continuous
 62
     7
100
AcDbLine
 10
6919.6020870774
 20
5330.0337883363
 30
0.0
 11
6920.8282142251
 21
5330.7305368314
 31
0.0
  0
LINE
  5
281
330
1F
100
AcDbEntity
  8
0
  6
Continuous
 62
     7
100
AcDbLine
 10
6920.8282142251
 20
5330.7305368314
 30
0.0
 11
6922.3066180318
 21
5331.4273151289
 31
0.0
  0
LINE
  5
282
330
1F
100
AcDbEntity
  8
0
  6
Continuous
 62
     7
100
AcDbLine
 10
6922.3066180318
 20
5331.4273151289
 30
0.0
 11
6923.9924460023
 21
5332.1028741728
 31
0.0
  0
LINE
  5
283
330
1F
100
AcDbEntity
  8
0
  6
Continuous
 62
     7
100
AcDbLine
 10
6923.9924460023
 20
5332.1028741728
 30
0.0
 11
6925.8344083398
 21
5332.7367695699
 31
0.0
  0
LINE
  5
284
330
1F
100
AcDbEntity
  8
0
  6
Continuous
 62
     7
100
AcDbLine
 10
6925.8344083398
 20
5332.7367695699
 30
0.0
 11
6927.7765660851
 21
5333.3096894155
 31
0.0
  0
LINE
  5
285
330
1F
100
AcDbEntity
  8
0
  6
Continuous
 62
     7
100
AcDbLine
 10
6927.7765660851
 20
5333.3096894155
 30
0.0
 11
6929.75991064
 21
5333.8042589555
 31
0.0
  0
LINE
  5
286
330
1F
100
AcDbEntity
  8
0
  6
Continuous
 62
     7
100
AcDbLine
 10
6929.75991064
 20
5333.8042589555
 30
0.0
 11
6931.7241817086
 21
5334.2054280172
 31
0.0
  0
LINE
  5
287
330
1F
100
AcDbEntity
  8
0
  6
Continuous
 62
     7
100
AcDbLine
 10
6931.7241817086
 20
5334.2054280172
 30
0.0
 11
6933.6096852391
 21
5334.5010074506
 31
0.0
  0
LINE
  5
288
330
1F
100
AcDbEntity
  8
0
  6
Continuous
 62
     7
100
AcDbLine
 10
6933.6096852391
 20
5334.5010074506
 30
0.0
 11
6935.3591411679
 21
5334.6820267568
 31
0.0
  0
LINE
  5
289
330
1F
100
AcDbEntity
  8
0
  6
Continuous
 62
     7
100
AcDbLine
 10
6935.3591411679
 20
5334.6820267568
 30
0.0
 11
6936.9193821519
 21
5334.7429725061
 31
0.0
  0
LINE
  5
28A
330
1F
100
AcDbEntity
  8
0
  6
Continuous
 62
     7
100
AcDbLine
 10
6921.1205452054
 20
5325.3304454218
 30
0.0
 11
6920.4540460675
 21
5325.3776224981
 31
0.0
  0
LINE
  5
28B
330
1F
100
AcDbEntity
  8
0
  6
Continuous
 62
     7
100
AcDbLine
 10
6920.4540460675
 20
5325.3776224981
 30
0.0
 11
6919.525316295
 21
5325.5292865167
 31
0.0
  0
LINE
  5
28C
330
1F
100
AcDbEntity
  8
0
  6
Continuous
 62
     7
100
AcDbLine
 10
6939.5372479527
 20
5330.3853067289
 30
0.0
 11
6939.4370525449
 21
5330.3124996553
 31
0.0
  0
LINE
  5
28D
330
1F
100
AcDbEntity
  8
0
  6
Continuous
 62
     7
100
AcDbLine
 10
7247.7965264886
 20
5281.6145213972
 30
0.0
 11
7072.7965145677
 21
5281.6145213972
 31
0.0
  0
LINE
  5
28E
330
1F
100
AcDbEntity
  8
0
  6
Continuous
 62
     7
100
AcDbLine
 10
6949.0311949819
 20
5318.6384829412
 30
0.0
 11
6942.229381141
 21
5318.6384829412
 31
0.0
  0
LINE
  5
28F
330
1F
100
AcDbEntity
  8
0
  6
Continuous
 62
     7
100
AcDbLine
 10
6944.1288023561
 20
5344.5919247995
 30
0.0
 11
6944.1256433099
 21
5344.5785733591
 31
0.0
  0
LINE
  5
290
330
1F
100
AcDbEntity
  8
0
  6
Continuous
 62
     7
100
AcDbLine
 10
6944.1256433099
 20
5344.5785733591
 30
0.0
 11
6944.1349416345
 21
5344.5155116449
 31
0.0
  0
LINE
  5
291
330
1F
100
AcDbEntity
  8
0
  6
Continuous
 62
     7
100
AcDbLine
 10
6944.1349416345
 20
5344.5155116449
 30
0.0
 11
6944.1805987924
 21
5344.443598641
 31
0.0
  0
LINE
  5
292
330
1F
100
AcDbEntity
  8
0
  6
Continuous
 62
     7
100
AcDbLine
 10
6944.1805987924
 20
5344.443598641
 30
0.0
 11
6944.2608266442
 21
5344.3655463586
 31
0.0
  0
LINE
  5
293
330
1F
100
AcDbEntity
  8
0
  6
Continuous
 62
     7
100
AcDbLine
 10
6944.2608266442
 20
5344.3655463586
 30
0.0
 11
6944.3725257485
 21
5344.2843648325
 31
0.0
  0
LINE
  5
294
330
1F
100
AcDbEntity
  8
0
  6
Continuous
 62
     7
100
AcDbLine
 10
6927.2102623551
 20
5290.2392836939
 30
0.0
 11
6927.3059874146
 21
5289.9003716837
 31
0.0
  0
LINE
  5
295
330
1F
100
AcDbEntity
  8
0
  6
Continuous
 62
     7
100
AcDbLine
 10
6927.3059874146
 20
5289.9003716837
 30
0.0
 11
6927.8235047429
 21
5288.7043448816
 31
0.0
  0
LINE
  5
296
330
1F
100
AcDbEntity
  8
0
  6
Continuous
 62
     7
100
AcDbLine
 10
6927.8235047429
 20
5288.7043448816
 30
0.0
 11
6929.0310948461
 21
5286.0729488264
 31
0.0
  0
LINE
  5
297
330
1F
100
AcDbEntity
  8
0
  6
Continuous
 62
     7
100
AcDbLine
 10
6929.0310948461
 20
5286.0729488264
 30
0.0
 11
6930.6290953725
 21
5282.1145745645
 31
0.0
  0
LINE
  5
298
330
1F
100
AcDbEntity
  8
0
  6
Continuous
 62
     7
100
AcDbLine
 10
6937.1155708402
 20
5322.8925558458
 30
0.0
 11
6937.1123819917
 21
5322.8792044054
 31
0.0
  0
LINE
  5
299
330
1F
100
AcDbEntity
  8
0
  6
Continuous
 62
     7
100
AcDbLine
 10
6937.1123819917
 20
5322.8792044054
 30
0.0
 11
6937.1217101186
 21
5322.8161724935
 31
0.0
  0
LINE
  5
29A
330
1F
100
AcDbEntity
  8
0
  6
Continuous
 62
     7
100
AcDbLine
 10
6937.1217101186
 20
5322.8161724935
 30
0.0
 11
6937.1673672765
 21
5322.7442296873
 31
0.0
  0
LINE
  5
29B
330
1F
100
AcDbEntity
  8
0
  6
Continuous
 62
     7
100
AcDbLine
 10
6937.1673672765
 20
5322.7442296873
 30
0.0
 11
6937.2475951283
 21
5322.6661774049
 31
0.0
  0
LINE
  5
29C
330
1F
100
AcDbEntity
  8
0
  6
Continuous
 62
     7
100
AcDbLine
 10
6937.2475951283
 20
5322.6661774049
 30
0.0
 11
6937.3592942327
 21
5322.5850256811
 31
0.0
  0
LINE
  5
29D
330
1F
100
AcDbEntity
  8
0
  6
Continuous
 62
     7
100
AcDbLine
 10
6955.6440024941
 20
5321.3977905641
 30
0.0
 11
6955.6198030084
 21
5321.3594051729
 31
0.0
  0
LINE
  5
29E
330
1F
100
AcDbEntity
  8
0
  6
Continuous
 62
     7
100
AcDbLine
 10
6955.6198030084
 20
5321.3594051729
 30
0.0
 11
6955.5568008988
 21
5321.320960177
 31
0.0
  0
LINE
  5
29F
330
1F
100
AcDbEntity
  8
0
  6
Continuous
 62
     7
100
AcDbLine
 10
6955.5568008988
 20
5321.320960177
 30
0.0
 11
6955.4605691998
 21
5321.2972673307
 31
0.0
  0
LINE
  5
2A0
330
1F
100
AcDbEntity
  8
0
  6
Continuous
 62
     7
100
AcDbLine
 10
6955.4605691998
 20
5321.2972673307
 30
0.0
 11
6955.3348332017
 21
5321.2892803083
 31
0.0
  0
LINE
  5
2A1
330
1F
100
AcDbEntity
  8
0
  6
Continuous
 62
     7
100
AcDbLine
 10
6938.1266146272
 20
5333.4342929254
 30
0.0
 11
6936.5081995099
 21
5333.3741816412
 31
0.0
  0
LINE
  5
2A2
330
1F
100
AcDbEntity
  8
0
  6
Continuous
 62
     7
100
AcDbLine
 10
6936.5081995099
 20
5333.3741816412
 30
0.0
 11
6934.7005694478
 21
5333.1954273115
 31
0.0
  0
LINE
  5
2A3
330
1F
100
AcDbEntity
  8
0
  6
Continuous
 62
     7
100
AcDbLine
 10
6934.7005694478
 20
5333.1954273115
 30
0.0
 11
6932.7529578774
 21
5332.9029473196
 31
0.0
  0
LINE
  5
2A4
330
1F
100
AcDbEntity
  8
0
  6
Continuous
 62
     7
100
AcDbLine
 10
6932.7529578774
 20
5332.9029473196
 30
0.0
 11
6930.7185619443
 21
5332.5046988855
 31
0.0
  0
LINE
  5
2A5
330
1F
100
AcDbEntity
  8
0
  6
Continuous
 62
     7
100
AcDbLine
 10
6930.7185619443
 20
5332.5046988855
 30
0.0
 11
6928.6528437703
 21
5332.011559857
 31
0.0
  0
LINE
  5
2A6
330
1F
100
AcDbEntity
  8
0
  6
Continuous
 62
     7
100
AcDbLine
 10
6928.6528437703
 20
5332.011559857
 30
0.0
 11
6926.6121595471
 21
5331.4369710813
 31
0.0
  0
LINE
  5
2A7
330
1F
100
AcDbEntity
  8
0
  6
Continuous
 62
     7
100
AcDbLine
 10
6926.6121595471
 20
5331.4369710813
 30
0.0
 11
6924.6521502107
 21
5330.7966085802
 31
0.0
  0
LINE
  5
2A8
330
1F
100
AcDbEntity
  8
0
  6
Continuous
 62
     7
100
AcDbLine
 10
6924.6521502107
 20
5330.7966085802
 30
0.0
 11
6922.8262811273
 21
5330.1079365144
 31
0.0
  0
LINE
  5
2A9
330
1F
100
AcDbEntity
  8
0
  6
Continuous
 62
     7
100
AcDbLine
 10
6922.8262811273
 20
5330.1079365144
 30
0.0
 11
6921.18438178
 21
5329.3897601495
 31
0.0
  0
LINE
  5
2AA
330
1F
100
AcDbEntity
  8
0
  6
Continuous
 62
     7
100
AcDbLine
 10
6921.18438178
 20
5329.3897601495
 30
0.0
 11
6919.7712450593
 21
5328.661629809
 31
0.0
  0
LINE
  5
2AB
330
1F
100
AcDbEntity
  8
0
  6
Continuous
 62
     7
100
AcDbLine
 10
6919.7712450593
 20
5328.661629809
 30
0.0
 11
6918.6253755658
 21
5327.9434236417
 31
0.0
  0
LINE
  5
2AC
330
1F
100
AcDbEntity
  8
0
  6
Continuous
 62
     7
100
AcDbLine
 10
6918.6253755658
 20
5327.9434236417
 30
0.0
 11
6917.7780955403
 21
5327.2547813783
 31
0.0
  0
LINE
  5
2AD
330
1F
100
AcDbEntity
  8
0
  6
Continuous
 62
     7
100
AcDbLine
 10
6917.7780955403
 20
5327.2547813783
 30
0.0
 11
6917.2524421781
 21
5326.6144188772
 31
0.0
  0
LINE
  5
2AE
330
1F
100
AcDbEntity
  8
0
  6
Continuous
 62
     7
100
AcDbLine
 10
6917.2524421781
 20
5326.6144188772
 30
0.0
 11
6917.0628100007
 21
5326.0398301016
 31
0.0
  0
LINE
  5
2AF
330
1F
100
AcDbEntity
  8
0
  6
Continuous
 62
     7
100
AcDbLine
 10
6917.0628100007
 20
5326.0398301016
 30
0.0
 11
6917.08641344
 21
5325.8159848581
 31
0.0
  0
LINE
  5
2B0
330
1F
100
AcDbEntity
  8
0
  6
Continuous
 62
     7
100
AcDbLine
 10
6940.4578416913
 20
5333.2337530981
 30
0.0
 11
6939.5116179555
 21
5333.3741816412
 31
0.0
  0
LINE
  5
2B1
330
1F
100
AcDbEntity
  8
0
  6
Continuous
 62
     7
100
AcDbLine
 10
6939.5116179555
 20
5333.3741816412
 30
0.0
 11
6938.1266146272
 21
5333.4342929254
 31
0.0
  0
LINE
  5
2B2
330
1F
100
AcDbEntity
  8
0
  6
Continuous
 62
     7
100
AcDbLine
 10
6294.0187548779
 20
4649.7972943847
 30
0.0
 11
6294.0187548779
 21
4659.697268254
 31
0.0
  0
LINE
  5
2B3
330
1F
100
AcDbEntity
  8
0
  6
Continuous
 62
     7
100
AcDbLine
 10
6254.018755772
 20
4659.697268254
 30
0.0
 11
6254.018755772
 21
4649.7972943847
 31
0.0
  0
LINE
  5
2B4
330
1F
100
AcDbEntity
  8
0
  6
Continuous
 62
     7
100
AcDbLine
 10
6343.8187541
 20
4650.0525214736
 30
0.0
 11
6343.8187541
 21
4649.7972943847
 31
0.0
  0
LINE
  5
2B5
330
1F
100
AcDbEntity
  8
0
  6
Continuous
 62
     7
100
AcDbLine
 10
6364.2187566988
 20
4649.7972943847
 30
0.0
 11
6364.2187566988
 21
4650.0525214736
 31
0.0
  0
LINE
  5
2B6
330
1F
100
AcDbEntity
  8
0
  6
Continuous
 62
     7
100
AcDbLine
 10
6344.0187537603
 20
4651.5623071258
 30
0.0
 11
6344.0187537603
 21
4650.0525214736
 31
0.0
  0
LINE
  5
2B7
330
1F
100
AcDbEntity
  8
0
  6
Continuous
 62
     7
100
AcDbLine
 10
6344.0187537603
 20
4653.5161473815
 30
0.0
 11
6344.0187537603
 21
4653.2714703147
 31
0.0
  0
LINE
  5
2B8
330
1F
100
AcDbEntity
  8
0
  6
Continuous
 62
     7
100
AcDbLine
 10
6344.0187537603
 20
4655.4699876372
 30
0.0
 11
6344.0187537603
 21
4655.2253105704
 31
0.0
  0
LINE
  5
2B9
330
1F
100
AcDbEntity
  8
0
  6
Continuous
 62
     7
100
AcDbLine
 10
6344.0187537603
 20
4657.423827893
 30
0.0
 11
6344.0187537603
 21
4657.1791806285
 31
0.0
  0
LINE
  5
2BA
330
1F
100
AcDbEntity
  8
0
  6
Continuous
 62
     7
100
AcDbLine
 10
6344.0187537603
 20
4659.377697951
 30
0.0
 11
6344.0187537603
 21
4659.1330208842
 31
0.0
  0
LINE
  5
2BB
330
1F
100
AcDbEntity
  8
0
  6
Continuous
 62
     7
100
AcDbLine
 10
6364.0187533133
 20
4660.11029864
 30
0.0
 11
6364.0187533133
 21
4660.3542008464
 31
0.0
  0
LINE
  5
2BC
330
1F
100
AcDbEntity
  8
0
  6
Continuous
 62
     7
100
AcDbLine
 10
6364.0187533133
 20
4658.1564583842
 30
0.0
 11
6364.0187533133
 21
4658.4003605906
 31
0.0
  0
LINE
  5
2BD
330
1F
100
AcDbEntity
  8
0
  6
Continuous
 62
     7
100
AcDbLine
 10
6364.0187533133
 20
4656.2026181285
 30
0.0
 11
6364.0187533133
 21
4656.4465203349
 31
0.0
  0
LINE
  5
2BE
330
1F
100
AcDbEntity
  8
0
  6
Continuous
 62
     7
100
AcDbLine
 10
6364.0187533133
 20
4654.2487480704
 30
0.0
 11
6364.0187533133
 21
4654.4926800792
 31
0.0
  0
LINE
  5
2BF
330
1F
100
AcDbEntity
  8
0
  6
Continuous
 62
     7
100
AcDbLine
 10
6364.0187533133
 20
4650.0525214736
 30
0.0
 11
6364.0187533133
 21
4652.5388100211
 31
0.0
  0
LINE
  5
2C0
330
1F
100
AcDbEntity
  8
0
  6
Continuous
 62
     7
100
AcDbLine
 10
6362.996131324
 20
4661.57514239
 30
0.0
 11
6362.518757724
 21
4662.05251599
 31
0.0
  0
LINE
  5
2C1
330
1F
100
AcDbEntity
  8
0
  6
Continuous
 62
     7
100
AcDbLine
 10
6345.5187568001
 20
4662.05251599
 30
0.0
 11
6344.417985671
 21
4660.9517672126
 31
0.0
  0
LINE
  5
2C2
330
1F
100
AcDbEntity
  8
0
  6
Continuous
 62
     7
100
AcDbLine
 10
6345.0763040714
 20
4658.5227289264
 30
0.0
 11
6345.0763040714
 21
4658.0438950126
 31
0.0
  0
LINE
  5
2C3
330
1F
100
AcDbEntity
  8
0
  6
Continuous
 62
     7
100
AcDbLine
 10
6345.0763040714
 20
4656.5688588683
 30
0.0
 11
6345.0763040714
 21
4656.0900547568
 31
0.0
  0
LINE
  5
2C4
330
1F
100
AcDbEntity
  8
0
  6
Continuous
 62
     7
100
AcDbLine
 10
6345.0763040714
 20
4654.6150186126
 30
0.0
 11
6345.0763040714
 21
4654.1362145011
 31
0.0
  0
LINE
  5
2C5
330
1F
100
AcDbEntity
  8
0
  6
Continuous
 62
     7
100
AcDbLine
 10
6345.0763040714
 20
4652.6611783568
 30
0.0
 11
6345.0763040714
 21
4652.1823742453
 31
0.0
  0
LINE
  5
2C6
330
1F
100
AcDbEntity
  8
0
  6
Continuous
 62
     7
100
AcDbLine
 10
6362.9612030022
 20
4659.0111889903
 30
0.0
 11
6362.9612030022
 21
4659.4899931018
 31
0.0
  0
LINE
  5
2C7
330
1F
100
AcDbEntity
  8
0
  6
Continuous
 62
     7
100
AcDbLine
 10
6362.9612030022
 20
4657.0573487346
 30
0.0
 11
6362.9612030022
 21
4657.536152846
 31
0.0
  0
LINE
  5
2C8
330
1F
100
AcDbEntity
  8
0
  6
Continuous
 62
     7
100
AcDbLine
 10
6362.9612030022
 20
4655.1034786765
 30
0.0
 11
6362.9612030022
 21
4655.5823125903
 31
0.0
  0
LINE
  5
2C9
330
1F
100
AcDbEntity
  8
0
  6
Continuous
 62
     7
100
AcDbLine
 10
6362.9612030022
 20
4653.1496384208
 30
0.0
 11
6362.9612030022
 21
4653.6284425322
 31
0.0
  0
LINE
  5
2CA
330
1F
100
AcDbEntity
  8
0
  6
Continuous
 62
     7
100
AcDbLine
 10
6362.9612030022
 20
4660.965029246
 30
0.0
 11
6362.9612030022
 21
4661.45348931
 31
0.0
  0
LINE
  5
2CB
330
1F
100
AcDbEntity
  8
0
  6
Continuous
 62
     7
100
AcDbLine
 10
6345.0763040714
 20
4660.4765691821
 30
0.0
 11
6345.0763040714
 21
4659.9977352683
 31
0.0
  0
LINE
  5
2CC
330
1F
100
AcDbEntity
  8
0
  6
Continuous
 62
     7
100
AcDbLine
 10
6378.621824228
 20
4588.0226829116
 30
0.0
 11
6392.3966066472
 21
4574.2203333442
 31
0.0
  0
LINE
  5
2CD
330
1F
100
AcDbEntity
  8
0
  6
Continuous
 62
     7
100
AcDbLine
 10
6402.2574277155
 20
4616.0471477572
 30
0.0
 11
6401.7449618809
 21
4615.5357101027
 31
0.0
  0
LINE
  5
2CE
330
1F
100
AcDbEntity
  8
0
  6
Continuous
 62
     7
100
AcDbLine
 10
6419.9558125369
 20
4597.2884037558
 30
0.0
 11
6420.4682783715
 21
4597.7998414103
 31
0.0
  0
LINE
  5
2CF
330
1F
100
AcDbEntity
  8
0
  6
Continuous
 62
     7
100
AcDbLine
 10
6274.7687553361
 20
4458.5011291948
 30
0.0
 11
6274.7687553361
 21
4468.8934340402
 31
0.0
  0
LINE
  5
2D0
330
1F
100
AcDbEntity
  8
0
  6
Continuous
 62
     7
100
AcDbLine
 10
6273.2687553361
 20
4468.8934340402
 30
0.0
 11
6273.2687553361
 21
4458.5011291948
 31
0.0
  0
LINE
  5
2D1
330
1F
100
AcDbEntity
  8
0
  6
Continuous
 62
     7
100
AcDbLine
 10
6294.0187548779
 20
4659.697268254
 30
0.0
 11
6254.018755772
 21
4659.697268254
 31
0.0
  0
LINE
  5
2D2
330
1F
100
AcDbEntity
  8
0
  6
Continuous
 62
     7
100
AcDbLine
 10
6343.8187541
 20
4650.0525214736
 30
0.0
 11
6364.2187566988
 21
4650.0525214736
 31
0.0
  0
LINE
  5
2D3
330
1F
100
AcDbEntity
  8
0
  6
Continuous
 62
     7
100
AcDbLine
 10
6345.5187568001
 20
4662.05251599
 30
0.0
 11
6362.518757724
 21
4662.05251599
 31
0.0
  0
LINE
  5
2D4
330
1F
100
AcDbEntity
  8
0
  6
Continuous
 62
     7
100
AcDbLine
 10
6273.2687556676
 20
4443.3731772963
 30
0.0
 11
6270.8613305844
 21
4443.6059334342
 31
0.0
  0
LINE
  5
2D5
330
1F
100
AcDbEntity
  8
0
  6
Continuous
 62
     7
100
AcDbLine
 10
6277.0403061554
 20
4443.5850718085
 30
0.0
 11
6274.7687549822
 21
4443.3731772963
 31
0.0
  0
LINE
  5
2D6
330
1F
100
AcDbEntity
  8
0
  6
Continuous
 62
     7
100
AcDbLine
 10
6273.2687556676
 20
4450.0944950644
 30
0.0
 11
6273.2687556676
 21
4442.3227050368
 31
0.0
  0
LINE
  5
2D7
330
1F
100
AcDbEntity
  8
0
  6
Continuous
 62
     7
100
AcDbLine
 10
6274.7687549822
 20
4442.325029618
 30
0.0
 11
6274.7687549822
 21
4450.0767924849
 31
0.0
  0
LINE
  5
2D8
330
1F
100
AcDbEntity
  8
0
  6
Continuous
 62
     7
100
AcDbLine
 10
6101.0187493198
 20
4647.6972737376
 30
0.0
 11
6101.0187493198
 21
4649.7972943847
 31
0.0
  0
LINE
  5
2D9
330
1F
100
AcDbEntity
  8
0
  6
Continuous
 62
     7
100
AcDbLine
 10
6449.0187505044
 20
4649.7972943847
 30
0.0
 11
6101.0187493198
 21
4649.7972943847
 31
0.0
  0
LINE
  5
2DA
330
1F
100
AcDbEntity
  8
0
  6
Continuous
 62
     7
100
AcDbLine
 10
6449.0187505044
 20
4649.7972943847
 30
0.0
 11
6449.0187505044
 21
4647.6972737376
 31
0.0
  0
LINE
  5
2DB
330
1F
100
AcDbEntity
  8
0
  6
Continuous
 62
     7
100
AcDbLine
 10
6449.0187505044
 20
4647.6972737376
 30
0.0
 11
6101.0187493198
 21
4647.6972737376
 31
0.0
  0
LINE
  5
2DC
330
1F
100
AcDbEntity
  8
0
  6
Continuous
 62
     7
100
AcDbLine
 10
6101.0187493198
 20
4646.6972866122
 30
0.0
 11
6447.0187501542
 21
4646.6972866122
 31
0.0
  0
LINE
  5
2DD
330
1F
100
AcDbEntity
  8
0
  6
Continuous
 62
     7
100
AcDbLine
 10
6447.0187501542
 20
4646.6972866122
 30
0.0
 11
6447.0187501542
 21
4647.6972737376
 31
0.0
  0
LINE
  5
2DE
330
1F
100
AcDbEntity
  8
0
  6
Continuous
 62
     7
100
AcDbLine
 10
6101.0187493198
 20
4647.6972737376
 30
0.0
 11
6101.0187493198
 21
4646.6972866122
 31
0.0
  0
LINE
  5
2DF
330
1F
100
AcDbEntity
  8
0
  6
Continuous
 62
     7
100
AcDbLine
 10
6449.0187505044
 20
4647.6972737376
 30
0.0
 11
6449.0187505044
 21
4463.6972882811
 31
0.0
  0
LINE
  5
2E0
330
1F
100
AcDbEntity
  8
0
  6
Continuous
 62
     7
100
AcDbLine
 10
6449.0187505044
 20
4463.6972882811
 30
0.0
 11
6448.5187569417
 21
4463.6972882811
 31
0.0
  0
LINE
  5
2E1
330
1F
100
AcDbEntity
  8
0
  6
Continuous
 62
     7
100
AcDbLine
 10
6099.5187537305
 20
4648.6972906653
 30
0.0
 11
6099.5187537305
 21
4463.6972882811
 31
0.0
  0
LINE
  5
2E2
330
1F
100
AcDbEntity
  8
0
  6
Continuous
 62
     7
100
AcDbLine
 10
6099.0187601678
 20
4463.6972882811
 30
0.0
 11
6099.5187537305
 21
4463.6972882811
 31
0.0
  0
LINE
  5
2E3
330
1F
100
AcDbEntity
  8
0
  6
Continuous
 62
     7
100
AcDbLine
 10
6099.0187601678
 20
4463.6972882811
 30
0.0
 11
6099.0187601678
 21
4648.6972906653
 31
0.0
  0
LINE
  5
2E4
330
1F
100
AcDbEntity
  8
0
  6
Continuous
 62
     7
100
AcDbLine
 10
6099.0187601678
 20
4648.6972906653
 30
0.0
 11
6099.5187537305
 21
4648.6972906653
 31
0.0
  0
LINE
  5
2E5
330
1F
100
AcDbEntity
  8
0
  6
Continuous
 62
     7
100
AcDbLine
 10
6265.7840923898
 20
4636.4881136481
 30
0.0
 11
6265.7099870525
 21
4636.4818253581
 31
0.0
  0
LINE
  5
2E6
330
1F
100
AcDbEntity
  8
0
  6
Continuous
 62
     7
100
AcDbLine
 10
6265.7099870525
 20
4636.4818253581
 30
0.0
 11
6265.6623946063
 21
4636.4818253581
 31
0.0
  0
LINE
  5
2E7
330
1F
100
AcDbEntity
  8
0
  6
Continuous
 62
     7
100
AcDbLine
 10
6264.2505412482
 20
4634.9270680015
 30
0.0
 11
6264.2357630215
 21
4633.8528730933
 31
0.0
  0
LINE
  5
2E8
330
1F
100
AcDbEntity
  8
0
  6
Continuous
 62
     7
100
AcDbLine
 10
6264.2357630215
 20
4633.8528730933
 30
0.0
 11
6263.5393702917
 21
4633.851830012
 31
0.0
  0
LINE
  5
2E9
330
1F
100
AcDbEntity
  8
0
  6
Continuous
 62
     7
100
AcDbLine
 10
6263.5393702917
 20
4633.851830012
 30
0.0
 11
6263.8229710542
 21
4632.9967119758
 31
0.0
  0
LINE
  5
2EA
330
1F
100
AcDbEntity
  8
0
  6
Continuous
 62
     7
100
AcDbLine
 10
6263.8229710542
 20
4632.9967119758
 30
0.0
 11
6264.1944737665
 21
4632.9914369647
 31
0.0
  0
LINE
  5
2EB
330
1F
100
AcDbEntity
  8
0
  6
Continuous
 62
     7
100
AcDbLine
 10
6264.1944737665
 20
4632.9914369647
 30
0.0
 11
6264.1987112842
 21
4630.2154102389
 31
0.0
  0
LINE
  5
2EC
330
1F
100
AcDbEntity
  8
0
  6
Continuous
 62
     7
100
AcDbLine
 10
6264.1987112842
 20
4630.2154102389
 30
0.0
 11
6265.017833703
 21
4630.227062947
 31
0.0
  0
LINE
  5
2ED
330
1F
100
AcDbEntity
  8
0
  6
Continuous
 62
     7
100
AcDbLine
 10
6265.017833703
 20
4630.227062947
 30
0.0
 11
6265.0135961853
 21
4632.9818704192
 31
0.0
  0
LINE
  5
2EE
330
1F
100
AcDbEntity
  8
0
  6
Continuous
 62
     7
100
AcDbLine
 10
6265.0135961853
 20
4632.9818704192
 30
0.0
 11
6265.7163442604
 21
4632.9882183139
 31
0.0
  0
LINE
  5
2EF
330
1F
100
AcDbEntity
  8
0
  6
Continuous
 62
     7
100
AcDbLine
 10
6265.7163442604
 20
4632.9882183139
 30
0.0
 11
6266.3640567593
 21
4632.9945960109
 31
0.0
  0
LINE
  5
2F0
330
1F
100
AcDbEntity
  8
0
  6
Continuous
 62
     7
100
AcDbLine
 10
6266.3640567593
 20
4632.9945960109
 30
0.0
 11
6266.3576995514
 21
4630.2185692851
 31
0.0
  0
LINE
  5
2F1
330
1F
100
AcDbEntity
  8
0
  6
Continuous
 62
     7
100
AcDbLine
 10
6266.3576995514
 20
4630.2185692851
 30
0.0
 11
6267.1980114214
 21
4630.2301921908
 31
0.0
  0
LINE
  5
2F2
330
1F
100
AcDbEntity
  8
0
  6
Continuous
 62
     7
100
AcDbLine
 10
6267.1980114214
 20
4630.2301921908
 30
0.0
 11
6267.2012151711
 21
4635.0223758284
 31
0.0
  0
LINE
  5
2F3
330
1F
100
AcDbEntity
  8
0
  6
Continuous
 62
     7
100
AcDbLine
 10
6279.9730968222
 20
4636.4934482638
 30
0.0
 11
6279.8556877792
 21
4636.4934482638
 31
0.0
  0
LINE
  5
2F4
330
1F
100
AcDbEntity
  8
0
  6
Continuous
 62
     7
100
AcDbLine
 10
6278.4374800071
 20
4634.9334755008
 30
0.0
 11
6278.4237341516
 21
4633.858207709
 31
0.0
  0
LINE
  5
2F5
330
1F
100
AcDbEntity
  8
0
  6
Continuous
 62
     7
100
AcDbLine
 10
6278.4237341516
 20
4633.858207709
 30
0.0
 11
6277.8925003044
 21
4633.858207709
 31
0.0
  0
LINE
  5
2F6
330
1F
100
AcDbEntity
  8
0
  6
Continuous
 62
     7
100
AcDbLine
 10
6277.8925003044
 20
4633.858207709
 30
0.0
 11
6277.7432586558
 21
4633.8571050231
 31
0.0
  0
LINE
  5
2F7
330
1F
100
AcDbEntity
  8
0
  6
Continuous
 62
     7
100
AcDbLine
 10
6277.7432586558
 20
4633.8571050231
 30
0.0
 11
6277.8935336068
 21
4633.3957054679
 31
0.0
  0
LINE
  5
2F8
330
1F
100
AcDbEntity
  8
0
  6
Continuous
 62
     7
100
AcDbLine
 10
6277.8935336068
 20
4633.3957054679
 30
0.0
 11
6278.0205543645
 21
4633.0020167891
 31
0.0
  0
LINE
  5
2F9
330
1F
100
AcDbEntity
  8
0
  6
Continuous
 62
     7
100
AcDbLine
 10
6278.0205543645
 20
4633.0020167891
 30
0.0
 11
6278.3877669394
 21
4633.017901427
 31
0.0
  0
LINE
  5
2FA
330
1F
100
AcDbEntity
  8
0
  6
Continuous
 62
     7
100
AcDbLine
 10
6278.3877669394
 20
4633.017901427
 30
0.0
 11
6278.386733637
 21
4630.2323081557
 31
0.0
  0
LINE
  5
2FB
330
1F
100
AcDbEntity
  8
0
  6
Continuous
 62
     7
100
AcDbLine
 10
6278.386733637
 20
4630.2323081557
 30
0.0
 11
6279.2217216015
 21
4630.2334108416
 31
0.0
  0
LINE
  5
2FC
330
1F
100
AcDbEntity
  8
0
  6
Continuous
 62
     7
100
AcDbLine
 10
6279.2217216015
 20
4630.2334108416
 30
0.0
 11
6279.228025724
 21
4632.9977848594
 31
0.0
  0
LINE
  5
2FD
330
1F
100
AcDbEntity
  8
0
  6
Continuous
 62
     7
100
AcDbLine
 10
6279.228025724
 20
4632.9977848594
 30
0.0
 11
6279.9033337764
 21
4632.9988279406
 31
0.0
  0
LINE
  5
2FE
330
1F
100
AcDbEntity
  8
0
  6
Continuous
 62
     7
100
AcDbLine
 10
6279.9033337764
 20
4632.9988279406
 30
0.0
 11
6280.5520795777
 21
4632.9999008243
 31
0.0
  0
LINE
  5
2FF
330
1F
100
AcDbEntity
  8
0
  6
Continuous
 62
     7
100
AcDbLine
 10
6280.5520795777
 20
4632.9999008243
 30
0.0
 11
6280.5563168626
 21
4630.2355268065
 31
0.0
  0
LINE
  5
300
330
1F
100
AcDbEntity
  8
0
  6
Continuous
 62
     7
100
AcDbLine
 10
6280.5563168626
 20
4630.2355268065
 30
0.0
 11
6281.4018467002
 21
4630.2365698878
 31
0.0
  0
LINE
  5
301
330
1F
100
AcDbEntity
  8
0
  6
Continuous
 62
     7
100
AcDbLine
 10
6281.4018467002
 20
4630.2365698878
 30
0.0
 11
6281.4103217356
 21
4635.0276508395
 31
0.0
  0
LINE
  5
302
330
1F
100
AcDbEntity
  8
0
  6
Continuous
 62
     7
100
AcDbLine
 10
6389.2522232167
 20
4573.8570430343
 30
0.0
 11
6391.2163452737
 21
4574.0338006083
 31
0.0
  0
LINE
  5
303
330
1F
100
AcDbEntity
  8
0
  6
Continuous
 62
     7
100
AcDbLine
 10
6391.2163452737
 20
4574.0338006083
 30
0.0
 11
6392.3227937452
 21
4574.2943027083
 31
0.0
  0
LINE
  5
304
330
1F
100
AcDbEntity
  8
0
  6
Continuous
 62
     7
100
AcDbLine
 10
6395.1251806252
 20
4575.5560436313
 30
0.0
 11
6396.4895458452
 21
4576.573256499
 31
0.0
  0
LINE
  5
305
330
1F
100
AcDbEntity
  8
0
  6
Continuous
 62
     7
100
AcDbLine
 10
6396.4895458452
 20
4576.573256499
 30
0.0
 11
6397.8523687951
 21
4577.9986419742
 31
0.0
  0
LINE
  5
306
330
1F
100
AcDbEntity
  8
0
  6
Continuous
 62
     7
100
AcDbLine
 10
6397.8523687951
 20
4577.9986419742
 30
0.0
 11
6398.0600537293
 21
4578.2628991668
 31
0.0
  0
LINE
  5
307
330
1F
100
AcDbEntity
  8
0
  6
Continuous
 62
     7
100
AcDbLine
 10
6382.6734648578
 20
4593.6732330386
 30
0.0
 11
6381.3014776938
 21
4592.4587287967
 31
0.0
  0
LINE
  5
308
330
1F
100
AcDbEntity
  8
0
  6
Continuous
 62
     7
100
AcDbLine
 10
6381.3014776938
 20
4592.4587287967
 30
0.0
 11
6380.0719158284
 21
4590.9169056479
 31
0.0
  0
LINE
  5
309
330
1F
100
AcDbEntity
  8
0
  6
Continuous
 62
     7
100
AcDbLine
 10
6380.0719158284
 20
4590.9169056479
 30
0.0
 11
6379.9659760229
 21
4590.7532610957
 31
0.0
  0
LINE
  5
30A
330
1F
100
AcDbEntity
  8
0
  6
Continuous
 62
     7
100
AcDbLine
 10
6386.9024367563
 20
4574.110958821
 30
0.0
 11
6387.2880937092
 21
4574.0338006083
 31
0.0
  0
LINE
  5
30B
330
1F
100
AcDbEntity
  8
0
  6
Continuous
 62
     7
100
AcDbLine
 10
6387.2880937092
 20
4574.0338006083
 30
0.0
 11
6389.2522232167
 21
4573.8570430343
 31
0.0
  0
LINE
  5
30C
330
1F
100
AcDbEntity
  8
0
  6
Continuous
 62
     7
100
AcDbLine
 10
6447.0187501542
 20
4646.6972866122
 30
0.0
 11
6447.0187501542
 21
4645.6972696845
 31
0.0
  0
LINE
  5
30D
330
1F
100
AcDbEntity
  8
0
  6
Continuous
 62
     7
100
AcDbLine
 10
6274.9312335186
 20
4633.0136396949
 30
0.0
 11
6273.0538287692
 21
4633.0210306708
 31
0.0
  0
LINE
  5
30E
330
1F
100
AcDbEntity
  8
0
  6
Continuous
 62
     7
100
AcDbLine
 10
6274.6370920472
 20
4633.9005270068
 30
0.0
 11
6274.9312335186
 21
4633.0136396949
 31
0.0
  0
LINE
  5
30F
330
1F
100
AcDbEntity
  8
0
  6
Continuous
 62
     7
100
AcDbLine
 10
6273.1108797274
 20
4633.8984110419
 30
0.0
 11
6274.6370920472
 21
4633.9005270068
 31
0.0
  0
LINE
  5
310
330
1F
100
AcDbEntity
  8
0
  6
Continuous
 62
     7
100
AcDbLine
 10
6273.1088131226
 20
4635.4785003726
 30
0.0
 11
6273.1108797274
 21
4633.8984110419
 31
0.0
  0
LINE
  5
311
330
1F
100
AcDbEntity
  8
0
  6
Continuous
 62
     7
100
AcDbLine
 10
6274.6772963114
 20
4635.4806461398
 30
0.0
 11
6273.1088131226
 21
4635.4785003726
 31
0.0
  0
LINE
  5
312
330
1F
100
AcDbEntity
  8
0
  6
Continuous
 62
     7
100
AcDbLine
 10
6274.6761591665
 20
4636.3738515441
 30
0.0
 11
6274.6772963114
 21
4635.4806461398
 31
0.0
  0
LINE
  5
313
330
1F
100
AcDbEntity
  8
0
  6
Continuous
 62
     7
100
AcDbLine
 10
6272.2621459074
 20
4636.3696196143
 30
0.0
 11
6274.6761591665
 21
4636.3738515441
 31
0.0
  0
LINE
  5
314
330
1F
100
AcDbEntity
  8
0
  6
Continuous
 62
     7
100
AcDbLine
 10
6272.2663834251
 20
4633.8815131251
 30
0.0
 11
6272.2621459074
 21
4636.3696196143
 31
0.0
  0
LINE
  5
315
330
1F
100
AcDbEntity
  8
0
  6
Continuous
 62
     7
100
AcDbLine
 10
6271.5954167329
 20
4633.8804104392
 30
0.0
 11
6272.2663834251
 21
4633.8815131251
 31
0.0
  0
LINE
  5
316
330
1F
100
AcDbEntity
  8
0
  6
Continuous
 62
     7
100
AcDbLine
 10
6271.5869416974
 20
4636.368576533
 30
0.0
 11
6271.5954167329
 21
4633.8804104392
 31
0.0
  0
LINE
  5
317
330
1F
100
AcDbEntity
  8
0
  6
Continuous
 62
     7
100
AcDbLine
 10
6271.4006483115
 20
4636.368576533
 30
0.0
 11
6271.5869416974
 21
4636.368576533
 31
0.0
  0
LINE
  5
318
330
1F
100
AcDbEntity
  8
0
  6
Continuous
 62
     7
100
AcDbLine
 10
6270.6079838358
 20
4636.3675036494
 30
0.0
 11
6271.4006483115
 21
4636.368576533
 31
0.0
  0
LINE
  5
319
330
1F
100
AcDbEntity
  8
0
  6
Continuous
 62
     7
100
AcDbLine
 10
6270.6111354314
 20
4634.266708142
 30
0.0
 11
6270.6079838358
 21
4636.3675036494
 31
0.0
  0
LINE
  5
31A
330
1F
100
AcDbEntity
  8
0
  6
Continuous
 62
     7
100
AcDbLine
 10
6267.879571908
 20
4636.4426353042
 30
0.0
 11
6270.6111354314
 21
4634.266708142
 31
0.0
  0
LINE
  5
31B
330
1F
100
AcDbEntity
  8
0
  6
Continuous
 62
     7
100
AcDbLine
 10
6267.8954882108
 20
4630.2154102389
 30
0.0
 11
6267.879571908
 21
4636.4426353042
 31
0.0
  0
LINE
  5
31C
330
1F
100
AcDbEntity
  8
0
  6
Continuous
 62
     7
100
AcDbLine
 10
6268.7717649646
 20
4630.2175560061
 30
0.0
 11
6267.8954882108
 21
4630.2154102389
 31
0.0
  0
LINE
  5
31D
330
1F
100
AcDbEntity
  8
0
  6
Continuous
 62
     7
100
AcDbLine
 10
6268.7770362504
 20
4634.3916096751
 30
0.0
 11
6268.7717649646
 21
4630.2175560061
 31
0.0
  0
LINE
  5
31E
330
1F
100
AcDbEntity
  8
0
  6
Continuous
 62
     7
100
AcDbLine
 10
6270.6291192703
 20
4632.98508907
 30
0.0
 11
6268.7770362504
 21
4634.3916096751
 31
0.0
  0
LINE
  5
31F
330
1F
100
AcDbEntity
  8
0
  6
Continuous
 62
     7
100
AcDbLine
 10
6270.633356788
 20
4630.2048304145
 30
0.0
 11
6270.6291192703
 21
4632.98508907
 31
0.0
  0
LINE
  5
320
330
1F
100
AcDbEntity
  8
0
  6
Continuous
 62
     7
100
AcDbLine
 10
6271.4091233469
 20
4630.2154102389
 30
0.0
 11
6270.633356788
 21
4630.2048304145
 31
0.0
  0
LINE
  5
321
330
1F
100
AcDbEntity
  8
0
  6
Continuous
 62
     7
100
AcDbLine
 10
6271.5805854209
 20
4630.2217879359
 30
0.0
 11
6271.4091233469
 21
4630.2154102389
 31
0.0
  0
LINE
  5
322
330
1F
100
AcDbEntity
  8
0
  6
Continuous
 62
     7
100
AcDbLine
 10
6271.5604837544
 20
4633.0030598704
 30
0.0
 11
6271.5805854209
 21
4630.2217879359
 31
0.0
  0
LINE
  5
323
330
1F
100
AcDbEntity
  8
0
  6
Continuous
 62
     7
100
AcDbLine
 10
6272.2886047818
 20
4633.004132754
 30
0.0
 11
6271.5604837544
 21
4633.0030598704
 31
0.0
  0
LINE
  5
324
330
1F
100
AcDbEntity
  8
0
  6
Continuous
 62
     7
100
AcDbLine
 10
6272.2928422995
 20
4630.238715655
 30
0.0
 11
6272.2886047818
 21
4633.004132754
 31
0.0
  0
LINE
  5
325
330
1F
100
AcDbEntity
  8
0
  6
Continuous
 62
     7
100
AcDbLine
 10
6274.6433961697
 20
4630.2418747012
 30
0.0
 11
6272.2928422995
 21
4630.238715655
 31
0.0
  0
LINE
  5
326
330
1F
100
AcDbEntity
  8
0
  6
Continuous
 62
     7
100
AcDbLine
 10
6274.6413295649
 20
4631.1414578025
 30
0.0
 11
6274.6433961697
 21
4630.2418747012
 31
0.0
  0
LINE
  5
327
330
1F
100
AcDbEntity
  8
0
  6
Continuous
 62
     7
100
AcDbLine
 10
6273.0569300733
 20
4631.1382987563
 30
0.0
 11
6274.6413295649
 21
4631.1414578025
 31
0.0
  0
LINE
  5
328
330
1F
100
AcDbEntity
  8
0
  6
Continuous
 62
     7
100
AcDbLine
 10
6273.0538287692
 20
4633.0210306708
 30
0.0
 11
6273.0569300733
 21
4631.1382987563
 31
0.0
  0
LINE
  5
329
330
1F
100
AcDbEntity
  8
0
  6
Continuous
 62
     7
100
AcDbLine
 10
6276.1547250233
 20
4636.375967509
 30
0.0
 11
6276.1579292387
 21
4631.0102083747
 31
0.0
  0
LINE
  5
32A
330
1F
100
AcDbEntity
  8
0
  6
Continuous
 62
     7
100
AcDbLine
 10
6275.2456331186
 20
4636.3696196143
 30
0.0
 11
6276.1547250233
 21
4636.375967509
 31
0.0
  0
LINE
  5
32B
330
1F
100
AcDbEntity
  8
0
  6
Continuous
 62
     7
100
AcDbLine
 10
6275.2655801855
 20
4630.2323081557
 30
0.0
 11
6275.2456331186
 21
4636.3696196143
 31
0.0
  0
LINE
  5
32C
330
1F
100
AcDbEntity
  8
0
  6
Continuous
 62
     7
100
AcDbLine
 10
6277.8976677477
 20
4630.2312948768
 30
0.0
 11
6275.2655801855
 21
4630.2323081557
 31
0.0
  0
LINE
  5
32D
330
1F
100
AcDbEntity
  8
0
  6
Continuous
 62
     7
100
AcDbLine
 10
6278.0406048082
 20
4630.2312948768
 30
0.0
 11
6277.8976677477
 21
4630.2312948768
 31
0.0
  0
LINE
  5
32E
330
1F
100
AcDbEntity
  8
0
  6
Continuous
 62
     7
100
AcDbLine
 10
6278.0448423259
 20
4631.0186722342
 30
0.0
 11
6278.0406048082
 21
4630.2312948768
 31
0.0
  0
LINE
  5
32F
330
1F
100
AcDbEntity
  8
0
  6
Continuous
 62
     7
100
AcDbLine
 10
6277.8967373565
 20
4631.0176589553
 30
0.0
 11
6278.0448423259
 21
4631.0186722342
 31
0.0
  0
LINE
  5
330
330
1F
100
AcDbEntity
  8
0
  6
Continuous
 62
     7
100
AcDbLine
 10
6276.1579292387
 20
4631.0102083747
 30
0.0
 11
6277.8967373565
 21
4631.0176589553
 31
0.0
  0
LINE
  5
331
330
1F
100
AcDbEntity
  8
0
  6
Continuous
 62
     7
100
AcDbLine
 10
6259.9219699882
 20
4631.1340668265
 30
0.0
 11
6261.7190165006
 21
4631.1372258727
 31
0.0
  0
LINE
  5
332
330
1F
100
AcDbEntity
  8
0
  6
Continuous
 62
     7
100
AcDbLine
 10
6259.9230540477
 20
4630.2037873332
 30
0.0
 11
6259.9219699882
 21
4631.1340668265
 31
0.0
  0
LINE
  5
333
330
1F
100
AcDbEntity
  8
0
  6
Continuous
 62
     7
100
AcDbLine
 10
6261.8005109511
 20
4630.2069463794
 30
0.0
 11
6259.9230540477
 21
4630.2037873332
 31
0.0
  0
LINE
  5
334
330
1F
100
AcDbEntity
  8
0
  6
Continuous
 62
     7
100
AcDbLine
 10
6265.7099870525
 20
4636.9771399562
 30
0.0
 11
6262.2894739292
 21
4636.9771399562
 31
0.0
  0
LINE
  5
335
330
1F
100
AcDbEntity
  8
0
  6
Continuous
 62
     7
100
AcDbLine
 10
6271.3996145435
 20
4636.9802692
 30
0.0
 11
6265.7099870525
 21
4636.9771399562
 31
0.0
  0
LINE
  5
336
330
1F
100
AcDbEntity
  8
0
  6
Continuous
 62
     7
100
AcDbLine
 10
6277.8872290186
 20
4636.9898059432
 30
0.0
 11
6271.3996145435
 21
4636.9802692
 31
0.0
  0
LINE
  5
337
330
1F
100
AcDbEntity
  8
0
  6
Continuous
 62
     7
100
AcDbLine
 10
6279.8980624907
 20
4636.9877197806
 30
0.0
 11
6277.8872290186
 21
4636.9898059432
 31
0.0
  0
LINE
  5
338
330
1F
100
AcDbEntity
  8
0
  6
Continuous
 62
     7
100
AcDbLine
 10
6281.7057041943
 20
4636.9908788268
 30
0.0
 11
6279.8980624907
 21
4636.9877197806
 31
0.0
  0
LINE
  5
339
330
1F
100
AcDbEntity
  8
0
  6
Continuous
 62
     7
100
AcDbLine
 10
6281.7045672823
 20
4637.9053034846
 30
0.0
 11
6281.7057041943
 21
4636.9908788268
 31
0.0
  0
LINE
  5
33A
330
1F
100
AcDbEntity
  8
0
  6
Continuous
 62
     7
100
AcDbLine
 10
6279.8957886666
 20
4637.9020848338
 30
0.0
 11
6281.7045672823
 21
4637.9053034846
 31
0.0
  0
LINE
  5
33B
330
1F
100
AcDbEntity
  8
0
  6
Continuous
 62
     7
100
AcDbLine
 10
6277.8860923394
 20
4637.8999688689
 30
0.0
 11
6279.8957886666
 21
4637.9020848338
 31
0.0
  0
LINE
  5
33C
330
1F
100
AcDbEntity
  8
0
  6
Continuous
 62
     7
100
AcDbLine
 10
6271.3985295527
 20
4637.8893890445
 30
0.0
 11
6277.8860923394
 21
4637.8999688689
 31
0.0
  0
LINE
  5
33D
330
1F
100
AcDbEntity
  8
0
  6
Continuous
 62
     7
100
AcDbLine
 10
6265.707869225
 20
4637.8756203715
 30
0.0
 11
6271.3985295527
 21
4637.8893890445
 31
0.0
  0
LINE
  5
33E
330
1F
100
AcDbEntity
  8
0
  6
Continuous
 62
     7
100
AcDbLine
 10
6262.2249295495
 20
4637.8703453605
 30
0.0
 11
6265.707869225
 21
4637.8756203715
 31
0.0
  0
LINE
  5
33F
330
1F
100
AcDbEntity
  8
0
  6
Continuous
 62
     7
100
AcDbLine
 10
6288.9187002115
 20
4638.8204433982
 30
0.0
 11
6288.9137395218
 21
4638.8204433982
 31
0.0
  0
LINE
  5
340
330
1F
100
AcDbEntity
  8
0
  6
Continuous
 62
     7
100
AcDbLine
 10
6288.9158065922
 20
4637.4375262324
 30
0.0
 11
6288.9209740356
 21
4637.4375262324
 31
0.0
  0
LINE
  5
341
330
1F
100
AcDbEntity
  8
0
  6
Continuous
 62
     7
100
AcDbLine
 10
6286.2335931536
 20
4635.2692284648
 30
0.0
 11
6286.2282189567
 21
4635.2638640468
 31
0.0
  0
LINE
  5
342
330
1F
100
AcDbEntity
  8
0
  6
Continuous
 62
     7
100
AcDbLine
 10
6286.1119468257
 20
4635.1137795512
 30
0.0
 11
6285.9571242265
 21
4635.2459230487
 31
0.0
  0
LINE
  5
343
330
1F
100
AcDbEntity
  8
0
  6
Continuous
 62
     7
100
AcDbLine
 10
6287.3051556785
 20
4635.7810237471
 30
0.0
 11
6287.3195217948
 21
4635.7754507129
 31
0.0
  0
LINE
  5
344
330
1F
100
AcDbEntity
  8
0
  6
Continuous
 62
     7
100
AcDbLine
 10
6287.3195217948
 20
4635.7754507129
 30
0.0
 11
6287.3257230062
 21
4635.772232062
 31
0.0
  0
LINE
  5
345
330
1F
100
AcDbEntity
  8
0
  6
Continuous
 62
     7
100
AcDbLine
 10
6287.3257230062
 20
4635.772232062
 30
0.0
 11
6287.3314073335
 21
4635.7841231887
 31
0.0
  0
LINE
  5
346
330
1F
100
AcDbEntity
  8
0
  6
Continuous
 62
     7
100
AcDbLine
 10
6284.9371348534
 20
4637.9423477713
 30
0.0
 11
6284.9050954942
 21
4637.9367747371
 31
0.0
  0
LINE
  5
347
330
1F
100
AcDbEntity
  8
0
  6
Continuous
 62
     7
100
AcDbLine
 10
6284.47494088
 20
4637.904141194
 30
0.0
 11
6284.4319460823
 21
4637.936029679
 31
0.0
  0
LINE
  5
348
330
1F
100
AcDbEntity
  8
0
  6
Continuous
 62
     7
100
AcDbLine
 10
6282.3570339501
 20
4638.789270169
 30
0.0
 11
6282.3570339501
 21
4638.7732365195
 31
0.0
  0
LINE
  5
349
330
1F
100
AcDbEntity
  8
0
  6
Continuous
 62
     7
100
AcDbLine
 10
6282.3570339501
 20
4638.7732365195
 30
0.0
 11
6282.3574473409
 21
4638.4967305724
 31
0.0
  0
LINE
  5
34A
330
1F
100
AcDbEntity
  8
0
  6
Continuous
 62
     7
100
AcDbLine
 10
6282.5940221341
 20
4636.0167303149
 30
0.0
 11
6282.565496655
 21
4635.9649040763
 31
0.0
  0
LINE
  5
34B
330
1F
100
AcDbEntity
  8
0
  6
Continuous
 62
     7
100
AcDbLine
 10
6282.6327794723
 20
4635.8851530616
 30
0.0
 11
6282.6556203913
 21
4635.8822026317
 31
0.0
  0
LINE
  5
34C
330
1F
100
AcDbEntity
  8
0
  6
Continuous
 62
     7
100
AcDbLine
 10
6284.9498472901
 20
4629.5078733031
 30
0.0
 11
6285.008655072
 21
4629.5079627101
 31
0.0
  0
LINE
  5
34D
330
1F
100
AcDbEntity
  8
0
  6
Continuous
 62
     7
100
AcDbLine
 10
6287.6153177608
 20
4632.3624291484
 30
0.0
 11
6287.6151110072
 21
4632.5274148051
 31
0.0
  0
LINE
  5
34E
330
1F
100
AcDbEntity
  8
0
  6
Continuous
 62
     7
100
AcDbLine
 10
6100.0187621944
 20
4648.6972906653
 30
0.0
 11
6099.5187537305
 21
4648.6972906653
 31
0.0
  0
LINE
  5
34F
330
1F
100
AcDbEntity
  8
0
  6
Continuous
 62
     7
100
AcDbLine
 10
6100.0187621944
 20
4645.6972696845
 30
0.0
 11
6101.0187493198
 21
4645.6972696845
 31
0.0
  0
LINE
  5
350
330
1F
100
AcDbEntity
  8
0
  6
Continuous
 62
     7
100
AcDbLine
 10
6448.0187521808
 20
4645.6972696845
 30
0.0
 11
6448.0187521808
 21
4647.6972737376
 31
0.0
  0
LINE
  5
351
330
1F
100
AcDbEntity
  8
0
  6
Continuous
 62
     7
100
AcDbLine
 10
6101.0187493198
 20
4645.6972696845
 30
0.0
 11
6101.0187493198
 21
4646.6972866122
 31
0.0
  0
LINE
  5
352
330
1F
100
AcDbEntity
  8
0
  6
Continuous
 62
     7
100
AcDbLine
 10
6447.0187501542
 20
4645.6972696845
 30
0.0
 11
6448.0187521808
 21
4645.6972696845
 31
0.0
  0
LINE
  5
353
330
1F
100
AcDbEntity
  8
0
  6
Continuous
 62
     7
100
AcDbLine
 10
6100.0187621944
 20
4648.6972906653
 30
0.0
 11
6100.0187621944
 21
4645.6972696845
 31
0.0
  0
LINE
  5
354
330
1F
100
AcDbEntity
  8
0
  6
Continuous
 62
     7
100
AcDbLine
 10
6288.9413346097
 20
4638.1715872352
 30
0.0
 11
6288.9306895926
 21
4638.1715872352
 31
0.0
  0
LINE
  5
355
330
1F
100
AcDbEntity
  8
0
  6
Continuous
 62
     7
100
AcDbLine
 10
6289.0952272832
 20
4638.2784881656
 30
0.0
 11
6289.079517734
 21
4638.2196285788
 31
0.0
  0
LINE
  5
356
330
1F
100
AcDbEntity
  8
0
  6
Continuous
 62
     7
100
AcDbLine
 10
6289.079517734
 20
4638.2196285788
 30
0.0
 11
6289.03176836
 21
4638.1821670596
 31
0.0
  0
LINE
  5
357
330
1F
100
AcDbEntity
  8
0
  6
Continuous
 62
     7
100
AcDbLine
 10
6288.9303794622
 20
4638.3791008059
 30
0.0
 11
6288.9622120678
 21
4638.3792200152
 31
0.0
  0
LINE
  5
358
330
1F
100
AcDbEntity
  8
0
  6
Continuous
 62
     7
100
AcDbLine
 10
6288.9306895926
 20
4638.1715872352
 30
0.0
 11
6288.765635018
 21
4638.1713786189
 31
0.0
  0
LINE
  5
359
330
1F
100
AcDbEntity
  8
0
  6
Continuous
 62
     7
100
AcDbLine
 10
6288.765635018
 20
4638.1713786189
 30
0.0
 11
6288.7653248876
 21
4638.3788921897
 31
0.0
  0
LINE
  5
35A
330
1F
100
AcDbEntity
  8
0
  6
Continuous
 62
     7
100
AcDbLine
 10
6288.7653248876
 20
4638.3788921897
 30
0.0
 11
6288.9303794622
 21
4638.3791008059
 31
0.0
  0
LINE
  5
35B
330
1F
100
AcDbEntity
  8
0
  6
Continuous
 62
     7
100
AcDbLine
 10
6288.9568378709
 20
4638.4535172049
 30
0.0
 11
6288.9303794622
 21
4638.4535172049
 31
0.0
  0
LINE
  5
35C
330
1F
100
AcDbEntity
  8
0
  6
Continuous
 62
     7
100
AcDbLine
 10
6288.9303794622
 20
4638.4535172049
 30
0.0
 11
6288.680368711
 21
4638.4530999724
 31
0.0
  0
LINE
  5
35D
330
1F
100
AcDbEntity
  8
0
  6
Continuous
 62
     7
100
AcDbLine
 10
6288.680368711
 20
4638.4530999724
 30
0.0
 11
6288.6814024791
 21
4637.8203370635
 31
0.0
  0
LINE
  5
35E
330
1F
100
AcDbEntity
  8
0
  6
Continuous
 62
     7
100
AcDbLine
 10
6288.6814024791
 20
4637.8203370635
 30
0.0
 11
6288.7661519021
 21
4637.8204264705
 31
0.0
  0
LINE
  5
35F
330
1F
100
AcDbEntity
  8
0
  6
Continuous
 62
     7
100
AcDbLine
 10
6288.7661519021
 20
4637.8204264705
 30
0.0
 11
6288.7657383948
 21
4638.0969622199
 31
0.0
  0
LINE
  5
360
330
1F
100
AcDbEntity
  8
0
  6
Continuous
 62
     7
100
AcDbLine
 10
6288.9307929695
 20
4638.0864718024
 30
0.0
 11
6288.9414379865
 21
4638.0809881751
 31
0.0
  0
LINE
  5
361
330
1F
100
AcDbEntity
  8
0
  6
Continuous
 62
     7
100
AcDbLine
 10
6288.9414379865
 20
4638.0809881751
 30
0.0
 11
6288.9839160748
 21
4638.0386688773
 31
0.0
  0
LINE
  5
362
330
1F
100
AcDbEntity
  8
0
  6
Continuous
 62
     7
100
AcDbLine
 10
6289.0478914164
 20
4637.9535534446
 30
0.0
 11
6289.1332611002
 21
4637.8209629123
 31
0.0
  0
LINE
  5
363
330
1F
100
AcDbEntity
  8
0
  6
Continuous
 62
     7
100
AcDbLine
 10
6289.1332611002
 20
4637.8209629123
 30
0.0
 11
6289.2342369564
 21
4637.8210523192
 31
0.0
  0
LINE
  5
364
330
1F
100
AcDbEntity
  8
0
  6
Continuous
 62
     7
100
AcDbLine
 10
6289.2342369564
 20
4637.8210523192
 30
0.0
 11
6289.1275767729
 21
4637.9964389865
 31
0.0
  0
LINE
  5
365
330
1F
100
AcDbEntity
  8
0
  6
Continuous
 62
     7
100
AcDbLine
 10
6288.7657383948
 20
4638.0969622199
 30
0.0
 11
6288.8615463421
 21
4638.0970516269
 31
0.0
  0
LINE
  5
366
330
1F
100
AcDbEntity
  8
0
  6
Continuous
 62
     7
100
AcDbLine
 10
6288.9040244304
 20
4638.0971708362
 30
0.0
 11
6288.9307929695
 21
4638.0864718024
 31
0.0
  0
LINE
  5
367
330
1F
100
AcDbEntity
  8
0
  6
Continuous
 62
     7
100
AcDbLine
 10
6289.0583301455
 20
4638.0760409896
 30
0.0
 11
6289.0052070402
 21
4638.1028034751
 31
0.0
  0
LINE
  5
368
330
1F
100
AcDbEntity
  8
0
  6
Continuous
 62
     7
100
AcDbLine
 10
6288.8615463421
 20
4638.0970516269
 30
0.0
 11
6288.9040244304
 21
4638.0971708362
 31
0.0
  0
LINE
  5
369
330
1F
100
AcDbEntity
  8
0
  6
Continuous
 62
     7
100
AcDbLine
 10
6283.0034027833
 20
4636.9713285033
 30
0.0
 11
6282.9391173113
 21
4636.8808486525
 31
0.0
  0
LINE
  5
36A
330
1F
100
AcDbEntity
  8
0
  6
Continuous
 62
     7
100
AcDbLine
 10
6284.9267996175
 20
4637.857172734
 30
0.0
 11
6284.937341607
 21
4637.857172734
 31
0.0
  0
LINE
  5
36B
330
1F
100
AcDbEntity
  8
0
  6
Continuous
 62
     7
100
AcDbLine
 10
6285.8427126452
 20
4637.145642287
 30
0.0
 11
6285.8267963424
 21
4637.1298768584
 31
0.0
  0
LINE
  5
36C
330
1F
100
AcDbEntity
  8
0
  6
Continuous
 62
     7
100
AcDbLine
 10
6285.0028673679
 20
4636.7990412776
 30
0.0
 11
6284.9388919098
 21
4636.8042268817
 31
0.0
  0
LINE
  5
36D
330
1F
100
AcDbEntity
  8
0
  6
Continuous
 62
     7
100
AcDbLine
 10
6282.6550002469
 20
4636.055473334
 30
0.0
 11
6282.6517963808
 21
4636.0535659854
 31
0.0
  0
LINE
  5
36E
330
1F
100
AcDbEntity
  8
0
  6
Continuous
 62
     7
100
AcDbLine
 10
6284.9389952866
 20
4636.7244460647
 30
0.0
 11
6285.0029706282
 21
4636.7191710536
 31
0.0
  0
LINE
  5
36F
330
1F
100
AcDbEntity
  8
0
  6
Continuous
 62
     7
100
AcDbLine
 10
6285.827003096
 20
4637.0288171832
 30
0.0
 11
6285.8532547511
 21
4637.0500960414
 31
0.0
  0
LINE
  5
370
330
1F
100
AcDbEntity
  8
0
  6
Continuous
 62
     7
100
AcDbLine
 10
6284.9978030685
 20
4636.5703382556
 30
0.0
 11
6284.9392019238
 21
4636.5702190463
 31
0.0
  0
LINE
  5
371
330
1F
100
AcDbEntity
  8
0
  6
Continuous
 62
     7
100
AcDbLine
 10
6285.6424148453
 20
4636.0714473788
 30
0.0
 11
6285.6367304016
 21
4636.0713579719
 31
0.0
  0
LINE
  5
372
330
1F
100
AcDbEntity
  8
0
  6
Continuous
 62
     7
100
AcDbLine
 10
6285.6361103736
 20
4636.4328601424
 30
0.0
 11
6285.6417947009
 21
4636.4329793517
 31
0.0
  0
LINE
  5
373
330
1F
100
AcDbEntity
  8
0
  6
Continuous
 62
     7
100
AcDbLine
 10
6285.1219298577
 20
4635.3257634704
 30
0.0
 11
6285.2444029672
 21
4635.3259720866
 31
0.0
  0
LINE
  5
374
330
1F
100
AcDbEntity
  8
0
  6
Continuous
 62
     7
100
AcDbLine
 10
6285.2441962136
 20
4635.4539134566
 30
0.0
 11
6284.9408556035
 21
4635.4534068171
 31
0.0
  0
LINE
  5
375
330
1F
100
AcDbEntity
  8
0
  6
Continuous
 62
     7
100
AcDbLine
 10
6284.9408556035
 20
4635.4534068171
 30
0.0
 11
6284.7550271221
 21
4635.4530491893
 31
0.0
  0
LINE
  5
376
330
1F
100
AcDbEntity
  8
0
  6
Continuous
 62
     7
100
AcDbLine
 10
6284.7552338757
 20
4635.3250780169
 30
0.0
 11
6284.8723326137
 21
4635.3252866332
 31
0.0
  0
LINE
  5
377
330
1F
100
AcDbEntity
  8
0
  6
Continuous
 62
     7
100
AcDbLine
 10
6284.449826137
 20
4629.6506562297
 30
0.0
 11
6284.4445551422
 21
4629.656139857
 31
0.0
  0
LINE
  5
378
330
1F
100
AcDbEntity
  8
0
  6
Continuous
 62
     7
100
AcDbLine
 10
6285.9201239448
 20
4635.1943948333
 30
0.0
 11
6285.9240513321
 21
4635.1999380652
 31
0.0
  0
LINE
  5
379
330
1F
100
AcDbEntity
  8
0
  6
Continuous
 62
     7
100
AcDbLine
 10
6285.6167833347
 20
4631.8752803866
 30
0.0
 11
6285.6489260707
 21
4631.8704226081
 31
0.0
  0
LINE
  5
37A
330
1F
100
AcDbEntity
  8
0
  6
Continuous
 62
     7
100
AcDbLine
 10
6266.4158885859
 20
4634.1862418715
 30
0.0
 11
6266.4106173001
 21
4633.8719465796
 31
0.0
  0
LINE
  5
37B
330
1F
100
AcDbEntity
  8
0
  6
Continuous
 62
     7
100
AcDbLine
 10
6266.4106173001
 20
4633.8719465796
 30
0.0
 11
6265.7142245702
 21
4633.870873696
 31
0.0
  0
LINE
  5
37C
330
1F
100
AcDbEntity
  8
0
  6
Continuous
 62
     7
100
AcDbLine
 10
6265.7142245702
 20
4633.870873696
 30
0.0
 11
6265.0072911315
 21
4633.8698306147
 31
0.0
  0
LINE
  5
37D
330
1F
100
AcDbEntity
  8
0
  6
Continuous
 62
     7
100
AcDbLine
 10
6265.0072911315
 20
4633.8698306147
 30
0.0
 11
6265.006207072
 21
4634.1735758845
 31
0.0
  0
LINE
  5
37E
330
1F
100
AcDbEntity
  8
0
  6
Continuous
 62
     7
100
AcDbLine
 10
6265.6634265117
 20
4635.642532355
 30
0.0
 11
6265.7121067427
 21
4635.637257344
 31
0.0
  0
LINE
  5
37F
330
1F
100
AcDbEntity
  8
0
  6
Continuous
 62
     7
100
AcDbLine
 10
6265.7121067427
 20
4635.637257344
 30
0.0
 11
6265.9343668751
 21
4635.6266775195
 31
0.0
  0
LINE
  5
380
330
1F
100
AcDbEntity
  8
0
  6
Continuous
 62
     7
100
AcDbLine
 10
6285.9428617198
 20
4637.7042272155
 30
0.0
 11
6285.9164033111
 21
4637.7203502719
 31
0.0
  0
LINE
  5
381
330
1F
100
AcDbEntity
  8
0
  6
Continuous
 62
     7
100
AcDbLine
 10
6285.825866184
 20
4637.7625503604
 30
0.0
 11
6285.777910522
 21
4637.7784349982
 31
0.0
  0
LINE
  5
382
330
1F
100
AcDbEntity
  8
0
  6
Continuous
 62
     7
100
AcDbLine
 10
6285.777910522
 20
4637.7784349982
 30
0.0
 11
6285.8257628072
 21
4637.8211715285
 31
0.0
  0
LINE
  5
383
330
1F
100
AcDbEntity
  8
0
  6
Continuous
 62
     7
100
AcDbLine
 10
6284.9520177374
 20
4631.7414679591
 30
0.0
 11
6284.9466433076
 21
4631.7041256492
 31
0.0
  0
LINE
  5
384
330
1F
100
AcDbEntity
  8
0
  6
Continuous
 62
     7
100
AcDbLine
 10
6284.9416823851
 20
4634.900216109
 30
0.0
 11
6284.9791995508
 21
4634.8951795165
 31
0.0
  0
LINE
  5
385
330
1F
100
AcDbEntity
  8
0
  6
Continuous
 62
     7
100
AcDbLine
 10
6280.6038592502
 20
4634.1915764872
 30
0.0
 11
6280.6038592502
 21
4633.8782944743
 31
0.0
  0
LINE
  5
386
330
1F
100
AcDbEntity
  8
0
  6
Continuous
 62
     7
100
AcDbLine
 10
6280.6038592502
 20
4633.8782944743
 30
0.0
 11
6279.9021966316
 21
4633.8772215907
 31
0.0
  0
LINE
  5
387
330
1F
100
AcDbEntity
  8
0
  6
Continuous
 62
     7
100
AcDbLine
 10
6279.9021966316
 20
4633.8772215907
 30
0.0
 11
6279.1942294247
 21
4633.8761785094
 31
0.0
  0
LINE
  5
388
330
1F
100
AcDbEntity
  8
0
  6
Continuous
 62
     7
100
AcDbLine
 10
6279.1942294247
 20
4633.8761785094
 30
0.0
 11
6279.1942294247
 21
4634.1788508956
 31
0.0
  0
LINE
  5
389
330
1F
100
AcDbEntity
  8
0
  6
Continuous
 62
     7
100
AcDbLine
 10
6279.8408052444
 20
4635.6478669707
 30
0.0
 11
6279.8990962587
 21
4635.6478669707
 31
0.0
  0
LINE
  5
38A
330
1F
100
AcDbEntity
  8
0
  6
Continuous
 62
     7
100
AcDbLine
 10
6279.8990962587
 20
4635.6478669707
 30
0.0
 11
6280.122338238
 21
4635.637257344
 31
0.0
  0
LINE
  5
38B
330
1F
100
AcDbEntity
  8
0
  6
Continuous
 62
     7
100
AcDbLine
 10
6099.0187601678
 20
4649.6972777907
 30
0.0
 11
6099.0187601678
 21
4648.6972906653
 31
0.0
  0
LINE
  5
38C
330
1F
100
AcDbEntity
  8
0
  6
Continuous
 62
     7
100
AcDbLine
 10
6100.0187621944
 20
4648.6972906653
 30
0.0
 11
6101.0187493198
 21
4648.6972906653
 31
0.0
  0
LINE
  5
38D
330
1F
100
AcDbEntity
  8
0
  6
Continuous
 62
     7
100
AcDbLine
 10
6099.0187601678
 20
4649.6972777907
 30
0.0
 11
6101.0187493198
 21
4649.6972777907
 31
0.0
  0
LINE
  5
38E
330
1F
100
AcDbEntity
  8
0
  6
Continuous
 62
     7
100
AcDbLine
 10
6396.5005578034
 20
4576.9032874171
 30
0.0
 11
6396.4295314185
 21
4576.8595376079
 31
0.0
  0
LINE
  5
38F
330
1F
100
AcDbEntity
  8
0
  6
Continuous
 62
     7
100
AcDbLine
 10
6396.4295314185
 20
4576.8595376079
 30
0.0
 11
6396.3340894811
 21
4576.8446960513
 31
0.0
  0
LINE
  5
390
330
1F
100
AcDbEntity
  8
0
  6
Continuous
 62
     7
100
AcDbLine
 10
6396.3340894811
 20
4576.8446960513
 30
0.0
 11
6396.2178976767
 21
4576.859269387
 31
0.0
  0
LINE
  5
391
330
1F
100
AcDbEntity
  8
0
  6
Continuous
 62
     7
100
AcDbLine
 10
6396.2178976767
 20
4576.859269387
 30
0.0
 11
6396.0854189031
 21
4576.9027807776
 31
0.0
  0
LINE
  5
392
330
1F
100
AcDbEntity
  8
0
  6
Continuous
 62
     7
100
AcDbLine
 10
6396.0854189031
 20
4576.9027807776
 30
0.0
 11
6395.941756808
 21
4576.9734718863
 31
0.0
  0
LINE
  5
393
330
1F
100
AcDbEntity
  8
0
  6
Continuous
 62
     7
100
AcDbLine
 10
6395.941756808
 20
4576.9734718863
 30
0.0
 11
6395.7924099199
 21
4577.0686903064
 31
0.0
  0
LINE
  5
394
330
1F
100
AcDbEntity
  8
0
  6
Continuous
 62
     7
100
AcDbLine
 10
6395.7924099199
 20
4577.0686903064
 30
0.0
 11
6395.6431375377
 21
4577.1847405497
 31
0.0
  0
LINE
  5
395
330
1F
100
AcDbEntity
  8
0
  6
Continuous
 62
     7
100
AcDbLine
 10
6395.6431375377
 20
4577.1847405497
 30
0.0
 11
6395.4996691577
 21
4577.3171820704
 31
0.0
  0
LINE
  5
396
330
1F
100
AcDbEntity
  8
0
  6
Continuous
 62
     7
100
AcDbLine
 10
6395.4996691577
 20
4577.3171820704
 30
0.0
 11
6395.6308962338
 21
4577.4481632773
 31
0.0
  0
LINE
  5
397
330
1F
100
AcDbEntity
  8
0
  6
Continuous
 62
     7
100
AcDbLine
 10
6395.6308962338
 20
4577.4481632773
 30
0.0
 11
6395.7683966987
 21
4577.5853731696
 31
0.0
  0
LINE
  5
398
330
1F
100
AcDbEntity
  8
0
  6
Continuous
 62
     7
100
AcDbLine
 10
6395.7683966987
 20
4577.5853731696
 30
0.0
 11
6395.9068880908
 21
4577.7235963408
 31
0.0
  0
LINE
  5
399
330
1F
100
AcDbEntity
  8
0
  6
Continuous
 62
     7
100
AcDbLine
 10
6395.9068880908
 20
4577.7235963408
 30
0.0
 11
6396.0410506956
 21
4577.8574981753
 31
0.0
  0
LINE
  5
39A
330
1F
100
AcDbEntity
  8
0
  6
Continuous
 62
     7
100
AcDbLine
 10
6396.0410506956
 20
4577.8574981753
 30
0.0
 11
6396.1657212607
 21
4577.9819228713
 31
0.0
  0
LINE
  5
39B
330
1F
100
AcDbEntity
  8
0
  6
Continuous
 62
     7
100
AcDbLine
 10
6396.1657212607
 20
4577.9819228713
 30
0.0
 11
6396.2761090629
 21
4578.0920722548
 31
0.0
  0
LINE
  5
39C
330
1F
100
AcDbEntity
  8
0
  6
Continuous
 62
     7
100
AcDbLine
 10
6396.2761090629
 20
4578.0920722548
 30
0.0
 11
6396.3679821722
 21
4578.1837740008
 31
0.0
  0
LINE
  5
39D
330
1F
100
AcDbEntity
  8
0
  6
Continuous
 62
     7
100
AcDbLine
 10
6396.3679821722
 20
4578.1837740008
 30
0.0
 11
6396.437801563
 21
4578.2534518306
 31
0.0
  0
LINE
  5
39E
330
1F
100
AcDbEntity
  8
0
  6
Continuous
 62
     7
100
AcDbLine
 10
6381.7248792879
 20
4591.1195614402
 30
0.0
 11
6395.4996691577
 21
4577.3171820704
 31
0.0
  0
LINE
  5
39F
330
1F
100
AcDbEntity
  8
0
  6
Continuous
 62
     7
100
AcDbLine
 10
6382.6630116932
 20
4592.055801398
 30
0.0
 11
6382.5931923024
 21
4591.9861235682
 31
0.0
  0
LINE
  5
3A0
330
1F
100
AcDbEntity
  8
0
  6
Continuous
 62
     7
100
AcDbLine
 10
6382.5931923024
 20
4591.9861235682
 30
0.0
 11
6382.5013266437
 21
4591.8944516246
 31
0.0
  0
LINE
  5
3A1
330
1F
100
AcDbEntity
  8
0
  6
Continuous
 62
     7
100
AcDbLine
 10
6382.5013266437
 20
4591.8944516246
 30
0.0
 11
6382.390931391
 21
4591.7842724387
 31
0.0
  0
LINE
  5
3A2
330
1F
100
AcDbEntity
  8
0
  6
Continuous
 62
     7
100
AcDbLine
 10
6382.390931391
 20
4591.7842724387
 30
0.0
 11
6382.2662608258
 21
4591.6598477427
 31
0.0
  0
LINE
  5
3A3
330
1F
100
AcDbEntity
  8
0
  6
Continuous
 62
     7
100
AcDbLine
 10
6382.2662608258
 20
4591.6598477427
 30
0.0
 11
6382.132098221
 21
4591.5259459083
 31
0.0
  0
LINE
  5
3A4
330
1F
100
AcDbEntity
  8
0
  6
Continuous
 62
     7
100
AcDbLine
 10
6382.132098221
 20
4591.5259459083
 30
0.0
 11
6381.9936068289
 21
4591.3877525393
 31
0.0
  0
LINE
  5
3A5
330
1F
100
AcDbEntity
  8
0
  6
Continuous
 62
     7
100
AcDbLine
 10
6381.9936068289
 20
4591.3877525393
 30
0.0
 11
6381.856106364
 21
4591.2505128447
 31
0.0
  0
LINE
  5
3A6
330
1F
100
AcDbEntity
  8
0
  6
Continuous
 62
     7
100
AcDbLine
 10
6381.856106364
 20
4591.2505128447
 30
0.0
 11
6381.7248792879
 21
4591.1195614402
 31
0.0
  0
LINE
  5
3A7
330
1F
100
AcDbEntity
  8
0
  6
Continuous
 62
     7
100
AcDbLine
 10
6382.6630116932
 20
4592.055801398
 30
0.0
 11
6396.437801563
 21
4578.2534518306
 31
0.0
  0
LINE
  5
3A8
330
1F
100
AcDbEntity
  8
0
  6
Continuous
 62
     7
100
AcDbLine
 10
6381.7248792879
 20
4591.1195614402
 30
0.0
 11
6381.5927283399
 21
4591.263298041
 31
0.0
  0
LINE
  5
3A9
330
1F
100
AcDbEntity
  8
0
  6
Continuous
 62
     7
100
AcDbLine
 10
6381.5927283399
 20
4591.263298041
 30
0.0
 11
6381.4769686691
 21
4591.4127864901
 31
0.0
  0
LINE
  5
3AA
330
1F
100
AcDbEntity
  8
0
  6
Continuous
 62
     7
100
AcDbLine
 10
6381.4769686691
 20
4591.4127864901
 30
0.0
 11
6381.3820557229
 21
4591.5623345439
 31
0.0
  0
LINE
  5
3AB
330
1F
100
AcDbEntity
  8
0
  6
Continuous
 62
     7
100
AcDbLine
 10
6381.3820557229
 20
4591.5623345439
 30
0.0
 11
6381.3116328351
 21
4591.7061307494
 31
0.0
  0
LINE
  5
3AC
330
1F
100
AcDbEntity
  8
0
  6
Continuous
 62
     7
100
AcDbLine
 10
6381.3116328351
 20
4591.7061307494
 30
0.0
 11
6381.2684120171
 21
4591.8386914794
 31
0.0
  0
LINE
  5
3AD
330
1F
100
AcDbEntity
  8
0
  6
Continuous
 62
     7
100
AcDbLine
 10
6381.2684120171
 20
4591.8386914794
 30
0.0
 11
6381.2540472977
 21
4591.9549205367
 31
0.0
  0
LINE
  5
3AE
330
1F
100
AcDbEntity
  8
0
  6
Continuous
 62
     7
100
AcDbLine
 10
6381.2540472977
 20
4591.9549205367
 30
0.0
 11
6381.2690900199
 21
4592.0503177707
 31
0.0
  0
LINE
  5
3AF
330
1F
100
AcDbEntity
  8
0
  6
Continuous
 62
     7
100
AcDbLine
 10
6381.2690900199
 20
4592.0503177707
 30
0.0
 11
6381.3129739396
 21
4592.1212771003
 31
0.0
  0
LINE
  5
3B0
330
1F
100
AcDbEntity
  8
0
  6
Continuous
 62
     7
100
AcDbLine
 10
6381.7248792879
 20
4591.1195614402
 30
0.0
 11
6378.8284857246
 21
4588.2289453596
 31
0.0
  0
LINE
  5
3B1
330
1F
100
AcDbEntity
  8
0
  6
Continuous
 62
     7
100
AcDbLine
 10
6378.7383956008
 20
4589.5518367285
 30
0.0
 11
6381.3129739396
 21
4592.1212771003
 31
0.0
  0
LINE
  5
3B2
330
1F
100
AcDbEntity
  8
0
  6
Continuous
 62
     7
100
AcDbLine
 10
6392.6032708518
 20
4574.4265952174
 30
0.0
 11
6395.4996691577
 21
4577.3171820704
 31
0.0
  0
LINE
  5
3B3
330
1F
100
AcDbEntity
  8
0
  6
Continuous
 62
     7
100
AcDbLine
 10
6378.8284857246
 20
4588.2289453596
 30
0.0
 11
6392.6032708518
 21
4574.4265952174
 31
0.0
  0
LINE
  5
3B4
330
1F
100
AcDbEntity
  8
0
  6
Continuous
 62
     7
100
AcDbLine
 10
6396.5005578034
 20
4576.9032874171
 30
0.0
 11
6393.9259813081
 21
4574.333846047
 31
0.0
  0
LINE
  5
3B5
330
1F
100
AcDbEntity
  8
0
  6
Continuous
 62
     7
100
AcDbLine
 10
6381.3129739396
 20
4592.1212771003
 30
0.0
 11
6388.3402497999
 21
4599.1345086162
 31
0.0
  0
LINE
  5
3B6
330
1F
100
AcDbEntity
  8
0
  6
Continuous
 62
     7
100
AcDbLine
 10
6389.6902875535
 20
4599.0690627162
 30
0.0
 11
6382.6630116932
 21
4592.055801398
 31
0.0
  0
LINE
  5
3B7
330
1F
100
AcDbEntity
  8
0
  6
Continuous
 62
     7
100
AcDbLine
 10
6396.437801563
 20
4578.2534518306
 30
0.0
 11
6403.4650774233
 21
4585.2666833465
 31
0.0
  0
LINE
  5
3B8
330
1F
100
AcDbEntity
  8
0
  6
Continuous
 62
     7
100
AcDbLine
 10
6403.4650774233
 20
4585.2666833465
 30
0.0
 11
6389.6902875535
 21
4599.0690627162
 31
0.0
  0
LINE
  5
3B9
330
1F
100
AcDbEntity
  8
0
  6
Continuous
 62
     7
100
AcDbLine
 10
6403.5278336637
 20
4583.916518933
 30
0.0
 11
6396.5005578034
 21
4576.9032874171
 31
0.0
  0
LINE
  5
3BA
330
1F
100
AcDbEntity
  8
0
  6
Continuous
 62
     7
100
AcDbLine
 10
6405.7663978569
 20
4595.3220465247
 30
0.0
 11
6405.2664862506
 21
4594.8231258456
 31
0.0
  0
LINE
  5
3BB
330
1F
100
AcDbEntity
  8
0
  6
Continuous
 62
     7
100
AcDbLine
 10
6405.2664862506
 20
4594.8231258456
 30
0.0
 11
6406.5448792212
 21
4594.9587562148
 31
0.0
  0
LINE
  5
3BC
330
1F
100
AcDbEntity
  8
0
  6
Continuous
 62
     7
100
AcDbLine
 10
6398.8158629767
 20
4603.7625708644
 30
0.0
 11
6398.487068855
 21
4603.4344174926
 31
0.0
  0
LINE
  5
3BD
330
1F
100
AcDbEntity
  8
0
  6
Continuous
 62
     7
100
AcDbLine
 10
6398.487068855
 20
4603.4344174926
 30
0.0
 11
6399.2517219417
 21
4602.463159806
 31
0.0
  0
LINE
  5
3BE
330
1F
100
AcDbEntity
  8
0
  6
Continuous
 62
     7
100
AcDbLine
 10
6404.0692897074
 20
4596.3438191478
 30
0.0
 11
6405.2664862506
 21
4594.8231258456
 31
0.0
  0
LINE
  5
3BF
330
1F
100
AcDbEntity
  8
0
  6
Continuous
 62
     7
100
AcDbLine
 10
6398.7325580351
 20
4604.0768661563
 30
0.0
 11
6398.487068855
 21
4603.4344174926
 31
0.0
  0
LINE
  5
3C0
330
1F
100
AcDbEntity
  8
0
  6
Continuous
 62
     7
100
AcDbLine
 10
6407.6301680438
 20
4591.864261872
 30
0.0
 11
6407.6082931392
 21
4591.7410292689
 31
0.0
  0
LINE
  5
3C1
330
1F
100
AcDbEntity
  8
0
  6
Continuous
 62
     7
100
AcDbLine
 10
6407.6082931392
 20
4591.7410292689
 30
0.0
 11
6407.5792135231
 21
4591.5771761004
 31
0.0
  0
LINE
  5
3C2
330
1F
100
AcDbEntity
  8
0
  6
Continuous
 62
     7
100
AcDbLine
 10
6407.5792135231
 20
4591.5771761004
 30
0.0
 11
6407.5436071984
 21
4591.3766064708
 31
0.0
  0
LINE
  5
3C3
330
1F
100
AcDbEntity
  8
0
  6
Continuous
 62
     7
100
AcDbLine
 10
6407.5436071984
 20
4591.3766064708
 30
0.0
 11
6407.5023160808
 21
4591.1439695422
 31
0.0
  0
LINE
  5
3C4
330
1F
100
AcDbEntity
  8
0
  6
Continuous
 62
     7
100
AcDbLine
 10
6407.5023160808
 20
4591.1439695422
 30
0.0
 11
6407.4563087456
 21
4590.8847191398
 31
0.0
  0
LINE
  5
3C5
330
1F
100
AcDbEntity
  8
0
  6
Continuous
 62
     7
100
AcDbLine
 10
6407.4563087456
 20
4590.8847191398
 30
0.0
 11
6407.4066580765
 21
4590.6049945418
 31
0.0
  0
LINE
  5
3C6
330
1F
100
AcDbEntity
  8
0
  6
Continuous
 62
     7
100
AcDbLine
 10
6407.4066580765
 20
4590.6049945418
 30
0.0
 11
6407.3545338146
 21
4590.311322457
 31
0.0
  0
LINE
  5
3C7
330
1F
100
AcDbEntity
  8
0
  6
Continuous
 62
     7
100
AcDbLine
 10
6407.3545338146
 20
4590.311322457
 30
0.0
 11
6407.3011578552
 21
4590.0105872218
 31
0.0
  0
LINE
  5
3C8
330
1F
100
AcDbEntity
  8
0
  6
Continuous
 62
     7
100
AcDbLine
 10
6396.2961883776
 20
4603.2209434573
 30
0.0
 11
6396.1729036204
 21
4603.1993069713
 31
0.0
  0
LINE
  5
3C9
330
1F
100
AcDbEntity
  8
0
  6
Continuous
 62
     7
100
AcDbLine
 10
6396.1729036204
 20
4603.1993069713
 30
0.0
 11
6396.0090057485
 21
4603.1705477302
 31
0.0
  0
LINE
  5
3CA
330
1F
100
AcDbEntity
  8
0
  6
Continuous
 62
     7
100
AcDbLine
 10
6396.0090057485
 20
4603.1705477302
 30
0.0
 11
6395.8083467118
 21
4603.1353511874
 31
0.0
  0
LINE
  5
3CB
330
1F
100
AcDbEntity
  8
0
  6
Continuous
 62
     7
100
AcDbLine
 10
6395.8083467118
 20
4603.1353511874
 30
0.0
 11
6395.5756278269
 21
4603.0945220057
 31
0.0
  0
LINE
  5
3CC
330
1F
100
AcDbEntity
  8
0
  6
Continuous
 62
     7
100
AcDbLine
 10
6395.5756278269
 20
4603.0945220057
 30
0.0
 11
6395.3163103692
 21
4603.0490436618
 31
0.0
  0
LINE
  5
3CD
330
1F
100
AcDbEntity
  8
0
  6
Continuous
 62
     7
100
AcDbLine
 10
6395.3163103692
 20
4603.0490436618
 30
0.0
 11
6395.0364740126
 21
4602.9999592368
 31
0.0
  0
LINE
  5
3CE
330
1F
100
AcDbEntity
  8
0
  6
Continuous
 62
     7
100
AcDbLine
 10
6395.0364740126
 20
4602.9999592368
 30
0.0
 11
6394.7426976196
 21
4602.9484012191
 31
0.0
  0
LINE
  5
3CF
330
1F
100
AcDbEntity
  8
0
  6
Continuous
 62
     7
100
AcDbLine
 10
6394.7426976196
 20
4602.9484012191
 30
0.0
 11
6394.4418580763
 21
4602.8956213061
 31
0.0
  0
LINE
  5
3D0
330
1F
100
AcDbEntity
  8
0
  6
Continuous
 62
     7
100
AcDbLine
 10
6411.8125216596
 20
4591.4946534697
 30
0.0
 11
6411.6051869027
 21
4591.0203793113
 31
0.0
  0
LINE
  5
3D1
330
1F
100
AcDbEntity
  8
0
  6
Continuous
 62
     7
100
AcDbLine
 10
6409.4566480748
 20
4589.8425319259
 30
0.0
 11
6411.6051869027
 21
4591.0203793113
 31
0.0
  0
LINE
  5
3D2
330
1F
100
AcDbEntity
  8
0
  6
Continuous
 62
     7
100
AcDbLine
 10
6394.4418580763
 20
4602.8956213061
 30
0.0
 11
6394.2780943148
 21
4605.051461703
 31
0.0
  0
LINE
  5
3D3
330
1F
100
AcDbEntity
  8
0
  6
Continuous
 62
     7
100
AcDbLine
 10
6395.6023158066
 20
4607.4424424235
 30
0.0
 11
6394.2780943148
 21
4605.051461703
 31
0.0
  0
LINE
  5
3D4
330
1F
100
AcDbEntity
  8
0
  6
Continuous
 62
     7
100
AcDbLine
 10
6390.2535663478
 20
4599.6311941211
 30
0.0
 11
6390.1637570493
 21
4599.5415785376
 31
0.0
  0
LINE
  5
3D5
330
1F
100
AcDbEntity
  8
0
  6
Continuous
 62
     7
100
AcDbLine
 10
6390.1637570493
 20
4599.5415785376
 30
0.0
 11
6390.0785894625
 21
4599.4565823142
 31
0.0
  0
LINE
  5
3D6
330
1F
100
AcDbEntity
  8
0
  6
Continuous
 62
     7
100
AcDbLine
 10
6390.0785894625
 20
4599.4565823142
 30
0.0
 11
6389.9985553257
 21
4599.3767120902
 31
0.0
  0
LINE
  5
3D7
330
1F
100
AcDbEntity
  8
0
  6
Continuous
 62
     7
100
AcDbLine
 10
6389.9985553257
 20
4599.3767120902
 30
0.0
 11
6389.9241240255
 21
4599.3024149005
 31
0.0
  0
LINE
  5
3D8
330
1F
100
AcDbEntity
  8
0
  6
Continuous
 62
     7
100
AcDbLine
 10
6389.9241240255
 20
4599.3024149005
 30
0.0
 11
6389.8557053439
 21
4599.2341377799
 31
0.0
  0
LINE
  5
3D9
330
1F
100
AcDbEntity
  8
0
  6
Continuous
 62
     7
100
AcDbLine
 10
6389.8557053439
 20
4599.2341377799
 30
0.0
 11
6389.7937016122
 21
4599.1722383563
 31
0.0
  0
LINE
  5
3DA
330
1F
100
AcDbEntity
  8
0
  6
Continuous
 62
     7
100
AcDbLine
 10
6389.7937016122
 20
4599.1722383563
 30
0.0
 11
6389.7384555571
 21
4599.1171040599
 31
0.0
  0
LINE
  5
3DB
330
1F
100
AcDbEntity
  8
0
  6
Continuous
 62
     7
100
AcDbLine
 10
6389.7384555571
 20
4599.1171040599
 30
0.0
 11
6389.6902875535
 21
4599.0690627162
 31
0.0
  0
LINE
  5
3DC
330
1F
100
AcDbEntity
  8
0
  6
Continuous
 62
     7
100
AcDbLine
 10
6388.3402497999
 20
4599.1345086162
 30
0.0
 11
6388.3854450218
 21
4599.1795995299
 31
0.0
  0
LINE
  5
3DD
330
1F
100
AcDbEntity
  8
0
  6
Continuous
 62
     7
100
AcDbLine
 10
6388.3854450218
 20
4599.1795995299
 30
0.0
 11
6388.4351031415
 21
4599.2291607921
 31
0.0
  0
LINE
  5
3DE
330
1F
100
AcDbEntity
  8
0
  6
Continuous
 62
     7
100
AcDbLine
 10
6388.4351031415
 20
4599.2291607921
 30
0.0
 11
6388.4890900485
 21
4599.2830433909
 31
0.0
  0
LINE
  5
3DF
330
1F
100
AcDbEntity
  8
0
  6
Continuous
 62
     7
100
AcDbLine
 10
6388.4890900485
 20
4599.2830433909
 30
0.0
 11
6388.5472865336
 21
4599.3411281173
 31
0.0
  0
LINE
  5
3E0
330
1F
100
AcDbEntity
  8
0
  6
Continuous
 62
     7
100
AcDbLine
 10
6388.5472865336
 20
4599.3411281173
 30
0.0
 11
6388.6095584862
 21
4599.4032659594
 31
0.0
  0
LINE
  5
3E1
330
1F
100
AcDbEntity
  8
0
  6
Continuous
 62
     7
100
AcDbLine
 10
6388.6095584862
 20
4599.4032659594
 30
0.0
 11
6388.6757494442
 21
4599.4693377082
 31
0.0
  0
LINE
  5
3E2
330
1F
100
AcDbEntity
  8
0
  6
Continuous
 62
     7
100
AcDbLine
 10
6388.6757494442
 20
4599.4693377082
 30
0.0
 11
6388.745710396
 21
4599.5391645495
 31
0.0
  0
LINE
  5
3E3
330
1F
100
AcDbEntity
  8
0
  6
Continuous
 62
     7
100
AcDbLine
 10
6388.745710396
 20
4599.5391645495
 30
0.0
 11
6388.8192774288
 21
4599.6125676696
 31
0.0
  0
LINE
  5
3E4
330
1F
100
AcDbEntity
  8
0
  6
Continuous
 62
     7
100
AcDbLine
 10
6403.4650774233
 20
4585.2666833465
 30
0.0
 11
6403.5132379763
 21
4585.3147544925
 31
0.0
  0
LINE
  5
3E5
330
1F
100
AcDbEntity
  8
0
  6
Continuous
 62
     7
100
AcDbLine
 10
6403.5132379763
 20
4585.3147544925
 30
0.0
 11
6403.5684840314
 21
4585.3698887889
 31
0.0
  0
LINE
  5
3E6
330
1F
100
AcDbEntity
  8
0
  6
Continuous
 62
     7
100
AcDbLine
 10
6403.5684840314
 20
4585.3698887889
 30
0.0
 11
6403.6304952137
 21
4585.4317584102
 31
0.0
  0
LINE
  5
3E7
330
1F
100
AcDbEntity
  8
0
  6
Continuous
 62
     7
100
AcDbLine
 10
6403.6304952137
 20
4585.4317584102
 30
0.0
 11
6403.6989064447
 21
4585.5000355307
 31
0.0
  0
LINE
  5
3E8
330
1F
100
AcDbEntity
  8
0
  6
Continuous
 62
     7
100
AcDbLine
 10
6403.6989064447
 20
4585.5000355307
 30
0.0
 11
6403.7733451955
 21
4585.5743327205
 31
0.0
  0
LINE
  5
3E9
330
1F
100
AcDbEntity
  8
0
  6
Continuous
 62
     7
100
AcDbLine
 10
6403.7733451955
 20
4585.5743327205
 30
0.0
 11
6403.8533718817
 21
4585.6542029445
 31
0.0
  0
LINE
  5
3EA
330
1F
100
AcDbEntity
  8
0
  6
Continuous
 62
     7
100
AcDbLine
 10
6403.8533718817
 20
4585.6542029445
 30
0.0
 11
6403.9385394685
 21
4585.7391991679
 31
0.0
  0
LINE
  5
3EB
330
1F
100
AcDbEntity
  8
0
  6
Continuous
 62
     7
100
AcDbLine
 10
6403.9385394685
 20
4585.7391991679
 30
0.0
 11
6404.0283562176
 21
4585.8288445537
 31
0.0
  0
LINE
  5
3EC
330
1F
100
AcDbEntity
  8
0
  6
Continuous
 62
     7
100
AcDbLine
 10
6404.0283562176
 20
4585.8288445537
 30
0.0
 11
6390.2535663478
 21
4599.6311941211
 31
0.0
  0
LINE
  5
3ED
330
1F
100
AcDbEntity
  8
0
  6
Continuous
 62
     7
100
AcDbLine
 10
6404.0068612926
 20
4584.3945779864
 30
0.0
 11
6403.9333017103
 21
4584.3211748664
 31
0.0
  0
LINE
  5
3EE
330
1F
100
AcDbEntity
  8
0
  6
Continuous
 62
     7
100
AcDbLine
 10
6403.9333017103
 20
4584.3211748664
 30
0.0
 11
6403.8633407585
 21
4584.251348025
 31
0.0
  0
LINE
  5
3EF
330
1F
100
AcDbEntity
  8
0
  6
Continuous
 62
     7
100
AcDbLine
 10
6403.8633407585
 20
4584.251348025
 30
0.0
 11
6403.7971423499
 21
4584.1852762763
 31
0.0
  0
LINE
  5
3F0
330
1F
100
AcDbEntity
  8
0
  6
Continuous
 62
     7
100
AcDbLine
 10
6403.7971423499
 20
4584.1852762763
 30
0.0
 11
6403.7348778479
 21
4584.1231384341
 31
0.0
  0
LINE
  5
3F1
330
1F
100
AcDbEntity
  8
0
  6
Continuous
 62
     7
100
AcDbLine
 10
6403.7348778479
 20
4584.1231384341
 30
0.0
 11
6403.6766739122
 21
4584.0650537078
 31
0.0
  0
LINE
  5
3F2
330
1F
100
AcDbEntity
  8
0
  6
Continuous
 62
     7
100
AcDbLine
 10
6403.6766739122
 20
4584.0650537078
 30
0.0
 11
6403.6226870052
 21
4584.0111711089
 31
0.0
  0
LINE
  5
3F3
330
1F
100
AcDbEntity
  8
0
  6
Continuous
 62
     7
100
AcDbLine
 10
6403.6226870052
 20
4584.0111711089
 30
0.0
 11
6403.5730363361
 21
4583.9616098468
 31
0.0
  0
LINE
  5
3F4
330
1F
100
AcDbEntity
  8
0
  6
Continuous
 62
     7
100
AcDbLine
 10
6403.5730363361
 20
4583.9616098468
 30
0.0
 11
6403.5278336637
 21
4583.916518933
 31
0.0
  0
LINE
  5
3F5
330
1F
100
AcDbEntity
  8
0
  6
Continuous
 62
     7
100
AcDbLine
 10
6393.4570626847
 20
4605.7834067408
 30
0.0
 11
6393.4745044939
 21
4605.7678499286
 31
0.0
  0
LINE
  5
3F6
330
1F
100
AcDbEntity
  8
0
  6
Continuous
 62
     7
100
AcDbLine
 10
6393.4745044939
 20
4605.7678499286
 30
0.0
 11
6393.5223521225
 21
4605.7252028052
 31
0.0
  0
LINE
  5
3F7
330
1F
100
AcDbEntity
  8
0
  6
Continuous
 62
     7
100
AcDbLine
 10
6393.5223521225
 20
4605.7252028052
 30
0.0
 11
6393.5988099806
 21
4605.6570448939
 31
0.0
  0
LINE
  5
3F8
330
1F
100
AcDbEntity
  8
0
  6
Continuous
 62
     7
100
AcDbLine
 10
6393.5988099806
 20
4605.6570448939
 30
0.0
 11
6393.7009797923
 21
4605.5659391944
 31
0.0
  0
LINE
  5
3F9
330
1F
100
AcDbEntity
  8
0
  6
Continuous
 62
     7
100
AcDbLine
 10
6393.7009797923
 20
4605.5659391944
 30
0.0
 11
6393.8249872558
 21
4605.4554023806
 31
0.0
  0
LINE
  5
3FA
330
1F
100
AcDbEntity
  8
0
  6
Continuous
 62
     7
100
AcDbLine
 10
6393.8249872558
 20
4605.4554023806
 30
0.0
 11
6393.9661459558
 21
4605.3295471732
 31
0.0
  0
LINE
  5
3FB
330
1F
100
AcDbEntity
  8
0
  6
Continuous
 62
     7
100
AcDbLine
 10
6393.9661459558
 20
4605.3295471732
 30
0.0
 11
6394.119113826
 21
4605.1932015483
 31
0.0
  0
LINE
  5
3FC
330
1F
100
AcDbEntity
  8
0
  6
Continuous
 62
     7
100
AcDbLine
 10
6394.119113826
 20
4605.1932015483
 30
0.0
 11
6394.2780943148
 21
4605.051461703
 31
0.0
  0
LINE
  5
3FD
330
1F
100
AcDbEntity
  8
0
  6
Continuous
 62
     7
100
AcDbLine
 10
6393.4570626847
 20
4605.7834067408
 30
0.0
 11
6393.8446716897
 21
4606.2307395999
 31
0.0
  0
LINE
  5
3FE
330
1F
100
AcDbEntity
  8
0
  6
Continuous
 62
     7
100
AcDbLine
 10
6410.7102231614
 20
4589.4695260589
 30
0.0
 11
6410.1869390838
 21
4589.0200176303
 31
0.0
  0
LINE
  5
3FF
330
1F
100
AcDbEntity
  8
0
  6
Continuous
 62
     7
100
AcDbLine
 10
6410.1869390838
 20
4589.0200176303
 30
0.0
 11
6410.1714418761
 21
4589.0374817912
 31
0.0
  0
LINE
  5
400
330
1F
100
AcDbEntity
  8
0
  6
Continuous
 62
     7
100
AcDbLine
 10
6410.1714418761
 20
4589.0374817912
 30
0.0
 11
6410.1288692586
 21
4589.0854337279
 31
0.0
  0
LINE
  5
401
330
1F
100
AcDbEntity
  8
0
  6
Continuous
 62
     7
100
AcDbLine
 10
6410.1288692586
 20
4589.0854337279
 30
0.0
 11
6410.0608603589
 21
4589.1620256965
 31
0.0
  0
LINE
  5
402
330
1F
100
AcDbEntity
  8
0
  6
Continuous
 62
     7
100
AcDbLine
 10
6410.0608603589
 20
4589.1620256965
 30
0.0
 11
6409.969993078
 21
4589.2643668715
 31
0.0
  0
LINE
  5
403
330
1F
100
AcDbEntity
  8
0
  6
Continuous
 62
     7
100
AcDbLine
 10
6409.969993078
 20
4589.2643668715
 30
0.0
 11
6409.8596797816
 21
4589.3886127536
 31
0.0
  0
LINE
  5
404
330
1F
100
AcDbEntity
  8
0
  6
Continuous
 62
     7
100
AcDbLine
 10
6409.8596797816
 20
4589.3886127536
 30
0.0
 11
6409.7341225974
 21
4589.5300247733
 31
0.0
  0
LINE
  5
405
330
1F
100
AcDbEntity
  8
0
  6
Continuous
 62
     7
100
AcDbLine
 10
6409.7341225974
 20
4589.5300247733
 30
0.0
 11
6409.5980600946
 21
4589.6832385127
 31
0.0
  0
LINE
  5
406
330
1F
100
AcDbEntity
  8
0
  6
Continuous
 62
     7
100
AcDbLine
 10
6409.5980600946
 20
4589.6832385127
 30
0.0
 11
6409.4566480748
 21
4589.8425319259
 31
0.0
  0
LINE
  5
407
330
1F
100
AcDbEntity
  8
0
  6
Continuous
 62
     7
100
AcDbLine
 10
6404.623165869
 20
4585.5721571509
 30
0.0
 11
6404.5814202659
 21
4585.5304935042
 31
0.0
  0
LINE
  5
408
330
1F
100
AcDbEntity
  8
0
  6
Continuous
 62
     7
100
AcDbLine
 10
6404.5814202659
 20
4585.5304935042
 30
0.0
 11
6404.5398013227
 21
4585.4889490668
 31
0.0
  0
LINE
  5
409
330
1F
100
AcDbEntity
  8
0
  6
Continuous
 62
     7
100
AcDbLine
 10
6404.5398013227
 20
4585.4889490668
 30
0.0
 11
6404.498420798
 21
4585.4476728503
 31
0.0
  0
LINE
  5
40A
330
1F
100
AcDbEntity
  8
0
  6
Continuous
 62
     7
100
AcDbLine
 10
6404.498420798
 20
4585.4476728503
 30
0.0
 11
6404.4573979013
 21
4585.4067244594
 31
0.0
  0
LINE
  5
40B
330
1F
100
AcDbEntity
  8
0
  6
Continuous
 62
     7
100
AcDbLine
 10
6404.4573979013
 20
4585.4067244594
 30
0.0
 11
6404.4168518416
 21
4585.3662529056
 31
0.0
  0
LINE
  5
40C
330
1F
100
AcDbEntity
  8
0
  6
Continuous
 62
     7
100
AcDbLine
 10
6404.4168518416
 20
4585.3662529056
 30
0.0
 11
6404.3768943779
 21
4585.3263773982
 31
0.0
  0
LINE
  5
40D
330
1F
100
AcDbEntity
  8
0
  6
Continuous
 62
     7
100
AcDbLine
 10
6404.3768943779
 20
4585.3263773982
 30
0.0
 11
6404.3376521699
 21
4585.2872171466
 31
0.0
  0
LINE
  5
40E
330
1F
100
AcDbEntity
  8
0
  6
Continuous
 62
     7
100
AcDbLine
 10
6404.3376521699
 20
4585.2872171466
 30
0.0
 11
6404.2992295258
 21
4585.2488615577
 31
0.0
  0
LINE
  5
40F
330
1F
100
AcDbEntity
  8
0
  6
Continuous
 62
     7
100
AcDbLine
 10
6389.6741421454
 20
4599.9032297198
 30
0.0
 11
6389.7125647895
 21
4599.9415853087
 31
0.0
  0
LINE
  5
410
330
1F
100
AcDbEntity
  8
0
  6
Continuous
 62
     7
100
AcDbLine
 10
6389.7125647895
 20
4599.9415853087
 30
0.0
 11
6389.7518069975
 21
4599.9807455604
 31
0.0
  0
LINE
  5
411
330
1F
100
AcDbEntity
  8
0
  6
Continuous
 62
     7
100
AcDbLine
 10
6389.7518069975
 20
4599.9807455604
 30
0.0
 11
6389.7917644612
 21
4600.0206210677
 31
0.0
  0
LINE
  5
412
330
1F
100
AcDbEntity
  8
0
  6
Continuous
 62
     7
100
AcDbLine
 10
6389.7917644612
 20
4600.0206210677
 30
0.0
 11
6389.8323105208
 21
4600.0610926215
 31
0.0
  0
LINE
  5
413
330
1F
100
AcDbEntity
  8
0
  6
Continuous
 62
     7
100
AcDbLine
 10
6389.8323105208
 20
4600.0610926215
 30
0.0
 11
6389.8733334176
 21
4600.1020112101
 31
0.0
  0
LINE
  5
414
330
1F
100
AcDbEntity
  8
0
  6
Continuous
 62
     7
100
AcDbLine
 10
6389.8733334176
 20
4600.1020112101
 30
0.0
 11
6389.9147139422
 21
4600.143317229
 31
0.0
  0
LINE
  5
415
330
1F
100
AcDbEntity
  8
0
  6
Continuous
 62
     7
100
AcDbLine
 10
6389.9147139422
 20
4600.143317229
 30
0.0
 11
6389.9563328855
 21
4600.1848616664
 31
0.0
  0
LINE
  5
416
330
1F
100
AcDbEntity
  8
0
  6
Continuous
 62
     7
100
AcDbLine
 10
6389.9563328855
 20
4600.1848616664
 30
0.0
 11
6389.9980784885
 21
4600.2265253131
 31
0.0
  0
LINE
  5
417
330
1F
100
AcDbEntity
  8
0
  6
Continuous
 62
     7
100
AcDbLine
 10
6388.4554730289
 20
4599.4361975257
 30
0.0
 11
6388.386294388
 21
4599.5015540187
 31
0.0
  0
LINE
  5
418
330
1F
100
AcDbEntity
  8
0
  6
Continuous
 62
     7
100
AcDbLine
 10
6388.386294388
 20
4599.5015540187
 30
0.0
 11
6388.3250729673
 21
4599.5699205462
 31
0.0
  0
LINE
  5
419
330
1F
100
AcDbEntity
  8
0
  6
Continuous
 62
     7
100
AcDbLine
 10
6388.3250729673
 20
4599.5699205462
 30
0.0
 11
6388.2740439407
 21
4599.638763911
 31
0.0
  0
LINE
  5
41A
330
1F
100
AcDbEntity
  8
0
  6
Continuous
 62
     7
100
AcDbLine
 10
6388.2740439407
 20
4599.638763911
 30
0.0
 11
6388.235099756
 21
4599.7055509154
 31
0.0
  0
LINE
  5
41B
330
1F
100
AcDbEntity
  8
0
  6
Continuous
 62
     7
100
AcDbLine
 10
6388.235099756
 20
4599.7055509154
 30
0.0
 11
6388.2096634738
 21
4599.7678675715
 31
0.0
  0
LINE
  5
41C
330
1F
100
AcDbEntity
  8
0
  6
Continuous
 62
     7
100
AcDbLine
 10
6388.2096634738
 20
4599.7678675715
 30
0.0
 11
6388.1986664168
 21
4599.8233594958
 31
0.0
  0
LINE
  5
41D
330
1F
100
AcDbEntity
  8
0
  6
Continuous
 62
     7
100
AcDbLine
 10
6388.1986664168
 20
4599.8233594958
 30
0.0
 11
6388.2025258176
 21
4599.870059735
 31
0.0
  0
LINE
  5
41E
330
1F
100
AcDbEntity
  8
0
  6
Continuous
 62
     7
100
AcDbLine
 10
6388.2025258176
 20
4599.870059735
 30
0.0
 11
6388.2210852139
 21
4599.9062099521
 31
0.0
  0
LINE
  5
41F
330
1F
100
AcDbEntity
  8
0
  6
Continuous
 62
     7
100
AcDbLine
 10
6393.14953252
 20
4605.4468491141
 30
0.0
 11
6393.164970123
 21
4605.4323949878
 31
0.0
  0
LINE
  5
420
330
1F
100
AcDbEntity
  8
0
  6
Continuous
 62
     7
100
AcDbLine
 10
6393.164970123
 20
4605.4323949878
 30
0.0
 11
6393.2106719844
 21
4605.3896286551
 31
0.0
  0
LINE
  5
421
330
1F
100
AcDbEntity
  8
0
  6
Continuous
 62
     7
100
AcDbLine
 10
6393.2106719844
 20
4605.3896286551
 30
0.0
 11
6393.2848946683
 21
4605.3201594417
 31
0.0
  0
LINE
  5
422
330
1F
100
AcDbEntity
  8
0
  6
Continuous
 62
     7
100
AcDbLine
 10
6393.2848946683
 20
4605.3201594417
 30
0.0
 11
6393.3847697012
 21
4605.2266993586
 31
0.0
  0
LINE
  5
423
330
1F
100
AcDbEntity
  8
0
  6
Continuous
 62
     7
100
AcDbLine
 10
6393.3847697012
 20
4605.2266993586
 30
0.0
 11
6393.5064823858
 21
4605.1127948825
 31
0.0
  0
LINE
  5
424
330
1F
100
AcDbEntity
  8
0
  6
Continuous
 62
     7
100
AcDbLine
 10
6393.5064823858
 20
4605.1127948825
 30
0.0
 11
6393.6453314058
 21
4604.9828567569
 31
0.0
  0
LINE
  5
425
330
1F
100
AcDbEntity
  8
0
  6
Continuous
 62
     7
100
AcDbLine
 10
6393.6453314058
 20
4604.9828567569
 30
0.0
 11
6393.7959970467
 21
4604.8418321673
 31
0.0
  0
LINE
  5
426
330
1F
100
AcDbEntity
  8
0
  6
Continuous
 62
     7
100
AcDbLine
 10
6393.7959970467
 20
4604.8418321673
 30
0.0
 11
6393.9526827566
 21
4604.6952047412
 31
0.0
  0
LINE
  5
427
330
1F
100
AcDbEntity
  8
0
  6
Continuous
 62
     7
100
AcDbLine
 10
6393.9526827566
 20
4604.6952047412
 30
0.0
 11
6389.9675013058
 21
4600.2571621005
 31
0.0
  0
LINE
  5
428
330
1F
100
AcDbEntity
  8
0
  6
Continuous
 62
     7
100
AcDbLine
 10
6404.6537430517
 20
4585.5415203635
 30
0.0
 11
6409.0997503631
 21
4589.5178058211
 31
0.0
  0
LINE
  5
429
330
1F
100
AcDbEntity
  8
0
  6
Continuous
 62
     7
100
AcDbLine
 10
6409.8497705094
 20
4588.713172919
 30
0.0
 11
6409.8353610866
 21
4588.7286403243
 31
0.0
  0
LINE
  5
42A
330
1F
100
AcDbEntity
  8
0
  6
Continuous
 62
     7
100
AcDbLine
 10
6409.8353610866
 20
4588.7286403243
 30
0.0
 11
6409.7926841609
 21
4588.7744166915
 31
0.0
  0
LINE
  5
42B
330
1F
100
AcDbEntity
  8
0
  6
Continuous
 62
     7
100
AcDbLine
 10
6409.7926841609
 20
4588.7744166915
 30
0.0
 11
6409.7233788602
 21
4588.8487734858
 31
0.0
  0
LINE
  5
42C
330
1F
100
AcDbEntity
  8
0
  6
Continuous
 62
     7
100
AcDbLine
 10
6409.7233788602
 20
4588.8487734858
 30
0.0
 11
6409.6300975911
 21
4588.9488496844
 31
0.0
  0
LINE
  5
42D
330
1F
100
AcDbEntity
  8
0
  6
Continuous
 62
     7
100
AcDbLine
 10
6409.6300975911
 20
4588.9488496844
 30
0.0
 11
6409.5164464347
 21
4589.0707709853
 31
0.0
  0
LINE
  5
42E
330
1F
100
AcDbEntity
  8
0
  6
Continuous
 62
     7
100
AcDbLine
 10
6409.5164464347
 20
4589.0707709853
 30
0.0
 11
6409.38677653
 21
4589.2098882262
 31
0.0
  0
LINE
  5
42F
330
1F
100
AcDbEntity
  8
0
  6
Continuous
 62
     7
100
AcDbLine
 10
6409.38677653
 20
4589.2098882262
 30
0.0
 11
6409.246079766
 21
4589.3608369891
 31
0.0
  0
LINE
  5
430
330
1F
100
AcDbEntity
  8
0
  6
Continuous
 62
     7
100
AcDbLine
 10
6409.246079766
 20
4589.3608369891
 30
0.0
 11
6409.0997503631
 21
4589.5178058211
 31
0.0
  0
LINE
  5
431
330
1F
100
AcDbEntity
  8
0
  6
Continuous
 62
     7
100
AcDbLine
 10
6404.2992891304
 20
4583.7958195273
 30
0.0
 11
6404.263109111
 21
4583.7773122851
 31
0.0
  0
LINE
  5
432
330
1F
100
AcDbEntity
  8
0
  6
Continuous
 62
     7
100
AcDbLine
 10
6404.263109111
 20
4583.7773122851
 30
0.0
 11
6404.2164163224
 21
4583.7735571925
 31
0.0
  0
LINE
  5
433
330
1F
100
AcDbEntity
  8
0
  6
Continuous
 62
     7
100
AcDbLine
 10
6404.2164163224
 20
4583.7735571925
 30
0.0
 11
6404.1609243981
 21
4583.7846734588
 31
0.0
  0
LINE
  5
434
330
1F
100
AcDbEntity
  8
0
  6
Continuous
 62
     7
100
AcDbLine
 10
6404.1609243981
 20
4583.7846734588
 30
0.0
 11
6404.0986747973
 21
4583.810214049
 31
0.0
  0
LINE
  5
435
330
1F
100
AcDbEntity
  8
0
  6
Continuous
 62
     7
100
AcDbLine
 10
6404.0986747973
 20
4583.810214049
 30
0.0
 11
6404.031954848
 21
4583.849314696
 31
0.0
  0
LINE
  5
436
330
1F
100
AcDbEntity
  8
0
  6
Continuous
 62
     7
100
AcDbLine
 10
6404.031954848
 20
4583.849314696
 30
0.0
 11
6403.9632157914
 21
4583.9004554812
 31
0.0
  0
LINE
  5
437
330
1F
100
AcDbEntity
  8
0
  6
Continuous
 62
     7
100
AcDbLine
 10
6403.9632157914
 20
4583.9004554812
 30
0.0
 11
6403.8949833743
 21
4583.961818463
 31
0.0
  0
LINE
  5
438
330
1F
100
AcDbEntity
  8
0
  6
Continuous
 62
     7
100
AcDbLine
 10
6403.8949833743
 20
4583.961818463
 30
0.0
 11
6403.8297684424
 21
4584.0311386649
 31
0.0
  0
LINE
  5
439
330
1F
100
AcDbEntity
  8
0
  6
Continuous
 62
     7
100
AcDbLine
 10
6388.4554730289
 20
4599.4361975257
 30
0.0
 11
6387.4955700271
 21
4598.2915201251
 31
0.0
  0
LINE
  5
43A
330
1F
100
AcDbEntity
  8
0
  6
Continuous
 62
     7
100
AcDbLine
 10
6389.6741421454
 20
4599.9032297198
 30
0.0
 11
6389.4800917737
 21
4600.0976600711
 31
0.0
  0
LINE
  5
43B
330
1F
100
AcDbEntity
  8
0
  6
Continuous
 62
     7
100
AcDbLine
 10
6402.6831538908
 20
4583.0735304419
 30
0.0
 11
6403.8297684424
 21
4584.0311386649
 31
0.0
  0
LINE
  5
43C
330
1F
100
AcDbEntity
  8
0
  6
Continuous
 62
     7
100
AcDbLine
 10
6404.4932724468
 20
4585.0544312064
 30
0.0
 11
6404.2992295258
 21
4585.2488615577
 31
0.0
  0
LINE
  5
43D
330
1F
100
AcDbEntity
  8
0
  6
Continuous
 62
     7
100
AcDbLine
 10
6393.14953252
 20
4605.4468491141
 30
0.0
 11
6393.4570626847
 21
4605.7834067408
 31
0.0
  0
LINE
  5
43E
330
1F
100
AcDbEntity
  8
0
  6
Continuous
 62
     7
100
AcDbLine
 10
6394.2780943148
 20
4605.051461703
 30
0.0
 11
6393.9526827566
 21
4604.6952047412
 31
0.0
  0
LINE
  5
43F
330
1F
100
AcDbEntity
  8
0
  6
Continuous
 62
     7
100
AcDbLine
 10
6389.9675013058
 20
4600.2571621005
 30
0.0
 11
6389.9980784885
 21
4600.2265253131
 31
0.0
  0
LINE
  5
440
330
1F
100
AcDbEntity
  8
0
  6
Continuous
 62
     7
100
AcDbLine
 10
6409.0997503631
 20
4589.5178058211
 30
0.0
 11
6409.4566480748
 21
4589.8425319259
 31
0.0
  0
LINE
  5
441
330
1F
100
AcDbEntity
  8
0
  6
Continuous
 62
     7
100
AcDbLine
 10
6404.623165869
 20
4585.5721571509
 30
0.0
 11
6404.6537430517
 21
4585.5415203635
 31
0.0
  0
LINE
  5
442
330
1F
100
AcDbEntity
  8
0
  6
Continuous
 62
     7
100
AcDbLine
 10
6410.1869390838
 20
4589.0200176303
 30
0.0
 11
6409.8497705094
 21
4588.713172919
 31
0.0
  0
LINE
  5
443
330
1F
100
AcDbEntity
  8
0
  6
Continuous
 62
     7
100
AcDbLine
 10
6387.4955700271
 20
4598.2915201251
 30
0.0
 11
6387.4260859124
 21
4598.3561613624
 31
0.0
  0
LINE
  5
444
330
1F
100
AcDbEntity
  8
0
  6
Continuous
 62
     7
100
AcDbLine
 10
6387.4260859124
 20
4598.3561613624
 30
0.0
 11
6387.3645292155
 21
4598.4237828319
 31
0.0
  0
LINE
  5
445
330
1F
100
AcDbEntity
  8
0
  6
Continuous
 62
     7
100
AcDbLine
 10
6387.3645292155
 20
4598.4237828319
 30
0.0
 11
6387.3131500117
 21
4598.4919705455
 31
0.0
  0
LINE
  5
446
330
1F
100
AcDbEntity
  8
0
  6
Continuous
 62
     7
100
AcDbLine
 10
6387.3131500117
 20
4598.4919705455
 30
0.0
 11
6387.2738183968
 21
4598.5581913058
 31
0.0
  0
LINE
  5
447
330
1F
100
AcDbEntity
  8
0
  6
Continuous
 62
     7
100
AcDbLine
 10
6387.2738183968
 20
4598.5581913058
 30
0.0
 11
6387.2479797833
 21
4598.6200311248
 31
0.0
  0
LINE
  5
448
330
1F
100
AcDbEntity
  8
0
  6
Continuous
 62
     7
100
AcDbLine
 10
6387.2479797833
 20
4598.6200311248
 30
0.0
 11
6387.2365803949
 21
4598.6752250258
 31
0.0
  0
LINE
  5
449
330
1F
100
AcDbEntity
  8
0
  6
Continuous
 62
     7
100
AcDbLine
 10
6387.2365803949
 20
4598.6752250258
 30
0.0
 11
6387.2400374643
 21
4598.7217762534
 31
0.0
  0
LINE
  5
44A
330
1F
100
AcDbEntity
  8
0
  6
Continuous
 62
     7
100
AcDbLine
 10
6387.2400374643
 20
4598.7217762534
 30
0.0
 11
6387.258216881
 21
4598.7579562728
 31
0.0
  0
LINE
  5
44B
330
1F
100
AcDbEntity
  8
0
  6
Continuous
 62
     7
100
AcDbLine
 10
6387.258216881
 20
4598.7579562728
 30
0.0
 11
6388.2210852139
 21
4599.9062099521
 31
0.0
  0
LINE
  5
44C
330
1F
100
AcDbEntity
  8
0
  6
Continuous
 62
     7
100
AcDbLine
 10
6402.6831538908
 20
4583.0735304419
 30
0.0
 11
6402.7476461165
 21
4583.0039122168
 31
0.0
  0
LINE
  5
44D
330
1F
100
AcDbEntity
  8
0
  6
Continuous
 62
     7
100
AcDbLine
 10
6402.7476461165
 20
4583.0039122168
 30
0.0
 11
6402.8151632778
 21
4582.9422214095
 31
0.0
  0
LINE
  5
44E
330
1F
100
AcDbEntity
  8
0
  6
Continuous
 62
     7
100
AcDbLine
 10
6402.8151632778
 20
4582.9422214095
 30
0.0
 11
6402.8832392327
 21
4582.8906931941
 31
0.0
  0
LINE
  5
44F
330
1F
100
AcDbEntity
  8
0
  6
Continuous
 62
     7
100
AcDbLine
 10
6402.8832392327
 20
4582.8906931941
 30
0.0
 11
6402.9493780367
 21
4582.8512349193
 31
0.0
  0
LINE
  5
450
330
1F
100
AcDbEntity
  8
0
  6
Continuous
 62
     7
100
AcDbLine
 10
6402.9493780367
 20
4582.8512349193
 30
0.0
 11
6403.0111731522
 21
4582.8252770965
 31
0.0
  0
LINE
  5
451
330
1F
100
AcDbEntity
  8
0
  6
Continuous
 62
     7
100
AcDbLine
 10
6403.0111731522
 20
4582.8252770965
 30
0.0
 11
6403.0663521521
 21
4582.8137734
 31
0.0
  0
LINE
  5
452
330
1F
100
AcDbEntity
  8
0
  6
Continuous
 62
     7
100
AcDbLine
 10
6403.0663521521
 20
4582.8137734
 30
0.0
 11
6403.1129108302
 21
4582.8171410624
 31
0.0
  0
LINE
  5
453
330
1F
100
AcDbEntity
  8
0
  6
Continuous
 62
     7
100
AcDbLine
 10
6403.1129108302
 20
4582.8171410624
 30
0.0
 11
6403.1491355531
 21
4582.8352310721
 31
0.0
  0
LINE
  5
454
330
1F
100
AcDbEntity
  8
0
  6
Continuous
 62
     7
100
AcDbLine
 10
6404.2992891304
 20
4583.7958195273
 30
0.0
 11
6403.1491355531
 21
4582.8352310721
 31
0.0
  0
LINE
  5
455
330
1F
100
AcDbEntity
  8
0
  6
Continuous
 62
     7
100
AcDbLine
 10
6382.5133816831
 20
4593.3545866076
 30
0.0
 11
6383.7516840139
 21
4596.5976361363
 31
0.0
  0
LINE
  5
456
330
1F
100
AcDbEntity
  8
0
  6
Continuous
 62
     7
100
AcDbLine
 10
6387.0326431028
 20
4576.7247417037
 30
0.0
 11
6388.3282096617
 21
4578.2968738143
 31
0.0
  0
LINE
  5
457
330
1F
100
AcDbEntity
  8
0
  6
Continuous
 62
     7
100
AcDbLine
 10
6382.6541902058
 20
4577.6961782042
 30
0.0
 11
6387.0326431028
 21
4576.7247417037
 31
0.0
  0
LINE
  5
458
330
1F
100
AcDbEntity
  8
0
  6
Continuous
 62
     7
100
AcDbLine
 10
6380.9489907257
 20
4581.911537892
 30
0.0
 11
6382.6541902058
 21
4577.6961782042
 31
0.0
  0
LINE
  5
459
330
1F
100
AcDbEntity
  8
0
  6
Continuous
 62
     7
100
AcDbLine
 10
6382.6548682086
 20
4583.9815774028
 30
0.0
 11
6380.9489907257
 21
4581.911537892
 31
0.0
  0
LINE
  5
45A
330
1F
100
AcDbEntity
  8
0
  6
Continuous
 62
     7
100
AcDbLine
 10
6384.070940458
 20
4582.5626590316
 30
0.0
 11
6383.8753999703
 21
4582.3950507705
 31
0.0
  0
LINE
  5
45B
330
1F
100
AcDbEntity
  8
0
  6
Continuous
 62
     7
100
AcDbLine
 10
6383.8753999703
 20
4582.3950507705
 30
0.0
 11
6383.4796251289
 21
4581.7790069644
 31
0.0
  0
LINE
  5
45C
330
1F
100
AcDbEntity
  8
0
  6
Continuous
 62
     7
100
AcDbLine
 10
6383.4796251289
 20
4581.7790069644
 30
0.0
 11
6383.3651618592
 21
4581.0352602069
 31
0.0
  0
LINE
  5
45D
330
1F
100
AcDbEntity
  8
0
  6
Continuous
 62
     7
100
AcDbLine
 10
6383.3651618592
 20
4581.0352602069
 30
0.0
 11
6383.5494370691
 21
4580.2769997184
 31
0.0
  0
LINE
  5
45E
330
1F
100
AcDbEntity
  8
0
  6
Continuous
 62
     7
100
AcDbLine
 10
6383.5494370691
 20
4580.2769997184
 30
0.0
 11
6384.0043993227
 21
4579.6197094981
 31
0.0
  0
LINE
  5
45F
330
1F
100
AcDbEntity
  8
0
  6
Continuous
 62
     7
100
AcDbLine
 10
6384.0043993227
 20
4579.6197094981
 30
0.0
 11
6384.6607880227
 21
4579.1634359424
 31
0.0
  0
LINE
  5
460
330
1F
100
AcDbEntity
  8
0
  6
Continuous
 62
     7
100
AcDbLine
 10
6384.6607880227
 20
4579.1634359424
 30
0.0
 11
6385.418661081
 21
4578.9776482646
 31
0.0
  0
LINE
  5
461
330
1F
100
AcDbEntity
  8
0
  6
Continuous
 62
     7
100
AcDbLine
 10
6385.418661081
 20
4578.9776482646
 30
0.0
 11
6386.1626537077
 21
4579.0905990664
 31
0.0
  0
LINE
  5
462
330
1F
100
AcDbEntity
  8
0
  6
Continuous
 62
     7
100
AcDbLine
 10
6386.1626537077
 20
4579.0905990664
 30
0.0
 11
6386.7794947259
 21
4579.4851520125
 31
0.0
  0
LINE
  5
463
330
1F
100
AcDbEntity
  8
0
  6
Continuous
 62
     7
100
AcDbLine
 10
6386.7794947259
 20
4579.4851520125
 30
0.0
 11
6386.9474904172
 21
4579.6803572242
 31
0.0
  0
LINE
  5
464
330
1F
100
AcDbEntity
  8
0
  6
Continuous
 62
     7
100
AcDbLine
 10
6387.0326431028
 20
4576.7247417037
 30
0.0
 11
6387.9161105983
 21
4577.6064434115
 31
0.0
  0
LINE
  5
465
330
1F
100
AcDbEntity
  8
0
  6
Continuous
 62
     7
100
AcDbLine
 10
6387.9161105983
 20
4577.6064434115
 30
0.0
 11
6388.4141297571
 21
4578.2107749049
 31
0.0
  0
LINE
  5
466
330
1F
100
AcDbEntity
  8
0
  6
Continuous
 62
     7
100
AcDbLine
 10
6384.792402529
 20
4595.715228564
 30
0.0
 11
6385.5364100568
 21
4596.649173743
 31
0.0
  0
LINE
  5
467
330
1F
100
AcDbEntity
  8
0
  6
Continuous
 62
     7
100
AcDbLine
 10
6385.1899431579
 20
4581.4414360587
 30
0.0
 11
6385.4768352143
 21
4581.0892024104
 31
0.0
  0
LINE
  5
468
330
1F
100
AcDbEntity
  8
0
  6
Continuous
 62
     7
100
AcDbLine
 10
6385.4768352143
 20
4581.0892024104
 30
0.0
 11
6385.8284877174
 21
4580.8016099994
 31
0.0
  0
LINE
  5
469
330
1F
100
AcDbEntity
  8
0
  6
Continuous
 62
     7
100
AcDbLine
 10
6403.9990754358
 20
4599.5744206969
 30
0.0
 11
6405.5566714637
 21
4598.2508101527
 31
0.0
  0
LINE
  5
46A
330
1F
100
AcDbEntity
  8
0
  6
Continuous
 62
     7
100
AcDbLine
 10
6405.5566714637
 20
4598.2508101527
 30
0.0
 11
6407.3040337793
 21
4597.2040035788
 31
0.0
  0
LINE
  5
46B
330
1F
100
AcDbEntity
  8
0
  6
Continuous
 62
     7
100
AcDbLine
 10
6407.3040337793
 20
4597.2040035788
 30
0.0
 11
6409.1880695455
 21
4596.4658596579
 31
0.0
  0
LINE
  5
46C
330
1F
100
AcDbEntity
  8
0
  6
Continuous
 62
     7
100
AcDbLine
 10
6409.1880695455
 20
4596.4658596579
 30
0.0
 11
6411.1515210502
 21
4596.0587897365
 31
0.0
  0
LINE
  5
46D
330
1F
100
AcDbEntity
  8
0
  6
Continuous
 62
     7
100
AcDbLine
 10
6411.1515210502
 20
4596.0587897365
 30
0.0
 11
6413.1347463958
 21
4595.9951319758
 31
0.0
  0
LINE
  5
46E
330
1F
100
AcDbEntity
  8
0
  6
Continuous
 62
     7
100
AcDbLine
 10
6413.1347463958
 20
4595.9951319758
 30
0.0
 11
6415.0774703853
 21
4596.2768533294
 31
0.0
  0
LINE
  5
46F
330
1F
100
AcDbEntity
  8
0
  6
Continuous
 62
     7
100
AcDbLine
 10
6415.0774703853
 20
4596.2768533294
 30
0.0
 11
6416.9206844203
 21
4596.8954005305
 31
0.0
  0
LINE
  5
470
330
1F
100
AcDbEntity
  8
0
  6
Continuous
 62
     7
100
AcDbLine
 10
6416.9206844203
 20
4596.8954005305
 30
0.0
 11
6418.6083601348
 21
4597.8319385116
 31
0.0
  0
LINE
  5
471
330
1F
100
AcDbEntity
  8
0
  6
Continuous
 62
     7
100
AcDbLine
 10
6418.6083601348
 20
4597.8319385116
 30
0.0
 11
6420.0892375342
 21
4599.0580656592
 31
0.0
  0
LINE
  5
472
330
1F
100
AcDbEntity
  8
0
  6
Continuous
 62
     7
100
AcDbLine
 10
6420.0892375342
 20
4599.0580656592
 30
0.0
 11
6421.3183151118
 21
4600.5364694659
 31
0.0
  0
LINE
  5
473
330
1F
100
AcDbEntity
  8
0
  6
Continuous
 62
     7
100
AcDbLine
 10
6421.3183151118
 20
4600.5364694659
 30
0.0
 11
6422.2582356565
 21
4602.2222974364
 31
0.0
  0
LINE
  5
474
330
1F
100
AcDbEntity
  8
0
  6
Continuous
 62
     7
100
AcDbLine
 10
6422.2582356565
 20
4602.2222974364
 30
0.0
 11
6422.8804634444
 21
4604.0642597739
 31
0.0
  0
LINE
  5
475
330
1F
100
AcDbEntity
  8
0
  6
Continuous
 62
     7
100
AcDbLine
 10
6422.8804634444
 20
4604.0642597739
 30
0.0
 11
6423.166074001
 21
4606.0064175193
 31
0.0
  0
LINE
  5
476
330
1F
100
AcDbEntity
  8
0
  6
Continuous
 62
     7
100
AcDbLine
 10
6423.166074001
 20
4606.0064175193
 30
0.0
 11
6423.1063948505
 21
4607.9897620742
 31
0.0
  0
LINE
  5
477
330
1F
100
AcDbEntity
  8
0
  6
Continuous
 62
     7
100
AcDbLine
 10
6423.1063948505
 20
4607.9897620742
 30
0.0
 11
6422.7032439344
 21
4609.9540331427
 31
0.0
  0
LINE
  5
478
330
1F
100
AcDbEntity
  8
0
  6
Continuous
 62
     7
100
AcDbLine
 10
6422.7032439344
 20
4609.9540331427
 30
0.0
 11
6421.9688551061
 21
4611.8395366733
 31
0.0
  0
LINE
  5
479
330
1F
100
AcDbEntity
  8
0
  6
Continuous
 62
     7
100
AcDbLine
 10
6421.9688551061
 20
4611.8395366733
 30
0.0
 11
6420.9255652062
 21
4613.5889926021
 31
0.0
  0
LINE
  5
47A
330
1F
100
AcDbEntity
  8
0
  6
Continuous
 62
     7
100
AcDbLine
 10
6420.9255652062
 20
4613.5889926021
 30
0.0
 11
6419.6050541036
 21
4615.149233586
 31
0.0
  0
LINE
  5
47B
330
1F
100
AcDbEntity
  8
0
  6
Continuous
 62
     7
100
AcDbLine
 10
6419.6050541036
 20
4615.149233586
 30
0.0
 11
6418.0474506251
 21
4616.4728441302
 31
0.0
  0
LINE
  5
47C
330
1F
100
AcDbEntity
  8
0
  6
Continuous
 62
     7
100
AcDbLine
 10
6418.0474506251
 20
4616.4728441302
 30
0.0
 11
6416.3000957601
 21
4617.5196507041
 31
0.0
  0
LINE
  5
47D
330
1F
100
AcDbEntity
  8
0
  6
Continuous
 62
     7
100
AcDbLine
 10
6416.3000957601
 20
4617.5196507041
 30
0.0
 11
6414.4160674445
 21
4618.257794625
 31
0.0
  0
LINE
  5
47E
330
1F
100
AcDbEntity
  8
0
  6
Continuous
 62
     7
100
AcDbLine
 10
6414.4160674445
 20
4618.257794625
 30
0.0
 11
6412.4526010387
 21
4618.6648943488
 31
0.0
  0
LINE
  5
47F
330
1F
100
AcDbEntity
  8
0
  6
Continuous
 62
     7
100
AcDbLine
 10
6412.4526010387
 20
4618.6648943488
 30
0.0
 11
6410.469375693
 21
4618.7285223071
 31
0.0
  0
LINE
  5
480
330
1F
100
AcDbEntity
  8
0
  6
Continuous
 62
     7
100
AcDbLine
 10
6410.469375693
 20
4618.7285223071
 30
0.0
 11
6408.5266517036
 21
4618.4468009536
 31
0.0
  0
LINE
  5
481
330
1F
100
AcDbEntity
  8
0
  6
Continuous
 62
     7
100
AcDbLine
 10
6408.5266517036
 20
4618.4468009536
 30
0.0
 11
6406.6834451191
 21
4617.8282537524
 31
0.0
  0
LINE
  5
482
330
1F
100
AcDbEntity
  8
0
  6
Continuous
 62
     7
100
AcDbLine
 10
6406.6834451191
 20
4617.8282537524
 30
0.0
 11
6404.995761954
 21
4616.8917157714
 31
0.0
  0
LINE
  5
483
330
1F
100
AcDbEntity
  8
0
  6
Continuous
 62
     7
100
AcDbLine
 10
6404.995761954
 20
4616.8917157714
 30
0.0
 11
6403.5148845546
 21
4615.6655886237
 31
0.0
  0
LINE
  5
484
330
1F
100
AcDbEntity
  8
0
  6
Continuous
 62
     7
100
AcDbLine
 10
6403.5148845546
 20
4615.6655886237
 30
0.0
 11
6402.2858144276
 21
4614.187184817
 31
0.0
  0
LINE
  5
485
330
1F
100
AcDbEntity
  8
0
  6
Continuous
 62
     7
100
AcDbLine
 10
6402.2858144276
 20
4614.187184817
 30
0.0
 11
6401.3458864324
 21
4612.5013568465
 31
0.0
  0
LINE
  5
486
330
1F
100
AcDbEntity
  8
0
  6
Continuous
 62
     7
100
AcDbLine
 10
6401.3458864324
 20
4612.5013568465
 30
0.0
 11
6400.723666095
 21
4610.659394509
 31
0.0
  0
LINE
  5
487
330
1F
100
AcDbEntity
  8
0
  6
Continuous
 62
     7
100
AcDbLine
 10
6400.723666095
 20
4610.659394509
 30
0.0
 11
6400.4380555384
 21
4608.7172367637
 31
0.0
  0
LINE
  5
488
330
1F
100
AcDbEntity
  8
0
  6
Continuous
 62
     7
100
AcDbLine
 10
6400.4380555384
 20
4608.7172367637
 30
0.0
 11
6400.497734689
 21
4606.7338922088
 31
0.0
  0
LINE
  5
489
330
1F
100
AcDbEntity
  8
0
  6
Continuous
 62
     7
100
AcDbLine
 10
6400.497734689
 20
4606.7338922088
 30
0.0
 11
6400.9008856051
 21
4604.7696211402
 31
0.0
  0
LINE
  5
48A
330
1F
100
AcDbEntity
  8
0
  6
Continuous
 62
     7
100
AcDbLine
 10
6400.9008856051
 20
4604.7696211402
 30
0.0
 11
6401.6352669828
 21
4602.8841176097
 31
0.0
  0
LINE
  5
48B
330
1F
100
AcDbEntity
  8
0
  6
Continuous
 62
     7
100
AcDbLine
 10
6401.6352669828
 20
4602.8841176097
 30
0.0
 11
6402.6785643332
 21
4601.1346616809
 31
0.0
  0
LINE
  5
48C
330
1F
100
AcDbEntity
  8
0
  6
Continuous
 62
     7
100
AcDbLine
 10
6402.6785643332
 20
4601.1346616809
 30
0.0
 11
6403.9990754358
 21
4599.5744206969
 31
0.0
  0
LINE
  5
48D
330
1F
100
AcDbEntity
  8
0
  6
Continuous
 62
     7
100
AcDbLine
 10
6402.2574277155
 20
4616.0471477572
 30
0.0
 11
6402.7744980089
 21
4616.5320017402
 31
0.0
  0
LINE
  5
48E
330
1F
100
AcDbEntity
  8
0
  6
Continuous
 62
     7
100
AcDbLine
 10
6421.0127966039
 20
4598.3827450339
 30
0.0
 11
6420.4682783715
 21
4597.7998414103
 31
0.0
  0
LINE
  5
48F
330
1F
100
AcDbEntity
  8
0
  6
Continuous
 62
     7
100
AcDbLine
 10
6401.7449618809
 20
4615.5357101027
 30
0.0
 11
6401.0680691831
 21
4614.797953612
 31
0.0
  0
LINE
  5
490
330
1F
100
AcDbEntity
  8
0
  6
Continuous
 62
     7
100
AcDbLine
 10
6401.0680691831
 20
4614.797953612
 30
0.0
 11
6399.9189288847
 21
4613.156084067
 31
0.0
  0
LINE
  5
491
330
1F
100
AcDbEntity
  8
0
  6
Continuous
 62
     7
100
AcDbLine
 10
6399.9189288847
 20
4613.156084067
 30
0.0
 11
6399.067975723
 21
4611.3302149836
 31
0.0
  0
LINE
  5
492
330
1F
100
AcDbEntity
  8
0
  6
Continuous
 62
     7
100
AcDbLine
 10
6399.067975723
 20
4611.3302149836
 30
0.0
 11
6398.5384033553
 21
4609.3702056472
 31
0.0
  0
LINE
  5
493
330
1F
100
AcDbEntity
  8
0
  6
Continuous
 62
     7
100
AcDbLine
 10
6398.5384033553
 20
4609.3702056472
 30
0.0
 11
6398.3446808092
 21
4607.329521424
 31
0.0
  0
LINE
  5
494
330
1F
100
AcDbEntity
  8
0
  6
Continuous
 62
     7
100
AcDbLine
 10
6398.3446808092
 20
4607.329521424
 30
0.0
 11
6398.4920756452
 21
4605.26380325
 31
0.0
  0
LINE
  5
495
330
1F
100
AcDbEntity
  8
0
  6
Continuous
 62
     7
100
AcDbLine
 10
6398.4920756452
 20
4605.26380325
 30
0.0
 11
6398.9765720002
 21
4603.2293775145
 31
0.0
  0
LINE
  5
496
330
1F
100
AcDbEntity
  8
0
  6
Continuous
 62
     7
100
AcDbLine
 10
6398.9765720002
 20
4603.2293775145
 30
0.0
 11
6399.784959995
 21
4601.2817957465
 31
0.0
  0
LINE
  5
497
330
1F
100
AcDbEntity
  8
0
  6
Continuous
 62
     7
100
AcDbLine
 10
6399.784959995
 20
4601.2817957465
 30
0.0
 11
6400.8951784603
 21
4599.4741656844
 31
0.0
  0
LINE
  5
498
330
1F
100
AcDbEntity
  8
0
  6
Continuous
 62
     7
100
AcDbLine
 10
6400.8951784603
 20
4599.4741656844
 30
0.0
 11
6402.2769556872
 21
4597.8557505671
 31
0.0
  0
LINE
  5
499
330
1F
100
AcDbEntity
  8
0
  6
Continuous
 62
     7
100
AcDbLine
 10
6402.2769556872
 20
4597.8557505671
 30
0.0
 11
6403.8925917379
 21
4596.4707472388
 31
0.0
  0
LINE
  5
49A
330
1F
100
AcDbEntity
  8
0
  6
Continuous
 62
     7
100
AcDbLine
 10
6403.8925917379
 20
4596.4707472388
 30
0.0
 11
6405.6980164282
 21
4595.3569152419
 31
0.0
  0
LINE
  5
49B
330
1F
100
AcDbEntity
  8
0
  6
Continuous
 62
     7
100
AcDbLine
 10
6405.6980164282
 20
4595.3569152419
 30
0.0
 11
6407.6439814202
 21
4594.5446231429
 31
0.0
  0
LINE
  5
49C
330
1F
100
AcDbEntity
  8
0
  6
Continuous
 62
     7
100
AcDbLine
 10
6407.6439814202
 20
4594.5446231429
 30
0.0
 11
6409.6774087779
 21
4594.056073672
 31
0.0
  0
LINE
  5
49D
330
1F
100
AcDbEntity
  8
0
  6
Continuous
 62
     7
100
AcDbLine
 10
6409.6774087779
 20
4594.056073672
 30
0.0
 11
6411.7428438298
 21
4593.9045288627
 31
0.0
  0
LINE
  5
49E
330
1F
100
AcDbEntity
  8
0
  6
Continuous
 62
     7
100
AcDbLine
 10
6411.7428438298
 20
4593.9045288627
 30
0.0
 11
6413.7839154832
 21
4594.0941908423
 31
0.0
  0
LINE
  5
49F
330
1F
100
AcDbEntity
  8
0
  6
Continuous
 62
     7
100
AcDbLine
 10
6413.7839154832
 20
4594.0941908423
 30
0.0
 11
6415.7449828021
 21
4594.6198144023
 31
0.0
  0
LINE
  5
4A0
330
1F
100
AcDbEntity
  8
0
  6
Continuous
 62
     7
100
AcDbLine
 10
6415.7449828021
 20
4594.6198144023
 30
0.0
 11
6417.5725357167
 21
4595.4671242301
 31
0.0
  0
LINE
  5
4A1
330
1F
100
AcDbEntity
  8
0
  6
Continuous
 62
     7
100
AcDbLine
 10
6417.5725357167
 20
4595.4671242301
 30
0.0
 11
6419.2167149417
 21
4596.6129937236
 31
0.0
  0
LINE
  5
4A2
330
1F
100
AcDbEntity
  8
0
  6
Continuous
 62
     7
100
AcDbLine
 10
6419.2167149417
 20
4596.6129937236
 30
0.0
 11
6419.9558125369
 21
4597.2884037558
 31
0.0
  0
LINE
  5
4A3
330
1F
100
AcDbEntity
  8
0
  6
Continuous
 62
     7
100
AcDbLine
 10
6448.5187569417
 20
4463.6972882811
 30
0.0
 11
6448.5187569417
 21
4647.6972737376
 31
0.0
  0
LINE
  5
4A4
330
1F
100
AcDbEntity
  8
0
  6
Continuous
 62
     7
100
AcDbLine
 10
6392.3966066472
 20
4574.2203333442
 30
0.0
 11
6392.4011291496
 21
4574.2248334948
 31
0.0
  0
LINE
  5
4A5
330
1F
100
AcDbEntity
  8
0
  6
Continuous
 62
     7
100
AcDbLine
 10
6392.4011291496
 20
4574.2248334948
 30
0.0
 11
6392.4188391797
 21
4574.242506272
 31
0.0
  0
LINE
  5
4A6
330
1F
100
AcDbEntity
  8
0
  6
Continuous
 62
     7
100
AcDbLine
 10
6392.4188391797
 20
4574.242506272
 30
0.0
 11
6392.4492897026
 21
4574.2729046409
 31
0.0
  0
LINE
  5
4A7
330
1F
100
AcDbEntity
  8
0
  6
Continuous
 62
     7
100
AcDbLine
 10
6392.4492897026
 20
4574.2729046409
 30
0.0
 11
6392.4913258783
 21
4574.3148663108
 31
0.0
  0
LINE
  5
4A8
330
1F
100
AcDbEntity
  8
0
  6
Continuous
 62
     7
100
AcDbLine
 10
6392.4913258783
 20
4574.3148663108
 30
0.0
 11
6392.5433160297
 21
4574.3667521541
 31
0.0
  0
LINE
  5
4A9
330
1F
100
AcDbEntity
  8
0
  6
Continuous
 62
     7
100
AcDbLine
 10
6392.5433160297
 20
4574.3667521541
 30
0.0
 11
6392.6032708518
 21
4574.4265952174
 31
0.0
  0
LINE
  5
4AA
330
1F
100
AcDbEntity
  8
0
  6
Continuous
 62
     7
100
AcDbLine
 10
6378.8284857246
 20
4588.2289453596
 30
0.0
 11
6378.7685336105
 21
4588.1691017215
 31
0.0
  0
LINE
  5
4AB
330
1F
100
AcDbEntity
  8
0
  6
Continuous
 62
     7
100
AcDbLine
 10
6378.7685336105
 20
4588.1691017215
 30
0.0
 11
6378.7165360086
 21
4588.1172158782
 31
0.0
  0
LINE
  5
4AC
330
1F
100
AcDbEntity
  8
0
  6
Continuous
 62
     7
100
AcDbLine
 10
6378.7165360086
 20
4588.1172158782
 30
0.0
 11
6378.6745072834
 21
4588.0752840106
 31
0.0
  0
LINE
  5
4AD
330
1F
100
AcDbEntity
  8
0
  6
Continuous
 62
     7
100
AcDbLine
 10
6378.6745072834
 20
4588.0752840106
 30
0.0
 11
6378.6440493099
 21
4588.0448856418
 31
0.0
  0
LINE
  5
4AE
330
1F
100
AcDbEntity
  8
0
  6
Continuous
 62
     7
100
AcDbLine
 10
6378.6440493099
 20
4588.0448856418
 30
0.0
 11
6378.6263392799
 21
4588.0272128646
 31
0.0
  0
LINE
  5
4AF
330
1F
100
AcDbEntity
  8
0
  6
Continuous
 62
     7
100
AcDbLine
 10
6378.6263392799
 20
4588.0272128646
 30
0.0
 11
6378.621824228
 21
4588.0226829116
 31
0.0
  0
LWPOLYLINE
  5
4B0
330
1F
100
AcDbEntity
  8
0
  6
Continuous
 62
     7
100
AcDbPolyline
 90
        3
 70
   128
 43
0.0
 10
6379.9133300781
 20
5315.2073117624
 10
6378.7748960008
 20
5313.9510796208
 10
6378.4352989428
 20
5312.9409345518
  0
LWPOLYLINE
  5
4B1
330
1F
100
AcDbEntity
  8
0
  6
Continuous
 62
     7
100
AcDbPolyline
 90
        3
 70
   128
 43
0.0
 10
6413.272857666
 20
5288.7780758272
 10
6418.167139455
 20
5304.4284533815
 10
6422.0399634473
 20
5316.7071434389
  0
LWPOLYLINE
  5
4B2
330
1F
100
AcDbEntity
  8
0
  6
Continuous
 62
     7
100
AcDbPolyline
 90
        3
 70
   128
 43
0.0
 10
6404.3121337891
 20
5322.0176490675
 10
6403.9821331961
 20
5322.4185347788
 10
6403.7727864019
 20
5322.8930922876
  0
LWPOLYLINE
  5
4B3
330
1F
100
AcDbEntity
  8
0
  6
Continuous
 62
     7
100
AcDbPolyline
 90
        3
 70
   128
 43
0.0
 10
6412.6434326172
 20
5284.5043333898
 10
6412.8262283921
 20
5286.9945291086
 10
6413.2893459432
 20
5288.8782116304
  0
LWPOLYLINE
  5
4B4
330
1F
100
AcDbEntity
  8
0
  6
Continuous
 62
     7
100
AcDbPolyline
 90
        3
 70
   128
 43
0.0
 10
6378.6163330078
 20
5343.2693275343
 10
6378.375669599
 20
5342.9533562516
 10
6378.3930094473
 20
5342.639395846
  0
LWPOLYLINE
  5
4B5
330
1F
100
AcDbEntity
  8
0
  6
Continuous
 62
     7
100
AcDbPolyline
 90
        3
 70
   128
 43
0.0
 10
6385.2653503418
 20
5321.39722432
 10
6385.4093194671
 20
5320.6993619483
 10
6385.3768484227
 20
5320.1296421419
  0
LWPOLYLINE
  5
4B6
330
1F
100
AcDbEntity
  8
0
  6
Continuous
 62
     7
100
AcDbPolyline
 90
        3
 70
   128
 43
0.0
 10
6423.8166809082
 20
5325.8265646825
 10
6423.5244673742
 20
5327.9384793167
 10
6422.5511179797
 20
5329.1120919119
  0
LWPOLYLINE
  5
4B7
330
1F
100
AcDbEntity
  8
0
  6
Continuous
 62
     7
100
AcDbPolyline
 90
        3
 70
   128
 43
0.0
 10
6403.1753540039
 20
5334.7128125559
 10
6401.3990875657
 20
5334.4696778946
 10
6400.1986162297
 20
5333.9297267328
  0
LWPOLYLINE
  5
4B8
330
1F
100
AcDbEntity
  8
0
  6
Continuous
 62
     7
100
AcDbPolyline
 90
        3
 70
   128
 43
0.0
 10
6421.1502075195
 20
5330.1294835935
 10
6411.2350190045
 20
5334.2777519864
 10
6402.7772100203
 20
5334.6660229097
  0
LWPOLYLINE
  5
4B9
330
1F
100
AcDbEntity
  8
0
  6
Continuous
 62
     7
100
AcDbPolyline
 90
        3
 70
   128
 43
0.0
 10
6392.9061889648
 20
5315.209219111
 10
6396.3360659067
 20
5317.1277939227
 10
6398.9979253642
 20
5318.6384829412
  0
LWPOLYLINE
  5
4BA
330
1F
100
AcDbEntity
  8
0
  6
Continuous
 62
     7
100
AcDbPolyline
 90
        3
 70
   128
 43
0.0
 10
6392.9061889648
 20
5315.209219111
 10
6393.1601655598
 20
5315.0353955828
 10
6393.3197037809
 20
5314.7630783449
  0
LWPOLYLINE
  5
4BB
330
1F
100
AcDbEntity
  8
0
  6
Continuous
 62
     7
100
AcDbPolyline
 90
        3
 70
   128
 43
0.0
 10
6393.3219909668
 20
5314.7438856493
 10
6393.3219938305
 20
5314.7548858527
 10
6393.3197037809
 20
5314.7630783449
  0
LWPOLYLINE
  5
4BC
330
1F
100
AcDbEntity
  8
0
  6
Continuous
 62
     7
100
AcDbPolyline
 90
        3
 70
   128
 43
0.0
 10
6399.4522094727
 20
5318.1838187109
 10
6396.0474890706
 20
5316.2582955243
 10
6393.3230863444
 20
5314.7438856493
  0
LWPOLYLINE
  5
4BD
330
1F
100
AcDbEntity
  8
0
  6
Continuous
 62
     7
100
AcDbPolyline
 90
        3
 70
   128
 43
0.0
 10
6400.1083374023
 20
5318.7967332731
 10
6399.7655704759
 20
5318.4189927406
 10
6399.452723705
 20
5318.1838187109
  0
LWPOLYLINE
  5
4BE
330
1F
100
AcDbEntity
  8
0
  6
Continuous
 62
     7
100
AcDbPolyline
 90
        3
 70
   128
 43
0.0
 10
6403.148651123
 20
5320.3336986433
 10
6401.4752740412
 20
5319.4062722357
 10
6400.1115487449
 20
5318.7967332731
  0
LINE
  5
4BF
330
1F
100
AcDbEntity
  8
0
  6
Continuous
 62
     7
100
AcDbLine
 10
6409.8472595215
 20
5321.0145326982
 30
0.0
 11
6404.2992891304
 21
5321.0145326982
 31
0.0
  0
LWPOLYLINE
  5
4C0
330
1F
100
AcDbEntity
  8
0
  6
Continuous
 62
     7
100
AcDbPolyline
 90
        3
 70
   128
 43
0.0
 10
6394.6647644043
 20
5282.1145447622
 10
6403.6550099653
 20
5303.7087811804
 10
6409.8497705094
 20
5321.0145326982
  0
LWPOLYLINE
  5
4C1
330
1F
100
AcDbEntity
  8
0
  6
Continuous
 62
     7
100
AcDbPolyline
 90
        3
 70
   128
 43
0.0
 10
6408.1039428711
 20
5301.342377318
 10
6407.4019761864
 20
5299.3605037815
 10
6406.8274871938
 20
5297.8105636965
  0
LWPOLYLINE
  5
4C2
330
1F
100
AcDbEntity
  8
0
  6
Continuous
 62
     7
100
AcDbPolyline
 90
        3
 70
   128
 43
0.0
 10
6406.8260192871
 20
5297.8105636964
 10
6404.1355798932
 20
5291.1207411933
 10
6402.3583160274
 20
5285.7383879553
  0
LWPOLYLINE
  5
4C3
330
1F
100
AcDbEntity
  8
0
  6
Continuous
 62
     7
100
AcDbPolyline
 90
        3
 70
   128
 43
0.0
 10
6402.3551940918
 20
5285.7383879553
 10
6401.7781552873
 20
5283.6399343416
 10
6400.9818138115
 20
5282.1145745645
  0
LWPOLYLINE
  5
4C4
330
1F
100
AcDbEntity
  8
0
  6
Continuous
 62
     7
100
AcDbPolyline
 90
        3
 70
   128
 43
0.0
 10
6410.7093811035
 20
5321.0785182844
 10
6409.4868391101
 20
5309.929172043
 10
6408.1071616642
 20
5301.342377318
  0
LWPOLYLINE
  5
4C5
330
1F
100
AcDbEntity
  8
0
  6
Continuous
 62
     7
100
AcDbPolyline
 90
        5
 70
   128
 43
0.0
 10
6411.8118286133
 20
5322.4570843111
 10
6419.4926824006
 20
5319.496269126
 10
6421.5741134433
 20
5317.9684564631
 10
6422.0245661814
 20
5317.2904972992
 10
6422.0050798289
 20
5316.717693461
  0
LWPOLYLINE
  5
4C6
330
1F
100
AcDbEntity
  8
0
  6
Continuous
 62
     7
100
AcDbPolyline
 90
        3
 70
   128
 43
0.0
 10
6410.3317260742
 20
5282.1145745645
 10
6411.0189171761
 20
5283.6737603532
 10
6411.5533308618
 20
5284.9678191076
  0
LWPOLYLINE
  5
4C7
330
1F
100
AcDbEntity
  8
0
  6
Continuous
 62
     7
100
AcDbPolyline
 90
        3
 70
   128
 43
0.0
 10
6411.5524291992
 20
5284.9678191076
 10
6412.2514776386
 20
5286.4869413895
 10
6412.7482400767
 20
5287.4985131155
  0
LWPOLYLINE
  5
4C8
330
1F
100
AcDbEntity
  8
0
  6
Continuous
 62
     7
100
AcDbPolyline
 90
        3
 70
   128
 43
0.0
 10
6412.7464294434
 20
5287.4985131155
 10
6413.0622436276
 20
5288.1756049725
 10
6413.2254348628
 20
5288.6330577264
  0
LWPOLYLINE
  5
4C9
330
1F
100
AcDbEntity
  8
0
  6
Continuous
 62
     7
100
AcDbPolyline
 90
        3
 70
   128
 43
0.0
 10
6413.2232666016
 20
5288.6330577264
 10
6413.2584252899
 20
5288.7744605595
 10
6413.2793174617
 20
5288.8814898859
  0
LWPOLYLINE
  5
4CA
330
1F
100
AcDbEntity
  8
0
  6
Continuous
 62
     7
100
AcDbPolyline
 90
        3
 70
   128
 43
0.0
 10
6411.8118286133
 20
5322.4570843111
 10
6409.877320379
 20
5310.6173799216
 10
6408.1071616642
 20
5301.342377318
  0
LWPOLYLINE
  5
4CB
330
1F
100
AcDbEntity
  8
0
  6
Continuous
 62
     7
100
AcDbPolyline
 90
        3
 70
   128
 43
0.0
 10
6399.356842041
 20
5318.9167770277
 10
6399.6875962602
 20
5319.001118415
 10
6399.9554069273
 20
5319.0251382719
  0
LWPOLYLINE
  5
4CC
330
1F
100
AcDbEntity
  8
0
  6
Continuous
 62
     7
100
AcDbPolyline
 90
        3
 70
   128
 43
0.0
 10
6400.1083374023
 20
5318.7967332731
 10
6400.0325861183
 20
5318.927982681
 10
6399.9554069273
 20
5319.0251382719
  0
LWPOLYLINE
  5
4CD
330
1F
100
AcDbEntity
  8
0
  6
Continuous
 62
     7
100
AcDbPolyline
 90
        3
 70
   128
 43
0.0
 10
6399.356842041
 20
5318.9167770277
 10
6399.3554196817
 20
5319.3669735905
 10
6399.4139955871
 20
5319.8649379144
  0
LWPOLYLINE
  5
4CE
330
1F
100
AcDbEntity
  8
0
  6
Continuous
 62
     7
100
AcDbPolyline
 90
        3
 70
   128
 43
0.0
 10
6404.296875
 20
5322.0148178469
 10
6404.2292203657
 20
5321.8241424421
 10
6404.0068612925
 20
5321.6440173517
  0
LWPOLYLINE
  5
4CF
330
1F
100
AcDbEntity
  8
0
  6
Continuous
 62
     7
100
AcDbPolyline
 90
        3
 70
   128
 43
0.0
 10
6403.8276672363
 20
5321.4691969286
 10
6404.2940842336
 20
5321.785437155
 10
6404.4932724468
 20
5322.0148178468
  0
LWPOLYLINE
  5
4D0
330
1F
100
AcDbEntity
  8
0
  6
Continuous
 62
     7
100
AcDbPolyline
 90
        3
 70
   128
 43
0.0
 10
6404.7737121582
 20
5322.0148178468
 10
6404.708572636
 20
5322.0953184237
 10
6404.6537430517
 20
5322.1145364175
  0
LWPOLYLINE
  5
4D1
330
1F
100
AcDbEntity
  8
0
  6
Continuous
 62
     7
100
AcDbPolyline
 90
        3
 70
   128
 43
0.0
 10
6404.296875
 20
5321.0145326982
 10
6404.7313215381
 20
5321.6230076369
 10
6404.7757910125
 20
5322.0148178468
  0
LWPOLYLINE
  5
4D2
330
1F
100
AcDbEntity
  8
0
  6
Continuous
 62
     7
100
AcDbPolyline
 90
        3
 70
   128
 43
0.0
 10
6404.4914245605
 20
5322.0148178468
 10
6404.5817873832
 20
5322.0952855688
 10
6404.6537430517
 20
5322.1145364175
  0
LWPOLYLINE
  5
4D3
330
1F
100
AcDbEntity
  8
0
  6
Continuous
 62
     7
100
AcDbPolyline
 90
        3
 70
   128
 43
0.0
 10
6411.6020202637
 20
5322.2710284124
 10
6411.0694946815
 20
5321.7575551502
 10
6410.7102231614
 20
5321.0785182844
  0
LINE
  5
4D4
330
1F
100
AcDbEntity
  8
0
  6
Continuous
 62
     7
100
AcDbLine
 10
6404.0260314941
 20
5322.1145364175
 30
0.0
 11
6404.623165869
 21
5322.1145364175
 31
0.0
  0
LWPOLYLINE
  5
4D5
330
1F
100
AcDbEntity
  8
0
  6
Continuous
 62
     7
100
AcDbPolyline
 90
        3
 70
   128
 43
0.0
 10
6407.6271057129
 20
5323.4395178686
 10
6409.9678110517
 20
5322.9325115712
 10
6411.8125216596
 20
5322.4570843111
  0
LWPOLYLINE
  5
4D6
330
1F
100
AcDbEntity
  8
0
  6
Continuous
 62
     7
100
AcDbPolyline
 90
        3
 70
   128
 43
0.0
 10
6403.392791748
 20
5324.0595551859
 10
6405.6950286658
 20
5323.7791920818
 10
6407.6301680438
 20
5323.4395178686
  0
LWPOLYLINE
  5
4D7
330
1F
100
AcDbEntity
  8
0
  6
Continuous
 62
     7
100
AcDbPolyline
 90
        3
 70
   128
 43
0.0
 10
6412.5747680664
 20
5284.5007571111
 10
6412.3637267278
 20
5283.5757100229
 10
6411.8601308696
 20
5282.1145447622
  0
LWPOLYLINE
  5
4D8
330
1F
100
AcDbEntity
  8
0
  6
Continuous
 62
     7
100
AcDbPolyline
 90
        3
 70
   128
 43
0.0
 10
6403.6254882812
 20
5323.3445378671
 10
6405.7962477612
 20
5323.3889732935
 10
6407.6301680438
 20
5323.4395178686
  0
LWPOLYLINE
  5
4D9
330
1F
100
AcDbEntity
  8
0
  6
Continuous
 62
     7
100
AcDbPolyline
 90
        3
 70
   128
 43
0.0
 10
6877.8648376465
 20
5130.420366181
 10
6878.2029174327
 20
5131.0047660842
 10
6878.4684448808
 20
5131.4639243017
  0
LWPOLYLINE
  5
4DA
330
1F
100
AcDbEntity
  8
0
  6
Continuous
 62
     7
100
AcDbPolyline
 90
        3
 70
   128
 43
0.0
 10
6879.8179626465
 20
5130.420366181
 10
6880.1567576885
 20
5131.0047660842
 10
6880.4222851365
 20
5131.4639243017
  0
LWPOLYLINE
  5
4DB
330
1F
100
AcDbEntity
  8
0
  6
Continuous
 62
     7
100
AcDbPolyline
 90
        3
 70
   128
 43
0.0
 10
6881.7710876465
 20
5130.420366181
 10
6882.1106181497
 20
5131.0047547218
 10
6882.3761253922
 20
5131.4639243017
  0
LWPOLYLINE
  5
4DC
330
1F
100
AcDbEntity
  8
0
  6
Continuous
 62
     7
100
AcDbPolyline
 90
        3
 70
   128
 43
0.0
 10
6883.7242126465
 20
5130.420366181
 10
6884.0644667086
 20
5131.0047595711
 10
6884.3299954503
 20
5131.4639243017
  0
LWPOLYLINE
  5
4DD
330
1F
100
AcDbEntity
  8
0
  6
Continuous
 62
     7
100
AcDbPolyline
 90
        3
 70
   128
 43
0.0
 10
6877.498626709
 20
5149.3331583868
 10
6877.15754764
 20
5149.92630856
 10
6876.8880873292
 20
5150.3923925291
  0
LWPOLYLINE
  5
4DE
330
1F
100
AcDbEntity
  8
0
  6
Continuous
 62
     7
100
AcDbPolyline
 90
        3
 70
   128
 43
0.0
 10
6879.451751709
 20
5149.3331583868
 10
6879.1113900725
 20
5149.9263022348
 10
6878.8419275849
 20
5150.3923925291
  0
LWPOLYLINE
  5
4DF
330
1F
100
AcDbEntity
  8
0
  6
Continuous
 62
     7
100
AcDbPolyline
 90
        3
 70
   128
 43
0.0
 10
6881.404876709
 20
5149.3331583868
 10
6881.0652303282
 20
5149.9263022348
 10
6880.7957678407
 20
5150.3923925291
  0
LWPOLYLINE
  5
4E0
330
1F
100
AcDbEntity
  8
0
  6
Continuous
 62
     7
100
AcDbPolyline
 90
        3
 70
   128
 43
0.0
 10
6883.3618164062
 20
5149.3331583868
 10
6883.0190924546
 20
5149.9263148819
 10
6882.7496080964
 20
5150.3923925291
  0
LWPOLYLINE
  5
4E1
330
1F
100
AcDbEntity
  8
0
  6
Continuous
 62
     7
100
AcDbPolyline
 90
        3
 70
   128
 43
0.0
 10
6875.9078979492
 20
5130.420366181
 10
6876.2541524849
 20
5131.013543621
 10
6876.523664531
 20
5131.4796003233
  0
LWPOLYLINE
  5
4E2
330
1F
100
AcDbEntity
  8
0
  6
Continuous
 62
     7
100
AcDbPolyline
 90
        3
 70
   128
 43
0.0
 10
6878.8795471191
 20
5131.6785010229
 10
6879.2225802313
 20
5131.0974450538
 10
6879.4915884107
 20
5130.6406649481
  0
LWPOLYLINE
  5
4E3
330
1F
100
AcDbEntity
  8
0
  6
Continuous
 62
     7
100
AcDbPolyline
 90
        3
 70
   128
 43
0.0
 10
6880.8326721191
 20
5131.6785010229
 10
6881.1764204871
 20
5131.0974450538
 10
6881.4454286664
 20
5130.6406649481
  0
LWPOLYLINE
  5
4E4
330
1F
100
AcDbEntity
  8
0
  6
Continuous
 62
     7
100
AcDbPolyline
 90
        3
 70
   128
 43
0.0
 10
6882.7857971191
 20
5131.6785010229
 10
6883.1302664935
 20
5131.0974388512
 10
6883.3992987245
 20
5130.6406649481
  0
LWPOLYLINE
  5
4E5
330
1F
100
AcDbEntity
  8
0
  6
Continuous
 62
     7
100
AcDbPolyline
 90
        3
 70
   128
 43
0.0
 10
6884.7389221191
 20
5131.6785010229
 10
6885.084108924
 20
5131.0974326491
 10
6885.3531389802
 20
5130.6406649481
  0
LWPOLYLINE
  5
4E6
330
1F
100
AcDbEntity
  8
0
  6
Continuous
 62
     7
100
AcDbPolyline
 90
        3
 70
   128
 43
0.0
 10
6878.5629272461
 20
5150.3926309477
 10
6878.2228118477
 20
5149.7994849707
 10
6877.9533117383
 20
5149.33345641
  0
LWPOLYLINE
  5
4E7
330
1F
100
AcDbEntity
  8
0
  6
Continuous
 62
     7
100
AcDbPolyline
 90
        3
 70
   128
 43
0.0
 10
6880.5160522461
 20
5150.3926309477
 10
6880.1766739748
 20
5149.7994723237
 10
6879.907151994
 20
5149.33345641
  0
LWPOLYLINE
  5
4E8
330
1F
100
AcDbEntity
  8
0
  6
Continuous
 62
     7
100
AcDbPolyline
 90
        3
 70
   128
 43
0.0
 10
6882.4729919434
 20
5150.3926309477
 10
6882.1305142305
 20
5149.7994723237
 10
6881.8609922498
 20
5149.33345641
  0
LWPOLYLINE
  5
4E9
330
1F
100
AcDbEntity
  8
0
  6
Continuous
 62
     7
100
AcDbPolyline
 90
        3
 70
   128
 43
0.0
 10
6884.4261169434
 20
5150.3926309477
 10
6884.0843566642
 20
5149.7994786462
 10
6883.8148325055
 20
5149.33345641
  0
LWPOLYLINE
  5
4EA
330
1F
100
AcDbEntity
  8
0
  6
Continuous
 62
     7
100
AcDbPolyline
 90
        3
 70
   128
 43
0.0
 10
6876.6098022461
 20
5150.3926309477
 10
6876.268971592
 20
5149.7994849707
 10
6875.9994714826
 20
5149.33345641
  0
LWPOLYLINE
  5
4EB
330
1F
100
AcDbEntity
  8
0
  6
Continuous
 62
     7
100
AcDbPolyline
 90
        3
 70
   128
 43
0.0
 10
6876.9226074219
 20
5131.6785010229
 10
6877.2687180987
 20
5131.0974326491
 10
6877.5377481549
 20
5130.6406649481
  0
LWPOLYLINE
  5
4EC
330
1F
100
AcDbEntity
  8
0
  6
Continuous
 62
     7
100
AcDbPolyline
 90
        3
 70
   128
 43
0.0
 10
6962.4252319336
 20
5313.1638261209
 10
6961.857554498
 20
5314.3131157701
 10
6960.9818666547
 20
5315.2067753206
  0
LWPOLYLINE
  5
4ED
330
1F
100
AcDbEntity
  8
0
  6
Continuous
 62
     7
100
AcDbPolyline
 90
        3
 70
   128
 43
0.0
 10
6918.8842773438
 20
5316.713997973
 10
6923.5558624432
 20
5301.8980764115
 10
6927.1863012879
 20
5290.2318033109
  0
LWPOLYLINE
  5
4EE
330
1F
100
AcDbEntity
  8
0
  6
Continuous
 62
     7
100
AcDbPolyline
 90
        3
 70
   128
 43
0.0
 10
6942.6231384277
 20
5318.4961470495
 10
6942.5486565029
 20
5318.53469794
 10
6942.4796610444
 20
5318.5910674463
  0
LWPOLYLINE
  5
4EF
330
1F
100
AcDbEntity
  8
0
  6
Continuous
 62
     7
100
AcDbPolyline
 90
        3
 70
   128
 43
0.0
 10
6937.1147155762
 20
5322.8925558458
 10
6936.8388448757
 20
5322.3107070956
 10
6936.576059398
 20
5322.0170232187
  0
LWPOLYLINE
  5
4F0
330
1F
100
AcDbEntity
  8
0
  6
Continuous
 62
     7
100
AcDbPolyline
 90
        3
 70
   128
 43
0.0
 10
6927.1850585938
 20
5290.2064713369
 10
6927.7041421892
 20
5287.8809142793
 10
6927.8085737794
 20
5285.9785648714
  0
LWPOLYLINE
  5
4F1
330
1F
100
AcDbEntity
  8
0
  6
Continuous
 62
     7
100
AcDbPolyline
 90
        3
 70
   128
 43
0.0
 10
6962.5053405762
 20
5342.6419290434
 10
6962.4929864957
 20
5343.0341259417
 10
6962.286999759
 20
5343.2677182089
  0
LWPOLYLINE
  5
4F2
330
1F
100
AcDbEntity
  8
0
  6
Continuous
 62
     7
100
AcDbPolyline
 90
        3
 70
   128
 43
0.0
 10
6955.5130004883
 20
5320.1752098928
 10
6955.5280810315
 20
5320.8794711092
 10
6955.6440024941
 20
5321.3977905641
  0
LWPOLYLINE
  5
4F3
330
1F
100
AcDbEntity
  8
0
  6
Continuous
 62
     7
100
AcDbPolyline
 90
        3
 70
   128
 43
0.0
 10
6940.6929016113
 20
5333.9662941824
 10
6939.0342704262
 20
5334.5672410469
 10
6937.5033288568
 20
5334.7243758569
  0
LWPOLYLINE
  5
4F4
330
1F
100
AcDbEntity
  8
0
  6
Continuous
 62
     7
100
AcDbPolyline
 90
        3
 70
   128
 43
0.0
 10
6918.4036254883
 20
5329.1140886675
 10
6917.2268210459
 20
5327.5712080444
 10
6917.0947580903
 20
5325.8641454111
  0
LWPOLYLINE
  5
4F5
330
1F
100
AcDbEntity
  8
0
  6
Continuous
 62
     7
100
AcDbPolyline
 90
        3
 70
   128
 43
0.0
 10
6938.1332397461
 20
5334.671506537
 10
6927.2935005699
 20
5333.6794831885
 10
6919.5582776635
 20
5329.9819620977
  0
LWPOLYLINE
  5
4F6
330
1F
100
AcDbEntity
  8
0
  6
Continuous
 62
     7
100
AcDbPolyline
 90
        8
 70
   128
 43
0.0
 10
6875.9117126465
 20
5130.515495194
 10
6875.9051563762
 20
5130.5050016959
 10
6875.9017107779
 20
5130.5020223614
 10
6875.8982555171
 20
5130.5017639243
 10
6875.8936279053
 20
5130.5072194441
 10
6875.8364963474
 20
5131.2103481977
 10
6875.607535124
 20
5140.1622028181
 10
6875.2927690118
 20
5149.7288140188
  0
LWPOLYLINE
  5
4F7
330
1F
100
AcDbEntity
  8
0
  6
Continuous
 62
     7
100
AcDbPolyline
 90
        8
 70
   128
 43
0.0
 10
6875.545501709
 20
5149.210968865
 10
6875.5619439578
 20
5149.2104231752
 10
6875.5767403836
 20
5149.1978657601
 10
6875.6673081646
 20
5148.5028598081
 10
6876.0263553647
 20
5140.139546313
 10
6876.3861567513
 20
5132.0957074004
 10
6876.4462243093
 20
5131.6579185777
 10
6876.505544719
 20
5131.5544041525
  0
LWPOLYLINE
  5
4F8
330
1F
100
AcDbEntity
  8
0
  6
Continuous
 62
     7
100
AcDbPolyline
 90
        8
 70
   128
 43
0.0
 10
6877.498626709
 20
5149.210968865
 10
6877.5157842132
 20
5149.2104231752
 10
6877.5305806389
 20
5149.1978657601
 10
6877.6211484254
 20
5148.5028598088
 10
6877.9801959469
 20
5140.1395463248
 10
6878.3400103762
 20
5132.0957076712
 10
6878.4000618629
 20
5131.6579185227
 10
6878.4593849748
 20
5131.5544041525
  0
LWPOLYLINE
  5
4F9
330
1F
100
AcDbEntity
  8
0
  6
Continuous
 62
     7
100
AcDbPolyline
 90
        8
 70
   128
 43
0.0
 10
6879.451751709
 20
5149.210968865
 10
6879.4696367025
 20
5149.2104232256
 10
6879.4844435455
 20
5149.197865856
 10
6879.5749977518
 20
5148.5028597733
 10
6879.9340699664
 20
5140.1395474723
 10
6880.2938512236
 20
5132.0957076887
 10
6880.3539019806
 20
5131.6579185178
 10
6880.4132252305
 20
5131.5544041525
  0
LWPOLYLINE
  5
4FA
330
1F
100
AcDbEntity
  8
0
  6
Continuous
 62
     7
100
AcDbPolyline
 90
        8
 70
   128
 43
0.0
 10
6881.4086914062
 20
5149.210968865
 10
6881.4234769588
 20
5149.2104232254
 10
6881.4382838023
 20
5149.1978658543
 10
6881.5288380124
 20
5148.5028597141
 10
6881.8879102605
 20
5140.1395469546
 10
6882.2476879293
 20
5132.0957073517
 10
6882.3077471847
 20
5131.6579183864
 10
6882.3670952886
 20
5131.5544041525
  0
LWPOLYLINE
  5
4FB
330
1F
100
AcDbEntity
  8
0
  6
Continuous
 62
     7
100
AcDbPolyline
 90
        8
 70
   128
 43
0.0
 10
6883.3618164062
 20
5149.210968865
 10
6883.3773172161
 20
5149.2104232255
 10
6883.39212406
 20
5149.1978658543
 10
6883.4826782476
 20
5148.5028597124
 10
6883.8417492141
 20
5140.1395469098
 10
6884.2015475074
 20
5132.0957074455
 10
6884.2616151475
 20
5131.6579185863
 10
6884.3209355443
 20
5131.5544041525
  0
LWPOLYLINE
  5
4FC
330
1F
100
AcDbEntity
  8
0
  6
Continuous
 62
     7
100
AcDbPolyline
 90
        8
 70
   128
 43
0.0
 10
6876.8882751465
 20
5150.2767595182
 10
6877.369209192
 20
5140.1360530855
 10
6877.7287416762
 20
5131.1151956371
 10
6877.7970651465
 20
5130.5536276602
 10
6877.808262422
 20
5130.5276710566
 10
6877.8193972279
 20
5130.5181156056
 10
6877.8341759077
 20
5130.5231567252
 10
6877.848914203
 20
5130.5388006101
  0
LWPOLYLINE
  5
4FD
330
1F
100
AcDbEntity
  8
0
  6
Continuous
 62
     7
100
AcDbPolyline
 90
        8
 70
   128
 43
0.0
 10
6878.8414001465
 20
5150.2767595182
 10
6879.3230494756
 20
5140.1360526208
 10
6879.682581936
 20
5131.115195591
 10
6879.7509054038
 20
5130.5536276552
 10
6879.762102679
 20
5130.5276710548
 10
6879.7732374845
 20
5130.5181156054
 10
6879.7880161638
 20
5130.5231567256
 10
6879.8027544587
 20
5130.5388006101
  0
LWPOLYLINE
  5
4FE
330
1F
100
AcDbEntity
  8
0
  6
Continuous
 62
     7
100
AcDbPolyline
 90
        8
 70
   128
 43
0.0
 10
6880.7945251465
 20
5150.2767595182
 10
6881.276918083
 20
5140.1360530645
 10
6881.6364395399
 20
5131.1151956296
 10
6881.704746135
 20
5130.5536275607
 10
6881.7159469548
 20
5130.5276709743
 10
6881.7270872776
 20
5130.5181155434
 10
6881.7418754518
 20
5130.5231566931
 10
6881.7566245168
 20
5130.5388006101
  0
LWPOLYLINE
  5
4FF
330
1F
100
AcDbEntity
  8
0
  6
Continuous
 62
     7
100
AcDbPolyline
 90
        8
 70
   128
 43
0.0
 10
6882.7476501465
 20
5150.2767595182
 10
6883.2307585305
 20
5140.1360530684
 10
6883.5902798009
 20
5131.1151956297
 10
6883.6585863905
 20
5130.5536275607
 10
6883.66978721
 20
5130.5276709743
 10
6883.6809275326
 20
5130.5181155434
 10
6883.6957157071
 20
5130.5231566931
 10
6883.7104647725
 20
5130.5388006101
  0
LWPOLYLINE
  5
500
330
1F
100
AcDbEntity
  8
0
  6
Continuous
 62
     7
100
AcDbPolyline
 90
        8
 70
   128
 43
0.0
 10
6876.6250610352
 20
5150.2764018903
 10
6876.6429949164
 20
5150.2816143715
 10
6876.6580456326
 20
5150.2778789609
 10
6876.7499812889
 20
5149.6734389008
 10
6877.116159979
 20
5140.4059307647
 10
6877.4827826165
 20
5131.1420297919
 10
6877.5440142468
 20
5130.628588406
 10
6877.6045053571
 20
5130.5078061948
  0
LWPOLYLINE
  5
501
330
1F
100
AcDbEntity
  8
0
  6
Continuous
 62
     7
100
AcDbPolyline
 90
        8
 70
   128
 43
0.0
 10
6878.5781860352
 20
5150.2764018903
 10
6878.5968351742
 20
5150.2816143716
 10
6878.6118858917
 20
5150.2778789609
 10
6878.7038215234
 20
5149.6734388994
 10
6879.0699997174
 20
5140.4059307434
 10
6879.436641239
 20
5131.1420298665
 10
6879.4978824821
 20
5130.6285885865
 10
6879.5583456128
 20
5130.5078061948
  0
LWPOLYLINE
  5
502
330
1F
100
AcDbEntity
  8
0
  6
Continuous
 62
     7
100
AcDbPolyline
 90
        8
 70
   128
 43
0.0
 10
6880.5351257324
 20
5150.2764018903
 10
6880.550673955
 20
5150.281614345
 10
6880.5657237213
 20
5150.2778789171
 10
6880.6576820287
 20
5149.673439258
 10
6881.0238384239
 20
5140.4059307131
 10
6881.3904815621
 20
5131.1420298698
 10
6881.4517227234
 20
5130.6285885863
 10
6881.5121858685
 20
5130.5078061948
  0
LWPOLYLINE
  5
503
330
1F
100
AcDbEntity
  8
0
  6
Continuous
 62
     7
100
AcDbPolyline
 90
        8
 70
   128
 43
0.0
 10
6882.4882507324
 20
5150.2764018903
 10
6882.5045142102
 20
5150.281614345
 10
6882.5195639762
 20
5150.2778789171
 10
6882.6115222897
 20
5149.6734392586
 10
6882.9776788093
 20
5140.4059307202
 10
6883.3443361038
 20
5131.1420301285
 10
6883.4055603811
 20
5130.628588539
 10
6883.4660261243
 20
5130.5078061948
  0
LWPOLYLINE
  5
504
330
1F
100
AcDbEntity
  8
0
  6
Continuous
 62
     7
100
AcDbPolyline
 90
        8
 70
   128
 43
0.0
 10
6884.4413757324
 20
5150.2764018903
 10
6884.4583857412
 20
5150.2816143715
 10
6884.473436457
 20
5150.2778789615
 10
6884.5653721102
 20
5149.6734389467
 10
6884.9315507818
 20
5140.405931228
 10
6885.2981769853
 20
5131.1420301005
 10
6885.3594005057
 20
5130.628588527
 10
6885.41986638
 20
5130.5078061948
  0
LWPOLYLINE
  5
505
330
1F
100
AcDbEntity
  8
0
  6
Continuous
 62
     7
100
AcDbPolyline
 90
        6
 70
   128
 43
0.0
 10
6876.0147094727
 20
5149.2326649557
 10
6876.0452742907
 20
5149.2352949709
 10
6876.0876116749
 20
5149.1269218267
 10
6876.1306545482
 20
5148.7878145361
 10
6876.4714825736
 20
5141.3889755167
 10
6876.9260256856
 20
5131.7113431822
  0
ARC
  5
506
330
1F
100
AcDbEntity
  8
0
  6
Continuous
 62
     7
100
AcDbCircle
 10
6606.9669605063
 20
5126.3419498986
 30
0.0
 40
271.9659142729979
100
AcDbArc
 50
1.1312578036
 51
4.8281596498
  0
LWPOLYLINE
  5
507
330
1F
100
AcDbEntity
  8
0
  6
Continuous
 62
     7
100
AcDbPolyline
 90
        6
 70
   128
 43
0.0
 10
6879.9247741699
 20
5149.2326649557
 10
6879.9529724127
 20
5149.235295061
 10
6879.9953220048
 20
5149.1269219812
 10
6880.0383525277
 20
5148.7878145675
 10
6880.3791827085
 20
5141.3889762227
 10
6880.8337061971
 20
5131.7113431822
  0
LWPOLYLINE
  5
508
330
1F
100
AcDbEntity
  8
0
  6
Continuous
 62
     7
100
AcDbPolyline
 90
        6
 70
   128
 43
0.0
 10
6881.8778991699
 20
5149.2326649557
 10
6881.9068126689
 20
5149.2352950604
 10
6881.9491622638
 20
5149.1269219665
 10
6881.9921927919
 20
5148.7878145201
 10
6882.3330227646
 20
5141.3889757055
 10
6882.7875762551
 20
5131.7113431822
  0
LWPOLYLINE
  5
509
330
1F
100
AcDbEntity
  8
0
  6
Continuous
 62
     7
100
AcDbPolyline
 90
        6
 70
   128
 43
0.0
 10
6883.8310241699
 20
5149.2326649557
 10
6883.8606507394
 20
5149.2352950183
 10
6883.9030038928
 20
5149.1269219924
 10
6883.946049012
 20
5148.7878148249
 10
6884.2868648846
 20
5141.3889757469
 10
6884.7414165109
 20
5131.7113431822
  0
LWPOLYLINE
  5
50A
330
1F
100
AcDbEntity
  8
0
  6
Continuous
 62
     7
100
AcDbPolyline
 90
        3
 70
   128
 43
0.0
 10
6942.2264099121
 20
5318.6384829412
 10
6942.2824365641
 20
5318.4951053551
 10
6942.3277586072
 20
5318.3814975153
  0
LWPOLYLINE
  5
50B
330
1F
100
AcDbEntity
  8
0
  6
Continuous
 62
     7
100
AcDbPolyline
 90
        3
 70
   128
 43
0.0
 10
6960.8840942383
 20
5315.2092114732
 10
6959.9787342993
 20
5315.9076484221
 10
6959.2489763287
 20
5316.4576903626
  0
LWPOLYLINE
  5
50C
330
1F
100
AcDbEntity
  8
0
  6
Continuous
 62
     7
100
AcDbPolyline
 90
        3
 70
   128
 43
0.0
 10
6947.9637145996
 20
5315.209219111
 10
6947.7098215196
 20
5315.0353863349
 10
6947.5502281754
 20
5314.7630783449
  0
LWPOLYLINE
  5
50D
330
1F
100
AcDbEntity
  8
0
  6
Continuous
 62
     7
100
AcDbPolyline
 90
        3
 70
   128
 43
0.0
 10
6947.5479125977
 20
5314.7630783449
 10
6947.5475577633
 20
5314.7524568698
 10
6947.546860513
 20
5314.7438856493
  0
LWPOLYLINE
  5
50E
330
1F
100
AcDbEntity
  8
0
  6
Continuous
 62
     7
100
AcDbPolyline
 90
        3
 70
   128
 43
0.0
 10
6939.8956298828
 20
5282.1145745645
 10
6939.4241572859
 20
5283.8676692656
 10
6938.7079387277
 20
5285.2453085313
  0
LWPOLYLINE
  5
50F
330
1F
100
AcDbEntity
  8
0
  6
Continuous
 62
     7
100
AcDbPolyline
 90
        3
 70
   128
 43
0.0
 10
6938.7054443359
 20
5285.2453085313
 10
6936.5488488857
 20
5290.369417821
 10
6935.3059440225
 20
5294.4002541433
  0
LWPOLYLINE
  5
510
330
1F
100
AcDbEntity
  8
0
  6
Continuous
 62
     7
100
AcDbPolyline
 90
        3
 70
   128
 43
0.0
 10
6935.302734375
 20
5294.4002541433
 10
6932.1239735693
 20
5309.1752686135
 10
6930.2630632489
 20
5321.0679384599
  0
LWPOLYLINE
  5
511
330
1F
100
AcDbEntity
  8
0
  6
Continuous
 62
     7
100
AcDbPolyline
 90
        3
 70
   128
 43
0.0
 10
6931.0455322266
 20
5321.0145326982
 10
6939.0663715887
 20
5299.0512491926
 10
6946.2042360871
 20
5282.1145447622
  0
LWPOLYLINE
  5
512
330
1F
100
AcDbEntity
  8
0
  6
Continuous
 62
     7
100
AcDbPolyline
 90
        3
 70
   128
 43
0.0
 10
6939.8422241211
 20
5319.1893788706
 10
6938.6527974244
 20
5319.8080168121
 10
6937.735846576
 20
5320.3336986433
  0
LWPOLYLINE
  5
513
330
1F
100
AcDbEntity
  8
0
  6
Continuous
 62
     7
100
AcDbPolyline
 90
        3
 70
   128
 43
0.0
 10
6941.8716430664
 20
5317.9268034826
 10
6941.2596546335
 20
5318.2797702628
 10
6940.7785742848
 20
5318.557212008
  0
LWPOLYLINE
  5
514
330
1F
100
AcDbEntity
  8
0
  6
Continuous
 62
     7
100
AcDbPolyline
 90
        3
 70
   128
 43
0.0
 10
6947.5440979004
 20
5314.7438856493
 10
6944.3511890591
 20
5316.5249246176
 10
6941.8738096326
 20
5317.9268034826
  0
LINE
  5
515
330
1F
100
AcDbEntity
  8
0
  6
Continuous
 62
     7
100
AcDbLine
 10
6936.5844726562
 20
5321.0145326982
 30
0.0
 11
6931.0469537347
 21
5321.0145326982
 31
0.0
  0
LWPOLYLINE
  5
516
330
1F
100
AcDbEntity
  8
0
  6
Continuous
 62
     7
100
AcDbPolyline
 90
        3
 70
   128
 43
0.0
 10
6942.325592041
 20
5318.3814975153
 10
6942.0405668682
 20
5318.2087086881
 10
6941.8738096326
 20
5317.9268034826
  0
LWPOLYLINE
  5
517
330
1F
100
AcDbEntity
  8
0
  6
Continuous
 62
     7
100
AcDbPolyline
 90
        4
 70
   128
 43
0.0
 10
6918.9338684082
 20
5316.7299422155
 10
6918.9016628536
 20
5317.2923354542
 10
6919.3465450462
 20
5317.9614038604
 10
6928.8726358979
 20
5322.3964663873
  0
LWPOLYLINE
  5
518
330
1F
100
AcDbEntity
  8
0
  6
Continuous
 62
     7
100
AcDbPolyline
 90
        3
 70
   128
 43
0.0
 10
6935.302734375
 20
5294.4002541433
 10
6931.4862030392
 20
5310.0380482646
 10
6928.8726358979
 20
5322.3964663873
  0
LWPOLYLINE
  5
519
330
1F
100
AcDbEntity
  8
0
  6
Continuous
 62
     7
100
AcDbPolyline
 90
        3
 70
   128
 43
0.0
 10
6941.234588623
 20
5319.0118762384
 10
6940.9459329906
 20
5318.8395821457
 10
6940.7785742848
 20
5318.557212008
  0
LWPOLYLINE
  5
51A
330
1F
100
AcDbEntity
  8
0
  6
Continuous
 62
     7
100
AcDbPolyline
 90
        3
 70
   128
 43
0.0
 10
6941.234588623
 20
5319.0118762384
 10
6940.5454714259
 20
5319.3132958119
 10
6940.0852232545
 20
5319.5688220392
  0
LWPOLYLINE
  5
51B
330
1F
100
AcDbEntity
  8
0
  6
Continuous
 62
     7
100
AcDbPolyline
 90
        3
 70
   128
 43
0.0
 10
6942.211151123
 20
5318.6156841646
 10
6941.6785534518
 20
5318.8406736145
 10
6941.2356823056
 20
5319.0118762384
  0
LWPOLYLINE
  5
51C
330
1F
100
AcDbEntity
  8
0
  6
Continuous
 62
     7
100
AcDbPolyline
 90
        3
 70
   128
 43
0.0
 10
6940.0825500488
 20
5319.5688220392
 10
6939.9264956275
 20
5319.3784087039
 10
6939.8446291059
 20
5319.1893788706
  0
LWPOLYLINE
  5
51D
330
1F
100
AcDbEntity
  8
0
  6
Continuous
 62
     7
100
AcDbPolyline
 90
        3
 70
   128
 43
0.0
 10
6929.0504455566
 20
5322.2841414343
 10
6928.9492824119
 20
5322.3448306226
 10
6928.8726358979
 20
5322.3964663873
  0
LWPOLYLINE
  5
51E
330
1F
100
AcDbEntity
  8
0
  6
Continuous
 62
     7
100
AcDbPolyline
 90
        3
 70
   128
 43
0.0
 10
6930.2597045898
 20
5321.0679384599
 10
6929.5849434255
 20
5321.8627711843
 10
6929.0513604253
 20
5322.2841414343
  0
LWPOLYLINE
  5
51F
330
1F
100
AcDbEntity
  8
0
  6
Continuous
 62
     7
100
AcDbPolyline
 90
        3
 70
   128
 43
0.0
 10
6936.393737793
 20
5322.0148178468
 10
6936.6834698906
 20
5321.7180296578
 10
6937.0576053231
 20
5321.4691969286
  0
LWPOLYLINE
  5
520
330
1F
100
AcDbEntity
  8
0
  6
Continuous
 62
     7
100
AcDbPolyline
 90
        3
 70
   128
 43
0.0
 10
6936.8782043457
 20
5321.6440173517
 10
6936.6226002758
 20
5321.8702442232
 10
6936.590573129
 20
5322.0148178468
  0
LWPOLYLINE
  5
521
330
1F
100
AcDbEntity
  8
0
  6
Continuous
 62
     7
100
AcDbPolyline
 90
        3
 70
   128
 43
0.0
 10
6936.5844726562
 20
5321.0145326982
 10
6936.1567795234
 20
5321.6230116463
 10
6936.1135869592
 20
5322.0148178468
  0
LWPOLYLINE
  5
522
330
1F
100
AcDbEntity
  8
0
  6
Continuous
 62
     7
100
AcDbPolyline
 90
        3
 70
   128
 43
0.0
 10
6936.1114501953
 20
5322.0148178468
 10
6936.1813458209
 20
5322.0953146012
 10
6936.2366407483
 20
5322.1145364175
  0
LWPOLYLINE
  5
523
330
1F
100
AcDbEntity
  8
0
  6
Continuous
 62
     7
100
AcDbPolyline
 90
        3
 70
   128
 43
0.0
 10
6936.393737793
 20
5322.0148178468
 10
6936.3082007842
 20
5322.0952842698
 10
6936.2366407483
 20
5322.1145364175
  0
LINE
  5
524
330
1F
100
AcDbEntity
  8
0
  6
Continuous
 62
     7
100
AcDbLine
 10
6936.2640380859
 20
5322.1145364175
 30
0.0
 11
6936.8626087277
 21
5322.1145364175
 31
0.0
  0
LWPOLYLINE
  5
525
330
1F
100
AcDbEntity
  8
0
  6
Continuous
 62
     7
100
AcDbPolyline
 90
        3
 70
   128
 43
0.0
 10
6928.8711547852
 20
5322.3964663873
 10
6931.3381681883
 20
5323.0272460339
 10
6933.2728593915
 20
5323.4395178686
  0
LWPOLYLINE
  5
526
330
1F
100
AcDbEntity
  8
0
  6
Continuous
 62
     7
100
AcDbPolyline
 90
        3
 70
   128
 43
0.0
 10
6933.2695007324
 20
5323.4395178686
 10
6935.7124311905
 20
5323.8562842046
 10
6937.4932258695
 20
5324.0610154997
  0
LWPOLYLINE
  5
527
330
1F
100
AcDbEntity
  8
0
  6
Continuous
 62
     7
100
AcDbPolyline
 90
        3
 70
   128
 43
0.0
 10
6928.9283752441
 20
5282.1145447622
 10
6928.1252025925
 20
5284.893846037
 10
6927.8231173127
 20
5285.9792801271
  0
LWPOLYLINE
  5
528
330
1F
100
AcDbEntity
  8
0
  6
Continuous
 62
     7
100
AcDbPolyline
 90
        3
 70
   128
 43
0.0
 10
6933.2695007324
 20
5323.4395178686
 10
6935.5762812244
 20
5323.3772548528
 10
6937.2621386617
 20
5323.3460577856
  0
LWPOLYLINE
  5
529
330
1F
100
AcDbEntity
  8
0
  6
Continuous
 62
     7
100
AcDbPolyline
 90
        3
 70
   128
 43
0.0
 10
6344.0322875977
 20
4659.116450793
 10
6344.6172386344
 20
4658.7785924078
 10
6345.0763040714
 20
4658.5130729739
  0
LWPOLYLINE
  5
52A
330
1F
100
AcDbEntity
  8
0
  6
Continuous
 62
     7
100
AcDbPolyline
 90
        3
 70
   128
 43
0.0
 10
6344.0322875977
 20
4657.1626105372
 10
6344.6172259653
 20
4656.8247302442
 10
6345.0763040714
 20
4656.5592327182
  0
LWPOLYLINE
  5
52B
330
1F
100
AcDbEntity
  8
0
  6
Continuous
 62
     7
100
AcDbPolyline
 90
        3
 70
   128
 43
0.0
 10
6344.0322875977
 20
4655.2087702815
 10
6344.6172323981
 20
4654.8708844219
 10
6345.0763040714
 20
4654.6053626601
  0
LWPOLYLINE
  5
52C
330
1F
100
AcDbEntity
  8
0
  6
Continuous
 62
     7
100
AcDbPolyline
 90
        3
 70
   128
 43
0.0
 10
6344.0322875977
 20
4653.2549300258
 10
6344.6172323981
 20
4652.9170441662
 10
6345.0763040714
 20
4652.6515224044
  0
LWPOLYLINE
  5
52D
330
1F
100
AcDbEntity
  8
0
  6
Continuous
 62
     7
100
AcDbPolyline
 90
        3
 70
   128
 43
0.0
 10
6362.9417419434
 20
4659.4807245795
 10
6363.5384343726
 20
4659.8238456616
 10
6364.0045748584
 20
4660.0934007232
  0
LWPOLYLINE
  5
52E
330
1F
100
AcDbEntity
  8
0
  6
Continuous
 62
     7
100
AcDbPolyline
 90
        3
 70
   128
 43
0.0
 10
6362.9417419434
 20
4657.5268843238
 10
6363.5384280498
 20
4657.8699996512
 10
6364.0045748584
 20
4658.1395306651
  0
LWPOLYLINE
  5
52F
330
1F
100
AcDbEntity
  8
0
  6
Continuous
 62
     7
100
AcDbPolyline
 90
        3
 70
   128
 43
0.0
 10
6362.9417419434
 20
4655.573044068
 10
6363.5384406972
 20
4655.9161375252
 10
6364.0045748584
 20
4656.1856904094
  0
LWPOLYLINE
  5
530
330
1F
100
AcDbEntity
  8
0
  6
Continuous
 62
     7
100
AcDbPolyline
 90
        3
 70
   128
 43
0.0
 10
6362.9417419434
 20
4653.61917401
 10
6363.5384343726
 20
4653.9622950921
 10
6364.0045748584
 20
4654.2318501536
  0
LWPOLYLINE
  5
531
330
1F
100
AcDbEntity
  8
0
  6
Continuous
 62
     7
100
AcDbPolyline
 90
        3
 70
   128
 43
0.0
 10
6344.4137573242
 20
4660.8487405841
 10
6344.7858255344
 20
4660.6349287565
 10
6345.0763040714
 20
4660.4669132296
  0
LWPOLYLINE
  5
532
330
1F
100
AcDbEntity
  8
0
  6
Continuous
 62
     7
100
AcDbPolyline
 90
        3
 70
   128
 43
0.0
 10
6345.0927734375
 20
4658.0541172091
 10
6344.5007359361
 20
4657.7110034422
 10
6344.0345862441
 20
4657.4414708678
  0
LWPOLYLINE
  5
533
330
1F
100
AcDbEntity
  8
0
  6
Continuous
 62
     7
100
AcDbPolyline
 90
        3
 70
   128
 43
0.0
 10
6345.0927734375
 20
4656.1002769534
 10
6344.5007359361
 20
4655.7571631865
 10
6344.0345862441
 20
4655.4876306121
  0
LWPOLYLINE
  5
534
330
1F
100
AcDbEntity
  8
0
  6
Continuous
 62
     7
100
AcDbPolyline
 90
        3
 70
   128
 43
0.0
 10
6345.0927734375
 20
4654.1464366977
 10
6344.5007296132
 20
4653.803317176
 10
6344.0345862441
 20
4653.533760554
  0
LWPOLYLINE
  5
535
330
1F
100
AcDbEntity
  8
0
  6
Continuous
 62
     7
100
AcDbPolyline
 90
        3
 70
   128
 43
0.0
 10
6345.0927734375
 20
4652.1925666396
 10
6344.5007232886
 20
4651.8494747429
 10
6344.0345862441
 20
4651.5799202983
  0
LWPOLYLINE
  5
536
330
1F
100
AcDbEntity
  8
0
  6
Continuous
 62
     7
100
AcDbPolyline
 90
        3
 70
   128
 43
0.0
 10
6364.0022277832
 20
4658.4183909957
 10
6363.4195427015
 20
4658.7557165794
 10
6362.9612030022
 20
4659.0208151404
  0
LWPOLYLINE
  5
537
330
1F
100
AcDbEntity
  8
0
  6
Continuous
 62
     7
100
AcDbPolyline
 90
        3
 70
   128
 43
0.0
 10
6364.0022277832
 20
4656.4645507399
 10
6363.4195427015
 20
4656.8018763236
 10
6362.9612030022
 20
4657.0669748847
  0
LWPOLYLINE
  5
538
330
1F
100
AcDbEntity
  8
0
  6
Continuous
 62
     7
100
AcDbPolyline
 90
        3
 70
   128
 43
0.0
 10
6364.0022277832
 20
4654.5106806819
 10
6363.4195489289
 20
4654.8480337245
 10
6362.9612030022
 20
4655.113134629
  0
LWPOLYLINE
  5
539
330
1F
100
AcDbEntity
  8
0
  6
Continuous
 62
     7
100
AcDbPolyline
 90
        3
 70
   128
 43
0.0
 10
6364.0022277832
 20
4652.5568404262
 10
6363.4195489289
 20
4652.8941934688
 10
6362.9612030022
 20
4653.1592943732
  0
LWPOLYLINE
  5
53A
330
1F
100
AcDbEntity
  8
0
  6
Continuous
 62
     7
100
AcDbPolyline
 90
        3
 70
   128
 43
0.0
 10
6364.0022277832
 20
4660.3722312514
 10
6363.4195489289
 20
4660.7095842941
 10
6362.9612030022
 20
4660.9746851985
  0
LWPOLYLINE
  5
53B
330
1F
100
AcDbEntity
  8
0
  6
Continuous
 62
     7
100
AcDbPolyline
 90
        3
 70
   128
 43
0.0
 10
6345.0927734375
 20
4660.0079574649
 10
6344.5007232886
 20
4659.6648655681
 10
6344.0345862441
 20
4659.3953111236
  0
LWPOLYLINE
  5
53C
330
1F
100
AcDbEntity
  8
0
  6
Continuous
 62
     7
100
AcDbPolyline
 90
        3
 70
   128
 43
0.0
 10
6399.1088867188
 20
4614.4755520884
 10
6392.4747515193
 20
4607.8522896637
 10
6387.3666600816
 20
4602.7544179027
  0
LWPOLYLINE
  5
53D
330
1F
100
AcDbEntity
  8
0
  6
Continuous
 62
     7
100
AcDbPolyline
 90
        3
 70
   128
 43
0.0
 10
6407.1464538574
 20
4582.9372444217
 10
6413.6702035068
 20
4589.4470855166
 10
6418.8918696277
 20
4594.6583190028
  0
LWPOLYLINE
  5
53E
330
1F
100
AcDbEntity
  8
0
  6
Continuous
 62
     7
100
AcDbPolyline
 90
        5
 70
   128
 43
0.0
 10
6421.0052490234
 20
4598.408732659
 10
6423.9044932125
 20
4607.0493816313
 10
6419.9878974242
 20
4615.5986631417
 10
6411.4204866491
 20
4619.4705198699
 10
6402.7901665799
 20
4616.5352799956
  0
LWPOLYLINE
  5
53F
330
1F
100
AcDbEntity
  8
0
  6
Continuous
 62
     7
100
AcDbPolyline
 90
       10
 70
   128
 43
0.0
 10
6344.4747924805
 20
4660.8914771144
 10
6344.5939581927
 20
4660.9294214426
 10
6345.0963365983
 20
4660.9669070251
 10
6353.7790937433
 20
4661.1959400752
 10
6362.430517298
 20
4661.4311831709
 10
6362.9446825175
 20
4661.4755022542
 10
6362.963645467
 20
4661.4830376696
 10
6362.9670032874
 20
4661.4868223537
 10
6362.9669886604
 20
4661.4906163871
 10
6362.9319371216
 20
4661.5109481875
  0
LWPOLYLINE
  5
540
330
1F
100
AcDbEntity
  8
0
  6
Continuous
 62
     7
100
AcDbPolyline
 90
       15
 70
   128
 43
0.0
 10
6362.8540039062
 20
4661.4533701007
 10
6362.8833909802
 20
4661.4378570497
 10
6362.8966417476
 20
4661.4224171012
 10
6362.8942673932
 20
4661.4166608877
 10
6362.8866128965
 20
4661.4109288989
 10
6362.854842225
 20
4661.3995353531
 10
6362.2912763517
 20
4661.3319202669
 10
6354.0183613705
 20
4660.9647105522
 10
6345.7669549643
 20
4660.5983118072
 10
6345.0552695115
 20
4660.5071001394
 10
6345.0512646337
 20
4660.5033033025
 10
6345.0501650843
 20
4660.4995036272
 10
6345.054179058
 20
4660.4937979994
 10
6345.0652849522
 20
4660.4880839465
 10
6345.108021193
 20
4660.4766287867
  0
LWPOLYLINE
  5
541
330
1F
100
AcDbEntity
  8
0
  6
Continuous
 62
     7
100
AcDbPolyline
 90
       13
 70
   128
 43
0.0
 10
6362.8692626953
 20
4659.4806053702
 10
6362.8918386535
 20
4659.4635577066
 10
6362.8900254269
 20
4659.4579126968
 10
6362.8778976938
 20
4659.4504280606
 10
6362.0876351735
 20
4659.3618261937
 10
6353.749718873
 20
4659.0016720844
 10
6345.7396410879
 20
4658.6421236046
 10
6345.0544724373
 20
4658.5526790515
 10
6345.050946863
 20
4658.5489544628
 10
6345.0502292463
 20
4658.5452270966
 10
6345.0546214013
 20
4658.5396300912
 10
6345.065855157
 20
4658.5340249123
 10
6345.108021193
 20
4658.522788531
  0
LWPOLYLINE
  5
542
330
1F
100
AcDbEntity
  8
0
  6
Continuous
 62
     7
100
AcDbPolyline
 90
       13
 70
   128
 43
0.0
 10
6362.8692626953
 20
4657.5267651145
 10
6362.891838655
 20
4657.5097173939
 10
6362.8900254247
 20
4657.504072501
 10
6362.8778976826
 20
4657.4965881645
 10
6362.0876351258
 20
4657.4079854605
 10
6353.7497189968
 20
4657.0478131451
 10
6345.7396407625
 20
4656.6882826813
 10
6345.0544723721
 20
4656.5988132011
 10
6345.0509468139
 20
4656.5950875279
 10
6345.0502292115
 20
4656.5913592103
 10
6345.054621384
 20
4656.5857610622
 10
6345.0658551515
 20
4656.5801551294
 10
6345.108021193
 20
4656.5689184729
  0
LWPOLYLINE
  5
543
330
1F
100
AcDbEntity
  8
0
  6
Continuous
 62
     7
100
AcDbPolyline
 90
       13
 70
   128
 43
0.0
 10
6362.8692626953
 20
4655.5729248588
 10
6362.8918386545
 20
4655.5558771537
 10
6362.8900254252
 20
4655.5502322285
 10
6362.8778976857
 20
4655.5427478092
 10
6362.0876351231
 20
4655.4541453353
 10
6353.7497188619
 20
4655.0939767658
 10
6345.7396407616
 20
4654.7344424144
 10
6345.0544723719
 20
4654.6449729503
 10
6345.0509468138
 20
4654.6412472759
 10
6345.0502292115
 20
4654.6375189572
 10
6345.054621384
 20
4654.6319208077
 10
6345.0658551515
 20
4654.626314874
 10
6345.108021193
 20
4654.6150782172
  0
LWPOLYLINE
  5
544
330
1F
100
AcDbEntity
  8
0
  6
Continuous
 62
     7
100
AcDbPolyline
 90
       13
 70
   128
 43
0.0
 10
6362.8692626953
 20
4653.619084603
 10
6362.8918386506
 20
4653.6020371295
 10
6362.8900254295
 20
4653.5963917229
 10
6362.8778977113
 20
4653.5889060408
 10
6362.0876355936
 20
4653.5002751991
 10
6353.7497188447
 20
4653.1401368086
 10
6345.7396407604
 20
4652.7806021577
 10
6345.0544723718
 20
4652.691132695
 10
6345.0509468138
 20
4652.6874070204
 10
6345.0502292115
 20
4652.6836787017
 10
6345.054621384
 20
4652.6780805521
 10
6345.0658551515
 20
4652.6724746183
 10
6345.108021193
 20
4652.6612379615
  0
LWPOLYLINE
  5
545
330
1F
100
AcDbEntity
  8
0
  6
Continuous
 62
     7
100
AcDbPolyline
 90
        9
 70
   128
 43
0.0
 10
6363.8687133789
 20
4660.0933411185
 10
6363.8776151948
 20
4660.0781009069
 10
6363.8769586976
 20
4660.0704980374
 10
6363.8703745653
 20
4660.0629158516
 10
6363.0896273294
 20
4659.973728574
 10
6353.7483853854
 20
4659.6129663631
 10
6344.7320059816
 20
4659.2534867183
 10
6344.2455013795
 20
4659.1934634258
 10
6344.1003189914
 20
4659.1330208842
  0
LWPOLYLINE
  5
546
330
1F
100
AcDbEntity
  8
0
  6
Continuous
 62
     7
100
AcDbPolyline
 90
        9
 70
   128
 43
0.0
 10
6363.8687133789
 20
4658.1394710605
 10
6363.8776152063
 20
4658.124230102
 10
6363.876958712
 20
4658.1166270719
 10
6363.8703745792
 20
4658.1090449806
 10
6363.0896270162
 20
4658.019881588
 10
6353.748384924
 20
4657.6591260362
 10
6344.7320059386
 20
4657.2996464598
 10
6344.2455013716
 20
4657.2396231679
 10
6344.1003189914
 20
4657.1791806285
  0
LWPOLYLINE
  5
547
330
1F
100
AcDbEntity
  8
0
  6
Continuous
 62
     7
100
AcDbPolyline
 90
        9
 70
   128
 43
0.0
 10
6363.8687133789
 20
4656.1856308047
 10
6363.8776152064
 20
4656.1703898462
 10
6363.8769587117
 20
4656.1627868159
 10
6363.8703745779
 20
4656.1552047243
 10
6363.0896269624
 20
4656.0660413237
 10
6353.7483844604
 20
4655.7052852822
 10
6344.7320058363
 20
4655.3457983489
 10
6344.2455011847
 20
4655.2857799468
 10
6344.1003189914
 20
4655.2253105704
  0
LWPOLYLINE
  5
548
330
1F
100
AcDbEntity
  8
0
  6
Continuous
 62
     7
100
AcDbPolyline
 90
        9
 70
   128
 43
0.0
 10
6363.8687133789
 20
4654.231790549
 10
6363.877615207
 20
4654.2165495711
 10
6363.8769587124
 20
4654.2089465366
 10
6363.8703745786
 20
4654.2013644475
 10
6363.0896269536
 20
4654.1122013275
 10
6353.7483852681
 20
4653.7514196309
 10
6344.7320057642
 20
4653.3919609207
 10
6344.2455012103
 20
4653.3319386987
 10
6344.1003189914
 20
4653.2714703147
  0
LWPOLYLINE
  5
549
330
1F
100
AcDbEntity
  8
0
  6
Continuous
 62
     7
100
AcDbPolyline
 90
       15
 70
   128
 43
0.0
 10
6363.8954162598
 20
4660.3542008464
 10
6363.9421782657
 20
4660.3387392042
 10
6363.96381606
 20
4660.3233560459
 10
6363.9614783301
 20
4660.317623314
 10
6363.9524892214
 20
4660.311912439
 10
6363.9155509528
 20
4660.3005463303
 10
6363.270788552
 20
4660.2328496415
 10
6354.0182873849
 20
4659.8656775295
 10
6344.7921233384
 20
4659.4993736577
 10
6343.9952771965
 20
4659.4081189683
 10
6343.9907285352
 20
4659.4043248705
 10
6343.989427236
 20
4659.4005288516
 10
6343.9938056159
 20
4659.394830569
 10
6344.0061116243
 20
4659.3891262864
 10
6344.0537342362
 20
4659.377697951
  0
LWPOLYLINE
  5
54A
330
1F
100
AcDbEntity
  8
0
  6
Continuous
 62
     7
100
AcDbPolyline
 90
       15
 70
   128
 43
0.0
 10
6363.8954162598
 20
4658.4003605906
 10
6363.942178256
 20
4658.3848996766
 10
6363.9638160568
 20
4658.3695160141
 10
6363.9614783369
 20
4658.3637825288
 10
6363.9524892428
 20
4658.3580705602
 10
6363.915551015
 20
4658.3467014167
 10
6363.2707889055
 20
4658.2789812485
 10
6354.0182869039
 20
4657.911837827
 10
6344.792122953
 20
4657.5455236602
 10
6343.995277457
 20
4657.4543384956
 10
6343.9907287903
 20
4657.4505387574
 10
6343.9894274793
 20
4657.4467356464
 10
6343.9938058286
 20
4657.4410238089
 10
6344.0061117895
 20
4657.4353022046
 10
6344.0537342362
 20
4657.423827893
  0
LWPOLYLINE
  5
54B
330
1F
100
AcDbEntity
  8
0
  6
Continuous
 62
     7
100
AcDbPolyline
 90
       15
 70
   128
 43
0.0
 10
6363.8954162598
 20
4656.4465203349
 10
6363.9421782565
 20
4656.4310594058
 10
6363.963816057
 20
4656.4156757537
 10
6363.9614783365
 20
4656.4099422839
 10
6363.9524892417
 20
4656.4042303373
 10
6363.9155510119
 20
4656.3928612516
 10
6363.2707888973
 20
4656.325141176
 10
6354.0182875061
 20
4655.9579785059
 10
6344.7921232836
 20
4655.591654646
 10
6343.9952775197
 20
4655.5004938238
 10
6343.9907288371
 20
4655.4966952137
 10
6343.9894275121
 20
4655.4928930946
 10
6343.9938058443
 20
4655.4871824531
 10
6344.0061117938
 20
4655.4814616442
 10
6344.0537342362
 20
4655.4699876372
  0
LWPOLYLINE
  5
54C
330
1F
100
AcDbEntity
  8
0
  6
Continuous
 62
     7
100
AcDbPolyline
 90
       15
 70
   128
 43
0.0
 10
6363.8954162598
 20
4654.4926800792
 10
6363.9421782607
 20
4654.4772189564
 10
6363.9638160583
 20
4654.4618354382
 10
6363.9614783334
 20
4654.4561021683
 10
6363.9524892324
 20
4654.4503905068
 10
6363.9155509863
 20
4654.4390221692
 10
6363.2707888449
 20
4654.3713032913
 10
6354.0182875407
 20
4654.0041371605
 10
6344.7921232846
 20
4653.6378143943
 10
6343.9952775198
 20
4653.5466535667
 10
6343.9907288371
 20
4653.5428549569
 10
6343.9894275121
 20
4653.5390528381
 10
6343.9938058443
 20
4653.533342197
 10
6344.0061117938
 20
4653.5276213883
 10
6344.0537342362
 20
4653.5161473815
  0
LWPOLYLINE
  5
54D
330
1F
100
AcDbEntity
  8
0
  6
Continuous
 62
     7
100
AcDbPolyline
 90
       15
 70
   128
 43
0.0
 10
6363.8954162598
 20
4652.5388100211
 10
6363.9421782745
 20
4652.5233643134
 10
6363.9638160573
 20
4652.5079937532
 10
6363.9614783153
 20
4652.5022642158
 10
6363.9524891955
 20
4652.4965555848
 10
6363.9155509088
 20
4652.4851914056
 10
6363.2707885168
 20
4652.4174659684
 10
6354.0182875001
 20
4652.0502828095
 10
6344.7921233381
 20
4651.6839828465
 10
6343.9952771967
 20
4651.592728138
 10
6343.9907285353
 20
4651.5889340414
 10
6343.989427236
 20
4651.5851380236
 10
6343.9938056159
 20
4651.5794397424
 10
6344.0061116243
 20
4651.5737354608
 10
6344.0537342362
 20
4651.5623071258
  0
LWPOLYLINE
  5
54E
330
1F
100
AcDbEntity
  8
0
  6
Continuous
 62
     7
100
AcDbPolyline
 90
        8
 70
   128
 43
0.0
 10
6362.850189209
 20
4660.9648802344
 10
6362.9119440215
 20
4660.9346254787
 10
6362.9106226535
 20
4660.9289998918
 10
6362.9035683671
 20
4660.9233953182
 10
6362.8730573152
 20
4660.9122401989
 10
6362.3214734819
 20
4660.8458399867
 10
6354.2933549699
 20
4660.4856641962
 10
6345.1434449784
 20
4660.0072422091
  0
LWPOLYLINE
  5
54F
330
1F
100
AcDbEntity
  8
0
  6
Continuous
 62
     7
100
AcDbPolyline
 90
        8
 70
   128
 43
0.0
 10
6362.850189209
 20
4659.0110101764
 10
6362.911944024
 20
4658.980783226
 10
6362.9106226331
 20
4658.9751615645
 10
6362.9035683196
 20
4658.9695603245
 10
6362.8730572055
 20
4658.958410209
 10
6362.3214730549
 20
4658.892005929
 10
6354.2933544805
 20
4658.531822947
 10
6345.1434449784
 20
4658.0534019534
  0
LWPOLYLINE
  5
550
330
1F
100
AcDbEntity
  8
0
  6
Continuous
 62
     7
100
AcDbPolyline
 90
        8
 70
   128
 43
0.0
 10
6362.850189209
 20
4657.0571699206
 10
6362.9119440243
 20
4657.0269429708
 10
6362.9106226322
 20
4657.0213213052
 10
6362.9035683172
 20
4657.0157200595
 10
6362.8730571993
 20
4657.0045699285
 10
6362.3214730053
 20
4656.9381656138
 10
6354.2933543126
 20
4656.5779726685
 10
6345.1434449784
 20
4656.0995318953
  0
LWPOLYLINE
  5
551
330
1F
100
AcDbEntity
  8
0
  6
Continuous
 62
     7
100
AcDbPolyline
 90
        8
 70
   128
 43
0.0
 10
6362.850189209
 20
4655.1033296649
 10
6362.9119440213
 20
4655.0730749152
 10
6362.9106226538
 20
4655.067449314
 10
6362.9035683683
 20
4655.0618447197
 10
6362.8730573185
 20
4655.0506895449
 10
6362.3214734918
 20
4654.9842892129
 10
6354.2933541745
 20
4654.6241363884
 10
6345.1434449784
 20
4654.1456916396
  0
LWPOLYLINE
  5
552
330
1F
100
AcDbEntity
  8
0
  6
Continuous
 62
     7
100
AcDbPolyline
 90
        8
 70
   128
 43
0.0
 10
6362.850189209
 20
4653.1494894092
 10
6362.9119440213
 20
4653.119234659
 10
6362.9106226538
 20
4653.1136090588
 10
6362.9035683682
 20
4653.1080044658
 10
6362.8730573182
 20
4653.0968492948
 10
6362.3214734904
 20
4653.0304489707
 10
6354.2933540952
 20
4652.6702984355
 10
6345.1434449784
 20
4652.1918513839
  0
LWPOLYLINE
  5
553
330
1F
100
AcDbEntity
  8
0
  6
Continuous
 62
     7
100
AcDbPolyline
 90
        3
 70
   128
 43
0.0
 10
6267.2004699707
 20
4635.0223758284
 10
6266.7097974173
 20
4636.1610554179
 10
6265.7840923898
 20
4636.4881136481
  0
LWPOLYLINE
  5
554
330
1F
100
AcDbEntity
  8
0
  6
Continuous
 62
     7
100
AcDbPolyline
 90
        3
 70
   128
 43
0.0
 10
6265.6593322754
 20
4636.4818253581
 10
6264.5579446016
 20
4635.8827134553
 10
6264.2505412482
 20
4634.9270680015
  0
LWPOLYLINE
  5
555
330
1F
100
AcDbEntity
  8
0
  6
Continuous
 62
     7
100
AcDbPolyline
 90
        3
 70
   128
 43
0.0
 10
6281.4102172852
 20
4635.0276508395
 10
6280.9072173143
 20
4636.170348483
 10
6279.9730968222
 20
4636.4934482638
  0
LWPOLYLINE
  5
556
330
1F
100
AcDbEntity
  8
0
  6
Continuous
 62
     7
100
AcDbPolyline
 90
        3
 70
   128
 43
0.0
 10
6279.8538208008
 20
4636.4934482638
 10
6278.7477739316
 20
4635.8912331418
 10
6278.4374800071
 20
4634.9334755008
  0
LWPOLYLINE
  5
557
330
1F
100
AcDbEntity
  8
0
  6
Continuous
 62
     7
100
AcDbPolyline
 90
        3
 70
   128
 43
0.0
 10
6262.5465393066
 20
4632.1013608043
 10
6261.9688306642
 20
4633.1343812024
 10
6261.3380068473
 20
4633.8380911414
  0
LWPOLYLINE
  5
558
330
1F
100
AcDbEntity
  8
0
  6
Continuous
 62
     7
100
AcDbPolyline
 90
        3
 70
   128
 43
0.0
 10
6261.71875
 20
4631.1372258727
 10
6262.4267600705
 20
4631.4711506301
 10
6262.5476998769
 20
4632.1013608043
  0
LWPOLYLINE
  5
559
330
1F
100
AcDbEntity
  8
0
  6
Continuous
 62
     7
100
AcDbPolyline
 90
        3
 70
   128
 43
0.0
 10
6263.4887695312
 20
4631.6505410735
 10
6262.7749349854
 20
4630.562890758
 10
6261.8005109511
 20
4630.2069463794
  0
LWPOLYLINE
  5
55A
330
1F
100
AcDbEntity
  8
0
  6
Continuous
 62
     7
100
AcDbPolyline
 90
        3
 70
   128
 43
0.0
 10
6262.9585266113
 20
4633.4740259711
 10
6263.467185688
 20
4632.5098052414
 10
6263.4896060012
 20
4631.6505410735
  0
LWPOLYLINE
  5
55B
330
1F
100
AcDbEntity
  8
0
  6
Continuous
 62
     7
100
AcDbPolyline
 90
        3
 70
   128
 43
0.0
 10
6262.0887756348
 20
4634.419147021
 10
6262.6016294137
 20
4633.9108803878
 10
6262.9604396902
 20
4633.4740259711
  0
LWPOLYLINE
  5
55C
330
1F
100
AcDbEntity
  8
0
  6
Continuous
 62
     7
100
AcDbPolyline
 90
        3
 70
   128
 43
0.0
 10
6261.1999511719
 20
4636.0976436202
 10
6261.5029110992
 20
4635.0535437184
 10
6262.091552981
 20
4634.419147021
  0
LWPOLYLINE
  5
55D
330
1F
100
AcDbEntity
  8
0
  6
Continuous
 62
     7
100
AcDbPolyline
 90
        3
 70
   128
 43
0.0
 10
6262.2871398926
 20
4636.9771399562
 10
6261.4588477986
 20
4636.7192048716
 10
6261.2015289746
 20
4636.0976436202
  0
LWPOLYLINE
  5
55E
330
1F
100
AcDbEntity
  8
0
  6
Continuous
 62
     7
100
AcDbPolyline
 90
        3
 70
   128
 43
0.0
 10
6260.2348327637
 20
4636.1600794856
 10
6261.0052280043
 20
4637.5322661048
 10
6262.2249295495
 20
4637.8703453605
  0
LWPOLYLINE
  5
55F
330
1F
100
AcDbEntity
  8
0
  6
Continuous
 62
     7
100
AcDbPolyline
 90
        3
 70
   128
 43
0.0
 10
6261.3372802734
 20
4633.8380911414
 10
6260.4172013805
 20
4635.0119486167
 10
6260.2384352617
 20
4636.1600794856
  0
LWPOLYLINE
  5
560
330
1F
100
AcDbEntity
  8
0
  6
Continuous
 62
     7
100
AcDbPolyline
 90
        3
 70
   128
 43
0.0
 10
6289.608001709
 20
4638.1247677867
 10
6289.3582832102
 20
4638.6581396994
 10
6288.9187002115
 20
4638.8204433982
  0
LWPOLYLINE
  5
561
330
1F
100
AcDbEntity
  8
0
  6
Continuous
 62
     7
100
AcDbPolyline
 90
        3
 70
   128
 43
0.0
 10
6288.9137268066
 20
4638.8204433982
 10
6288.3827437865
 20
4638.5647305393
 10
6288.22851009
 20
4638.1227412288
  0
LWPOLYLINE
  5
562
330
1F
100
AcDbEntity
  8
0
  6
Continuous
 62
     7
100
AcDbPolyline
 90
        3
 70
   128
 43
0.0
 10
6288.2270812988
 20
4638.1227412288
 10
6288.4783341079
 20
4637.5932683443
 10
6288.9158065922
 20
4637.4375262324
  0
LWPOLYLINE
  5
563
330
1F
100
AcDbEntity
  8
0
  6
Continuous
 62
     7
100
AcDbPolyline
 90
        3
 70
   128
 43
0.0
 10
6288.9175415039
 20
4637.4375262324
 10
6289.4521056618
 20
4637.6876702623
 10
6289.61157813
 20
4638.1247677867
  0
LWPOLYLINE
  5
564
330
1F
100
AcDbEntity
  8
0
  6
Continuous
 62
     7
100
AcDbPolyline
 90
        3
 70
   128
 43
0.0
 10
6287.6129150391
 20
4632.5274148051
 10
6287.1200243893
 20
4634.2027454395
 10
6286.2335931536
 20
4635.2692284648
  0
LWPOLYLINE
  5
565
330
1F
100
AcDbEntity
  8
0
  6
Continuous
 62
     7
100
AcDbPolyline
 90
        3
 70
   128
 43
0.0
 10
6286.2281799316
 20
4635.2638640468
 10
6286.1570378829
 20
4635.184498885
 10
6286.1119468257
 20
4635.1137795512
  0
LWPOLYLINE
  5
566
330
1F
100
AcDbEntity
  8
0
  6
Continuous
 62
     7
100
AcDbPolyline
 90
        3
 70
   128
 43
0.0
 10
6285.9535217285
 20
4635.2459230487
 10
6286.0975316161
 20
4635.4129903472
 10
6286.2278054494
 20
4635.5243959491
  0
LWPOLYLINE
  5
567
330
1F
100
AcDbEntity
  8
0
  6
Continuous
 62
     7
100
AcDbPolyline
 90
        3
 70
   128
 43
0.0
 10
6286.2243652344
 20
4635.5243959491
 10
6286.8125001794
 20
4635.7455391491
 10
6287.3051556785
 20
4635.7810237471
  0
LWPOLYLINE
  5
568
330
1F
100
AcDbEntity
  8
0
  6
Continuous
 62
     7
100
AcDbPolyline
 90
        3
 70
   128
 43
0.0
 10
6287.3306274414
 20
4635.7841231887
 10
6287.3483098174
 20
4635.9527142012
 10
6287.3014350448
 20
4636.079046971
  0
LWPOLYLINE
  5
569
330
1F
100
AcDbEntity
  8
0
  6
Continuous
 62
     7
100
AcDbPolyline
 90
        3
 70
   128
 43
0.0
 10
6287.3001098633
 20
4636.079046971
 10
6287.1491818226
 20
4636.5110404732
 10
6286.9703957371
 20
4636.8229725425
  0
LWPOLYLINE
  5
56A
330
1F
100
AcDbEntity
  8
0
  6
Continuous
 62
     7
100
AcDbPolyline
 90
        3
 70
   128
 43
0.0
 10
6286.9682312012
 20
4636.8229725425
 10
6287.4510737877
 20
4637.8929708885
 10
6287.5629178274
 20
4638.8075687949
  0
LWPOLYLINE
  5
56B
330
1F
100
AcDbEntity
  8
0
  6
Continuous
 62
     7
100
AcDbPolyline
 90
        3
 70
   128
 43
0.0
 10
6287.5595092773
 20
4638.8075687949
 10
6286.8000956148
 20
4638.6745589161
 10
6286.2232580341
 20
4638.4812631671
  0
LWPOLYLINE
  5
56C
330
1F
100
AcDbEntity
  8
0
  6
Continuous
 62
     7
100
AcDbPolyline
 90
        3
 70
   128
 43
0.0
 10
6286.2205505371
 20
4638.4812631671
 10
6286.0489790909
 20
4638.4045000092
 10
6285.9152663991
 20
4638.3373477523
  0
LWPOLYLINE
  5
56D
330
1F
100
AcDbEntity
  8
0
  6
Continuous
 62
     7
100
AcDbPolyline
 90
        3
 70
   128
 43
0.0
 10
6285.9115600586
 20
4638.3373477523
 10
6285.8643609365
 20
4638.3080720784
 10
6285.8251427792
 20
4638.2837631766
  0
LWPOLYLINE
  5
56E
330
1F
100
AcDbEntity
  8
0
  6
Continuous
 62
     7
100
AcDbPolyline
 90
        3
 70
   128
 43
0.0
 10
6285.8238220215
 20
4638.2837631766
 10
6285.7194563019
 20
4638.220589516
 10
6285.6393142396
 20
4638.1664016311
  0
LWPOLYLINE
  5
56F
330
1F
100
AcDbEntity
  8
0
  6
Continuous
 62
     7
100
AcDbPolyline
 90
        3
 70
   128
 43
0.0
 10
6285.6369018555
 20
4638.1664016311
 10
6285.4546580023
 20
4638.0306688854
 10
6285.3203673407
 20
4637.9107275073
  0
LWPOLYLINE
  5
570
330
1F
100
AcDbEntity
  8
0
  6
Continuous
 62
     7
100
AcDbPolyline
 90
        3
 70
   128
 43
0.0
 10
6285.3202819824
 20
4637.9107275073
 10
6285.1066701186
 20
4637.9395880616
 10
6284.9371348534
 20
4637.9423477713
  0
LWPOLYLINE
  5
571
330
1F
100
AcDbEntity
  8
0
  6
Continuous
 62
     7
100
AcDbPolyline
 90
        3
 70
   128
 43
0.0
 10
6284.9044799805
 20
4637.9367747371
 10
6284.663414302
 20
4637.927182653
 10
6284.47494088
 20
4637.904141194
  0
LWPOLYLINE
  5
572
330
1F
100
AcDbEntity
  8
0
  6
Continuous
 62
     7
100
AcDbPolyline
 90
        3
 70
   128
 43
0.0
 10
6284.4314575195
 20
4637.936029679
 10
6283.8523575506
 20
4638.2988773522
 10
6283.3674115795
 20
4638.5300495688
  0
LWPOLYLINE
  5
573
330
1F
100
AcDbEntity
  8
0
  6
Continuous
 62
     7
100
AcDbPolyline
 90
        3
 70
   128
 43
0.0
 10
6283.3671569824
 20
4638.5300495688
 10
6282.8104168414
 20
4638.7108201219
 10
6282.3570339501
 20
4638.789270169
  0
LWPOLYLINE
  5
574
330
1F
100
AcDbEntity
  8
0
  6
Continuous
 62
     7
100
AcDbPolyline
 90
        3
 70
   128
 43
0.0
 10
6282.356262207
 20
4638.4967305724
 10
6282.5615013159
 20
4637.5207034513
 10
6282.8915749819
 20
4636.811558253
  0
LWPOLYLINE
  5
575
330
1F
100
AcDbEntity
  8
0
  6
Continuous
 62
     7
100
AcDbPolyline
 90
        3
 70
   128
 43
0.0
 10
6282.8903198242
 20
4636.811558253
 10
6282.6968185374
 20
4636.3765868343
 10
6282.5940221341
 20
4636.0167303149
  0
LWPOLYLINE
  5
576
330
1F
100
AcDbEntity
  8
0
  6
Continuous
 62
     7
100
AcDbPolyline
 90
        3
 70
   128
 43
0.0
 10
6282.5622558594
 20
4635.9649040763
 10
6282.5518592059
 20
4635.9267613968
 10
6282.5422423452
 20
4635.8965375487
  0
LWPOLYLINE
  5
577
330
1F
100
AcDbEntity
  8
0
  6
Continuous
 62
     7
100
AcDbPolyline
 90
        3
 70
   128
 43
0.0
 10
6282.5393676758
 20
4635.8965375487
 10
6282.5929741568
 20
4635.8904077167
 10
6282.6327794723
 20
4635.8851530616
  0
LWPOLYLINE
  5
578
330
1F
100
AcDbEntity
  8
0
  6
Continuous
 62
     7
100
AcDbPolyline
 90
        3
 70
   128
 43
0.0
 10
6282.6538085938
 20
4635.8822026317
 10
6283.0638191392
 20
4635.7968239763
 10
6283.3717524158
 20
4635.6850602691
  0
LWPOLYLINE
  5
579
330
1F
100
AcDbEntity
  8
0
  6
Continuous
 62
     7
100
AcDbPolyline
 90
        3
 70
   128
 43
0.0
 10
6283.3709716797
 20
4635.6850602691
 10
6283.8979411837
 20
4635.1900036875
 10
6283.8788015619
 20
4634.6220710341
  0
LWPOLYLINE
  5
57A
330
1F
100
AcDbEntity
  8
0
  6
Continuous
 62
     7
100
AcDbPolyline
 90
        3
 70
   128
 43
0.0
 10
6283.878326416
 20
4634.6220710341
 10
6283.6167786251
 20
4634.0458392422
 10
6283.3748529924
 20
4633.6113550727
  0
LWPOLYLINE
  5
57B
330
1F
100
AcDbEntity
  8
0
  6
Continuous
 62
     7
100
AcDbPolyline
 90
        3
 70
   128
 43
0.0
 10
6283.374786377
 20
4633.6113550727
 10
6283.0587738047
 20
4632.8297852822
 10
6282.8824799185
 20
4632.1903505389
  0
LWPOLYLINE
  5
57C
330
1F
100
AcDbEntity
  8
0
  6
Continuous
 62
     7
100
AcDbPolyline
 90
        3
 70
   128
 43
0.0
 10
6282.8788757324
 20
4632.1903505389
 10
6282.9027473135
 20
4630.981761382
 10
6283.3801239871
 20
4630.1541962687
  0
LWPOLYLINE
  5
57D
330
1F
100
AcDbEntity
  8
0
  6
Continuous
 62
     7
100
AcDbPolyline
 90
        3
 70
   128
 43
0.0
 10
6283.3786010742
 20
4630.1541962687
 10
6283.9341465104
 20
4629.7431270674
 10
6284.4447618376
 20
4629.5604744021
  0
LWPOLYLINE
  5
57E
330
1F
100
AcDbEntity
  8
0
  6
Continuous
 62
     7
100
AcDbPolyline
 90
        3
 70
   128
 43
0.0
 10
6284.4429016113
 20
4629.5604744021
 10
6284.7262480796
 20
4629.5171166809
 10
6284.9498472901
 20
4629.5078733031
  0
LWPOLYLINE
  5
57F
330
1F
100
AcDbEntity
  8
0
  6
Continuous
 62
     7
100
AcDbPolyline
 90
        3
 70
   128
 43
0.0
 10
6285.0074768066
 20
4629.5079627101
 10
6285.3718872613
 20
4629.5410432413
 10
6285.6523366904
 20
4629.59984327
  0
LWPOLYLINE
  5
580
330
1F
100
AcDbEntity
  8
0
  6
Continuous
 62
     7
100
AcDbPolyline
 90
        3
 70
   128
 43
0.0
 10
6285.6521606445
 20
4629.59984327
 10
6285.7571501262
 20
4629.6270861345
 10
6285.8382686067
 20
4629.6527721946
  0
LWPOLYLINE
  5
581
330
1F
100
AcDbEntity
  8
0
  6
Continuous
 62
     7
100
AcDbPolyline
 90
        3
 70
   128
 43
0.0
 10
6285.8352661133
 20
4629.6527721946
 10
6285.8889641117
 20
4629.670361301
 10
6285.9284956034
 20
4629.6850183074
  0
LWPOLYLINE
  5
582
330
1F
100
AcDbEntity
  8
0
  6
Continuous
 62
     7
100
AcDbPolyline
 90
        3
 70
   128
 43
0.0
 10
6285.9268188477
 20
4629.6850183074
 10
6286.1023292545
 20
4629.7596608845
 10
6286.2364870056
 20
4629.8236587111
  0
LWPOLYLINE
  5
583
330
1F
100
AcDbEntity
  8
0
  6
Continuous
 62
     7
100
AcDbPolyline
 90
        3
 70
   128
 43
0.0
 10
6286.2358093262
 20
4629.8236587111
 10
6287.2754061789
 20
4630.8876180397
 10
6287.5945436794
 20
4632.027570254
  0
LWPOLYLINE
  5
584
330
1F
100
AcDbEntity
  8
0
  6
Continuous
 62
     7
100
AcDbPolyline
 90
        3
 70
   128
 43
0.0
 10
6287.5938415527
 20
4632.027570254
 10
6287.6100775797
 20
4632.2148626116
 10
6287.6153177608
 20
4632.3624291484
  0
LWPOLYLINE
  5
585
330
1F
100
AcDbEntity
  8
0
  6
Continuous
 62
     7
100
AcDbPolyline
 90
        3
 70
   128
 43
0.0
 10
6289.0281677246
 20
4638.1821670596
 10
6288.9814256381
 20
4638.1736790386
 10
6288.9413346097
 20
4638.1715872352
  0
LWPOLYLINE
  5
586
330
1F
100
AcDbEntity
  8
0
  6
Continuous
 62
     7
100
AcDbPolyline
 90
        3
 70
   128
 43
0.0
 10
6289.0625
 20
4638.3525469367
 10
6289.089388679
 20
4638.3143999596
 10
6289.0952272832
 20
4638.2784881656
  0
LWPOLYLINE
  5
587
330
1F
100
AcDbEntity
  8
0
  6
Continuous
 62
     7
100
AcDbPolyline
 90
        3
 70
   128
 43
0.0
 10
6288.9595031738
 20
4638.3792200152
 10
6289.021366894
 20
4638.3724494785
 10
6289.0632913008
 20
4638.3525469367
  0
LWPOLYLINE
  5
588
330
1F
100
AcDbEntity
  8
0
  6
Continuous
 62
     7
100
AcDbPolyline
 90
        3
 70
   128
 43
0.0
 10
6289.1845703125
 20
4638.2786073749
 10
6289.1768900609
 20
4638.3337512192
 10
6289.1593060017
 20
4638.3739450042
  0
LWPOLYLINE
  5
589
330
1F
100
AcDbEntity
  8
0
  6
Continuous
 62
     7
100
AcDbPolyline
 90
        3
 70
   128
 43
0.0
 10
6289.1578674316
 20
4638.3739450042
 10
6289.1217957343
 20
4638.412427947
 10
6289.0846851773
 20
4638.43253637
  0
LWPOLYLINE
  5
58A
330
1F
100
AcDbEntity
  8
0
  6
Continuous
 62
     7
100
AcDbPolyline
 90
        3
 70
   128
 43
0.0
 10
6289.0815734863
 20
4638.43253637
 10
6289.0140453745
 20
4638.4499496352
 10
6288.9568378709
 20
4638.4535172049
  0
LWPOLYLINE
  5
58B
330
1F
100
AcDbEntity
  8
0
  6
Continuous
 62
     7
100
AcDbPolyline
 90
        3
 70
   128
 43
0.0
 10
6288.9823913574
 20
4638.0386688773
 10
6289.0211330144
 20
4637.9920523778
 10
6289.0478914164
 20
4637.9535534446
  0
LWPOLYLINE
  5
58C
330
1F
100
AcDbEntity
  8
0
  6
Continuous
 62
     7
100
AcDbPolyline
 90
        3
 70
   128
 43
0.0
 10
6288.9175415039
 20
4637.5173964564
 10
6288.4494174386
 20
4637.7357465908
 10
6288.3088152416
 20
4638.1228604381
  0
LWPOLYLINE
  5
58D
330
1F
100
AcDbEntity
  8
0
  6
Continuous
 62
     7
100
AcDbPolyline
 90
        3
 70
   128
 43
0.0
 10
6288.3071899414
 20
4638.1228604381
 10
6288.5287823086
 20
4638.5982254757
 10
6288.9189069651
 20
4638.740275151
  0
LWPOLYLINE
  5
58E
330
1F
100
AcDbEntity
  8
0
  6
Continuous
 62
     7
100
AcDbPolyline
 90
        3
 70
   128
 43
0.0
 10
6288.9175415039
 20
4638.740275151
 10
6289.391480475
 20
4638.5154888732
 10
6289.5317898624
 20
4638.1246485774
  0
LWPOLYLINE
  5
58F
330
1F
100
AcDbEntity
  8
0
  6
Continuous
 62
     7
100
AcDbPolyline
 90
        3
 70
   128
 43
0.0
 10
6289.5317077637
 20
4638.1246485774
 10
6289.3075995576
 20
4637.6572251217
 10
6288.9207672819
 20
4637.5173964564
  0
LWPOLYLINE
  5
590
330
1F
100
AcDbEntity
  8
0
  6
Continuous
 62
     7
100
AcDbPolyline
 90
        3
 70
   128
 43
0.0
 10
6289.1273498535
 20
4637.9964389865
 10
6289.0907837972
 20
4638.0427750678
 10
6289.0583301455
 20
4638.0760409896
  0
LWPOLYLINE
  5
591
330
1F
100
AcDbEntity
  8
0
  6
Continuous
 62
     7
100
AcDbPolyline
 90
        3
 70
   128
 43
0.0
 10
6289.0014648438
 20
4638.1028034751
 10
6289.0842785755
 20
4638.1260073707
 10
6289.1383251667
 20
4638.1610968177
  0
LWPOLYLINE
  5
592
330
1F
100
AcDbEntity
  8
0
  6
Continuous
 62
     7
100
AcDbPolyline
 90
        3
 70
   128
 43
0.0
 10
6289.134979248
 20
4638.1610968177
 10
6289.1770264195
 20
4638.222287499
 10
6289.1857644103
 20
4638.2786073749
  0
LWPOLYLINE
  5
593
330
1F
100
AcDbEntity
  8
0
  6
Continuous
 62
     7
100
AcDbPolyline
 90
        3
 70
   128
 43
0.0
 10
6284.4085693359
 20
4637.8827729289
 10
6284.2144939996
 20
4637.838674247
 10
6284.0655601871
 20
4637.7866008346
  0
LWPOLYLINE
  5
594
330
1F
100
AcDbEntity
  8
0
  6
Continuous
 62
     7
100
AcDbPolyline
 90
        3
 70
   128
 43
0.0
 10
6283.3671569824
 20
4638.4713985984
 10
6283.9676074498
 20
4638.1701460705
 10
6284.4104487126
 20
4637.8827729289
  0
LWPOLYLINE
  5
595
330
1F
100
AcDbEntity
  8
0
  6
Continuous
 62
     7
100
AcDbPolyline
 90
        3
 70
   128
 43
0.0
 10
6284.065246582
 20
4637.7866008346
 10
6283.701531355
 20
4638.1623370589
 10
6283.367618304
 20
4638.4023168151
  0
LWPOLYLINE
  5
596
330
1F
100
AcDbEntity
  8
0
  6
Continuous
 62
     7
100
AcDbPolyline
 90
        3
 70
   128
 43
0.0
 10
6283.3671569824
 20
4638.4023168151
 10
6283.1432562154
 20
4638.5225393005
 10
6282.9583409734
 20
4638.5987439219
  0
LWPOLYLINE
  5
597
330
1F
100
AcDbEntity
  8
0
  6
Continuous
 62
     7
100
AcDbPolyline
 90
        3
 70
   128
 43
0.0
 10
6282.9551696777
 20
4638.5987439219
 10
6283.1911819801
 20
4638.5394970842
 10
6283.3674115795
 20
4638.4713985984
  0
LWPOLYLINE
  5
598
330
1F
100
AcDbEntity
  8
0
  6
Continuous
 62
     7
100
AcDbPolyline
 90
        3
 70
   128
 43
0.0
 10
6284.0118408203
 20
4637.7598085467
 10
6283.9130826304
 20
4637.7173921089
 10
6283.8369436508
 20
4637.6798787181
  0
LWPOLYLINE
  5
599
330
1F
100
AcDbEntity
  8
0
  6
Continuous
 62
     7
100
AcDbPolyline
 90
        3
 70
   128
 43
0.0
 10
6283.8363647461
 20
4637.6798787181
 10
6283.5811135514
 20
4637.9251351186
 10
6283.3681350425
 20
4638.1045022075
  0
LWPOLYLINE
  5
59A
330
1F
100
AcDbEntity
  8
0
  6
Continuous
 62
     7
100
AcDbPolyline
 90
        3
 70
   128
 43
0.0
 10
6283.3671569824
 20
4638.1045022075
 10
6282.9490850561
 20
4638.3770029636
 10
6282.5914382961
 20
4638.5394671027
  0
LWPOLYLINE
  5
59B
330
1F
100
AcDbEntity
  8
0
  6
Continuous
 62
     7
100
AcDbPolyline
 90
        3
 70
   128
 43
0.0
 10
6282.5889587402
 20
4638.5394671027
 10
6282.7245177754
 20
4637.6342134153
 10
6283.0034027833
 20
4636.9713285033
  0
LWPOLYLINE
  5
59C
330
1F
100
AcDbEntity
  8
0
  6
Continuous
 62
     7
100
AcDbPolyline
 90
        3
 70
   128
 43
0.0
 10
6282.9360961914
 20
4636.8808486525
 10
6282.5363756245
 20
4637.8615708682
 10
6282.4527387533
 20
4638.6880912845
  0
LWPOLYLINE
  5
59D
330
1F
100
AcDbEntity
  8
0
  6
Continuous
 62
     7
100
AcDbPolyline
 90
        3
 70
   128
 43
0.0
 10
6282.4516296387
 20
4638.6880912845
 10
6282.9850107893
 20
4638.5351576878
 10
6283.3678249994
 20
4638.3278110091
  0
LWPOLYLINE
  5
59E
330
1F
100
AcDbEntity
  8
0
  6
Continuous
 62
     7
100
AcDbPolyline
 90
        3
 70
   128
 43
0.0
 10
6283.3671569824
 20
4638.3278110091
 10
6283.7469405393
 20
4638.0300742037
 10
6284.0124368199
 20
4637.7598085467
  0
LWPOLYLINE
  5
59F
330
1F
100
AcDbEntity
  8
0
  6
Continuous
 62
     7
100
AcDbPolyline
 90
        3
 70
   128
 43
0.0
 10
6283.3671569824
 20
4637.2858026091
 10
6283.9290999527
 20
4637.651392195
 10
6284.4321527777
 20
4637.8030815188
  0
LWPOLYLINE
  5
5A0
330
1F
100
AcDbEntity
  8
0
  6
Continuous
 62
     7
100
AcDbPolyline
 90
        3
 70
   128
 43
0.0
 10
6284.4314575195
 20
4637.8030815188
 10
6284.7081057976
 20
4637.8433808675
 10
6284.9267996175
 20
4637.857172734
  0
LWPOLYLINE
  5
5A1
330
1F
100
AcDbEntity
  8
0
  6
Continuous
 62
     7
100
AcDbPolyline
 90
        3
 70
   128
 43
0.0
 10
6284.9349975586
 20
4637.857172734
 10
6285.335615509
 20
4637.8324903447
 10
6285.6399343841
 20
4637.7571263377
  0
LWPOLYLINE
  5
5A2
330
1F
100
AcDbEntity
  8
0
  6
Continuous
 62
     7
100
AcDbPolyline
 90
        3
 70
   128
 43
0.0
 10
6285.6369018555
 20
4637.7571263377
 10
6285.7450727098
 20
4637.721046714
 10
6285.8259695608
 20
4637.6881339614
  0
LWPOLYLINE
  5
5A3
330
1F
100
AcDbEntity
  8
0
  6
Continuous
 62
     7
100
AcDbPolyline
 90
        3
 70
   128
 43
0.0
 10
6285.8238220215
 20
4637.6881339614
 10
6285.8777417898
 20
4637.6666869372
 10
6285.9165066879
 20
4637.6458146636
  0
LWPOLYLINE
  5
5A4
330
1F
100
AcDbEntity
  8
0
  6
Continuous
 62
     7
100
AcDbPolyline
 90
        3
 70
   128
 43
0.0
 10
6285.9153747559
 20
4637.6458146636
 10
6286.0926814454
 20
4637.5570489991
 10
6286.2249115974
 20
4637.4761798446
  0
LWPOLYLINE
  5
5A5
330
1F
100
AcDbEntity
  8
0
  6
Continuous
 62
     7
100
AcDbPolyline
 90
        3
 70
   128
 43
0.0
 10
6286.2243652344
 20
4637.4761798446
 10
6286.8165510429
 20
4636.9253630195
 10
6287.1040309805
 20
4636.3606789176
  0
LWPOLYLINE
  5
5A6
330
1F
100
AcDbEntity
  8
0
  6
Continuous
 62
     7
100
AcDbPolyline
 90
        3
 70
   128
 43
0.0
 10
6287.1017456055
 20
4636.3606789176
 10
6286.6395168365
 20
4636.7444982963
 10
6286.2256350022
 20
4636.9763054912
  0
LWPOLYLINE
  5
5A7
330
1F
100
AcDbEntity
  8
0
  6
Continuous
 62
     7
100
AcDbPolyline
 90
        3
 70
   128
 43
0.0
 10
6286.2243652344
 20
4636.9763054912
 10
6286.0539821636
 20
4637.055798183
 10
6285.9172300927
 20
4637.1140220229
  0
LWPOLYLINE
  5
5A8
330
1F
100
AcDbEntity
  8
0
  6
Continuous
 62
     7
100
AcDbPolyline
 90
        3
 70
   128
 43
0.0
 10
6285.9153747559
 20
4637.1140220229
 10
6285.8757824709
 20
4637.1323970856
 10
6285.8427126452
 20
4637.145642287
  0
LWPOLYLINE
  5
5A9
330
1F
100
AcDbEntity
  8
0
  6
Continuous
 62
     7
100
AcDbPolyline
 90
        3
 70
   128
 43
0.0
 10
6285.8238220215
 20
4637.1298768584
 10
6285.7265083777
 20
4637.0387998777
 10
6285.6409679193
 20
4636.9754710261
  0
LWPOLYLINE
  5
5AA
330
1F
100
AcDbEntity
  8
0
  6
Continuous
 62
     7
100
AcDbPolyline
 90
        3
 70
   128
 43
0.0
 10
6285.6407165527
 20
4636.9754710261
 10
6285.2965613556
 20
4636.8283371904
 10
6285.0028673679
 20
4636.7990412776
  0
LWPOLYLINE
  5
5AB
330
1F
100
AcDbEntity
  8
0
  6
Continuous
 62
     7
100
AcDbPolyline
 90
        3
 70
   128
 43
0.0
 10
6284.9388122559
 20
4636.8042268817
 10
6284.6448662652
 20
4636.8681764915
 10
6284.4333930083
 20
4636.9735636775
  0
LWPOLYLINE
  5
5AC
330
1F
100
AcDbEntity
  8
0
  6
Continuous
 62
     7
100
AcDbPolyline
 90
        3
 70
   128
 43
0.0
 10
6284.4314575195
 20
4636.9735636775
 10
6284.2738884661
 20
4637.0894576164
 10
6284.1617817143
 20
4637.1962466304
  0
LWPOLYLINE
  5
5AD
330
1F
100
AcDbEntity
  8
0
  6
Continuous
 62
     7
100
AcDbPolyline
 90
        3
 70
   128
 43
0.0
 10
6284.1606140137
 20
4637.1962466304
 10
6283.705549649
 20
4636.9651714277
 10
6283.3700987653
 20
4636.7434897487
  0
LWPOLYLINE
  5
5AE
330
1F
100
AcDbEntity
  8
0
  6
Continuous
 62
     7
100
AcDbPolyline
 90
        3
 70
   128
 43
0.0
 10
6283.3671569824
 20
4636.7434897487
 10
6283.0004555651
 20
4636.4563595223
 10
6282.7222829478
 20
4636.2157800261
  0
LWPOLYLINE
  5
5AF
330
1F
100
AcDbEntity
  8
0
  6
Continuous
 62
     7
100
AcDbPolyline
 90
        3
 70
   128
 43
0.0
 10
6282.7186584473
 20
4636.2157800261
 10
6283.0162695258
 20
4636.8586330618
 10
6283.3693753023
 20
4637.2858026091
  0
LWPOLYLINE
  5
5B0
330
1F
100
AcDbEntity
  8
0
  6
Continuous
 62
     7
100
AcDbPolyline
 90
        3
 70
   128
 43
0.0
 10
6282.5736999512
 20
4635.91310764
 10
6282.6109710191
 20
4635.9976733831
 10
6282.6550002469
 20
4636.055473334
  0
LWPOLYLINE
  5
5B1
330
1F
100
AcDbEntity
  8
0
  6
Continuous
 62
     7
100
AcDbPolyline
 90
        3
 70
   128
 43
0.0
 10
6282.6499938965
 20
4636.0535659854
 10
6283.0458338761
 20
4636.3934000178
 10
6283.370202113
 20
4636.6422214572
  0
LWPOLYLINE
  5
5B2
330
1F
100
AcDbEntity
  8
0
  6
Continuous
 62
     7
100
AcDbPolyline
 90
        3
 70
   128
 43
0.0
 10
6283.3671569824
 20
4636.6422214572
 10
6283.7870018286
 20
4636.916947204
 10
6284.1305691367
 20
4637.1061542098
  0
LWPOLYLINE
  5
5B3
330
1F
100
AcDbEntity
  8
0
  6
Continuous
 62
     7
100
AcDbPolyline
 90
        3
 70
   128
 43
0.0
 10
6284.1300964355
 20
4637.1061542098
 10
6284.2913461034
 20
4636.9664268827
 10
6284.4334963852
 20
4636.8778088157
  0
LWPOLYLINE
  5
5B4
330
1F
100
AcDbEntity
  8
0
  6
Continuous
 62
     7
100
AcDbPolyline
 90
        3
 70
   128
 43
0.0
 10
6284.4314575195
 20
4636.8778088157
 10
6284.7083089192
 20
4636.7639069475
 10
6284.9389952866
 20
4636.7244460647
  0
LWPOLYLINE
  5
5B5
330
1F
100
AcDbEntity
  8
0
  6
Continuous
 62
     7
100
AcDbPolyline
 90
        3
 70
   128
 43
0.0
 10
6284.9998474121
 20
4636.7191710536
 10
6285.3747503155
 20
4636.7569410209
 10
6285.6411745565
 20
4636.8742027347
  0
LWPOLYLINE
  5
5B6
330
1F
100
AcDbEntity
  8
0
  6
Continuous
 62
     7
100
AcDbPolyline
 90
        3
 70
   128
 43
0.0
 10
6285.6407165527
 20
4636.8742027347
 10
6285.7471486024
 20
4636.958502374
 10
6285.827003096
 20
4637.0288171832
  0
LWPOLYLINE
  5
5B7
330
1F
100
AcDbEntity
  8
0
  6
Continuous
 62
     7
100
AcDbPolyline
 90
        3
 70
   128
 43
0.0
 10
6285.8505249023
 20
4637.0500960414
 10
6285.8905232381
 20
4637.038326117
 10
6285.9174368463
 20
4637.0236315791
  0
LWPOLYLINE
  5
5B8
330
1F
100
AcDbEntity
  8
0
  6
Continuous
 62
     7
100
AcDbPolyline
 90
        3
 70
   128
 43
0.0
 10
6285.9153747559
 20
4637.0236315791
 10
6286.0905014122
 20
4636.9411430975
 10
6286.2258417558
 20
4636.8750073974
  0
LWPOLYLINE
  5
5B9
330
1F
100
AcDbEntity
  8
0
  6
Continuous
 62
     7
100
AcDbPolyline
 90
        3
 70
   128
 43
0.0
 10
6286.2243652344
 20
4636.8750073974
 10
6286.8854271042
 20
4636.4633532175
 10
6287.2982310623
 20
4636.0134818618
  0
LWPOLYLINE
  5
5BA
330
1F
100
AcDbEntity
  8
0
  6
Continuous
 62
     7
100
AcDbPolyline
 90
        3
 70
   128
 43
0.0
 10
6287.296295166
 20
4636.0134818618
 10
6287.3229899088
 20
4635.8988700515
 10
6287.3051556785
 20
4635.8098127906
  0
LWPOLYLINE
  5
5BB
330
1F
100
AcDbEntity
  8
0
  6
Continuous
 62
     7
100
AcDbPolyline
 90
        3
 70
   128
 43
0.0
 10
6287.3039245605
 20
4635.8098127906
 10
6286.733473473
 20
4636.1952364327
 10
6286.2265651606
 20
4636.3913753096
  0
LWPOLYLINE
  5
5BC
330
1F
100
AcDbEntity
  8
0
  6
Continuous
 62
     7
100
AcDbPolyline
 90
        3
 70
   128
 43
0.0
 10
6286.2243652344
 20
4636.3913753096
 10
6286.0546106713
 20
4636.4413190477
 10
6285.918263628
 20
4636.4760139052
  0
LWPOLYLINE
  5
5BD
330
1F
100
AcDbEntity
  8
0
  6
Continuous
 62
     7
100
AcDbPolyline
 90
        3
 70
   128
 43
0.0
 10
6285.9153747559
 20
4636.4760139052
 10
6285.8676779398
 20
4636.4852040686
 10
6285.8278298776
 20
4636.4918389384
  0
LWPOLYLINE
  5
5BE
330
1F
100
AcDbEntity
  8
0
  6
Continuous
 62
     7
100
AcDbPolyline
 90
        3
 70
   128
 43
0.0
 10
6285.8276367188
 20
4636.4918389384
 10
6285.7239863421
 20
4636.5118611882
 10
6285.6416913241
 20
4636.5233697955
  0
LWPOLYLINE
  5
5BF
330
1F
100
AcDbEntity
  8
0
  6
Continuous
 62
     7
100
AcDbPolyline
 90
        3
 70
   128
 43
0.0
 10
6285.6407165527
 20
4636.5233697955
 10
6285.2819694323
 20
4636.5620079032
 10
6284.9978030685
 20
4636.5703382556
  0
LWPOLYLINE
  5
5C0
330
1F
100
AcDbEntity
  8
0
  6
Continuous
 62
     7
100
AcDbPolyline
 90
        3
 70
   128
 43
0.0
 10
6284.9388122559
 20
4636.5702190463
 10
6284.6559838546
 20
4636.5642609486
 10
6284.4340131528
 20
4636.5480163161
  0
LWPOLYLINE
  5
5C1
330
1F
100
AcDbEntity
  8
0
  6
Continuous
 62
     7
100
AcDbPolyline
 90
        3
 70
   128
 43
0.0
 10
6284.4314575195
 20
4636.5480163161
 10
6283.8284978337
 20
4636.4441314569
 10
6283.3708222283
 20
4636.2912693087
  0
LWPOLYLINE
  5
5C2
330
1F
100
AcDbEntity
  8
0
  6
Continuous
 62
     7
100
AcDbPolyline
 90
        3
 70
   128
 43
0.0
 10
6283.3671569824
 20
4636.2912693087
 10
6282.9218793639
 20
4636.0865165809
 10
6282.575108486
 20
4635.91310764
  0
LWPOLYLINE
  5
5C3
330
1F
100
AcDbEntity
  8
0
  6
Continuous
 62
     7
100
AcDbPolyline
 90
        3
 70
   128
 43
0.0
 10
6285.816192627
 20
4636.2523176734
 10
6285.7541070178
 20
4636.1151849045
 10
6285.6424148453
 20
4636.0714473788
  0
LWPOLYLINE
  5
5C4
330
1F
100
AcDbEntity
  8
0
  6
Continuous
 62
     7
100
AcDbPolyline
 90
        3
 70
   128
 43
0.0
 10
6285.6330871582
 20
4636.0713579719
 10
6285.5003832917
 20
4636.1379341474
 10
6285.4607205631
 20
4636.2518110339
  0
LWPOLYLINE
  5
5C5
330
1F
100
AcDbEntity
  8
0
  6
Continuous
 62
     7
100
AcDbPolyline
 90
        3
 70
   128
 43
0.0
 10
6285.6407165527
 20
4636.4329793517
 10
6285.7790411897
 20
4636.3672206417
 10
6285.8173911486
 20
4636.2523176734
  0
LWPOLYLINE
  5
5C6
330
1F
100
AcDbEntity
  8
0
  6
Continuous
 62
     7
100
AcDbPolyline
 90
        3
 70
   128
 43
0.0
 10
6285.457611084
 20
4636.2518110339
 10
6285.5233734383
 20
4636.3904822206
 10
6285.6361103736
 20
4636.4328601424
  0
LWPOLYLINE
  5
5C7
330
1F
100
AcDbEntity
  8
0
  6
Continuous
 62
     7
100
AcDbPolyline
 90
        3
 70
   128
 43
0.0
 10
6284.252166748
 20
4636.2499930922
 10
6284.3211364142
 20
4636.3852062972
 10
6284.4342198482
 20
4636.425796992
  0
LWPOLYLINE
  5
5C8
330
1F
100
AcDbEntity
  8
0
  6
Continuous
 62
     7
100
AcDbPolyline
 90
        3
 70
   128
 43
0.0
 10
6284.4314575195
 20
4636.425796992
 10
6284.5719552143
 20
4636.362239793
 10
6284.6152941024
 20
4636.2504103248
  0
LWPOLYLINE
  5
5C9
330
1F
100
AcDbEntity
  8
0
  6
Continuous
 62
     7
100
AcDbPolyline
 90
        5
 70
   128
 43
0.0
 10
6284.6145629883
 20
4636.2504103248
 10
6284.5609406756
 20
4636.1241139533
 10
6284.4347110311
 20
4636.0695399146
 10
6284.308378471
 20
4636.1239123444
 10
6284.2534556953
 20
4636.2499930922
  0
LWPOLYLINE
  5
5CA
330
1F
100
AcDbEntity
  8
0
  6
Continuous
 62
     7
100
AcDbPolyline
 90
        3
 70
   128
 43
0.0
 10
6283.3709716797
 20
4635.7755401198
 10
6283.0077081434
 20
4635.8807751375
 10
6282.7124644795
 20
4635.9179654185
  0
LWPOLYLINE
  5
5CB
330
1F
100
AcDbEntity
  8
0
  6
Continuous
 62
     7
100
AcDbPolyline
 90
        3
 70
   128
 43
0.0
 10
6282.7110290527
 20
4635.9179654185
 10
6283.0823586231
 20
4635.9488741265
 10
6283.3713389959
 20
4635.9028258387
  0
LWPOLYLINE
  5
5CC
330
1F
100
AcDbEntity
  8
0
  6
Continuous
 62
     7
100
AcDbPolyline
 90
        3
 70
   128
 43
0.0
 10
6283.3709716797
 20
4635.9028258387
 10
6283.9039058504
 20
4635.7386385681
 10
6284.3079226409
 20
4635.5694570605
  0
LWPOLYLINE
  5
5CD
330
1F
100
AcDbEntity
  8
0
  6
Continuous
 62
     7
100
AcDbPolyline
 90
        3
 70
   128
 43
0.0
 10
6284.3055725098
 20
4635.5694570605
 10
6284.3790393346
 20
4635.6738608311
 10
6284.4352533834
 20
4635.7556619708
  0
LWPOLYLINE
  5
5CE
330
1F
100
AcDbEntity
  8
0
  6
Continuous
 62
     7
100
AcDbPolyline
 90
        3
 70
   128
 43
0.0
 10
6284.4314575195
 20
4635.7556619708
 10
6284.6857088615
 20
4636.0084143018
 10
6284.9398220682
 20
4636.1181178157
  0
LWPOLYLINE
  5
5CF
330
1F
100
AcDbEntity
  8
0
  6
Continuous
 62
     7
100
AcDbPolyline
 90
        3
 70
   128
 43
0.0
 10
6284.9388122559
 20
4636.1181178157
 10
6285.3762798008
 20
4635.9946867567
 10
6285.6430349897
 20
4635.7470789019
  0
LWPOLYLINE
  5
5D0
330
1F
100
AcDbEntity
  8
0
  6
Continuous
 62
     7
100
AcDbPolyline
 90
        3
 70
   128
 43
0.0
 10
6285.6407165527
 20
4635.7470789019
 10
6285.6904914759
 20
4635.6845855949
 10
6285.7276809195
 20
4635.6354096
  0
LWPOLYLINE
  5
5D1
330
1F
100
AcDbEntity
  8
0
  6
Continuous
 62
     7
100
AcDbPolyline
 90
        3
 70
   128
 43
0.0
 10
6285.7246398926
 20
4635.6354096
 10
6285.7848046017
 20
4635.6615881268
 10
6285.8291735433
 20
4635.6832423274
  0
LWPOLYLINE
  5
5D2
330
1F
100
AcDbEntity
  8
0
  6
Continuous
 62
     7
100
AcDbPolyline
 90
        3
 70
   128
 43
0.0
 10
6285.8276367188
 20
4635.6832423274
 10
6285.8792308493
 20
4635.7052383476
 10
6285.9192971632
 20
4635.720733649
  0
LWPOLYLINE
  5
5D3
330
1F
100
AcDbEntity
  8
0
  6
Continuous
 62
     7
100
AcDbPolyline
 90
        3
 70
   128
 43
0.0
 10
6285.9191894531
 20
4635.720733649
 10
6286.0899339686
 20
4635.7859460516
 10
6286.2272887982
 20
4635.8275749747
  0
LWPOLYLINE
  5
5D4
330
1F
100
AcDbEntity
  8
0
  6
Continuous
 62
     7
100
AcDbPolyline
 90
        3
 70
   128
 43
0.0
 10
6286.2243652344
 20
4635.8275749747
 10
6286.75074266
 20
4635.8959719102
 10
6287.1632521532
 20
4635.8504929606
  0
LWPOLYLINE
  5
5D5
330
1F
100
AcDbEntity
  8
0
  6
Continuous
 62
     7
100
AcDbPolyline
 90
        3
 70
   128
 43
0.0
 10
6287.1627807617
 20
4635.8504929606
 10
6286.6285855036
 20
4635.7744161292
 10
6286.2275986958
 20
4635.6362738673
  0
LWPOLYLINE
  5
5D6
330
1F
100
AcDbEntity
  8
0
  6
Continuous
 62
     7
100
AcDbPolyline
 90
        3
 70
   128
 43
0.0
 10
6286.2243652344
 20
4635.6362738673
 10
6286.0539597263
 20
4635.5517915461
 10
6285.9196072936
 20
4635.4813017909
  0
LWPOLYLINE
  5
5D7
330
1F
100
AcDbEntity
  8
0
  6
Continuous
 62
     7
100
AcDbPolyline
 90
        3
 70
   128
 43
0.0
 10
6285.9191894531
 20
4635.4813017909
 10
6285.8705351463
 20
4635.4464706442
 10
6285.8294834409
 20
4635.4230084483
  0
LWPOLYLINE
  5
5D8
330
1F
100
AcDbEntity
  8
0
  6
Continuous
 62
     7
100
AcDbPolyline
 90
        3
 70
   128
 43
0.0
 10
6285.8276367188
 20
4635.4230084483
 10
6285.7254352697
 20
4635.3512717683
 10
6285.6436551342
 20
4635.294947869
  0
LWPOLYLINE
  5
5D9
330
1F
100
AcDbEntity
  8
0
  6
Continuous
 62
     7
100
AcDbPolyline
 90
        3
 70
   128
 43
0.0
 10
6285.6407165527
 20
4635.294947869
 10
6285.3558363274
 20
4635.1439762271
 10
6285.1012592696
 20
4635.1292469565
  0
LWPOLYLINE
  5
5DA
330
1F
100
AcDbEntity
  8
0
  6
Continuous
 62
     7
100
AcDbPolyline
 90
        6
 70
   128
 43
0.0
 10
6285.099029541
 20
4635.1292469565
 10
6285.0755437843
 20
4635.1446535562
 10
6285.0625395033
 20
4635.1726984534
 10
6285.0561947511
 20
4635.2342364662
 10
6285.0718885594
 20
4635.2939091257
 10
6285.1219298577
 20
4635.3257634704
  0
LWPOLYLINE
  5
5DB
330
1F
100
AcDbEntity
  8
0
  6
Continuous
 62
     7
100
AcDbPolyline
 90
        3
 70
   128
 43
0.0
 10
6285.2439880371
 20
4635.3259720866
 10
6285.298772864
 20
4635.3485982775
 10
6285.3186102843
 20
4635.3901066844
  0
LWPOLYLINE
  5
5DC
330
1F
100
AcDbEntity
  8
0
  6
Continuous
 62
     7
100
AcDbPolyline
 90
        3
 70
   128
 43
0.0
 10
6285.3164672852
 20
4635.3901066844
 10
6285.2884396553
 20
4635.4395904816
 10
6285.2441962136
 20
4635.4539134566
  0
LWPOLYLINE
  5
5DD
330
1F
100
AcDbEntity
  8
0
  6
Continuous
 62
     7
100
AcDbPolyline
 90
        3
 70
   128
 43
0.0
 10
6284.7518920898
 20
4635.4530491893
 10
6284.7023821554
 20
4635.4287559684
 10
6284.680406356
 20
4635.3891232078
  0
LWPOLYLINE
  5
5DE
330
1F
100
AcDbEntity
  8
0
  6
Continuous
 62
     7
100
AcDbPolyline
 90
        3
 70
   128
 43
0.0
 10
6284.6794128418
 20
4635.3891232078
 10
6284.7094270388
 20
4635.3376800478
 10
6284.7552338757
 20
4635.3250780169
  0
LWPOLYLINE
  5
5DF
330
1F
100
AcDbEntity
  8
0
  6
Continuous
 62
     7
100
AcDbPolyline
 90
        7
 70
   128
 43
0.0
 10
6284.8701477051
 20
4635.3252866332
 10
6284.9000217224
 20
4635.3143643959
 10
6284.9171172471
 20
4635.2892849288
 10
6284.9281431749
 20
4635.2298843918
 10
6284.9172976846
 20
4635.1704530643
 10
6284.9002960705
 20
4635.1453054009
 10
6284.8726427441
 20
4635.134283549
  0
LWPOLYLINE
  5
5E0
330
1F
100
AcDbEntity
  8
0
  6
Continuous
 62
     7
100
AcDbPolyline
 90
        3
 70
   128
 43
0.0
 10
6284.8701477051
 20
4635.134283549
 10
6284.6226888525
 20
4635.1791115277
 10
6284.4360802232
 20
4635.2505126063
  0
LWPOLYLINE
  5
5E1
330
1F
100
AcDbEntity
  8
0
  6
Continuous
 62
     7
100
AcDbPolyline
 90
        3
 70
   128
 43
0.0
 10
6284.4352722168
 20
4635.2505126063
 10
6284.0763049878
 20
4635.43060604
 10
6283.7972561506
 20
4635.5791428153
  0
LWPOLYLINE
  5
5E2
330
1F
100
AcDbEntity
  8
0
  6
Continuous
 62
     7
100
AcDbPolyline
 90
        3
 70
   128
 43
0.0
 10
6283.7944030762
 20
4635.5791428153
 10
6283.5625965804
 20
4635.6973427552
 10
6283.3715456913
 20
4635.7755401198
  0
LWPOLYLINE
  5
5E3
330
1F
100
AcDbEntity
  8
0
  6
Continuous
 62
     7
100
AcDbPolyline
 90
        3
 70
   128
 43
0.0
 10
6284.4429016113
 20
4629.656139857
 10
6283.8034473965
 20
4629.9634446331
 10
6283.379813944
 20
4630.3249337737
  0
LWPOLYLINE
  5
5E4
330
1F
100
AcDbEntity
  8
0
  6
Continuous
 62
     7
100
AcDbPolyline
 90
        3
 70
   128
 43
0.0
 10
6283.3786010742
 20
4630.3249337737
 10
6282.9664151845
 20
4631.9861029524
 10
6283.37536976
 20
4633.3028414313
  0
LWPOLYLINE
  5
5E5
330
1F
100
AcDbEntity
  8
0
  6
Continuous
 62
     7
100
AcDbPolyline
 90
        3
 70
   128
 43
0.0
 10
6283.374786377
 20
4633.3028414313
 10
6283.6304721331
 20
4633.819997009
 10
6283.8369436508
 20
4634.2232861583
  0
LWPOLYLINE
  5
5E6
330
1F
100
AcDbEntity
  8
0
  6
Continuous
 62
     7
100
AcDbPolyline
 90
        3
 70
   128
 43
0.0
 10
6283.8363647461
 20
4634.2232861583
 10
6284.0111521648
 20
4634.6522962876
 10
6284.0588422518
 20
4635.010782725
  0
LWPOLYLINE
  5
5E7
330
1F
100
AcDbEntity
  8
0
  6
Continuous
 62
     7
100
AcDbPolyline
 90
        3
 70
   128
 43
0.0
 10
6284.0576171875
 20
4635.010782725
 10
6284.3473817001
 20
4633.8449029949
 10
6284.4395942197
 20
4632.9056360785
  0
LWPOLYLINE
  5
5E8
330
1F
100
AcDbEntity
  8
0
  6
Continuous
 62
     7
100
AcDbPolyline
 90
        3
 70
   128
 43
0.0
 10
6284.4390869141
 20
4632.9056360785
 10
6284.4601476119
 20
4631.0828813411
 10
6284.449826137
 20
4629.6506562297
  0
LWPOLYLINE
  5
5E9
330
1F
100
AcDbEntity
  8
0
  6
Continuous
 62
     7
100
AcDbPolyline
 90
        3
 70
   128
 43
0.0
 10
6286.2358093262
 20
4629.9515106742
 10
6286.0656953054
 20
4629.8639265807
 10
6285.9282888498
 20
4629.8021116321
  0
LWPOLYLINE
  5
5EA
330
1F
100
AcDbEntity
  8
0
  6
Continuous
 62
     7
100
AcDbPolyline
 90
        3
 70
   128
 43
0.0
 10
6285.9268188477
 20
4629.8021116321
 10
6285.8781043977
 20
4629.7804130669
 10
6285.8381652299
 20
4629.7645905082
  0
LWPOLYLINE
  5
5EB
330
1F
100
AcDbEntity
  8
0
  6
Continuous
 62
     7
100
AcDbPolyline
 90
        3
 70
   128
 43
0.0
 10
6285.8352661133
 20
4629.7645905082
 10
6285.7342273619
 20
4629.7282063997
 10
6285.6522333136
 20
4629.7005751197
  0
LWPOLYLINE
  5
5EC
330
1F
100
AcDbEntity
  8
0
  6
Continuous
 62
     7
100
AcDbPolyline
 90
        3
 70
   128
 43
0.0
 10
6285.6521606445
 20
4629.7005751197
 10
6285.5419293762
 20
4629.6671563199
 10
6285.4550361194
 20
4629.6416559283
  0
LWPOLYLINE
  5
5ED
330
1F
100
AcDbEntity
  8
0
  6
Continuous
 62
     7
100
AcDbPolyline
 90
        3
 70
   128
 43
0.0
 10
6285.4537963867
 20
4629.6416559283
 10
6285.3752551488
 20
4632.3420222051
 10
6285.5916685916
 20
4634.45455218
  0
LWPOLYLINE
  5
5EE
330
1F
100
AcDbEntity
  8
0
  6
Continuous
 62
     7
100
AcDbPolyline
 90
        3
 70
   128
 43
0.0
 10
6285.5911254883
 20
4634.45455218
 10
6285.6215727655
 20
4634.5351165862
 10
6285.644688553
 20
4634.5985570018
  0
LWPOLYLINE
  5
5EF
330
1F
100
AcDbEntity
  8
0
  6
Continuous
 62
     7
100
AcDbPolyline
 90
        3
 70
   128
 43
0.0
 10
6285.64453125
 20
4634.5985570018
 10
6285.7408685672
 20
4634.8460661845
 10
6285.8301037017
 20
4635.0346245829
  0
LWPOLYLINE
  5
5F0
330
1F
100
AcDbEntity
  8
0
  6
Continuous
 62
     7
100
AcDbPolyline
 90
        3
 70
   128
 43
0.0
 10
6285.8276367188
 20
4635.0346245829
 10
6285.8784342683
 20
4635.125279582
 10
6285.9201239448
 20
4635.1943948333
  0
LWPOLYLINE
  5
5F1
330
1F
100
AcDbEntity
  8
0
  6
Continuous
 62
     7
100
AcDbPolyline
 90
        3
 70
   128
 43
0.0
 10
6285.9230041504
 20
4635.1999380652
 10
6286.0143196838
 20
4635.1242515618
 10
6286.084868389
 20
4635.0643374984
  0
LWPOLYLINE
  5
5F2
330
1F
100
AcDbEntity
  8
0
  6
Continuous
 62
     7
100
AcDbPolyline
 90
        3
 70
   128
 43
0.0
 10
6286.0832214355
 20
4635.0643374984
 10
6285.9856789489
 20
4634.8423264219
 10
6285.9210541032
 20
4634.6624829833
  0
LWPOLYLINE
  5
5F3
330
1F
100
AcDbEntity
  8
0
  6
Continuous
 62
     7
100
AcDbPolyline
 90
        3
 70
   128
 43
0.0
 10
6285.9191894531
 20
4634.6624829833
 10
6285.8689798753
 20
4634.4812463296
 10
6285.8310338601
 20
4634.3380250995
  0
LWPOLYLINE
  5
5F4
330
1F
100
AcDbEntity
  8
0
  6
Continuous
 62
     7
100
AcDbPolyline
 90
        3
 70
   128
 43
0.0
 10
6285.8276367188
 20
4634.3380250995
 10
6285.7131308379
 20
4633.7836441556
 10
6285.6465489862
 20
4633.3432831828
  0
LWPOLYLINE
  5
5F5
330
1F
100
AcDbEntity
  8
0
  6
Continuous
 62
     7
100
AcDbPolyline
 90
        3
 70
   128
 43
0.0
 10
6285.64453125
 20
4633.3432831828
 10
6285.5489385718
 20
4631.7936193689
 10
6285.6507863875
 20
4630.5779256884
  0
LWPOLYLINE
  5
5F6
330
1F
100
AcDbEntity
  8
0
  6
Continuous
 62
     7
100
AcDbPolyline
 90
        3
 70
   128
 43
0.0
 10
6285.6483459473
 20
4630.5779256884
 10
6285.6774599588
 20
4630.4320551346
 10
6285.6986387892
 20
4630.3174831931
  0
LWPOLYLINE
  5
5F7
330
1F
100
AcDbEntity
  8
0
  6
Continuous
 62
     7
100
AcDbPolyline
 90
        3
 70
   128
 43
0.0
 10
6285.6979370117
 20
4630.3174831931
 10
6285.6732839119
 20
4630.788119879
 10
6285.6498562291
 20
4631.1577000682
  0
LWPOLYLINE
  5
5F8
330
1F
100
AcDbEntity
  8
0
  6
Continuous
 62
     7
100
AcDbPolyline
 90
        3
 70
   128
 43
0.0
 10
6285.6483459473
 20
4631.1577000682
 10
6285.6269722637
 20
4631.5593492918
 10
6285.6167833347
 20
4631.8752803866
  0
LWPOLYLINE
  5
5F9
330
1F
100
AcDbEntity
  8
0
  6
Continuous
 62
     7
100
AcDbPolyline
 90
        3
 70
   128
 43
0.0
 10
6285.6483459473
 20
4631.8704226081
 10
6285.7527171617
 20
4631.8450516396
 10
6285.8348578706
 20
4631.8277158801
  0
LWPOLYLINE
  5
5FA
330
1F
100
AcDbEntity
  8
0
  6
Continuous
 62
     7
100
AcDbPolyline
 90
        3
 70
   128
 43
0.0
 10
6285.831451416
 20
4631.8277158801
 10
6285.8856240728
 20
4631.8162817776
 10
6285.9253949977
 20
4631.8067946498
  0
LWPOLYLINE
  5
5FB
330
1F
100
AcDbEntity
  8
0
  6
Continuous
 62
     7
100
AcDbPolyline
 90
        3
 70
   128
 43
0.0
 10
6285.9230041504
 20
4631.8067946498
 10
6286.0975379781
 20
4631.7800014987
 10
6286.2335931536
 20
4631.7649819915
  0
LWPOLYLINE
  5
5FC
330
1F
100
AcDbEntity
  8
0
  6
Continuous
 62
     7
100
AcDbPolyline
 90
        3
 70
   128
 43
0.0
 10
6286.2319946289
 20
4631.7649819915
 10
6286.943774568
 20
4631.7872656601
 10
6287.4936714329
 20
4631.8890192573
  0
LWPOLYLINE
  5
5FD
330
1F
100
AcDbEntity
  8
0
  6
Continuous
 62
     7
100
AcDbPolyline
 90
        3
 70
   128
 43
0.0
 10
6287.4908447266
 20
4631.8890192573
 10
6286.9962732754
 20
4630.6571662666
 10
6286.2362804849
 20
4629.9515106742
  0
LWPOLYLINE
  5
5FE
330
1F
100
AcDbEntity
  8
0
  6
Continuous
 62
     7
100
AcDbPolyline
 90
        5
 70
   128
 43
0.0
 10
6265.9339904785
 20
4635.6266775195
 10
6266.1334933913
 20
4635.5803716225
 10
6266.2629226051
 20
4635.4193955383
 10
6266.3735917516
 20
4635.0197133073
 10
6266.4158885859
 20
4634.1862418715
  0
LWPOLYLINE
  5
5FF
330
1F
100
AcDbEntity
  8
0
  6
Continuous
 62
     7
100
AcDbPolyline
 90
        4
 70
   128
 43
0.0
 10
6265.0032043457
 20
4634.1735758845
 10
6265.0931066019
 20
4635.0563660665
 10
6265.2786349763
 20
4635.4541103841
 10
6265.6634265117
 20
4635.642532355
  0
LWPOLYLINE
  5
600
330
1F
100
AcDbEntity
  8
0
  6
Continuous
 62
     7
100
AcDbPolyline
 90
        3
 70
   128
 43
0.0
 10
6287.483215332
 20
4632.7186265056
 10
6286.7966144512
 20
4632.5399613537
 10
6286.2323530976
 20
4632.5464584891
  0
LWPOLYLINE
  5
601
330
1F
100
AcDbEntity
  8
0
  6
Continuous
 62
     7
100
AcDbPolyline
 90
        3
 70
   128
 43
0.0
 10
6286.2319946289
 20
4632.5464584891
 10
6286.0590480453
 20
4632.5687854729
 10
6285.9240513321
 20
4632.5937845771
  0
LWPOLYLINE
  5
602
330
1F
100
AcDbEntity
  8
0
  6
Continuous
 62
     7
100
AcDbPolyline
 90
        3
 70
   128
 43
0.0
 10
6285.9230041504
 20
4632.5937845771
 10
6285.8730897177
 20
4632.6038763812
 10
6285.8338243354
 20
4632.6150336329
  0
LWPOLYLINE
  5
603
330
1F
100
AcDbEntity
  8
0
  6
Continuous
 62
     7
100
AcDbPolyline
 90
        3
 70
   128
 43
0.0
 10
6285.831451416
 20
4632.6150336329
 10
6285.7376816195
 20
4632.6395737832
 10
6285.6631888103
 20
4632.6625683371
  0
LWPOLYLINE
  5
604
330
1F
100
AcDbEntity
  8
0
  6
Continuous
 62
     7
100
AcDbPolyline
 90
        3
 70
   128
 43
0.0
 10
6285.6597900391
 20
4632.6625683371
 10
6285.6868873711
 20
4633.0345157958
 10
6285.7419436591
 20
4633.3220043246
  0
LWPOLYLINE
  5
605
330
1F
100
AcDbEntity
  8
0
  6
Continuous
 62
     7
100
AcDbPolyline
 90
        3
 70
   128
 43
0.0
 10
6285.7398986816
 20
4633.3220043246
 10
6285.7933499762
 20
4633.3091875374
 10
6285.8327908002
 20
4633.2958676879
  0
LWPOLYLINE
  5
606
330
1F
100
AcDbEntity
  8
0
  6
Continuous
 62
     7
100
AcDbPolyline
 90
        3
 70
   128
 43
0.0
 10
6285.831451416
 20
4633.2958676879
 10
6285.8832543543
 20
4633.2836648611
 10
6285.9230177969
 20
4633.2745590274
  0
LWPOLYLINE
  5
607
330
1F
100
AcDbEntity
  8
0
  6
Continuous
 62
     7
100
AcDbPolyline
 90
        3
 70
   128
 43
0.0
 10
6285.9230041504
 20
4633.2745590274
 10
6286.0950132622
 20
4633.2478195774
 10
6286.2314227063
 20
4633.2378723685
  0
LWPOLYLINE
  5
608
330
1F
100
AcDbEntity
  8
0
  6
Continuous
 62
     7
100
AcDbPolyline
 90
        3
 70
   128
 43
0.0
 10
6286.2281799316
 20
4633.2378723685
 10
6286.8801496243
 20
4633.2589616307
 10
6287.3690278761
 20
4633.3936193053
  0
LWPOLYLINE
  5
609
330
1F
100
AcDbEntity
  8
0
  6
Continuous
 62
     7
100
AcDbPolyline
 90
        3
 70
   128
 43
0.0
 10
6287.3687744141
 20
4633.3936193053
 10
6287.4578382172
 20
4633.0192055987
 10
6287.4869533375
 20
4632.7186265056
  0
LWPOLYLINE
  5
60A
330
1F
100
AcDbEntity
  8
0
  6
Continuous
 62
     7
100
AcDbPolyline
 90
        3
 70
   128
 43
0.0
 10
6286.2281799316
 20
4634.5940270488
 10
6286.485946365
 20
4634.6177733006
 10
6286.6862787891
 20
4634.647760636
  0
LWPOLYLINE
  5
60B
330
1F
100
AcDbEntity
  8
0
  6
Continuous
 62
     7
100
AcDbPolyline
 90
        3
 70
   128
 43
0.0
 10
6286.6859436035
 20
4634.647760636
 10
6286.9072493907
 20
4634.3762665321
 10
6287.043466375
 20
4634.1378727023
  0
LWPOLYLINE
  5
60C
330
1F
100
AcDbEntity
  8
0
  6
Continuous
 62
     7
100
AcDbPolyline
 90
        3
 70
   128
 43
0.0
 10
6286.2281799316
 20
4633.9928546016
 10
6286.0570789559
 20
4634.0093519884
 10
6285.9219842616
 20
4634.0297200744
  0
LWPOLYLINE
  5
60D
330
1F
100
AcDbEntity
  8
0
  6
Continuous
 62
     7
100
AcDbPolyline
 90
        3
 70
   128
 43
0.0
 10
6287.0407104492
 20
4634.1378727023
 10
6286.5959296982
 20
4634.0066105316
 10
6286.2301826503
 20
4633.9928546016
  0
LWPOLYLINE
  5
60E
330
1F
100
AcDbEntity
  8
0
  6
Continuous
 62
     7
100
AcDbPolyline
 90
        3
 70
   128
 43
0.0
 10
6285.9191894531
 20
4634.0297200744
 10
6285.8802592698
 20
4634.0356784515
 10
6285.8474668141
 20
4634.0402998988
  0
LWPOLYLINE
  5
60F
330
1F
100
AcDbEntity
  8
0
  6
Continuous
 62
     7
100
AcDbPolyline
 90
        3
 70
   128
 43
0.0
 10
6285.8467102051
 20
4634.0402998988
 10
6285.8845128195
 20
4634.2378904956
 10
6285.9214676104
 20
4634.3914606635
  0
LWPOLYLINE
  5
610
330
1F
100
AcDbEntity
  8
0
  6
Continuous
 62
     7
100
AcDbPolyline
 90
        3
 70
   128
 43
0.0
 10
6285.9191894531
 20
4634.3914606635
 10
6285.9586230611
 20
4634.5051283227
 10
6285.9899906002
 20
4634.5936992232
  0
LWPOLYLINE
  5
611
330
1F
100
AcDbEntity
  8
0
  6
Continuous
 62
     7
100
AcDbPolyline
 90
        3
 70
   128
 43
0.0
 10
6285.9878540039
 20
4634.5936992232
 10
6286.1240010957
 20
4634.589868012
 10
6286.2292524919
 20
4634.5940270488
  0
LWPOLYLINE
  5
612
330
1F
100
AcDbEntity
  8
0
  6
Continuous
 62
     7
100
AcDbPolyline
 90
        3
 70
   128
 43
0.0
 10
6287.5022888184
 20
4638.7114563052
 10
6287.2988146565
 20
4637.6675440638
 10
6286.9224400751
 20
4636.9187274043
  0
LWPOLYLINE
  5
613
330
1F
100
AcDbEntity
  8
0
  6
Continuous
 62
     7
100
AcDbPolyline
 90
        3
 70
   128
 43
0.0
 10
6285.9153747559
 20
4637.7203502719
 10
6285.8652637393
 20
4637.7430491877
 10
6285.825866184
 20
4637.7625503604
  0
LWPOLYLINE
  5
614
330
1F
100
AcDbEntity
  8
0
  6
Continuous
 62
     7
100
AcDbPolyline
 90
        3
 70
   128
 43
0.0
 10
6285.8238220215
 20
4637.8211715285
 10
6285.8771120531
 20
4637.8680802106
 10
6285.9160931807
 20
4637.9063763682
  0
LWPOLYLINE
  5
615
330
1F
100
AcDbEntity
  8
0
  6
Continuous
 62
     7
100
AcDbPolyline
 90
        3
 70
   128
 43
0.0
 10
6285.9153747559
 20
4637.9063763682
 10
6286.0864990972
 20
4638.0488395332
 10
6286.2237746853
 20
4638.156596667
  0
LWPOLYLINE
  5
616
330
1F
100
AcDbEntity
  8
0
  6
Continuous
 62
     7
100
AcDbPolyline
 90
        3
 70
   128
 43
0.0
 10
6286.2205505371
 20
4638.156596667
 10
6286.903833012
 20
4638.5566921684
 10
6287.5046268131
 20
4638.7114563052
  0
LWPOLYLINE
  5
617
330
1F
100
AcDbEntity
  8
0
  6
Continuous
 62
     7
100
AcDbPolyline
 90
        3
 70
   128
 43
0.0
 10
6286.9186401367
 20
4636.9187274043
 10
6286.866821288
 20
4637.0107355525
 10
6286.8156765148
 20
4637.0779910151
  0
LWPOLYLINE
  5
618
330
1F
100
AcDbEntity
  8
0
  6
Continuous
 62
     7
100
AcDbPolyline
 90
        3
 70
   128
 43
0.0
 10
6286.8156433105
 20
4637.0779910151
 10
6287.192295295
 20
4637.8514088695
 10
6287.3192116644
 20
4638.5147013728
  0
LWPOLYLINE
  5
619
330
1F
100
AcDbEntity
  8
0
  6
Continuous
 62
     7
100
AcDbPolyline
 90
        3
 70
   128
 43
0.0
 10
6287.3191833496
 20
4638.5147013728
 10
6286.6725530229
 20
4638.264261292
 10
6286.2240848157
 20
4637.9545369212
  0
LWPOLYLINE
  5
61A
330
1F
100
AcDbEntity
  8
0
  6
Continuous
 62
     7
100
AcDbPolyline
 90
        3
 70
   128
 43
0.0
 10
6286.2205505371
 20
4637.9545369212
 10
6286.0637094777
 20
4637.8175959161
 10
6285.9428617198
 20
4637.7042272155
  0
LWPOLYLINE
  5
61B
330
1F
100
AcDbEntity
  8
0
  6
Continuous
 62
     7
100
AcDbPolyline
 90
        3
 70
   128
 43
0.0
 10
6285.6369018555
 20
4637.8313341205
 10
6285.5121502235
 20
4637.8695901014
 10
6285.4105943374
 20
4637.895170695
  0
LWPOLYLINE
  5
61C
330
1F
100
AcDbEntity
  8
0
  6
Continuous
 62
     7
100
AcDbPolyline
 90
        3
 70
   128
 43
0.0
 10
6285.8238220215
 20
4638.1989159648
 10
6285.876225282
 20
4638.227961309
 10
6285.9154731527
 20
4638.2521429126
  0
LWPOLYLINE
  5
61D
330
1F
100
AcDbEntity
  8
0
  6
Continuous
 62
     7
100
AcDbPolyline
 90
        3
 70
   128
 43
0.0
 10
6285.6369018555
 20
4638.0761303965
 10
6285.7424486908
 20
4638.146460969
 10
6285.825246156
 20
4638.1989159648
  0
LWPOLYLINE
  5
61E
330
1F
100
AcDbEntity
  8
0
  6
Continuous
 62
     7
100
AcDbPolyline
 90
        3
 70
   128
 43
0.0
 10
6285.9153747559
 20
4638.2521429126
 10
6286.0860584538
 20
4638.339819126
 10
6286.2234645549
 20
4638.4016909663
  0
LWPOLYLINE
  5
61F
330
1F
100
AcDbEntity
  8
0
  6
Continuous
 62
     7
100
AcDbPolyline
 90
        3
 70
   128
 43
0.0
 10
6286.2205505371
 20
4638.4016909663
 10
6286.4674948881
 20
4638.4892600346
 10
6286.6646779261
 20
4638.5403313701
  0
LWPOLYLINE
  5
620
330
1F
100
AcDbEntity
  8
0
  6
Continuous
 62
     7
100
AcDbPolyline
 90
        3
 70
   128
 43
0.0
 10
6286.6630554199
 20
4638.5403313701
 10
6286.4113143793
 20
4638.3981473012
 10
6286.2235679317
 20
4638.2683255736
  0
LWPOLYLINE
  5
621
330
1F
100
AcDbEntity
  8
0
  6
Continuous
 62
     7
100
AcDbPolyline
 90
        3
 70
   128
 43
0.0
 10
6286.2205505371
 20
4638.2683255736
 10
6286.0468958606
 20
4638.1334930478
 10
6285.9157832831
 20
4638.0181648795
  0
LWPOLYLINE
  5
622
330
1F
100
AcDbEntity
  8
0
  6
Continuous
 62
     7
100
AcDbPolyline
 90
        3
 70
   128
 43
0.0
 10
6285.9153747559
 20
4638.0181648795
 10
6285.8651730634
 20
4637.967452277
 10
6285.8256594304
 20
4637.9273572032
  0
LWPOLYLINE
  5
623
330
1F
100
AcDbEntity
  8
0
  6
Continuous
 62
     7
100
AcDbPolyline
 90
        3
 70
   128
 43
0.0
 10
6285.8238220215
 20
4637.9273572032
 10
6285.7628613957
 20
4637.8589902916
 10
6285.7138316871
 20
4637.8049888675
  0
LWPOLYLINE
  5
624
330
1F
100
AcDbEntity
  8
0
  6
Continuous
 62
     7
100
AcDbPolyline
 90
        3
 70
   128
 43
0.0
 10
6285.7131958008
 20
4637.8049888675
 10
6285.6725869274
 20
4637.8202936749
 10
6285.6398310073
 20
4637.8313341205
  0
LWPOLYLINE
  5
625
330
1F
100
AcDbEntity
  8
0
  6
Continuous
 62
     7
100
AcDbPolyline
 90
        3
 70
   128
 43
0.0
 10
6285.4080200195
 20
4637.895170695
 10
6285.5378625301
 20
4637.9976146984
 10
6285.6394176165
 20
4638.0761303965
  0
LWPOLYLINE
  5
626
330
1F
100
AcDbEntity
  8
0
  6
Continuous
 62
     7
100
AcDbPolyline
 90
        3
 70
   128
 43
0.0
 10
6284.9998474121
 20
4629.5877733294
 10
6284.9618613537
 20
4630.7935585659
 10
6284.9520177374
 20
4631.7414679591
  0
LWPOLYLINE
  5
627
330
1F
100
AcDbEntity
  8
0
  6
Continuous
 62
     7
100
AcDbPolyline
 90
        3
 70
   128
 43
0.0
 10
6284.9769592285
 20
4634.8951795165
 10
6285.3698422494
 20
4635.0199111554
 10
6285.6438617714
 20
4635.19409681
  0
LWPOLYLINE
  5
628
330
1F
100
AcDbEntity
  8
0
  6
Continuous
 62
     7
100
AcDbPolyline
 90
        3
 70
   128
 43
0.0
 10
6285.6407165527
 20
4635.19409681
 10
6285.7476166023
 20
4635.2631097868
 10
6285.8296901945
 20
4635.3164949481
  0
LWPOLYLINE
  5
629
330
1F
100
AcDbEntity
  8
0
  6
Continuous
 62
     7
100
AcDbPolyline
 90
        3
 70
   128
 43
0.0
 10
6285.8276367188
 20
4635.3164949481
 10
6285.8798522849
 20
4635.3470375689
 10
6285.9198138144
 20
4635.3701093261
  0
LWPOLYLINE
  5
62A
330
1F
100
AcDbEntity
  8
0
  6
Continuous
 62
     7
100
AcDbPolyline
 90
        3
 70
   128
 43
0.0
 10
6285.9191894531
 20
4635.3701093261
 10
6285.9609122246
 20
4635.3889546157
 10
6285.9940213643
 20
4635.4018189971
  0
LWPOLYLINE
  5
62B
330
1F
100
AcDbEntity
  8
0
  6
Continuous
 62
     7
100
AcDbPolyline
 90
        3
 70
   128
 43
0.0
 10
6285.9916687012
 20
4635.4018189971
 10
6285.9524032554
 20
4635.3599805052
 10
6285.9199171912
 20
4635.3268959586
  0
LWPOLYLINE
  5
62C
330
1F
100
AcDbEntity
  8
0
  6
Continuous
 62
     7
100
AcDbPolyline
 90
        3
 70
   128
 43
0.0
 10
6285.9191894531
 20
4635.3268959586
 10
6285.8683518776
 20
4635.2623668901
 10
6285.8297935713
 20
4635.2101602618
  0
LWPOLYLINE
  5
62D
330
1F
100
AcDbEntity
  8
0
  6
Continuous
 62
     7
100
AcDbPolyline
 90
        3
 70
   128
 43
0.0
 10
6285.8276367188
 20
4635.2101602618
 10
6285.7162290102
 20
4635.0215717922
 10
6285.644378539
 20
4634.8641851012
  0
LWPOLYLINE
  5
62E
330
1F
100
AcDbEntity
  8
0
  6
Continuous
 62
     7
100
AcDbPolyline
 90
        3
 70
   128
 43
0.0
 10
6285.6407165527
 20
4634.8641851012
 10
6285.2993429607
 20
4631.9467212063
 10
6285.3860997388
 20
4629.6312847201
  0
LWPOLYLINE
  5
62F
330
1F
100
AcDbEntity
  8
0
  6
Continuous
 62
     7
100
AcDbPolyline
 90
        3
 70
   128
 43
0.0
 10
6284.9464416504
 20
4631.7041256492
 10
6284.8812467612
 20
4630.5226152254
 10
6284.9128470084
 20
4629.5931973521
  0
LWPOLYLINE
  5
630
330
1F
100
AcDbEntity
  8
0
  6
Continuous
 62
     7
100
AcDbPolyline
 90
        3
 70
   128
 43
0.0
 10
6284.912109375
 20
4629.5931973521
 10
6284.7032207325
 20
4629.6080492576
 10
6284.5402598873
 20
4629.6348908011
  0
LWPOLYLINE
  5
631
330
1F
100
AcDbEntity
  8
0
  6
Continuous
 62
     7
100
AcDbPolyline
 90
        3
 70
   128
 43
0.0
 10
6284.538269043
 20
4629.6348908011
 10
6284.5663214114
 20
4631.9875706065
 10
6284.4381472355
 20
4633.8307597701
  0
LWPOLYLINE
  5
632
330
1F
100
AcDbEntity
  8
0
  6
Continuous
 62
     7
100
AcDbPolyline
 90
        3
 70
   128
 43
0.0
 10
6284.4352722168
 20
4633.8307597701
 10
6284.2530085095
 20
4634.7641134632
 10
6283.9094973646
 20
4635.4201772277
  0
LWPOLYLINE
  5
633
330
1F
100
AcDbEntity
  8
0
  6
Continuous
 62
     7
100
AcDbPolyline
 90
        3
 70
   128
 43
0.0
 10
6283.9088439941
 20
4635.4201772277
 10
6284.2152432732
 20
4635.2803616915
 10
6284.4362869186
 20
4635.1335682933
  0
LWPOLYLINE
  5
634
330
1F
100
AcDbEntity
  8
0
  6
Continuous
 62
     7
100
AcDbPolyline
 90
        3
 70
   128
 43
0.0
 10
6284.4352722168
 20
4635.1335682933
 10
6284.707361297
 20
4634.9755859432
 10
6284.9416823851
 20
4634.900216109
  0
LWPOLYLINE
  5
635
330
1F
100
AcDbEntity
  8
0
  6
Continuous
 62
     7
100
AcDbPolyline
 90
        3
 70
   128
 43
0.0
 10
6285.3851318359
 20
4629.6312847201
 10
6285.1728967082
 20
4629.5966182869
 10
6285.0032807587
 20
4629.5877733294
  0
LWPOLYLINE
  5
636
330
1F
100
AcDbEntity
  8
0
  6
Continuous
 62
     7
100
AcDbPolyline
 90
        5
 70
   128
 43
0.0
 10
6280.1208496094
 20
4635.637257344
 10
6280.3215848409
 20
4635.5888928821
 10
6280.4515290647
 20
4635.4276185473
 10
6280.563465238
 20
4635.0272797536
 10
6280.6038592502
 20
4634.1915764872
  0
LWPOLYLINE
  5
637
330
1F
100
AcDbEntity
  8
0
  6
Continuous
 62
     7
100
AcDbPolyline
 90
        4
 70
   128
 43
0.0
 10
6279.1938781738
 20
4634.1788508956
 10
6279.2830586076
 20
4635.0564832406
 10
6279.4616601544
 20
4635.4550612682
 10
6279.8408052444
 20
4635.6478669707
  0
LWPOLYLINE
  5
638
330
1F
100
AcDbEntity
  8
0
  6
Continuous
 62
     7
100
AcDbPolyline
 90
        5
 70
   128
 43
0.0
 10
6258.9149475098
 20
4460.4947307174
 10
6260.4934188799
 20
4463.2490950426
 10
6259.5699374315
 20
4466.2837744945
 10
6256.7525675494
 20
4467.689929005
 10
6253.7836079977
 20
4466.6160085265
  0
LWPOLYLINE
  5
639
330
1F
100
AcDbEntity
  8
0
  6
Continuous
 62
     7
100
AcDbPolyline
 90
        5
 70
   128
 43
0.0
 10
6253.7803649902
 20
4466.6160085265
 10
6252.526234038
 20
4463.9223160724
 10
6253.4696589633
 20
4461.1084737077
 10
6256.0729393114
 20
4459.7222579527
 10
6258.9153537087
 20
4460.4947307174
  0
LWPOLYLINE
  5
63A
330
1F
100
AcDbEntity
  8
0
  6
Continuous
 62
     7
100
AcDbPolyline
 90
        5
 70
   128
 43
0.0
 10
6264.1906738281
 20
4472.9891159598
 10
6265.6353719066
 20
4475.8050471549
 10
6264.5989007076
 20
4478.7680217956
 10
6261.734481126
 20
4480.0702274071
 10
6258.7984261595
 20
4478.8824060027
  0
LWPOLYLINE
  5
63B
330
1F
100
AcDbEntity
  8
0
  6
Continuous
 62
     7
100
AcDbPolyline
 90
        5
 70
   128
 43
0.0
 10
6258.7966918945
 20
4478.8824060027
 10
6257.646061416
 20
4476.1340524305
 10
6258.6953932069
 20
4473.3693396721
 10
6261.3559016603
 20
4472.0821290132
 10
6264.1934921525
 20
4472.9891159598
  0
LWPOLYLINE
  5
63C
330
1F
100
AcDbEntity
  8
0
  6
Continuous
 62
     7
100
AcDbPolyline
 90
        5
 70
   128
 43
0.0
 10
6276.6952514648
 20
4478.2263972823
 10
6278.0168122542
 20
4481.0766164651
 10
6276.8678772624
 20
4484.0047414588
 10
6273.9318524858
 20
4485.1960348437
 10
6271.0523783721
 20
4483.8806726996
  0
LWPOLYLINE
  5
63D
330
1F
100
AcDbEntity
  8
0
  6
Continuous
 62
     7
100
AcDbPolyline
 90
        5
 70
   128
 43
0.0
 10
6271.0494995117
 20
4483.8806726996
 10
6270.0208950821
 20
4481.1077621481
 10
6271.1713029202
 20
4478.3882169089
 10
6273.9011093339
 20
4477.1991194808
 10
6276.6971300848
 20
4478.2263972823
  0
LWPOLYLINE
  5
63E
330
1F
100
AcDbEntity
  8
0
  6
Continuous
 62
     7
100
AcDbPolyline
 90
        5
 70
   128
 43
0.0
 10
6289.0625
 20
4473.09396053
 10
6290.3910558204
 20
4475.9473312033
 10
6289.2259318446
 20
4478.8955535407
 10
6286.278088156
 20
4480.0696353388
 10
6283.4198779569
 20
4478.7474610869
  0
LWPOLYLINE
  5
63F
330
1F
100
AcDbEntity
  8
0
  6
Continuous
 62
     7
100
AcDbPolyline
 90
        5
 70
   128
 43
0.0
 10
6283.4167480469
 20
4478.7474610869
 10
6282.3952129979
 20
4475.9811919745
 10
6283.5596112879
 20
4473.2485488315
 10
6286.2936036918
 20
4472.0729674493
 10
6289.063964647
 20
4473.09396053
  0
LWPOLYLINE
  5
640
330
1F
100
AcDbEntity
  8
0
  6
Continuous
 62
     7
100
AcDbPolyline
 90
        5
 70
   128
 43
0.0
 10
6294.0711975098
 20
4460.618112332
 10
6295.5107706103
 20
4463.4468841151
 10
6294.4311302243
 20
4466.4391157747
 10
6291.5312163749
 20
4467.6967446403
 10
6288.6329457655
 20
4466.4671161239
  0
LWPOLYLINE
  5
641
330
1F
100
AcDbEntity
  8
0
  6
Continuous
 62
     7
100
AcDbPolyline
 90
        5
 70
   128
 43
0.0
 10
6288.631439209
 20
4466.4671161239
 10
6287.5199459286
 20
4463.7213706522
 10
6288.6041604426
 20
4460.9579287928
 10
6291.2719513169
 20
4459.7049627311
 10
6294.0719669245
 20
4460.618112332
  0
LWPOLYLINE
  5
642
330
1F
100
AcDbEntity
  8
0
  6
Continuous
 62
     7
100
AcDbPolyline
 90
        5
 70
   128
 43
0.0
 10
6288.8984680176
 20
4448.2065775458
 10
6290.3812320545
 20
4451.0164374281
 10
6289.3602571059
 20
4454.0054119347
 10
6286.5023590529
 20
4455.3209554905
 10
6283.5629411824
 20
4454.1495778624
  0
LWPOLYLINE
  5
643
330
1F
100
AcDbEntity
  8
0
  6
Continuous
 62
     7
100
AcDbPolyline
 90
        5
 70
   128
 43
0.0
 10
6283.561706543
 20
4454.1495778624
 10
6282.3953736018
 20
4451.4156130462
 10
6283.4184155114
 20
4448.6489261628
 10
6286.0617616969
 20
4447.3367621612
 10
6288.9008053139
 20
4448.2065775458
  0
LWPOLYLINE
  5
644
330
1F
100
AcDbEntity
  8
0
  6
Continuous
 62
     7
100
AcDbPolyline
 90
        5
 70
   128
 43
0.0
 10
6276.5464782715
 20
4443.0985786979
 10
6278.0065012284
 20
4445.8859180647
 10
6277.004882461
 20
4448.858570552
 10
6274.1447735647
 20
4450.1950048059
 10
6271.2064275078
 20
4449.0416982238
  0
LWPOLYLINE
  5
645
330
1F
100
AcDbEntity
  8
0
  6
Continuous
 62
     7
100
AcDbPolyline
 90
        5
 70
   128
 43
0.0
 10
6271.2059020996
 20
4449.0416982238
 10
6270.0220300612
 20
4446.3281967806
 10
6271.0288362125
 20
4443.5403507635
 10
6273.6984890372
 20
4442.2102396302
 10
6276.548165039
 20
4443.0985786979
  0
LWPOLYLINE
  5
646
330
1F
100
AcDbEntity
  8
0
  6
Continuous
 62
     7
100
AcDbPolyline
 90
        5
 70
   128
 43
0.0
 10
6264.0571594238
 20
4448.1328466002
 10
6265.6185866522
 20
4450.870450838
 10
6264.6971702746
 20
4453.9074673974
 10
6261.8567587291
 20
4455.3168144495
 10
6258.9004748993
 20
4454.233381993
  0
LWPOLYLINE
  5
647
330
1F
100
AcDbEntity
  8
0
  6
Continuous
 62
     7
100
AcDbPolyline
 90
        5
 70
   128
 43
0.0
 10
6258.8996887207
 20
4454.233381993
 10
6257.6522946955
 20
4451.5564745894
 10
6258.5908078218
 20
4448.7394259303
 10
6261.212883635
 20
4447.3463153958
 10
6264.0575991504
 20
4448.1328466002
  0
LWPOLYLINE
  5
648
330
1F
100
AcDbEntity
  8
0
  6
Continuous
 62
     7
100
AcDbPolyline
 90
        3
 70
   128
 43
0.0
 10
6396.2936401367
 20
4603.2209434573
 10
6398.1160860121
 20
4598.9119508692
 10
6400.4190863602
 20
4596.0015990798
  0
LWPOLYLINE
  5
649
330
1F
100
AcDbEntity
  8
0
  6
Continuous
 62
     7
100
AcDbPolyline
 90
        3
 70
   128
 43
0.0
 10
6395.9503173828
 20
4607.6211669509
 10
6395.9656775304
 20
4605.1556346605
 10
6396.2961883776
 20
4603.2209434573
  0
LWPOLYLINE
  5
64A
330
1F
100
AcDbEntity
  8
0
  6
Continuous
 62
     7
100
AcDbPolyline
 90
        3
 70
   128
 43
0.0
 10
6411.8118286133
 20
4591.4946534697
 10
6418.3993021935
 20
4594.2020950921
 10
6421.4174078338
 20
4598.9102461402
  0
LWPOLYLINE
  5
64B
330
1F
100
AcDbEntity
  8
0
  6
Continuous
 62
     7
100
AcDbPolyline
 90
        3
 70
   128
 43
0.0
 10
6403.4423828125
 20
4617.0342602794
 10
6397.8078816058
 20
4612.9001731388
 10
6395.9534691207
 20
4607.6211669509
  0
LWPOLYLINE
  5
64C
330
1F
100
AcDbEntity
  8
0
  6
Continuous
 62
     7
100
AcDbPolyline
 90
        3
 70
   128
 43
0.0
 10
6407.6271057129
 20
4591.864261872
 10
6409.9678110517
 20
4591.4939359263
 10
6411.8125216596
 20
4591.4946534697
  0
LWPOLYLINE
  5
64D
330
1F
100
AcDbEntity
  8
0
  6
Continuous
 62
     7
100
AcDbPolyline
 90
        3
 70
   128
 43
0.0
 10
6400.4173278809
 20
4596.0015990798
 10
6404.1999217286
 20
4593.1852943805
 10
6407.6301680438
 20
4591.864261872
  0
LWPOLYLINE
  5
64E
330
1F
100
AcDbEntity
  8
0
  6
Continuous
 62
     7
100
AcDbPolyline
 90
        3
 70
   128
 43
0.0
 10
6396.2936401367
 20
4603.2209434573
 10
6400.8841913367
 20
4595.0194419056
 10
6407.6301680438
 20
4591.864261872
  0
LWPOLYLINE
  5
64F
330
1F
100
AcDbEntity
  8
0
  6
Continuous
 62
     7
100
AcDbPolyline
 90
        3
 70
   128
 43
0.0
 10
6407.299041748
 20
4590.0105872218
 10
6398.0430991131
 20
4595.2766572694
 10
6394.4418580763
 20
4602.8956213061
  0
LWPOLYLINE
  5
650
330
1F
100
AcDbEntity
  8
0
  6
Continuous
 62
     7
100
AcDbPolyline
 90
        3
 70
   128
 43
0.0
 10
6409.4543457031
 20
4589.8425319259
 10
6408.2454965165
 20
4589.8831039555
 10
6407.3011578552
 20
4590.0105872218
  0
LWPOLYLINE
  5
651
330
1F
100
AcDbEntity
  8
0
  6
Continuous
 62
     7
100
AcDbPolyline
 90
        3
 70
   128
 43
0.0
 10
6395.5993652344
 20
4607.4424424235
 10
6395.7986468045
 20
4607.5445204369
 10
6395.9534691207
 20
4607.6211669509
  0
LWPOLYLINE
  5
652
330
1F
100
AcDbEntity
  8
0
  6
Continuous
 62
     7
100
AcDbPolyline
 90
        3
 70
   128
 43
0.0
 10
6389.6713256836
 20
4599.9032297198
 10
6390.020116078
 20
4599.8021178239
 10
6390.2535663478
 20
4599.6311941211
  0
LWPOLYLINE
  5
653
330
1F
100
AcDbEntity
  8
0
  6
Continuous
 62
     7
100
AcDbPolyline
 90
        3
 70
   128
 43
0.0
 10
6388.8168334961
 20
4599.6125676696
 10
6389.2597496931
 20
4599.871202573
 10
6389.6741421454
 20
4599.9032297198
  0
LWPOLYLINE
  5
654
330
1F
100
AcDbEntity
  8
0
  6
Continuous
 62
     7
100
AcDbPolyline
 90
        3
 70
   128
 43
0.0
 10
6404.296875
 20
4585.2488615577
 10
6404.2292203657
 20
4584.7290912137
 10
6404.0068612926
 20
4584.3945779864
  0
LWPOLYLINE
  5
655
330
1F
100
AcDbEntity
  8
0
  6
Continuous
 62
     7
100
AcDbPolyline
 90
        3
 70
   128
 43
0.0
 10
6404.0260314941
 20
4585.8288445537
 10
6404.2313030843
 20
4585.5234395244
 10
6404.2992295258
 20
4585.2488615577
  0
LWPOLYLINE
  5
656
330
1F
100
AcDbEntity
  8
0
  6
Continuous
 62
     7
100
AcDbPolyline
 90
        3
 70
   128
 43
0.0
 10
6383.7509155273
 20
4596.5976361363
 10
6384.4119957732
 20
4597.069644763
 10
6384.7721965544
 20
4597.7858641211
  0
LWPOLYLINE
  5
657
330
1F
100
AcDbEntity
  8
0
  6
Continuous
 62
     7
100
AcDbPolyline
 90
        3
 70
   128
 43
0.0
 10
6384.7694396973
 20
4597.7858641211
 10
6386.3358820202
 20
4599.9449539631
 10
6387.7698408
 20
4601.1878588263
  0
LWPOLYLINE
  5
658
330
1F
100
AcDbEntity
  8
0
  6
Continuous
 62
     7
100
AcDbPolyline
 90
        3
 70
   128
 43
0.0
 10
6408.1039428711
 20
4585.6238045756
 10
6407.4019761864
 20
4584.9606275423
 10
6406.8274871938
 20
4584.4615140025
  0
LWPOLYLINE
  5
659
330
1F
100
AcDbEntity
  8
0
  6
Continuous
 62
     7
100
AcDbPolyline
 90
        3
 70
   128
 43
0.0
 10
6406.8260192871
 20
4584.4615140025
 10
6404.1355798932
 20
4582.4774533674
 10
6402.3583160274
 20
4580.5117824141
  0
LWPOLYLINE
  5
65A
330
1F
100
AcDbEntity
  8
0
  6
Continuous
 62
     7
100
AcDbPolyline
 90
        3
 70
   128
 43
0.0
 10
6402.3551940918
 20
4580.5117824141
 10
6401.7781516313
 20
4579.6389666536
 10
6400.9817929932
 20
4579.3330331285
  0
LWPOLYLINE
  5
65B
330
1F
100
AcDbEntity
  8
0
  6
Continuous
 62
     7
100
AcDbPolyline
 90
        3
 70
   128
 43
0.0
 10
6393.8446044922
 20
4606.2307395999
 10
6394.7327170055
 20
4606.9088594233
 10
6395.6023158066
 20
4607.4424424235
  0
LWPOLYLINE
  5
65C
330
1F
100
AcDbEntity
  8
0
  6
Continuous
 62
     7
100
AcDbPolyline
 90
        3
 70
   128
 43
0.0
 10
6411.6020202637
 20
4591.0203793113
 10
6411.0694946815
 20
4590.0235299717
 10
6410.7102231614
 20
4589.4695260589
  0
LWPOLYLINE
  5
65D
330
1F
100
AcDbEntity
  8
0
  6
Continuous
 62
     7
100
AcDbPolyline
 90
        3
 70
   128
 43
0.0
 10
6404.0260314941
 20
4585.8288445537
 10
6404.3890922658
 20
4585.746092932
 10
6404.623165869
 20
4585.5721571509
  0
LWPOLYLINE
  5
65E
330
1F
100
AcDbEntity
  8
0
  6
Continuous
 62
     7
100
AcDbPolyline
 90
        3
 70
   128
 43
0.0
 10
6389.9955749512
 20
4600.2265253131
 10
6390.2043583469
 20
4599.918919109
 10
6390.2535663478
 20
4599.6311941211
  0
LWPOLYLINE
  5
65F
330
1F
100
AcDbEntity
  8
0
  6
Continuous
 62
     7
100
AcDbPolyline
 90
        3
 70
   128
 43
0.0
 10
6388.2179260254
 20
4599.9062099521
 10
6388.8285326468
 20
4600.3370233254
 10
6389.4695715539
 20
4600.3802158896
  0
LWPOLYLINE
  5
660
330
1F
100
AcDbEntity
  8
0
  6
Continuous
 62
     7
100
AcDbPolyline
 90
        3
 70
   128
 43
0.0
 10
6389.476776123
 20
4600.0976600711
 10
6388.8504277618
 20
4599.8103329582
 10
6388.4554730289
 20
4599.4361975257
  0
LWPOLYLINE
  5
661
330
1F
100
AcDbEntity
  8
0
  6
Continuous
 62
     7
100
AcDbPolyline
 90
        3
 70
   128
 43
0.0
 10
6388.2179260254
 20
4599.9062099521
 10
6390.9498894441
 20
4603.0363740718
 10
6393.14953252
 20
4605.4468491141
  0
LWPOLYLINE
  5
662
330
1F
100
AcDbEntity
  8
0
  6
Continuous
 62
     7
100
AcDbPolyline
 90
        3
 70
   128
 43
0.0
 10
6389.4691467285
 20
4600.3802158896
 10
6389.7441207838
 20
4600.3124570279
 10
6389.9675013058
 20
4600.2571621005
  0
LWPOLYLINE
  5
663
330
1F
100
AcDbEntity
  8
0
  6
Continuous
 62
     7
100
AcDbPolyline
 90
        3
 70
   128
 43
0.0
 10
6404.7737121582
 20
4585.0433447425
 10
6404.708572636
 20
4585.31802535
 10
6404.6537430517
 20
4585.5415203635
  0
LWPOLYLINE
  5
664
330
1F
100
AcDbEntity
  8
0
  6
Continuous
 62
     7
100
AcDbPolyline
 90
        3
 70
   128
 43
0.0
 10
6409.8472595215
 20
4588.713172919
 10
6406.7694851006
 20
4585.9281917477
 10
6404.2992891304
 20
4583.7958195273
  0
LWPOLYLINE
  5
665
330
1F
100
AcDbEntity
  8
0
  6
Continuous
 62
     7
100
AcDbPolyline
 90
        3
 70
   128
 43
0.0
 10
6404.296875
 20
4583.7958195273
 10
6404.7313215381
 20
4584.4023987897
 10
6404.7757910125
 20
4585.0433447425
  0
LWPOLYLINE
  5
666
330
1F
100
AcDbEntity
  8
0
  6
Continuous
 62
     7
100
AcDbPolyline
 90
        3
 70
   128
 43
0.0
 10
6403.8276672363
 20
4584.0311386649
 10
6404.2940842336
 20
4584.5443061336
 10
6404.4932724468
 20
4585.0544312064
  0
LWPOLYLINE
  5
667
330
1F
100
AcDbEntity
  8
0
  6
Continuous
 62
     7
100
AcDbPolyline
 90
        3
 70
   128
 43
0.0
 10
6404.4914245605
 20
4585.0544312064
 10
6404.5817873832
 20
4585.3229738577
 10
6404.6537430517
 20
4585.5415203635
  0
LWPOLYLINE
  5
668
330
1F
100
AcDbEntity
  8
0
  6
Continuous
 62
     7
100
AcDbPolyline
 90
        3
 70
   128
 43
0.0
 10
6389.476776123
 20
4600.0976600711
 10
6389.7488241318
 20
4600.1856020646
 10
6389.9675013058
 20
4600.2571621005
  0
LWPOLYLINE
  5
669
330
1F
100
AcDbEntity
  8
0
  6
Continuous
 62
     7
100
AcDbPolyline
 90
        3
 70
   128
 43
0.0
 10
6400.9780883789
 20
4579.3330331285
 10
6399.0717218909
 20
4578.7182636546
 10
6397.6605759494
 20
4578.0392923419
  0
LWPOLYLINE
  5
66A
330
1F
100
AcDbEntity
  8
0
  6
Continuous
 62
     7
100
AcDbPolyline
 90
        3
 70
   128
 43
0.0
 10
6410.7093811035
 20
4589.4695260589
 10
6409.48683911
 20
4587.6621342264
 10
6408.1071616642
 20
4585.6238045756
  0
LWPOLYLINE
  5
66B
330
1F
100
AcDbEntity
  8
0
  6
Continuous
 62
     7
100
AcDbPolyline
 90
        3
 70
   128
 43
0.0
 10
6387.767791748
 20
4601.1878588263
 10
6391.6029812579
 20
4604.3698292795
 10
6393.8446716897
 20
4606.2307395999
  0
LWPOLYLINE
  5
66C
330
1F
100
AcDbEntity
  8
0
  6
Continuous
 62
     7
100
AcDbPolyline
 90
        3
 70
   128
 43
0.0
 10
6385.6086730957
 20
4596.4085795943
 10
6385.5251712286
 20
4596.5673072213
 10
6385.5364100568
 20
4596.649173743
  0
LWPOLYLINE
  5
66D
330
1F
100
AcDbEntity
  8
0
  6
Continuous
 62
     7
100
AcDbPolyline
 90
        3
 70
   128
 43
0.0
 10
6385.5361938477
 20
4596.649173743
 10
6386.5019936477
 20
4597.8410054244
 10
6387.258216881
 20
4598.7579562728
  0
LWPOLYLINE
  5
66E
330
1F
100
AcDbEntity
  8
0
  6
Continuous
 62
     7
100
AcDbPolyline
 90
        3
 70
   128
 43
0.0
 10
6400.1083374023
 20
4580.3834536139
 10
6400.0325861183
 20
4580.3518780542
 10
6399.9554069273
 20
4580.3512075011
  0
LWPOLYLINE
  5
66F
330
1F
100
AcDbEntity
  8
0
  6
Continuous
 62
     7
100
AcDbPolyline
 90
        3
 70
   128
 43
0.0
 10
6403.148651123
 20
4582.8352310721
 10
6401.4752740412
 20
4581.4691857957
 10
6400.1115487449
 20
4580.3834536139
  0
LWPOLYLINE
  5
670
330
1F
100
AcDbEntity
  8
0
  6
Continuous
 62
     7
100
AcDbPolyline
 90
        3
 70
   128
 43
0.0
 10
6384.3460083008
 20
4595.1502957408
 10
6384.5963995732
 20
4595.4670659927
 10
6384.792402529
 20
4595.715228564
  0
ENDSEC
  0
SECTION
  2
OBJECTS
  0
DICTIONARY
  5
C
330
0
100
AcDbDictionary
281
     1
  3
ACAD_GROUP
350
D
  3
ACAD_LAYOUT
350
1A
  3
ACAD_MLINESTYLE
350
17
  3
ACAD_PLOTSETTINGS
350
19
  3
ACAD_PLOTSTYLENAME
350
E
  3
ACAD_SCALELIST
350
47
  3
DWGPROPS
350
671
  0
DICTIONARY
  5
D
102
{ACAD_REACTORS
330
C
102
}
330
C
100
AcDbDictionary
281
     1
  0
DICTIONARY
  5
1A
102
{ACAD_REACTORS
330
C
102
}
330
C
100
AcDbDictionary
281
     1
  3
Layout1
350
1E
  3
Layout2
350
26
  3
Model
350
22
  0
DICTIONARY
  5
17
102
{ACAD_REACTORS
330
C
102
}
330
C
100
AcDbDictionary
281
     1
  3
Standard
350
18
  0
DICTIONARY
  5
19
102
{ACAD_REACTORS
330
C
102
}
330
C
100
AcDbDictionary
281
     1
  0
ACDBDICTIONARYWDFLT
  5
E
102
{ACAD_REACTORS
330
C
102
}
330
C
100
AcDbDictionary
281
     1
  3
Normal
350
F
100
AcDbDictionaryWithDefault
340
F
  0
DICTIONARY
  5
47
102
{ACAD_REACTORS
330
C
102
}
330
C
100
AcDbDictionary
281
     1
  3
A0
350
48
  3
A1
350
49
  3
A2
350
4A
  3
A3
350
4B
  3
A4
350
4C
  3
A5
350
4D
  3
A6
350
4E
  3
A7
350
4F
  3
A8
350
50
  3
A9
350
51
  3
B0
350
52
  3
B1
350
53
  3
B2
350
54
  3
B3
350
55
  3
B4
350
56
  3
B5
350
57
  3
B6
350
58
  3
B7
350
59
  3
B8
350
5A
  3
B9
350
5B
  3
C0
350
5C
  3
C1
350
5D
  3
C2
350
5E
  3
C3
350
5F
  3
C4
350
60
  3
C5
350
61
  3
C6
350
62
  3
C7
350
63
  3
C8
350
64
  3
C9
350
65
  3
D0
350
66
  3
D1
350
67
  3
D2
350
68
  0
XRECORD
  5
671
102
{ACAD_REACTORS
330
C
102
}
330
C
100
AcDbXrecord
280
     1
  1
DWGPROPS COOKIE
  2

  3

  4

  6

  7

  8
radek.stransky
  9

300
=
301
=
302
=
303
=
304
=
305
=
306
=
307
=
308
=
309
=
 40
0.0
 41
2459096.393852743
 42
2459096.393888773
  1

 90
        0
  0
LAYOUT
  5
1E
102
{ACAD_REACTORS
330
1A
102
}
330
1A
100
AcDbPlotSettings
  1

  2
none_device
  4

  6

 40
0.0
 41
0.0
 42
0.0
 43
0.0
 44
0.0
 45
0.0
 46
0.0
 47
0.0
 48
0.0
 49
0.0
140
0.0
141
0.0
142
1.0
143
1.0
 70
   688
 72
     1
 73
     0
 74
     5
  7

 75
    16
147
1.0
148
0.0
149
0.0
100
AcDbLayout
  1
Layout1
 70
     1
 71
     1
 10
0.0
 20
0.0
 11
420.0
 21
297.0
 12
0.0
 22
0.0
 32
0.0
 14
1.0000000000E+20
 24
1.0000000000E+20
 34
1.0000000000E+20
 15
-1.0000000000E+20
 25
-1.0000000000E+20
 35
-1.0000000000E+20
146
0.0
 13
0.0
 23
0.0
 33
0.0
 16
1.0
 26
0.0
 36
0.0
 17
0.0
 27
1.0
 37
0.0
 76
     0
330
1B
  0
LAYOUT
  5
26
102
{ACAD_REACTORS
330
1A
102
}
330
1A
100
AcDbPlotSettings
  1

  2
none_device
  4

  6

 40
0.0
 41
0.0
 42
0.0
 43
0.0
 44
0.0
 45
0.0
 46
0.0
 47
0.0
 48
0.0
 49
0.0
140
0.0
141
0.0
142
1.0
143
1.0
 70
   688
 72
     1
 73
     0
 74
     5
  7

 75
    16
147
1.0
148
0.0
149
0.0
100
AcDbLayout
  1
Layout2
 70
     1
 71
     2
 10
0.0
 20
0.0
 11
0.0
 21
0.0
 12
0.0
 22
0.0
 32
0.0
 14
0.0
 24
0.0
 34
0.0
 15
0.0
 25
0.0
 35
0.0
146
0.0
 13
0.0
 23
0.0
 33
0.0
 16
1.0
 26
0.0
 36
0.0
 17
0.0
 27
1.0
 37
0.0
 76
     0
330
23
  0
LAYOUT
  5
22
102
{ACAD_REACTORS
330
1A
102
}
330
1A
100
AcDbPlotSettings
  1

  2
none_device
  4
ANSI_A_(11.00_x_8.50_Inches)
  6

 40
6.35
 41
19.05
 42
6.35000508
 43
19.05000254
 44
279.4
 45
215.9
 46
-1216.6388765498
 47
-885.5472971354
 48
0.0
 49
0.0
140
0.0
141
0.0
142
0.0079643221
143
1.0
 70
  1696
 72
     0
 73
     0
 74
     0
  7

 75
     0
147
0.0179189148
148
-1300.4909072572
149
0.0
100
AcDbLayout
  1
Model
 70
     1
 71
     0
 10
0.0
 20
0.0
 11
420.0
 21
297.0
 12
0.0
 22
0.0
 32
0.0
 14
6099.0187601673
 24
4288.6972864492
 34
0.0
 15
7247.7965264891
 25
5345.2843817605
 35
0.0
146
0.0
 13
0.0
 23
0.0
 33
0.0
 16
1.0
 26
0.0
 36
0.0
 17
0.0
 27
1.0
 37
0.0
 76
     0
330
1F
331
29
  0
MLINESTYLE
  5
18
102
{ACAD_REACTORS
330
17
102
}
330
17
100
AcDbMlineStyle
  2
Standard
 70
     0
  3

 62
   256
 51
90.0
 52
90.0
 71
     2
 49
0.5
 62
   256
  6
BYLAYER
 49
-0.5
 62
   256
  6
BYLAYER
  0
ACDBPLACEHOLDER
  5
F
102
{ACAD_REACTORS
330
E
102
}
330
E
  0
SCALE
  5
48
102
{ACAD_REACTORS
330
47
102
}
330
47
100
AcDbScale
 70
     0
300
1:1
140
1.0
141
1.0
290
     1
  0
SCALE
  5
49
102
{ACAD_REACTORS
330
47
102
}
330
47
100
AcDbScale
 70
     0
300
1:2
140
1.0
141
2.0
290
     0
  0
SCALE
  5
4A
102
{ACAD_REACTORS
330
47
102
}
330
47
100
AcDbScale
 70
     0
300
1:4
140
1.0
141
4.0
290
     0
  0
SCALE
  5
4B
102
{ACAD_REACTORS
330
47
102
}
330
47
100
AcDbScale
 70
     0
300
1:5
140
1.0
141
5.0
290
     0
  0
SCALE
  5
4C
102
{ACAD_REACTORS
330
47
102
}
330
47
100
AcDbScale
 70
     0
300
1:8
140
1.0
141
8.0
290
     0
  0
SCALE
  5
4D
102
{ACAD_REACTORS
330
47
102
}
330
47
100
AcDbScale
 70
     0
300
1:10
140
1.0
141
10.0
290
     0
  0
SCALE
  5
4E
102
{ACAD_REACTORS
330
47
102
}
330
47
100
AcDbScale
 70
     0
300
1:16
140
1.0
141
16.0
290
     0
  0
SCALE
  5
4F
102
{ACAD_REACTORS
330
47
102
}
330
47
100
AcDbScale
 70
     0
300
1:20
140
1.0
141
20.0
290
     0
  0
SCALE
  5
50
102
{ACAD_REACTORS
330
47
102
}
330
47
100
AcDbScale
 70
     0
300
1:30
140
1.0
141
30.0
290
     0
  0
SCALE
  5
51
102
{ACAD_REACTORS
330
47
102
}
330
47
100
AcDbScale
 70
     0
300
1:40
140
1.0
141
40.0
290
     0
  0
SCALE
  5
52
102
{ACAD_REACTORS
330
47
102
}
330
47
100
AcDbScale
 70
     0
300
1:50
140
1.0
141
50.0
290
     0
  0
SCALE
  5
53
102
{ACAD_REACTORS
330
47
102
}
330
47
100
AcDbScale
 70
     0
300
1:100
140
1.0
141
100.0
290
     0
  0
SCALE
  5
54
102
{ACAD_REACTORS
330
47
102
}
330
47
100
AcDbScale
 70
     0
300
2:1
140
2.0
141
1.0
290
     0
  0
SCALE
  5
55
102
{ACAD_REACTORS
330
47
102
}
330
47
100
AcDbScale
 70
     0
300
4:1
140
4.0
141
1.0
290
     0
  0
SCALE
  5
56
102
{ACAD_REACTORS
330
47
102
}
330
47
100
AcDbScale
 70
     0
300
8:1
140
8.0
141
1.0
290
     0
  0
SCALE
  5
57
102
{ACAD_REACTORS
330
47
102
}
330
47
100
AcDbScale
 70
     0
300
10:1
140
10.0
141
1.0
290
     0
  0
SCALE
  5
58
102
{ACAD_REACTORS
330
47
102
}
330
47
100
AcDbScale
 70
     0
300
100:1
140
100.0
141
1.0
290
     0
  0
SCALE
  5
59
102
{ACAD_REACTORS
330
47
102
}
330
47
100
AcDbScale
 70
     0
300
1/128" = 1'-0"
140
0.0078125
141
12.0
290
     0
  0
SCALE
  5
5A
102
{ACAD_REACTORS
330
47
102
}
330
47
100
AcDbScale
 70
     0
300
1/64" = 1'-0"
140
0.015625
141
12.0
290
     0
  0
SCALE
  5
5B
102
{ACAD_REACTORS
330
47
102
}
330
47
100
AcDbScale
 70
     0
300
1/32" = 1'-0"
140
0.03125
141
12.0
290
     0
  0
SCALE
  5
5C
102
{ACAD_REACTORS
330
47
102
}
330
47
100
AcDbScale
 70
     0
300
1/16" = 1'-0"
140
0.0625
141
12.0
290
     0
  0
SCALE
  5
5D
102
{ACAD_REACTORS
330
47
102
}
330
47
100
AcDbScale
 70
     0
300
3/32" = 1'-0"
140
0.09375
141
12.0
290
     0
  0
SCALE
  5
5E
102
{ACAD_REACTORS
330
47
102
}
330
47
100
AcDbScale
 70
     0
300
1/8" = 1'-0"
140
0.125
141
12.0
290
     0
  0
SCALE
  5
5F
102
{ACAD_REACTORS
330
47
102
}
330
47
100
AcDbScale
 70
     0
300
3/16" = 1'-0"
140
0.1875
141
12.0
290
     0
  0
SCALE
  5
60
102
{ACAD_REACTORS
330
47
102
}
330
47
100
AcDbScale
 70
     0
300
1/4" = 1'-0"
140
0.25
141
12.0
290
     0
  0
SCALE
  5
61
102
{ACAD_REACTORS
330
47
102
}
330
47
100
AcDbScale
 70
     0
300
3/8" = 1'-0"
140
0.375
141
12.0
290
     0
  0
SCALE
  5
62
102
{ACAD_REACTORS
330
47
102
}
330
47
100
AcDbScale
 70
     0
300
1/2" = 1'-0"
140
0.5
141
12.0
290
     0
  0
SCALE
  5
63
102
{ACAD_REACTORS
330
47
102
}
330
47
100
AcDbScale
 70
     0
300
3/4" = 1'-0"
140
0.75
141
12.0
290
     0
  0
SCALE
  5
64
102
{ACAD_REACTORS
330
47
102
}
330
47
100
AcDbScale
 70
     0
300
1" = 1'-0"
140
1.0
141
12.0
290
     0
  0
SCALE
  5
65
102
{ACAD_REACTORS
330
47
102
}
330
47
100
AcDbScale
 70
     0
300
1-1/2" = 1'-0"
140
1.5
141
12.0
290
     0
  0
SCALE
  5
66
102
{ACAD_REACTORS
330
47
102
}
330
47
100
AcDbScale
 70
     0
300
3" = 1'-0"
140
3.0
141
12.0
290
     0
  0
SCALE
  5
67
102
{ACAD_REACTORS
330
47
102
}
330
47
100
AcDbScale
 70
     0
300
6" = 1'-0"
140
6.0
141
12.0
290
     0
  0
SCALE
  5
68
102
{ACAD_REACTORS
330
47
102
}
330
47
100
AcDbScale
 70
     0
300
1'-0" = 1'-0"
140
12.0
141
12.0
290
     0
  0
ENDSEC
  0
EOF
