  0
SECTION
  2
HEADER
  9
$ACADVER
  1
AC1015
  9
$ACADMAINTVER
 70
     6
  9
$DWGCODEPAGE
  3
ANSI_1250
  9
$INSBASE
 10
0.0
 20
0.0
 30
0.0
  9
$EXTMIN
 10
0.0
 20
0.0
 30
0.0
  9
$EXTMAX
 10
20000.0
 20
10000.0
 30
0.0
  9
$LIMMIN
 10
0.0
 20
0.0
  9
$LIMMAX
 10
20000.0
 20
10000.0
  9
$ORTHOMODE
 70
     0
  9
$REGENMODE
 70
     1
  9
$FILLMODE
 70
     1
  9
$QTEXTMODE
 70
     0
  9
$MIRRTEXT
 70
     1
  9
$LTSCALE
 40
1.0
  9
$ATTMODE
 70
     1
  9
$TEXTSIZE
 40
2.0
  9
$TRACEWID
 40
1.0
  9
$TEXTSTYLE
  7
STANDARD
  9
$CLAYER
  8
0
  9
$CELTYPE
  6
ByLayer
  9
$CECOLOR
 62
   256
  9
$CELTSCALE
 40
1.0
  9
$DISPSILH
 70
     0
  9
$DIMSCALE
 40
1.0
  9
$DIMASZ
 40
2.0
  9
$DIMEXO
 40
1.0
  9
$DIMDLI
 40
3.75
  9
$DIMRND
 40
0.0
  9
$DIMDLE
 40
0.0
  9
$DIMEXE
 40
1.0
  9
$DIMTP
 40
0.0
  9
$DIMTM
 40
0.0
  9
$DIMTXT
 40
2.0
  9
$DIMCEN
 40
2.5
  9
$DIMTSZ
 40
0.0
  9
$DIMTOL
 70
     0
  9
$DIMLIM
 70
     0
  9
$DIMTIH
 70
     1
  9
$DIMTOH
 70
     1
  9
$DIMSE1
 70
     0
  9
$DIMSE2
 70
     0
  9
$DIMTAD
 70
     1
  9
$DIMZIN
 70
     0
  9
$DIMBLK
  1

  9
$DIMASO
 70
     1
  9
$DIMSHO
 70
     1
  9
$DIMPOST
  1

  9
$DIMAPOST
  1

  9
$DIMALT
 70
     0
  9
$DIMALTD
 70
     3
  9
$DIMALTF
 40
0.0393700787
  9
$DIMLFAC
 40
1.0
  9
$DIMTOFL
 70
     1
  9
$DIMTVP
 40
0.0
  9
$DIMTIX
 70
     0
  9
$DIMSOXD
 70
     0
  9
$DIMSAH
 70
     0
  9
$DIMBLK1
  1

  9
$DIMBLK2
  1

  9
$DIMSTYLE
  2
ISO-25
  9
$DIMCLRD
 70
     0
  9
$DIMCLRE
 70
     0
  9
$DIMCLRT
 70
     0
  9
$DIMTFAC
 40
1.0
  9
$DIMGAP
 40
1.524
  9
$DIMJUST
 70
     0
  9
$DIMSD1
 70
     0
  9
$DIMSD2
 70
     0
  9
$DIMTOLJ
 70
     0
  9
$DIMTZIN
 70
     0
  9
$DIMALTZ
 70
     0
  9
$DIMALTTZ
 70
     0
  9
$DIMUPT
 70
     0
  9
$DIMDEC
 70
     2
  9
$DIMTDEC
 70
     0
  9
$DIMALTU
 70
     2
  9
$DIMALTTD
 70
     3
  9
$DIMTXSTY
  7
STANDARD
  9
$DIMAUNIT
 70
     0
  9
$DIMADEC
 70
     2
  9
$DIMALTRND
 40
0.0
  9
$DIMAZIN
 70
     0
  9
$DIMDSEP
 70
    44
  9
$DIMATFIT
 70
     3
  9
$DIMFRAC
 70
     0
  9
$DIMLDRBLK
  1

  9
$DIMLUNIT
 70
     2
  9
$DIMLWD
 70
    -2
  9
$DIMLWE
 70
    -2
  9
$DIMTMOVE
 70
     0
  9
$LUNITS
 70
     2
  9
$LUPREC
 70
     3
  9
$SKETCHINC
 40
1.0
  9
$FILLETRAD
 40
10.0
  9
$AUNITS
 70
     0
  9
$AUPREC
 70
     2
  9
$MENU
  1
.
  9
$ELEVATION
 40
0.0
  9
$PELEVATION
 40
0.0
  9
$THICKNESS
 40
0.0
  9
$LIMCHECK
 70
     0
  9
$CHAMFERA
 40
0.0
  9
$CHAMFERB
 40
0.0
  9
$CHAMFERC
 40
0.0
  9
$CHAMFERD
 40
0.0
  9
$SKPOLY
 70
     0
  9
$TDCREATE
 40
2460963.468223449
  9
$TDUCREATE
 40
2460963.384890116
  9
$TDUPDATE
 40
2460963.468224398
  9
$TDUUPDATE
 40
2460963.384891065
  9
$TDINDWG
 40
0.0000000116
  9
$TDUSRTIMER
 40
0.0000000116
  9
$USRTIMER
 70
     1
  9
$ANGBASE
 50
0.0
  9
$ANGDIR
 70
     0
  9
$PDMODE
 70
     0
  9
$PDSIZE
 40
-1.0
  9
$PLINEWID
 40
0.0
  9
$SPLFRAME
 70
     0
  9
$SPLINETYPE
 70
     6
  9
$SPLINESEGS
 70
     8
  9
$HANDSEED
  5
1F2
  9
$SURFTAB1
 70
     6
  9
$SURFTAB2
 70
     6
  9
$SURFTYPE
 70
     6
  9
$SURFU
 70
     6
  9
$SURFV
 70
     6
  9
$UCSBASE
  2

  9
$UCSNAME
  2

  9
$UCSORG
 10
0.0
 20
0.0
 30
0.0
  9
$UCSXDIR
 10
1.0
 20
0.0
 30
0.0
  9
$UCSYDIR
 10
0.0
 20
1.0
 30
0.0
  9
$UCSORTHOREF
  2

  9
$UCSORTHOVIEW
 70
     0
  9
$UCSORGTOP
 10
0.0
 20
0.0
 30
0.0
  9
$UCSORGBOTTOM
 10
0.0
 20
0.0
 30
0.0
  9
$UCSORGLEFT
 10
0.0
 20
0.0
 30
0.0
  9
$UCSORGRIGHT
 10
0.0
 20
0.0
 30
0.0
  9
$UCSORGFRONT
 10
0.0
 20
0.0
 30
0.0
  9
$UCSORGBACK
 10
0.0
 20
0.0
 30
0.0
  9
$PUCSBASE
  2

  9
$PUCSNAME
  2

  9
$PUCSORG
 10
0.0
 20
0.0
 30
0.0
  9
$PUCSXDIR
 10
1.0
 20
0.0
 30
0.0
  9
$PUCSYDIR
 10
0.0
 20
1.0
 30
0.0
  9
$PUCSORTHOREF
  2

  9
$PUCSORTHOVIEW
 70
     0
  9
$PUCSORGTOP
 10
0.0
 20
0.0
 30
0.0
  9
$PUCSORGBOTTOM
 10
0.0
 20
0.0
 30
0.0
  9
$PUCSORGLEFT
 10
0.0
 20
0.0
 30
0.0
  9
$PUCSORGRIGHT
 10
0.0
 20
0.0
 30
0.0
  9
$PUCSORGFRONT
 10
0.0
 20
0.0
 30
0.0
  9
$PUCSORGBACK
 10
0.0
 20
0.0
 30
0.0
  9
$USERI1
 70
     0
  9
$USERI2
 70
     0
  9
$USERI3
 70
     0
  9
$USERI4
 70
     0
  9
$USERI5
 70
     0
  9
$USERR1
 40
0.0
  9
$USERR2
 40
0.0
  9
$USERR3
 40
0.0
  9
$USERR4
 40
0.0
  9
$USERR5
 40
0.0
  9
$WORLDVIEW
 70
     1
  9
$SHADEDGE
 70
     3
  9
$SHADEDIF
 70
    70
  9
$TILEMODE
 70
     1
  9
$MAXACTVP
 70
    64
  9
$PINSBASE
 10
0.0
 20
0.0
 30
0.0
  9
$PLIMCHECK
 70
     0
  9
$PEXTMIN
 10
1.0000000000E+20
 20
1.0000000000E+20
 30
1.0000000000E+20
  9
$PEXTMAX
 10
-1.0000000000E+20
 20
-1.0000000000E+20
 30
-1.0000000000E+20
  9
$PLIMMIN
 10
0.0
 20
0.0
  9
$PLIMMAX
 10
420.0
 20
297.0
  9
$UNITMODE
 70
     0
  9
$VISRETAIN
 70
     1
  9
$PLINEGEN
 70
     0
  9
$PSLTSCALE
 70
     1
  9
$TREEDEPTH
 70
  3020
  9
$CMLSTYLE
  2
Standard
  9
$CMLJUST
 70
     0
  9
$CMLSCALE
 40
20.0
  9
$PROXYGRAPHICS
 70
     1
  9
$MEASUREMENT
 70
     1
  9
$CELWEIGHT
370
    -1
  9
$ENDCAPS
280
     0
  9
$JOINSTYLE
280
     0
  9
$LWDISPLAY
290
     1
  9
$INSUNITS
 70
     4
  9
$HYPERLINKBASE
  1

  9
$STYLESHEET
  1

  9
$XEDIT
290
     1
  9
$CEPSNTYPE
380
     0
  9
$PSTYLEMODE
290
     1
  9
$FINGERPRINTGUID
  2
{42e1dad4-13f0-4dae-a2d3-427e61a09b07}
  9
$VERSIONGUID
  2
{FAEB1C32-E019-11D5-929B-00C0DF256EC4}
  9
$EXTNAMES
290
     1
  9
$PSVPSCALE
 40
0.0
  9
$OLESTARTUP
290
     0
  0
ENDSEC
  0
SECTION
  2
CLASSES
  0
CLASS
  1
ACDBDICTIONARYWDFLT
  2
AcDbDictionaryWithDefault
  3
ObjectDBX Classes
 90
        0
280
     0
281
     0
  0
CLASS
  1
VISUALSTYLE
  2
AcDbVisualStyle
  3
ObjectDBX Classes
 90
     4095
280
     0
281
     0
  0
CLASS
  1
MATERIAL
  2
AcDbMaterial
  3
ObjectDBX Classes
 90
     1153
280
     0
281
     0
  0
CLASS
  1
SCALE
  2
AcDbScale
  3
ObjectDBX Classes
 90
     1153
280
     0
281
     0
  0
CLASS
  1
TABLESTYLE
  2
AcDbTableStyle
  3
ObjectDBX Classes
 90
     4095
280
     0
281
     0
  0
CLASS
  1
MLEADERSTYLE
  2
AcDbMLeaderStyle
  3
ACDB_MLEADERSTYLE_CLASS
 90
     4095
280
     0
281
     0
  0
CLASS
  1
SUN
  2
AcDbSun
  3
SCENEOE
 90
     1153
280
     0
281
     0
  0
CLASS
  1
ACDBPLACEHOLDER
  2
AcDbPlaceHolder
  3
ObjectDBX Classes
 90
        0
280
     0
281
     0
  0
CLASS
  1
LAYOUT
  2
AcDbLayout
  3
ObjectDBX Classes
 90
        0
280
     0
281
     0
  0
ENDSEC
  0
SECTION
  2
TABLES
  0
TABLE
  2
VPORT
  5
8
330
0
100
AcDbSymbolTable
 70
     1
  0
VPORT
  5
29
330
8
100
AcDbSymbolTableRecord
100
AcDbViewportTableRecord
  2
*Active
 70
     0
 10
0.0
 20
0.0
 11
1.0
 21
1.0
 12
10000.0
 22
5000.0
 13
0.0
 23
0.0
 14
10.0
 24
10.0
 15
10.0
 25
10.0
 16
0.0
 26
0.0
 36
1.0
 17
0.0
 27
0.0
 37
0.0
 40
10000.0
 41
2.0
 42
50.0
 43
0.0
 44
0.0
 50
0.0
 51
0.0
 71
     0
 72
  2000
 73
     1
 74
     3
 75
     0
 76
     0
 77
     0
 78
     0
281
     0
 65
     1
110
0.0
120
0.0
130
0.0
111
1.0
121
0.0
131
0.0
112
0.0
122
1.0
132
0.0
 79
     0
146
0.0
  0
ENDTAB
  0
TABLE
  2
LTYPE
  5
5
330
0
100
AcDbSymbolTable
 70
    10
  0
LTYPE
  5
14
330
5
100
AcDbSymbolTableRecord
100
AcDbLinetypeTableRecord
  2
ByBlock
 70
     0
  3

 72
    65
 73
     0
 40
0.0
  0
LTYPE
  5
15
330
5
100
AcDbSymbolTableRecord
100
AcDbLinetypeTableRecord
  2
ByLayer
 70
     0
  3

 72
    65
 73
     0
 40
0.0
  0
LTYPE
  5
16
330
5
100
AcDbSymbolTableRecord
100
AcDbLinetypeTableRecord
  2
Continuous
 70
     0
  3
Solid line
 72
    65
 73
     0
 40
0.0
  0
LTYPE
  5
6E
330
5
100
AcDbSymbolTableRecord
100
AcDbLinetypeTableRecord
  2
SLD-Plná
 70
     0
  3
SolidWorks Line Style
 72
    65
 73
     0
 40
0.0
  0
LTYPE
  5
6F
330
5
100
AcDbSymbolTableRecord
100
AcDbLinetypeTableRecord
  2
SLD-Čárkovaná
 70
     0
  3
SolidWorks Line Style
 72
    65
 73
     2
 40
1.905
 49
1.27
 74
     0
 49
-0.635
 74
     0
  0
LTYPE
  5
70
330
5
100
AcDbSymbolTableRecord
100
AcDbLinetypeTableRecord
  2
SLD-Dvojitě-čerchovaná
 70
     0
  3
SolidWorks Line Style
 72
    65
 73
     6
 40
12.7
 49
6.35
 74
     0
 49
-1.27
 74
     0
 49
1.27
 74
     0
 49
-1.27
 74
     0
 49
1.27
 74
     0
 49
-1.27
 74
     0
  0
LTYPE
  5
71
330
5
100
AcDbSymbolTableRecord
100
AcDbLinetypeTableRecord
  2
SLD-Čerchovaná
 70
     0
  3
SolidWorks Line Style
 72
    65
 73
     4
 40
10.16
 49
6.35
 74
     0
 49
-1.27
 74
     0
 49
1.27
 74
     0
 49
-1.27
 74
     0
  0
LTYPE
  5
72
330
5
100
AcDbSymbolTableRecord
100
AcDbLinetypeTableRecord
  2
SLD-Osa
 70
     0
  3
SolidWorks Line Style
 72
    65
 73
     4
 40
19.05
 49
15.24
 74
     0
 49
-1.27
 74
     0
 49
1.27
 74
     0
 49
-1.27
 74
     0
  0
LTYPE
  5
73
330
5
100
AcDbSymbolTableRecord
100
AcDbLinetypeTableRecord
  2
SLD-Tečkovaná
 70
     0
  3
SolidWorks Line Style
 72
    65
 73
     2
 40
0.635
 49
0.0
 74
     0
 49
-0.635
 74
     0
  0
LTYPE
  5
74
330
5
100
AcDbSymbolTableRecord
100
AcDbLinetypeTableRecord
  2
SLD-Hrubá-tenká-čerchovaná
 70
     0
  3
SolidWorks Line Style
 72
    65
 73
     4
 40
10.16
 49
6.35
 74
     0
 49
-1.27
 74
     0
 49
1.27
 74
     0
 49
-1.27
 74
     0
  0
LTYPE
  5
75
330
5
100
AcDbSymbolTableRecord
100
AcDbLinetypeTableRecord
  2
SLD-Řez-1
 70
     0
  3
SolidWorks Line Style
 72
    65
 73
     4
 40
8.128
 49
5.08
 74
     0
 49
-1.016
 74
     0
 49
1.016
 74
     0
 49
-1.016
 74
     0
  0
LTYPE
  5
76
330
5
100
AcDbSymbolTableRecord
100
AcDbLinetypeTableRecord
  2
SLD-Řez-2
 70
     0
  3
SolidWorks Line Style
 72
    65
 73
     2
 40
5080.0
 49
0.0
 74
     0
 49
-5080.0
 74
     0
  0
ENDTAB
  0
TABLE
  2
LAYER
  5
2
330
0
100
AcDbSymbolTable
 70
    13
  0
LAYER
  5
10
330
2
100
AcDbSymbolTableRecord
100
AcDbLayerTableRecord
  2
0
 70
     0
 62
     7
  6
Continuous
370
    -3
390
F
  0
LAYER
  5
77
330
2
100
AcDbSymbolTableRecord
100
AcDbLayerTableRecord
  2
FORMAT
 70
     0
 62
     7
  6
SLD-Plná
370
    -3
390
F
  0
LAYER
  5
78
330
2
100
AcDbSymbolTableRecord
100
AcDbLayerTableRecord
  2
OSA
 70
     0
 62
     7
  6
SLD-Hrubá-tenká-čerchovaná
370
    -3
390
F
  0
LAYER
  5
79
330
2
100
AcDbSymbolTableRecord
100
AcDbLayerTableRecord
  2
0_35
 70
     0
 62
     7
  6
SLD-Plná
370
    35
390
F
  0
LAYER
  5
7A
330
2
100
AcDbSymbolTableRecord
100
AcDbLayerTableRecord
  2
0_5
 70
     0
 62
     7
  6
SLD-Plná
370
    50
390
F
  0
LAYER
  5
7B
330
2
100
AcDbSymbolTableRecord
100
AcDbLayerTableRecord
  2
0_25
 70
     0
 62
     7
  6
SLD-Plná
370
    25
390
F
  0
LAYER
  5
7C
330
2
100
AcDbSymbolTableRecord
100
AcDbLayerTableRecord
  2
0_18
 70
     0
 62
     7
  6
SLD-Plná
370
    -3
390
F
  0
LAYER
  5
7D
330
2
100
AcDbSymbolTableRecord
100
AcDbLayerTableRecord
  2
SLD-0
 70
     0
 62
   179
  6
SLD-Plná
370
    -3
390
F
  0
LAYER
  5
7E
330
2
100
AcDbSymbolTableRecord
100
AcDbLayerTableRecord
  2
KOTY
 70
     0
 62
     7
  6
SLD-Plná
370
    -3
390
F
  0
LAYER
  5
7F
330
2
100
AcDbSymbolTableRecord
100
AcDbLayerTableRecord
  2
SILNA
 70
     0
 62
   179
  6
SLD-Plná
370
    -3
390
F
  0
LAYER
  5
80
330
2
100
AcDbSymbolTableRecord
100
AcDbLayerTableRecord
  2
0_18_1
 70
     0
 62
   179
  6
SLD-Plná
370
    -3
390
F
  0
LAYER
  5
81
330
2
100
AcDbSymbolTableRecord
100
AcDbLayerTableRecord
  2
0_35_1
 70
     0
 62
   179
  6
SLD-Plná
370
    35
390
F
  0
LAYER
  5
82
330
2
100
AcDbSymbolTableRecord
100
AcDbLayerTableRecord
  2
0_5_1
 70
     0
 62
   179
  6
SLD-Plná
370
    50
390
F
  0
ENDTAB
  0
TABLE
  2
STYLE
  5
3
330
0
100
AcDbSymbolTable
 70
     1
  0
STYLE
  5
11
330
3
100
AcDbSymbolTableRecord
100
AcDbTextStyleTableRecord
  2
STANDARD
 70
     0
 40
0.0
 41
1.0
 50
0.0
 71
     0
 42
2.0
  3
SWISOP1.TTF
  4

1001
ACAD
1000
SWISOP1
1071
        2
  0
ENDTAB
  0
TABLE
  2
VIEW
  5
6
330
0
100
AcDbSymbolTable
 70
     0
  0
ENDTAB
  0
TABLE
  2
UCS
  5
7
330
0
100
AcDbSymbolTable
 70
     0
  0
ENDTAB
  0
TABLE
  2
APPID
  5
9
330
0
100
AcDbSymbolTable
 70
     1
  0
APPID
  5
12
330
9
100
AcDbSymbolTableRecord
100
AcDbRegAppTableRecord
  2
ACAD
 70
     0
  0
ENDTAB
  0
TABLE
  2
DIMSTYLE
  5
A
330
0
100
AcDbSymbolTable
 70
     1
100
AcDbDimStyleTable
  0
DIMSTYLE
105
27
330
A
100
AcDbSymbolTableRecord
100
AcDbDimStyleTableRecord
  2
ISO-25
 70
     0
 41
2.5
 42
0.625
 43
3.75
 44
1.25
 73
     0
 74
     0
 77
     1
 78
     8
140
2.5
141
2.5
143
0.0393700787
147
0.625
171
     3
172
     1
178
     0
271
     2
272
     2
274
     3
278
    44
283
     0
284
     8
340
11
  0
ENDTAB
  0
TABLE
  2
BLOCK_RECORD
  5
1
330
0
100
AcDbSymbolTable
 70
     1
  0
BLOCK_RECORD
  5
1F
330
1
100
AcDbSymbolTableRecord
100
AcDbBlockTableRecord
  2
*Model_Space
340
22
  0
BLOCK_RECORD
  5
1B
330
1
100
AcDbSymbolTableRecord
100
AcDbBlockTableRecord
  2
*Paper_Space
340
1E
  0
BLOCK_RECORD
  5
23
330
1
100
AcDbSymbolTableRecord
100
AcDbBlockTableRecord
  2
*Paper_Space0
340
26
  0
ENDTAB
  0
ENDSEC
  0
SECTION
  2
BLOCKS
  0
BLOCK
  5
20
330
1F
100
AcDbEntity
  8
0
100
AcDbBlockBegin
  2
*Model_Space
 70
     0
 10
0.0
 20
0.0
 30
0.0
  3
*Model_Space
  1

  0
ENDBLK
  5
21
330
1F
100
AcDbEntity
  8
0
100
AcDbBlockEnd
  0
BLOCK
  5
1C
330
1B
100
AcDbEntity
 67
     1
  8
0
100
AcDbBlockBegin
  2
*Paper_Space
 70
     0
 10
0.0
 20
0.0
 30
0.0
  3
*Paper_Space
  1

  0
ENDBLK
  5
1D
330
1B
100
AcDbEntity
 67
     1
  8
0
100
AcDbBlockEnd
  0
BLOCK
  5
24
330
23
100
AcDbEntity
  8
0
100
AcDbBlockBegin
  2
*Paper_Space0
 70
     0
 10
0.0
 20
0.0
 30
0.0
  3
*Paper_Space0
  1

  0
ENDBLK
  5
25
330
23
100
AcDbEntity
  8
0
100
AcDbBlockEnd
  0
ENDSEC
  0
SECTION
  2
ENTITIES
  0
LINE
  5
83
330
1F
100
AcDbEntity
  8
0
  6
SLD-Plná
 62
     7
370
    25
100
AcDbLine
 10
7484.3031912196
 20
4792.9935782506
 30
0.0
 11
7484.3031912196
 21
4793.9935782506
 31
0.0
  0
LINE
  5
84
330
1F
100
AcDbEntity
  8
0
  6
SLD-Plná
 62
     7
370
    25
100
AcDbLine
 10
7452.3031912196
 20
4793.9935782506
 30
0.0
 11
7452.3031912196
 21
4792.9935782506
 31
0.0
  0
LINE
  5
85
330
1F
100
AcDbEntity
  8
0
  6
SLD-Plná
 62
     7
370
    25
100
AcDbLine
 10
7484.2525442353
 20
4793.9935782506
 30
0.0
 11
7479.1258916223
 21
4835.1114016586
 31
0.0
  0
LINE
  5
86
330
1F
100
AcDbEntity
  8
0
  6
SLD-Plná
 62
     7
370
    25
100
AcDbLine
 10
7448.3568715691
 20
4823.2512268644
 30
0.0
 11
7452.0047738238
 21
4793.9935782506
 31
0.0
  0
LINE
  5
87
330
1F
100
AcDbEntity
  8
0
  6
SLD-Plná
 62
     7
370
    25
100
AcDbLine
 10
7204.1542625916
 20
4825.9935782506
 30
0.0
 11
7204.176359679
 21
4825.9935782506
 31
0.0
  0
LINE
  5
88
330
1F
100
AcDbEntity
  8
0
  6
SLD-Plná
 62
     7
370
    25
100
AcDbLine
 10
7255.316684789
 20
5021.0277589496
 30
0.0
 11
7250.5865186831
 21
5038.8270161595
 31
0.0
  0
LINE
  5
89
330
1F
100
AcDbEntity
  8
0
  6
SLD-Plná
 62
     7
370
    25
100
AcDbLine
 10
7240.9219690439
 20
5036.2586547614
 30
0.0
 11
7245.6521351497
 21
5018.4593975516
 31
0.0
  0
SPLINE
  5
8A
330
1F
100
AcDbEntity
  8
0
  6
SLD-Plná
 62
     7
370
    25
100
AcDbSpline
210
0.0
220
0.0
230
1.0
 70
     8
 71
     3
 72
    35
 73
    31
 74
     0
 42
0.00000001
 43
0.00000001
 40
0.0
 40
0.0
 40
0.0
 40
0.0
 40
0.0184792132530177
 40
0.0545347344091642
 40
0.0905737527584603
 40
0.1265687239533185
 40
0.1625074594380458
 40
0.1983831436269265
 40
0.234197652232231
 40
0.2699662450014649
 40
0.3057189167014518
 40
0.3415009882831117
 40
0.3774013583985451
 40
0.4135552310370427
 40
0.4501525074718836
 40
0.4874334386006168
 40
0.5256470619803224
 40
0.5649283685690079
 40
0.6050764455417604
 40
0.645278536241682
 40
0.6846583322851838
 40
0.7229758772395624
 40
0.7603803603311
 40
0.7971380743531766
 40
0.8334892300388546
 40
0.869611502767337
 40
0.905624084044708
 40
0.9416010422880658
 40
0.9775738236402578
 40
1.0
 40
1.0
 40
1.0
 40
1.0
 10
7203.86561494273
 20
5025.493578250598
 30
0.0
 10
7203.871189984212
 20
5026.010355939429
 30
0.0
 10
7203.887642708813
 20
5027.535438940697
 30
0.0
 10
7204.073176530082
 20
5030.059069121062
 30
0.0
 10
7204.491878897918
 20
5033.020469823715
 30
0.0
 10
7205.114864550015
 20
5035.896888183449
 30
0.0
 10
7205.92930900778
 20
5038.655629977336
 30
0.0
 10
7206.924089628834
 20
5041.266407361548
 30
0.0
 10
7208.084248868544
 20
5043.701265453136
 30
0.0
 10
7209.392827049514
 20
5045.935163685501
 30
0.0
 10
7210.830814166963
 20
5047.946348995647
 30
0.0
 10
7212.378088907657
 20
5049.717167160467
 30
0.0
 10
7214.014636559399
 20
5051.234540360588
 30
0.0
 10
7215.722386943977
 20
5052.490009605382
 30
0.0
 10
7217.487091824052
 20
5053.47868383885
 30
0.0
 10
7219.30008387799
 20
5054.197060815633
 30
0.0
 10
7221.158285535984
 20
5054.639446827372
 30
0.0
 10
7223.060021509063
 20
5054.79441025639
 30
0.0
 10
7224.993844773605
 20
5054.64562254214
 30
0.0
 10
7226.932406338479
 20
5054.181921058412
 30
0.0
 10
7228.839149988677
 20
5053.407418525146
 30
0.0
 10
7230.682437248106
 20
5052.338684975685
 30
0.0
 10
7232.442711452576
 20
5050.993418412066
 30
0.0
 10
7234.105857383119
 20
5049.386773782634
 30
0.0
 10
7235.658234139325
 20
5047.532957936122
 30
0.0
 10
7237.084579683947
 20
5045.447426408231
 30
0.0
 10
7238.370032354625
 20
5043.149201771488
 30
0.0
 10
7239.495059596539
 20
5040.65820095939
 30
0.0
 10
7240.337631810254
 20
5038.34059758683
 30
0.0
 10
7240.759835692596
 20
5036.836321813989
 30
0.0
 10
7240.921969043878
 20
5036.258654761407
 30
0.0
  0
SPLINE
  5
8B
330
1F
100
AcDbEntity
  8
0
  6
SLD-Plná
 62
     7
370
    25
100
AcDbSpline
210
0.0
220
0.0
230
1.0
 70
     8
 71
     3
 72
    39
 73
    35
 74
     0
 42
0.00000001
 43
0.00000001
 40
0.0
 40
0.0
 40
0.0
 40
0.0
 40
0.0178212536119639
 40
0.0508440033926854
 40
0.0839181205026847
 40
0.1170218952632201
 40
0.1501309246608356
 40
0.1832088367041618
 40
0.2162059449823991
 40
0.2490598579393272
 40
0.281702440440705
 40
0.3140719661870909
 40
0.3461280163950255
 40
0.3778642982401459
 40
0.4093146322567247
 40
0.4405501607708753
 40
0.4716691889164601
 40
0.5027600287119763
 40
0.533920490136853
 40
0.5652491174136456
 40
0.5968184339328952
 40
0.628667046323127
 40
0.6607980125686771
 40
0.6931839683710941
 40
0.7257774716246743
 40
0.7585232272544438
 40
0.7913686070432286
 40
0.824270313166796
 40
0.8571952577478517
 40
0.8901212070641964
 40
0.9230410198733776
 40
0.9559542289723079
 40
0.9888649868167213
 40
1.0
 40
1.0
 40
1.0
 40
1.0
 10
7250.586518683099
 20
5038.827016159465
 30
0.0
 10
7250.420242982327
 20
5039.42492883381
 30
0.0
 10
7249.945858717437
 20
5041.130772581102
 30
0.0
 10
7248.990517815226
 20
5043.855201420442
 30
0.0
 10
7247.658652286379
 20
5046.934187605215
 30
0.0
 10
7246.116135711894
 20
5049.843101316522
 30
0.0
 10
7244.377206540244
 20
5052.557623330332
 30
0.0
 10
7242.453246001747
 20
5055.052218143736
 30
0.0
 10
7240.35963929102
 20
5057.303011148376
 30
0.0
 10
7238.114389022163
 20
5059.287681367043
 30
0.0
 10
7235.738618388555
 20
5060.986584045801
 30
0.0
 10
7233.256003317111
 20
5062.383748601565
 30
0.0
 10
7230.691860131284
 20
5063.467709750819
 30
0.0
 10
7228.071874294591
 20
5064.231770069094
 30
0.0
 10
7225.420864228295
 20
5064.673584282116
 30
0.0
 10
7222.76190829517
 20
5064.79419661173
 30
0.0
 10
7220.116670433257
 20
5064.59691265368
 30
0.0
 10
7217.505244588343
 20
5064.086632052121
 30
0.0
 10
7214.946155473951
 20
5063.269264780035
 30
0.0
 10
7212.456449631488
 20
5062.151110158537
 30
0.0
 10
7210.052838152938
 20
5060.739016223467
 30
0.0
 10
7207.752673299156
 20
5059.041328018877
 30
0.0
 10
7205.57402790674
 20
5057.068895862965
 30
0.0
 10
7203.535263465255
 20
5054.835846287903
 30
0.0
 10
7201.65426209016
 20
5052.359845516567
 30
0.0
 10
7199.94760822532
 20
5049.661809477648
 30
0.0
 10
7198.429960147825
 20
5046.765232688821
 30
0.0
 10
7197.11378728477
 20
5043.695460742249
 30
0.0
 10
7196.009234601745
 20
5040.479041781655
 30
0.0
 10
7195.124526207536
 20
5037.143100596381
 30
0.0
 10
7194.464906535078
 20
5033.714872487386
 30
0.0
 10
7194.037688251811
 20
5030.221891236749
 30
0.0
 10
7193.879318939235
 20
5027.469609927711
 30
0.0
 10
7193.868380292733
 20
5025.892324645559
 30
0.0
 10
7193.865614942731
 20
5025.493578250598
 30
0.0
  0
LINE
  5
8C
330
1F
100
AcDbEntity
  8
0
  6
SLD-Plná
 62
     7
370
    25
100
AcDbLine
 10
7206.6156149427
 20
4830.4935782506
 30
0.0
 11
7205.8656149427
 21
4842.4935782506
 31
0.0
  0
LINE
  5
8D
330
1F
100
AcDbEntity
  8
0
  6
SLD-Plná
 62
     7
370
    25
100
AcDbLine
 10
7191.8656149427
 20
4842.4935782506
 30
0.0
 11
7191.1247720272
 21
4830.6400916023
 31
0.0
  0
LINE
  5
8E
330
1F
100
AcDbEntity
  8
0
  6
SLD-Plná
 62
     7
370
    25
100
AcDbLine
 10
7193.8656149427
 20
5025.4935782506
 30
0.0
 11
7193.8656149427
 21
4842.4935782506
 31
0.0
  0
LINE
  5
8F
330
1F
100
AcDbEntity
  8
0
  6
SLD-Plná
 62
     7
370
    25
100
AcDbLine
 10
7203.8656149427
 20
4842.4935782506
 30
0.0
 11
7203.8656149427
 21
5025.4935782506
 31
0.0
  0
LINE
  5
90
330
1F
100
AcDbEntity
  8
0
  6
SLD-Plná
 62
     7
370
    25
100
AcDbLine
 10
7208.3139539588
 20
4792.9935782506
 30
0.0
 11
7208.3139539588
 21
4793.9935782506
 31
0.0
  0
LINE
  5
91
330
1F
100
AcDbEntity
  8
0
  6
SLD-Plná
 62
     7
370
    25
100
AcDbLine
 10
7174.9081448593
 20
4793.9935782506
 30
0.0
 11
7174.9081448593
 21
4792.9935782506
 31
0.0
  0
SPLINE
  5
92
330
1F
100
AcDbEntity
  8
0
  6
SLD-Plná
 62
     7
370
    25
100
AcDbSpline
210
0.0
220
0.0
230
1.0
 70
     8
 71
     3
 72
    20
 73
    16
 74
     0
 42
0.00000001
 43
0.00000001
 40
0.0
 40
0.0
 40
0.0
 40
0.0
 40
0.1072377563653062
 40
0.1974879306025072
 40
0.2705483489551717
 40
0.3284652540896795
 40
0.3752795698358675
 40
0.411514455372272
 40
0.4464744374546449
 40
0.4972929823146576
 40
0.5639882173468557
 40
0.646569275520159
 40
0.7814077550865685
 40
0.944551184380396
 40
1.0
 40
1.0
 40
1.0
 40
1.0
 10
7208.313849580098
 20
4793.993578250599
 30
0.0
 10
7208.116162211941
 20
4795.235131452132
 30
0.0
 10
7207.752103222206
 20
4797.521562843594
 30
0.0
 10
7207.406358874934
 20
4800.669661439215
 30
0.0
 10
7207.221487109333
 20
4803.271201815222
 30
0.0
 10
7207.146132268475
 20
4805.392103980202
 30
0.0
 10
7207.108760868032
 20
4807.077241160666
 30
0.0
 10
7207.085113511626
 20
4808.50268801657
 30
0.0
 10
7207.065374091369
 20
4809.986684344911
 30
0.0
 10
7207.049995743503
 20
4811.840345928055
 30
0.0
 10
7207.043514244917
 20
4814.274030763593
 30
0.0
 10
7207.054864143732
 20
4817.7293363757
 30
0.0
 10
7207.102455641053
 20
4822.356952239802
 30
0.0
 10
7207.171057159435
 20
4826.653984372043
 30
0.0
 10
7207.223108114002
 20
4829.309222045516
 30
0.0
 10
7207.236311527433
 20
4829.982758218955
 30
0.0
  0
ARC
  5
93
330
1F
100
AcDbEntity
  8
0
  6
SLD-Plná
 62
     7
370
    25
100
AcDbCircle
 10
7206.7389966022
 20
4829.9935782662
 30
0.0
 40
0.4999999843990122
100
AcDbArc
 50
0.9584825081
 51
90.0393019244
  0
LINE
  5
94
330
1F
100
AcDbEntity
  8
0
  6
SLD-Plná
 62
     7
370
    25
100
AcDbLine
 10
7169.1256716889
 20
4831.3046205761
 30
0.0
 11
7174.9081448625
 21
4793.9935782511
 31
0.0
  0
LINE
  5
95
330
1F
100
AcDbEntity
  8
0
  6
SLD-Plná
 62
     7
370
    25
100
AcDbLine
 10
7193.8656149427
 20
4843.4527262459
 30
0.0
 11
7192.777148491
 21
4850.4759871637
 31
0.0
  0
LINE
  5
96
330
1F
100
AcDbEntity
  8
0
  6
SLD-Plná
 62
     7
370
    25
100
AcDbLine
 10
7167.0838791788
 20
4846.494038891
 30
0.0
 11
7168.3709069935
 21
4838.1895733402
 31
0.0
  0
SPLINE
  5
97
330
1F
100
AcDbEntity
  8
0
  6
SLD-Plná
 62
     7
370
    25
100
AcDbSpline
210
0.0
220
0.0
230
1.0
 70
     8
 71
     3
 72
    12
 73
     8
 74
     0
 42
0.00000001
 43
0.00000001
 40
0.0
 40
0.0
 40
0.0
 40
0.0
 40
0.132359746792782
 40
0.3056482381249917
 40
0.4978957895864298
 40
0.7627738958066013
 40
1.0
 40
1.0
 40
1.0
 40
1.0
 10
7192.734743788857
 20
4850.510021166597
 30
0.0
 10
7192.701678396904
 20
4850.664340325599
 30
0.0
 10
7192.625323016671
 20
4851.020697754511
 30
0.0
 10
7192.235946408767
 20
4851.378267448502
 30
0.0
 10
7191.76897258756
 20
4851.64115750158
 30
0.0
 10
7191.216610418064
 20
4851.820017245692
 30
0.0
 10
7190.694559091574
 20
4851.890255430295
 30
0.0
 10
7190.447908695493
 20
4851.923440435625
 30
0.0
  0
SPLINE
  5
98
330
1F
100
AcDbEntity
  8
0
  6
SLD-Plná
 62
     7
370
    25
100
AcDbSpline
210
0.0
220
0.0
230
1.0
 70
     8
 71
     3
 72
    11
 73
     7
 74
     0
 42
0.00000001
 43
0.00000001
 40
0.0
 40
0.0
 40
0.0
 40
0.0
 40
0.1615154881252147
 40
0.5388581665006699
 40
0.8969740701006681
 40
0.9999999999999999
 40
0.9999999999999999
 40
0.9999999999999999
 40
0.9999999999999999
 10
7167.629136432204
 20
4847.80044298196
 30
0.0
 10
7167.575505174281
 20
4847.758961878511
 30
0.0
 10
7167.396577186338
 20
4847.620570002862
 30
0.0
 10
7167.185916109818
 20
4847.278051015628
 30
0.0
 10
7167.013442293911
 20
4846.806585965935
 30
0.0
 10
7167.097686233285
 20
4846.557387101908
 30
0.0
 10
7167.116507579694
 20
4846.501712377059
 30
0.0
  0
ARC
  5
99
330
1F
100
AcDbEntity
  8
0
  6
SLD-Plná
 62
     7
370
    25
100
AcDbCircle
 10
7184.1041127207
 20
4821.5551302589
 30
0.0
 40
31.06753134593144
100
AcDbArc
 50
76.8729988925
 51
120.7462525068
  0
LINE
  5
9A
330
1F
100
AcDbEntity
  8
0
  6
SLD-Plná
 62
     7
370
    25
100
AcDbLine
 10
7171.5983472692
 20
4833.6883867439
 30
0.0
 11
7171.7115285243
 21
4832.9580918555
 31
0.0
  0
LINE
  5
9B
330
1F
100
AcDbEntity
  8
0
  6
SLD-Plná
 62
     7
370
    25
100
AcDbLine
 10
7484.3031912196
 20
4793.9935782506
 30
0.0
 11
7479.5299701512
 21
4793.9935782506
 31
0.0
  0
LINE
  5
9C
330
1F
100
AcDbEntity
  8
0
  6
SLD-Plná
 62
     7
370
    25
100
AcDbLine
 10
7463.0941553108
 20
4835.3356923433
 30
0.0
 11
7479.0974287108
 21
4835.3356923433
 31
0.0
  0
ELLIPSE
  5
9D
330
1F
100
AcDbEntity
  8
0
  6
SLD-Plná
 62
     7
370
    25
100
AcDbEllipse
 10
7463.7244608295
 20
4829.3170256368
 30
0.0
 11
15.20903517241732
 21
6.649061119456748
 31
0.0
210
0.0
220
0.0
230
1.0
 40
0.3495815594
 41
1.460118934100587
 42
6.172098697619091
  0
LWPOLYLINE
  5
9E
330
1F
100
AcDbEntity
  8
0
  6
SLD-Plná
 62
     7
370
    25
100
AcDbPolyline
 90
       17
 70
   128
 43
0.0
 10
7465.2782538717
 20
4830.5856923433
 10
7464.9422779107
 20
4830.6427826939
 10
7464.7972934724
 20
4830.8053622574
 10
7464.8653731232
 20
4831.048679769
 10
7465.1361523535
 20
4831.3356923433
 10
7465.56840748
 20
4831.6227049175
 10
7466.0963315781
 20
4831.8660224292
 10
7466.6395529896
 20
4832.0286019927
 10
7467.1153711788
 20
4832.0856923433
 10
7467.4513471398
 20
4832.0286019927
 10
7467.5963315781
 20
4831.8660224292
 10
7467.5282519273
 20
4831.6227049175
 10
7467.257472697
 20
4831.3356923433
 10
7466.8252175705
 20
4831.048679769
 10
7466.2972934724
 20
4830.8053622574
 10
7465.7540720609
 20
4830.6427826939
 10
7465.2782538717
 20
4830.5856923433
  0
LWPOLYLINE
  5
9F
330
1F
100
AcDbEntity
  8
0
  6
SLD-Plná
 62
     7
370
    25
100
AcDbPolyline
 90
       22
 70
   128
 43
0.0
 10
7471.1465599936
 20
4831.3356923433
 10
7470.2040425066
 20
4831.2468379548
 10
7469.1276239214
 20
4830.9881698919
 10
7468.0129487532
 20
4830.582671947
 10
7466.9590607822
 20
4830.066374392
 10
7466.0596025796
 20
4829.4851525304
 10
7465.394494954
 20
4828.8906504754
 10
7465.0228356366
 20
4828.3356923433
 10
7464.9776481888
 20
4827.8695885996
 10
7465.2629477136
 20
4827.5337546075
 10
7465.8533840962
 20
4827.3580306908
 10
7466.696494473
 20
4827.3580306908
 10
7467.717364787
 20
4827.5337546075
 10
7468.8252862308
 20
4827.8695885996
 10
7469.9218151222
 20
4828.3356923433
 10
7470.909520057
 20
4828.8906504754
 10
7471.7006391173
 20
4829.4851525304
 10
7472.224877903
 20
4830.066374392
 10
7472.4356554972
 20
4830.582671947
 10
7472.3142433857
 20
4830.9881698919
 10
7471.8714295675
 20
4831.2468379548
 10
7471.1465599936
 20
4831.3356923433
  0
LWPOLYLINE
  5
A0
330
1F
100
AcDbEntity
  8
0
  6
SLD-Plná
 62
     7
370
    25
100
AcDbPolyline
 90
       22
 70
   128
 43
0.0
 10
7461.2668741598
 20
4831.3356923433
 10
7460.3243566728
 20
4831.2468379548
 10
7459.2479380877
 20
4830.9881698919
 10
7458.1332629194
 20
4830.582671947
 10
7457.0793749485
 20
4830.066374392
 10
7456.1799167459
 20
4829.4851525304
 10
7455.5148091203
 20
4828.8906504754
 10
7455.1431498029
 20
4828.3356923433
 10
7455.097962355
 20
4827.8695885996
 10
7455.3832618798
 20
4827.5337546075
 10
7455.9736982625
 20
4827.3580306908
 10
7456.8168086392
 20
4827.3580306908
 10
7457.8376789532
 20
4827.5337546075
 10
7458.9456003971
 20
4827.8695885996
 10
7460.0421292884
 20
4828.3356923433
 10
7461.0298342232
 20
4828.8906504754
 10
7461.8209532836
 20
4829.4851525304
 10
7462.3451920692
 20
4830.066374392
 10
7462.5559696634
 20
4830.582671947
 10
7462.4345575519
 20
4830.9881698919
 10
7461.9917437337
 20
4831.2468379548
 10
7461.2668741598
 20
4831.3356923433
  0
LWPOLYLINE
  5
A1
330
1F
100
AcDbEntity
  8
0
  6
SLD-Plná
 62
     7
370
    25
100
AcDbPolyline
 90
       17
 70
   128
 43
0.0
 10
7458.5421570791
 20
4825.0856923433
 10
7457.7491267637
 20
4824.9905417589
 10
7456.8437577446
 20
4824.7195758198
 10
7455.9638842477
 20
4824.3140466337
 10
7455.2434590369
 20
4823.8356923433
 10
7454.7921603198
 20
4823.3573380528
 10
7454.6786942351
 20
4822.9518088668
 10
7454.9203349656
 20
4822.6808429276
 10
7455.4802949006
 20
4822.5856923433
 10
7456.273325216
 20
4822.6808429276
 10
7457.1786942351
 20
4822.9518088668
 10
7458.058567732
 20
4823.3573380528
 10
7458.7789929428
 20
4823.8356923433
 10
7459.2302916599
 20
4824.3140466337
 10
7459.3437577446
 20
4824.7195758198
 10
7459.102117014
 20
4824.9905417589
 10
7458.5421570791
 20
4825.0856923433
  0
ELLIPSE
  5
A2
330
1F
100
AcDbEntity
  8
0
  6
SLD-Plná
 62
     7
370
    25
100
AcDbEllipse
 10
7459.4029675951
 20
4863.9771458137
 30
0.0
 11
-17.61730808387711
 21
40.29775835673263
 31
0.0
210
0.0
220
0.0
230
1.0
 40
0.236965339
 41
3.816108815859956
 42
3.823967541061672
  0
LINE
  5
A3
330
1F
100
AcDbEntity
  8
0
  6
SLD-Plná
 62
     7
370
    25
100
AcDbLine
 10
7479.5299701512
 20
4793.9935782506
 30
0.0
 11
7452.0047738238
 21
4793.9935782506
 31
0.0
  0
LWPOLYLINE
  5
A4
330
1F
100
AcDbEntity
  8
0
  6
SLD-Plná
 62
     7
370
    25
100
AcDbPolyline
 90
       22
 70
   128
 43
0.0
 10
7456.3678946747
 20
4827.3356923423
 10
7457.3104121616
 20
4827.4245467307
 10
7458.3868307467
 20
4827.6832147938
 10
7459.5015059149
 20
4828.0887127389
 10
7460.5553938858
 20
4828.6050102942
 10
7461.4548520882
 20
4829.186232156
 10
7462.1199597137
 20
4829.7807342114
 10
7462.491619031
 20
4830.3356923438
 10
7462.5368064787
 20
4830.8017960877
 10
7462.2515069539
 20
4831.13763008
 10
7461.6610705712
 20
4831.3133539967
 10
7460.8179601944
 20
4831.3133539967
 10
7459.7970898804
 20
4831.13763008
 10
7458.6891684367
 20
4830.8017960877
 10
7457.5926395454
 20
4830.3356923438
 10
7456.6049346107
 20
4829.7807342114
 10
7455.8138155505
 20
4829.186232156
 10
7455.289576765
 20
4828.6050102942
 10
7455.0787991709
 20
4828.0887127389
 10
7455.2002112824
 20
4827.6832147938
 10
7455.6430251007
 20
4827.4245467307
 10
7456.3678946747
 20
4827.3356923423
  0
LWPOLYLINE
  5
A5
330
1F
100
AcDbEntity
  8
0
  6
SLD-Plná
 62
     7
370
    25
100
AcDbPolyline
 90
       22
 70
   128
 43
0.0
 10
7466.2475805084
 20
4827.3356923423
 10
7467.1900979954
 20
4827.4245467307
 10
7468.2665165805
 20
4827.6832147938
 10
7469.3811917486
 20
4828.0887127389
 10
7470.4350797195
 20
4828.6050102942
 10
7471.3345379219
 20
4829.186232156
 10
7471.9996455475
 20
4829.7807342114
 10
7472.3713048648
 20
4830.3356923438
 10
7472.4164923125
 20
4830.8017960877
 10
7472.1311927876
 20
4831.13763008
 10
7471.5407564049
 20
4831.3133539967
 10
7470.6976460282
 20
4831.3133539967
 10
7469.6767757142
 20
4831.13763008
 10
7468.5688542704
 20
4830.8017960877
 10
7467.4723253792
 20
4830.3356923438
 10
7466.4846204445
 20
4829.7807342114
 10
7465.6935013842
 20
4829.186232156
 10
7465.1692625987
 20
4828.6050102942
 10
7464.9584850047
 20
4828.0887127389
 10
7465.0798971162
 20
4827.6832147938
 10
7465.5227109345
 20
4827.4245467307
 10
7466.2475805084
 20
4827.3356923423
  0
LWPOLYLINE
  5
A6
330
1F
100
AcDbEntity
  8
0
  6
SLD-Plná
 62
     7
370
    25
100
AcDbPolyline
 90
       17
 70
   128
 43
0.0
 10
7467.1153711789
 20
4832.0856923431
 10
7467.4513471398
 20
4832.0286019925
 10
7467.5963315781
 20
4831.8660224291
 10
7467.5282519273
 20
4831.6227049175
 10
7467.257472697
 20
4831.3356923433
 10
7466.8252175705
 20
4831.048679769
 10
7466.2972934724
 20
4830.8053622575
 10
7465.7540720609
 20
4830.642782694
 10
7465.2782538717
 20
4830.5856923434
 10
7464.9422779107
 20
4830.642782694
 10
7464.7972934724
 20
4830.8053622575
 10
7464.8653731232
 20
4831.048679769
 10
7465.1361523535
 20
4831.3356923433
 10
7465.56840748
 20
4831.6227049175
 10
7466.0963315781
 20
4831.8660224291
 10
7466.6395529896
 20
4832.0286019925
 10
7467.1153711789
 20
4832.0856923431
  0
LWPOLYLINE
  5
A7
330
1F
100
AcDbEntity
  8
0
  6
SLD-Plná
 62
     7
370
    25
100
AcDbPolyline
 90
       10
 70
   128
 43
0.0
 10
7202.2112520147
 20
4812.6022264709
 10
7202.7128350624
 20
4812.284474785
 10
7203.3661666111
 20
4811.5362745548
 10
7203.8240340926
 20
4810.5391774943
 10
7204.0416182479
 20
4809.390786411
 10
7203.9976204238
 20
4808.2035138255
 10
7203.6963474338
 20
4807.0935782506
 10
7203.1672899773
 20
4806.1696279138
 10
7202.4622358844
 20
4805.5221055116
 10
7202.146239819
 20
4805.355882684
  0
LINE
  5
A8
330
1F
100
AcDbEntity
  8
0
  6
SLD-Plná
 62
     7
370
    25
100
AcDbLine
 10
7200.3086720064
 20
4809.8596036544
 30
0.0
 11
7200.3086720064
 21
4808.1275528468
 31
0.0
  0
LINE
  5
A9
330
1F
100
AcDbEntity
  8
0
  6
SLD-Plná
 62
     7
370
    25
100
AcDbLine
 10
7200.3086720064
 20
4808.1275528468
 30
0.0
 11
7201.3693321782
 21
4807.261527443
 31
0.0
  0
LINE
  5
AA
330
1F
100
AcDbEntity
  8
0
  6
SLD-Plná
 62
     7
370
    25
100
AcDbLine
 10
7201.3693321782
 20
4807.261527443
 30
0.0
 11
7202.4299923499
 21
4808.1275528468
 31
0.0
  0
LINE
  5
AB
330
1F
100
AcDbEntity
  8
0
  6
SLD-Plná
 62
     7
370
    25
100
AcDbLine
 10
7202.4299923499
 20
4808.1275528468
 30
0.0
 11
7202.4299923499
 21
4809.8596036544
 31
0.0
  0
LINE
  5
AC
330
1F
100
AcDbEntity
  8
0
  6
SLD-Plná
 62
     7
370
    25
100
AcDbLine
 10
7202.4299923499
 20
4809.8596036544
 30
0.0
 11
7201.3693321782
 21
4810.7256290582
 31
0.0
  0
LINE
  5
AD
330
1F
100
AcDbEntity
  8
0
  6
SLD-Plná
 62
     7
370
    25
100
AcDbLine
 10
7201.3693321782
 20
4810.7256290582
 30
0.0
 11
7200.3086720064
 21
4809.8596036544
 31
0.0
  0
LINE
  5
AE
330
1F
100
AcDbEntity
  8
0
  6
SLD-Plná
 62
     7
370
    25
100
AcDbLine
 10
7200.3086720064
 20
4808.1275528468
 30
0.0
 11
7202.4299923499
 21
4808.1275528468
 31
0.0
  0
LINE
  5
AF
330
1F
100
AcDbEntity
  8
0
  6
SLD-Plná
 62
     7
370
    25
100
AcDbLine
 10
7200.3086720064
 20
4809.8596036544
 30
0.0
 11
7202.4299923499
 21
4809.8596036544
 31
0.0
  0
SPLINE
  5
B0
330
1F
100
AcDbEntity
  8
0
  6
SLD-Plná
 62
     7
370
    25
100
AcDbSpline
210
0.0
220
0.0
230
1.0
 70
     8
 71
     3
 72
    12
 73
     8
 74
     0
 42
0.00000001
 43
0.00000001
 40
0.0
 40
0.0
 40
0.0
 40
0.0
 40
0.2023909562807685
 40
0.4005442779438407
 40
0.6038804832426722
 40
0.7992026139458636
 40
1.0
 40
1.0
 40
1.0
 40
1.0
 10
7203.839335777515
 20
4826.964319603881
 30
0.0
 10
7203.799698976622
 20
4827.139418909451
 30
0.0
 10
7203.721255284842
 20
4827.485951314885
 30
0.0
 10
7203.793933225747
 20
4828.031788891083
 30
0.0
 10
7203.994197581146
 20
4828.480241507119
 30
0.0
 10
7204.306002580876
 20
4828.795923641109
 30
0.0
 10
7204.548976262233
 20
4828.837019093761
 30
0.0
 10
7204.672142322051
 20
4828.857850835502
 30
0.0
  0
SPLINE
  5
B1
330
1F
100
AcDbEntity
  8
0
  6
SLD-Plná
 62
     7
370
    25
100
AcDbSpline
210
0.0
220
0.0
230
1.0
 70
     8
 71
     3
 72
    10
 73
     6
 74
     0
 42
0.00000001
 43
0.00000001
 40
0.0
 40
0.0
 40
0.0
 40
0.0
 40
0.3390330091485743
 40
0.6675422525573244
 40
1.0
 40
1.0
 40
1.0
 40
1.0
 10
7204.585155786619
 20
4826.128894719349
 30
0.0
 10
7204.454230061584
 20
4826.150131057289
 30
0.0
 10
7204.196442615969
 20
4826.191944545895
 30
0.0
 10
7203.860232961997
 20
4826.499891756265
 30
0.0
 10
7203.729771231407
 20
4826.806792493388
 30
0.0
 10
7203.664150688052
 20
4826.961159548272
 30
0.0
  0
SPLINE
  5
B2
330
1F
100
AcDbEntity
  8
0
  6
SLD-Plná
 62
     7
370
    25
100
AcDbSpline
210
0.0
220
0.0
230
1.0
 70
     8
 71
     3
 72
    14
 73
    10
 74
     0
 42
0.00000001
 43
0.00000001
 40
0.0
 40
0.0
 40
0.0
 40
0.0
 40
0.1253772380381855
 40
0.289364374569634
 40
0.4532067447398593
 40
0.6241248747275217
 40
0.7966893948270428
 40
0.9691980032630538
 40
1.0
 40
1.0
 40
1.0
 40
1.0
 10
7203.839335777513
 20
4826.964319603887
 30
0.0
 10
7203.873487378545
 20
4826.856598882996
 30
0.0
 10
7203.952307560166
 20
4826.607984864083
 30
0.0
 10
7204.170773034925
 20
4826.300359917028
 30
0.0
 10
7204.469802427635
 20
4826.08675818041
 30
0.0
 10
7204.80917885963
 20
4826.018991131405
 30
0.0
 10
7205.150287075369
 20
4826.115271245526
 30
0.0
 10
7205.370042049488
 20
4826.296455412754
 30
0.0
 10
7205.470391717304
 20
4826.423401692503
 30
0.0
 10
7205.485594909179
 20
4826.442634328652
 30
0.0
  0
SPLINE
  5
B3
330
1F
100
AcDbEntity
  8
0
  6
SLD-Plná
 62
     7
370
    25
100
AcDbSpline
210
0.0
220
0.0
230
1.0
 70
     8
 71
     3
 72
    16
 73
    12
 74
     0
 42
0.00000001
 43
0.00000001
 40
0.0
 40
0.0
 40
0.0
 40
0.0
 40
0.0048440765369727
 40
0.1400201684603044
 40
0.2795252861773545
 40
0.4190304038944139
 40
0.5542064958177377
 40
0.6949271391965058
 40
0.8320620188785809
 40
0.9691968985606573
 40
1.0
 40
1.0
 40
1.0
 40
1.0
 10
7205.485594909179
 20
4826.442634328652
 30
0.0
 10
7205.482060501859
 20
4826.43777477043
 30
0.0
 10
7205.379896899645
 20
4826.297307097052
 30
0.0
 10
7205.134186340943
 20
4826.071861815128
 30
0.0
 10
7204.7068245452
 20
4825.953727339464
 30
0.0
 10
7204.278662432339
 20
4826.072225079091
 30
0.0
 10
7203.915870746157
 20
4826.40547103502
 30
0.0
 10
7203.66553110594
 20
4826.905605661644
 30
0.0
 10
7203.582021595896
 20
4827.487258254745
 30
0.0
 10
7203.608787471823
 20
4827.942969045399
 30
0.0
 10
7203.702243630928
 20
4828.136560303373
 30
0.0
 10
7203.71938531341
 20
4828.172068716166
 30
0.0
  0
SPLINE
  5
B4
330
1F
100
AcDbEntity
  8
0
  6
SLD-Plná
 62
     7
370
    25
100
AcDbSpline
210
0.0
220
0.0
230
1.0
 70
     8
 71
     3
 72
    10
 73
     6
 74
     0
 42
0.00000001
 43
0.00000001
 40
0.0
 40
0.0
 40
0.0
 40
0.0
 40
0.2873762374028466
 40
0.8621287122084267
 40
1.0
 40
1.0
 40
1.0
 40
1.0
 10
7204.419114342519
 20
4828.935351262813
 30
0.0
 10
7204.484715036347
 20
4828.959493804971
 30
0.0
 10
7204.68151711783
 20
4829.031921431447
 30
0.0
 10
7204.934689315241
 20
4828.967687262064
 30
0.0
 10
7205.071108410475
 20
4828.825830715253
 30
0.0
 10
7205.097501406789
 20
4828.798385735423
 30
0.0
  0
ARC
  5
B5
330
1F
100
AcDbEntity
  8
0
  6
SLD-Plná
 62
     7
370
    25
100
AcDbCircle
 10
7203.9285468878
 20
4827.4622100905
 30
0.0
 40
1.861164494307146
100
AcDbArc
 50
326.7826872241
 51
0.9657116774
  0
SPLINE
  5
B6
330
1F
100
AcDbEntity
  8
0
  6
SLD-Plná
 62
     7
370
    25
100
AcDbSpline
210
0.0
220
0.0
230
1.0
 70
     8
 71
     3
 72
    13
 73
     9
 74
     0
 42
0.00000001
 43
0.00000001
 40
0.0
 40
0.0
 40
0.0
 40
0.0
 40
0.1674004068080903
 40
0.339177951678624
 40
0.504187268281038
 40
0.674481022224483
 40
0.8447747761679503
 40
0.9999999999999999
 40
0.9999999999999999
 40
0.9999999999999999
 40
0.9999999999999999
 10
7205.789447023087
 20
4827.493578250599
 30
0.0
 10
7205.770197026366
 20
4827.298690793754
 30
0.0
 10
7205.731193689506
 20
4826.90382001846
 30
0.0
 10
7205.474110890305
 20
4826.406087463723
 30
0.0
 10
7205.112589804678
 20
4826.071503090046
 30
0.0
 10
7204.685965083087
 20
4825.956079272909
 30
0.0
 10
7204.259604662417
 20
4826.061246721562
 30
0.0
 10
7204.041095964197
 20
4826.296871132618
 30
0.0
 10
7203.936899085041
 20
4826.409229718271
 30
0.0
  0
SPLINE
  5
B7
330
1F
100
AcDbEntity
  8
0
  6
SLD-Plná
 62
     7
370
    25
100
AcDbSpline
210
0.0
220
0.0
230
1.0
 70
     8
 71
     3
 72
    14
 73
    10
 74
     0
 42
0.00000001
 43
0.00000001
 40
0.0
 40
0.0
 40
0.0
 40
0.0
 40
0.0580581270550829
 40
0.1632145689903264
 40
0.3758187125002232
 40
0.4809751544354652
 40
0.6935792979453798
 40
0.9061834414552853
 40
1.0
 40
1.0
 40
1.0
 40
1.0
 10
7204.366920492042
 20
4828.758673747599
 30
0.0
 10
7204.339876983718
 20
4828.741952699725
 30
0.0
 10
7204.263851545435
 20
4828.69494604001
 30
0.0
 10
7204.101779604413
 20
4828.549766685571
 30
0.0
 10
7203.950298186709
 20
4828.325150782774
 30
0.0
 10
7203.818843778501
 20
4827.990998484202
 30
0.0
 10
7203.749701496486
 20
4827.615461133782
 30
0.0
 10
7203.768906493797
 20
4827.234477252458
 30
0.0
 10
7203.822826987179
 20
4827.027645194352
 30
0.0
 10
7203.839335777513
 20
4826.964319603887
 30
0.0
  0
LINE
  5
B8
330
1F
100
AcDbEntity
  8
0
  6
SLD-Plná
 62
     7
370
    25
100
AcDbLine
 10
7205.341159287
 20
4827.4935782506
 30
0.0
 11
7205.0349730692
 21
4828.2435782506
 31
0.0
  0
LINE
  5
B9
330
1F
100
AcDbEntity
  8
0
  6
SLD-Plná
 62
     7
370
    25
100
AcDbLine
 10
7205.0349730692
 20
4828.2435782506
 30
0.0
 11
7204.4226006335
 21
4828.2435782506
 31
0.0
  0
LINE
  5
BA
330
1F
100
AcDbEntity
  8
0
  6
SLD-Plná
 62
     7
370
    25
100
AcDbLine
 10
7204.4226006335
 20
4828.2435782506
 30
0.0
 11
7204.1164144156
 21
4827.4935782506
 31
0.0
  0
LINE
  5
BB
330
1F
100
AcDbEntity
  8
0
  6
SLD-Plná
 62
     7
370
    25
100
AcDbLine
 10
7204.1164144156
 20
4827.4935782506
 30
0.0
 11
7204.4226006335
 21
4826.7435782506
 31
0.0
  0
LINE
  5
BC
330
1F
100
AcDbEntity
  8
0
  6
SLD-Plná
 62
     7
370
    25
100
AcDbLine
 10
7204.4226006335
 20
4826.7435782506
 30
0.0
 11
7205.0349730692
 21
4826.7435782506
 31
0.0
  0
LINE
  5
BD
330
1F
100
AcDbEntity
  8
0
  6
SLD-Plná
 62
     7
370
    25
100
AcDbLine
 10
7205.0349730692
 20
4826.7435782506
 30
0.0
 11
7205.341159287
 21
4827.4935782506
 31
0.0
  0
SPLINE
  5
BE
330
1F
100
AcDbEntity
  8
0
  6
SLD-Plná
 62
     7
370
    25
100
AcDbSpline
210
0.0
220
0.0
230
1.0
 70
     8
 71
     3
 72
    13
 73
     9
 74
     0
 42
0.00000001
 43
0.00000001
 40
0.0
 40
0.0
 40
0.0
 40
0.0
 40
0.1260788191881989
 40
0.3019861146262999
 40
0.4778855287637625
 40
0.6538835431895609
 40
0.8246867057653899
 40
1.0
 40
1.0
 40
1.0
 40
1.0
 10
7205.789447023087
 20
4827.493578250599
 30
0.0
 10
7205.78006412218
 20
4827.610676430717
 30
0.0
 10
7205.757590039645
 20
4827.891151967141
 30
0.0
 10
7205.612741972191
 20
4828.298920847206
 30
0.0
 10
7205.363015157081
 20
4828.65213491702
 30
0.0
 10
7205.046574075086
 20
4828.863219697058
 30
0.0
 10
7204.694825570758
 20
4828.91781032318
 30
0.0
 10
7204.477167595186
 20
4828.812178092609
 30
0.0
 10
7204.366920492042
 20
4828.758673747599
 30
0.0
  0
LINE
  5
BF
330
1F
100
AcDbEntity
  8
0
  6
SLD-Plná
 62
     7
370
    25
100
AcDbLine
 10
7204.6340525058
 20
4827.4935782506
 30
0.0
 11
7204.3752334607
 21
4828.1275528468
 31
0.0
  0
LINE
  5
C0
330
1F
100
AcDbEntity
  8
0
  6
SLD-Plná
 62
     7
370
    25
100
AcDbLine
 10
7204.3752334607
 20
4826.8596036544
 30
0.0
 11
7204.6340525058
 21
4827.4935782506
 31
0.0
  0
LINE
  5
C1
330
1F
100
AcDbEntity
  8
0
  6
SLD-Plná
 62
     7
370
    25
100
AcDbLine
 10
7204.6340525058
 20
4827.4935782506
 30
0.0
 11
7205.341159287
 21
4827.4935782506
 31
0.0
  0
LWPOLYLINE
  5
C2
330
1F
100
AcDbEntity
  8
0
  6
SLD-Plná
 62
     7
370
    25
100
AcDbPolyline
 90
       24
 70
   128
 43
0.0
 10
7247.1748885584
 20
5017.9845625995
 10
7246.3437389577
 20
5018.0497916715
 10
7245.8196839837
 20
5018.2406411454
 10
7245.6415903964
 20
5018.542956589
 10
7245.8226665823
 20
5018.9343166487
 10
7246.3494829492
 20
5019.3856959393
 10
7247.1829679372
 20
5019.8636177238
 10
7248.2613057775
 20
5020.3326367296
 10
7249.5045210858
 20
5020.7579679629
 10
7250.8204102699
 20
5021.1080665517
 10
7252.1113798487
 20
5021.3569672853
 10
7253.2816845146
 20
5021.486210335
 10
7254.244528124
 20
5021.486210335
 10
7254.9285009714
 20
5021.3569672853
 10
7255.2828759195
 20
5021.1080665517
 10
7255.2813705995
 20
5020.7579679629
 10
7254.9240966543
 20
5020.3326367296
 10
7254.2375514579
 20
5019.8636177238
 10
7253.2726529267
 20
5019.3856959393
 10
7252.1009631708
 20
5018.9343166487
 10
7250.8093810591
 20
5018.542956589
 10
7249.4936973284
 20
5018.2406411454
 10
7248.251490222
 20
5018.0497916715
 10
7247.1748885584
 20
5017.9845625995
  0
LWPOLYLINE
  5
C3
330
1F
100
AcDbEntity
  8
0
  6
SLD-Plná
 62
     7
370
    25
100
AcDbPolyline
 90
       22
 70
   128
 43
0.0
 10
7247.8367928406
 20
5018.3363657297
 10
7247.1207255105
 20
5018.3988842337
 10
7246.7035363059
 20
5018.5808847022
 10
7246.6222943183
 20
5018.8661955948
 10
7246.884218255
 20
5019.2294657867
 10
7247.4660350247
 20
5019.6384171272
 10
7248.3160476541
 20
5020.056712495
 10
7249.358728791
 20
5020.447184511
 10
7250.5014316405
 20
5020.7751380231
 10
7251.6426220398
 20
5021.0114329224
 10
7252.6809002139
 20
5021.1350733703
 10
7253.5240105907
 20
5021.1350733703
 10
7254.0970391132
 20
5021.0114329224
 10
7254.3490696825
 20
5020.7751380231
 10
7254.2577082765
 20
5020.447184511
 10
7253.8310727571
 20
5020.056712495
 10
7253.1070715624
 20
5019.6384171272
 10
7252.1500353758
 20
5019.2294657867
 10
7251.0450010623
 20
5018.8661955948
 10
7249.8901557702
 20
5018.5808847022
 10
7248.7881125714
 20
5018.3988842337
 10
7247.8367928406
 20
5018.3363657297
  0
LINE
  5
C4
330
1F
100
AcDbEntity
  8
0
  6
SLD-Plná
 62
     7
370
    25
100
AcDbLine
 10
7193.3855373885
 20
4830.4935782506
 30
0.0
 11
7206.6156149427
 21
4830.4935782506
 31
0.0
  0
LINE
  5
C5
330
1F
100
AcDbEntity
  8
0
  6
SLD-Plná
 62
     7
370
    25
100
AcDbLine
 10
7191.1156149427
 20
4830.4935782506
 30
0.0
 11
7193.3855373885
 21
4830.4935782506
 31
0.0
  0
LINE
  5
C6
330
1F
100
AcDbEntity
  8
0
  6
SLD-Plná
 62
     7
370
    25
100
AcDbLine
 10
7193.9158674744
 20
4842.4935782506
 30
0.0
 11
7205.8656149427
 21
4842.4935782506
 31
0.0
  0
LINE
  5
C7
330
1F
100
AcDbEntity
  8
0
  6
SLD-Plná
 62
     7
370
    25
100
AcDbLine
 10
7191.8656149427
 20
4842.4935782506
 30
0.0
 11
7193.9158674744
 21
4842.4935782506
 31
0.0
  0
LINE
  5
C8
330
1F
100
AcDbEntity
  8
0
  6
SLD-Plná
 62
     7
370
    25
100
AcDbLine
 10
7185.5947819881
 20
4793.9935782506
 30
0.0
 11
7185.5947819881
 21
4792.9935782506
 31
0.0
  0
LINE
  5
C9
330
1F
100
AcDbEntity
  8
0
  6
SLD-Plná
 62
     7
370
    25
100
AcDbLine
 10
7185.5947819881
 20
4793.9935782506
 30
0.0
 11
7208.3139539588
 21
4793.9935782506
 31
0.0
  0
LINE
  5
CA
330
1F
100
AcDbEntity
  8
0
  6
SLD-Plná
 62
     7
370
    25
100
AcDbLine
 10
7178.9650186785
 20
4793.9935782506
 30
0.0
 11
7178.9650186785
 21
4792.9935782506
 31
0.0
  0
LINE
  5
CB
330
1F
100
AcDbEntity
  8
0
  6
SLD-Plná
 62
     7
370
    25
100
AcDbLine
 10
7174.9081464276
 20
4793.9935782506
 30
0.0
 11
7178.9650186785
 21
4793.9935782506
 31
0.0
  0
LINE
  5
CC
330
1F
100
AcDbEntity
  8
0
  6
SLD-Plná
 62
     7
370
    25
100
AcDbLine
 10
7207.12396728
 20
4829.9846595312
 30
0.0
 11
7207.1365173219
 21
4829.9846712084
 31
0.0
  0
LINE
  5
CD
330
1F
100
AcDbEntity
  8
0
  6
SLD-Plná
 62
     7
370
    25
100
AcDbLine
 10
7179.4251516253
 20
4794.7019699297
 30
0.0
 11
7178.9650353947
 21
4793.9936048814
 31
0.0
  0
SPLINE
  5
CE
330
1F
100
AcDbEntity
  8
0
  6
SLD-Plná
 62
     7
370
    25
100
AcDbSpline
210
0.0
220
0.0
230
1.0
 70
     8
 71
     3
 72
    18
 73
    14
 74
     0
 42
0.00000001
 43
0.00000001
 40
0.0
 40
0.0
 40
0.0
 40
0.0
 40
0.1043946742900807
 40
0.1887322298944983
 40
0.272896699499495
 40
0.3081643621458511
 40
0.3432317557001283
 40
0.4670522449582009
 40
0.5915891046517906
 40
0.8364650800384117
 40
0.9590646011758764
 40
0.9897295041522858
 40
1.0
 40
1.0
 40
1.0
 40
1.0
 10
7179.058261131964
 20
4834.69754535116
 30
0.0
 10
7178.98065030317
 20
4833.295707538021
 30
0.0
 10
7178.840339843065
 20
4830.761363921132
 30
0.0
 10
7178.375165674064
 20
4827.104146638243
 30
0.0
 10
7177.789472807266
 20
4824.40703684421
 30
0.0
 10
7177.212451156478
 20
4822.407654414645
 30
0.0
 10
7176.889642477451
 20
4819.79152502719
 30
0.0
 10
7177.297312832035
 20
4815.965673442271
 30
0.0
 10
7178.302591078606
 20
4809.472539266152
 30
0.0
 10
7179.196356798551
 20
4802.942754519648
 30
0.0
 10
7179.621552686773
 20
4797.599539298745
 30
0.0
 10
7179.54669549018
 20
4795.376954720283
 30
0.0
 10
7179.449529985777
 20
4794.837353336852
 30
0.0
 10
7179.425151625283
 20
4794.701969929652
 30
0.0
  0
SPLINE
  5
CF
330
1F
100
AcDbEntity
  8
0
  6
SLD-Plná
 62
     7
370
    25
100
AcDbSpline
210
0.0
220
0.0
230
1.0
 70
     8
 71
     3
 72
    12
 73
     8
 74
     0
 42
0.00000001
 43
0.00000001
 40
0.0
 40
0.0
 40
0.0
 40
0.0
 40
0.1900943724388595
 40
0.3854791070104254
 40
0.653235518939504
 40
0.9282871170579161
 40
1.0
 40
1.0
 40
1.0
 40
1.0
 10
7188.547937723629
 20
4830.024384939193
 30
0.0
 10
7187.868356118865
 20
4830.070935616811
 30
0.0
 10
7186.490280025481
 20
4830.165332486159
 30
0.0
 10
7184.258592373221
 20
4830.898413914446
 30
0.0
 10
7181.919898432951
 20
4832.181771361999
 30
0.0
 10
7180.168382637015
 20
4833.611166394784
 30
0.0
 10
7179.248498455154
 20
4834.511376698729
 30
0.0
 10
7179.058261131964
 20
4834.69754535116
 30
0.0
  0
SPLINE
  5
D0
330
1F
100
AcDbEntity
  8
0
  6
SLD-Plná
 62
     7
370
    25
100
AcDbSpline
210
0.0
220
0.0
230
1.0
 70
     8
 71
     3
 72
    10
 73
     6
 74
     0
 42
0.00000001
 43
0.00000001
 40
0.0
 40
0.0
 40
0.0
 40
0.0
 40
0.1324584287773581
 40
0.6622924464969028
 40
0.9999999999999999
 40
0.9999999999999999
 40
0.9999999999999999
 40
0.9999999999999999
 10
7194.90252885532
 20
4829.983370814393
 30
0.0
 10
7194.621683246937
 20
4829.985553667964
 30
0.0
 10
7193.217454563407
 20
4829.996467940808
 30
0.0
 10
7191.098939474863
 20
4830.010805239434
 30
0.0
 10
7189.262721532817
 20
4830.020579943953
 30
0.0
 10
7188.547937723629
 20
4830.024384939193
 30
0.0
  0
SPLINE
  5
D1
330
1F
100
AcDbEntity
  8
0
  6
SLD-Plná
 62
     7
370
    25
100
AcDbSpline
210
0.0
220
0.0
230
1.0
 70
    11
 71
     3
 72
    31
 73
    27
 74
     0
 42
0.00000001
 43
0.00000001
 40
0.0
 40
0.0
 40
0.0
 40
0.0
 40
0.0280188111252295
 40
0.0567809296417354
 40
0.1173120976008265
 40
0.1819613786420983
 40
0.2156838925991722
 40
0.2496296269693372
 40
0.2837342743102085
 40
0.31754561067072
 40
0.3823759792986629
 40
0.4429647908461889
 40
0.4718601608810945
 40
0.4998626329256254
 40
0.5281494210162043
 40
0.5574223827021899
 40
0.6187036333774589
 40
0.6831324462664581
 40
0.7161410164671884
 40
0.7496100380223598
 40
0.7831115648803417
 40
0.816335773981268
 40
0.8811056497094801
 40
0.9425162114812312
 40
0.9717831103037569
 40
1.0
 40
1.0
 40
1.0
 40
1.0
 10
7199.147229421148
 20
4809.021701190508
 30
0.0
 10
7199.173054436938
 20
4809.335541165186
 30
0.0
 10
7199.225389577001
 20
4809.971546934359
 30
0.0
 10
7199.848641810613
 20
4811.149648854533
 30
0.0
 10
7201.102155116918
 20
4812.354020422547
 30
0.0
 10
7202.612194661381
 20
4813.164467560186
 30
0.0
 10
7203.821453592863
 20
4813.524873901277
 30
0.0
 10
7204.683911241189
 20
4813.622234425097
 30
0.0
 10
7205.431752834455
 20
4813.531348218864
 30
0.0
 10
7206.218812459515
 20
4813.176859772125
 30
0.0
 10
7206.810869864702
 20
4812.371161822387
 30
0.0
 10
7207.011348794409
 20
4811.169500990194
 30
0.0
 10
7207.058127296565
 20
4809.994530991956
 30
0.0
 10
7207.071836585475
 20
4809.039906797843
 30
0.0
 10
7207.072577837635
 20
4808.086947472082
 30
0.0
 10
7207.023817314483
 20
4806.897653886063
 30
0.0
 10
7206.778556425726
 20
4805.642454677277
 30
0.0
 10
7206.127919988348
 20
4804.786156709543
 30
0.0
 10
7205.324480448908
 20
4804.409893651628
 30
0.0
 10
7204.586041047532
 20
4804.308152490238
 30
0.0
 10
7203.749070552461
 20
4804.402562385408
 30
0.0
 10
7202.5782070245
 20
4804.772245692694
 30
0.0
 10
7201.113569140481
 20
4805.625841283016
 30
0.0
 10
7199.899555519045
 20
4806.880849878055
 30
0.0
 10
7199.263928901607
 20
4808.066932914994
 30
0.0
 10
7199.185652645286
 20
4808.707344388708
 30
0.0
 10
7199.147229421148
 20
4809.021701190508
 30
0.0
  0
SPLINE
  5
D2
330
1F
100
AcDbEntity
  8
0
  6
SLD-Plná
 62
     7
370
    25
100
AcDbSpline
210
0.0
220
0.0
230
1.0
 70
    11
 71
     3
 72
    27
 73
    23
 74
     0
 42
0.00000001
 43
0.00000001
 40
0.0
 40
0.0
 40
0.0
 40
0.0
 40
0.0309999309865697
 40
0.062156368342747
 40
0.1243254171141843
 40
0.1869481326199083
 40
0.2499104752615732
 40
0.3129429536756981
 40
0.3757017109129195
 40
0.4378844582564457
 40
0.468850285230157
 40
0.5000013812724393
 40
0.531151423791628
 40
0.5621312413580543
 40
0.6243509591360697
 40
0.6870742756955839
 40
0.7500773804134087
 40
0.8130653199583001
 40
0.875713249738701
 40
0.9378611627185331
 40
0.968997355897836
 40
1.0
 40
1.0
 40
1.0
 40
1.0
 10
7203.489078294314
 20
4827.494563256255
 30
0.0
 10
7203.496561560577
 20
4827.606946255626
 30
0.0
 10
7203.511565873152
 20
4827.832279631609
 30
0.0
 10
7203.637543585673
 20
4828.262871897225
 30
0.0
 10
7203.9178387974
 20
4828.737388519643
 30
0.0
 10
7204.386541612437
 20
4829.114885547679
 30
0.0
 10
7204.896307185199
 20
4829.248822379687
 30
0.0
 10
7205.35847290865
 20
4829.114062510124
 30
0.0
 10
7205.709935614561
 20
4828.735094174725
 30
0.0
 10
7205.888550889207
 20
4828.259961320797
 30
0.0
 10
7205.956923661091
 20
4827.829222320178
 30
0.0
 10
7205.971255973472
 20
4827.491120078321
 30
0.0
 10
7205.947948448546
 20
4827.15262682767
 30
0.0
 10
7205.867885020913
 20
4826.720592112797
 30
0.0
 10
7205.675601760217
 20
4826.243755093345
 30
0.0
 10
7205.312655027677
 20
4825.865207723056
 30
0.0
 10
7204.846630781598
 20
4825.731960887631
 30
0.0
 10
7204.340395135128
 20
4825.867118220638
 30
0.0
 10
7203.881093999805
 20
4826.246836585903
 30
0.0
 10
7203.613875927124
 20
4826.724382737254
 30
0.0
 10
7203.500998195273
 20
4827.15661694192
 30
0.0
 10
7203.493045897595
 20
4827.38207600403
 30
0.0
 10
7203.489078294313
 20
4827.494563256255
 30
0.0
  0
LINE
  5
D3
330
1F
100
AcDbEntity
  8
0
  6
SLD-Plná
 62
     7
370
    25
100
AcDbLine
 10
7178.9665965258
 20
4793.9935782506
 30
0.0
 11
7185.5947819913
 21
4793.9935782506
 31
0.0
  0
SPLINE
  5
D4
330
1F
100
AcDbEntity
  8
0
  6
SLD-Plná
 62
     7
370
    25
100
AcDbSpline
210
0.0
220
0.0
230
1.0
 70
    24
 71
     3
 72
    21
 73
    17
 74
     0
 42
0.00000001
 43
0.00000001
 40
0.0
 40
0.0
 40
0.0
 40
0.0
 40
0.1251586820208119
 40
0.1966263885901483
 40
0.2680913250584325
 40
0.3397455126403645
 40
0.4114005209297756
 40
0.4829524672044501
 40
0.5545048886847306
 40
0.6260461210236478
 40
0.6975870188574602
 40
0.7691431864584533
 40
0.8406991880547057
 40
0.9122661324767036
 40
0.9838339479672175
 40
1.0
 40
1.0
 40
1.0
 40
1.0
 10
7185.594781991308
 20
4793.993578250599
 30
0.0
 10
7186.600158535875
 20
4793.993578250599
 30
0.0
 10
7188.179621949359
 20
4793.993578250599
 30
0.0
 10
7190.78893095401
 20
4793.993578250599
 30
0.0
 10
7192.972082810711
 20
4793.993578250599
 30
0.0
 10
7195.22234145491
 20
4793.993578250599
 30
0.0
 10
7197.465799699724
 20
4793.993578250599
 30
0.0
 10
7199.637251836643
 20
4793.993578250599
 30
0.0
 10
7201.678649299579
 20
4793.993578250599
 30
0.0
 10
7203.526630939128
 20
4793.993578250599
 30
0.0
 10
7205.13840845513
 20
4793.993578250599
 30
0.0
 10
7206.454484270646
 20
4793.993578250599
 30
0.0
 10
7207.461021473944
 20
4793.993578250599
 30
0.0
 10
7208.074798038459
 20
4793.993578250599
 30
0.0
 10
7208.348289134177
 20
4793.993578250599
 30
0.0
 10
7208.290994547155
 20
4793.993578250599
 30
0.0
 10
7208.280437309669
 20
4793.993578250599
 30
0.0
  0
LWPOLYLINE
  5
D5
330
1F
100
AcDbEntity
  8
0
  6
SLD-Plná
 62
     7
370
    25
100
AcDbPolyline
 90
        9
 70
   128
 43
0.0
 10
7194.9025288553
 20
4829.9833708144
 10
7194.9067507544
 20
4830.0823478142
 10
7194.9214225208
 20
4830.1778244898
 10
7194.9459656234
 20
4830.2660360449
 10
7194.9794122889
 20
4830.3435041584
 10
7195.0204436625
 20
4830.4071741401
 10
7195.0674418121
 20
4830.454535382
 10
7195.1185535265
 20
4830.4837203553
 10
7195.17176339
 20
4830.4935782506
  0
SPLINE
  5
D6
330
1F
100
AcDbEntity
  8
0
  6
SLD-Plná
 62
     7
370
    25
100
AcDbSpline
210
0.0
220
0.0
230
1.0
 70
    24
 71
     3
 72
    14
 73
    10
 74
     0
 42
0.00000001
 43
0.00000001
 40
0.0
 40
0.0
 40
0.0
 40
0.0
 40
0.1582121311271295
 40
0.3166338280043192
 40
0.4737033831023433
 40
0.6309516357155632
 40
0.7882918965841694
 40
0.9456587443148545
 40
1.0
 40
1.0
 40
1.0
 40
1.0
 10
7195.171763389979
 20
4830.493578250599
 30
0.0
 10
7195.928024102032
 20
4830.493578250599
 30
0.0
 10
7197.441547259333
 20
4830.493578250599
 30
0.0
 10
7200.038505360323
 20
4830.493578250599
 30
0.0
 10
7202.50180580995
 20
4830.493578250599
 30
0.0
 10
7204.616861214971
 20
4830.493578250599
 30
0.0
 10
7206.069206172883
 20
4830.493578250599
 30
0.0
 10
7206.769684942715
 20
4830.493578250599
 30
0.0
 10
7206.6689130462
 20
4830.493578250599
 30
0.0
 10
7206.643046906426
 20
4830.493578250599
 30
0.0
  0
SPLINE
  5
D7
330
1F
100
AcDbEntity
  8
0
  6
SLD-Plná
 62
     7
370
    25
100
AcDbSpline
210
0.0
220
0.0
230
1.0
 70
    11
 71
     3
 72
    31
 73
    27
 74
     0
 42
0.00000001
 43
0.00000001
 40
0.0
 40
0.0
 40
0.0
 40
0.0
 40
0.0309636004125648
 40
0.0622341849720988
 40
0.1251620345975493
 40
0.1878284025619324
 40
0.2189241746158259
 40
0.2499456374545886
 40
0.2809433814106672
 40
0.3118573275746701
 40
0.3742422439627461
 40
0.4370618388546779
 40
0.4683632948619193
 40
0.4994210031744389
 40
0.5304214311058656
 40
0.5618695434592705
 40
0.6248379221799265
 40
0.6876910389256853
 40
0.718942787598959
 40
0.7499141309205345
 40
0.7807535580439652
 40
0.8119470852265344
 40
0.8746695943185038
 40
0.9376385217347329
 40
0.9689696995701855
 40
1.0
 40
1.0
 40
1.0
 40
1.0
 10
7199.510232114389
 20
4809.009342893771
 30
0.0
 10
7199.53506693398
 20
4808.73830924694
 30
0.0
 10
7199.584982794396
 20
4808.193554829309
 30
0.0
 10
7200.043660612446
 20
4807.184266568831
 30
0.0
 10
7200.934891337236
 20
4806.116299166541
 30
0.0
 10
7202.047859832361
 20
4805.367285387934
 30
0.0
 10
7202.927434966934
 20
4805.046785530984
 30
0.0
 10
7203.543491068972
 20
4804.96565203955
 30
0.0
 10
7204.076601830688
 20
4805.052201776349
 30
0.0
 10
7204.644778985126
 20
4805.377373668029
 30
0.0
 10
7205.06595205535
 20
4806.127558256953
 30
0.0
 10
7205.176040501364
 20
4807.195304683234
 30
0.0
 10
7205.177266732451
 20
4808.206407092129
 30
0.0
 10
7205.165378665753
 20
4809.023985319147
 30
0.0
 10
7205.162694773805
 20
4809.843172935762
 30
0.0
 10
7205.159940357405
 20
4810.848606045314
 30
0.0
 10
7205.085993471168
 20
4811.888874408542
 30
0.0
 10
7204.724013491461
 20
4812.620502305273
 30
0.0
 10
7204.180944542141
 20
4812.940051803474
 30
0.0
 10
7203.651837040239
 20
4813.021390107329
 30
0.0
 10
7203.026048419521
 20
4812.93518241495
 30
0.0
 10
7202.123246185082
 20
4812.611359337653
 30
0.0
 10
7200.977718410883
 20
4811.876764872337
 30
0.0
 10
7200.051954308357
 20
4810.834961440126
 30
0.0
 10
7199.57982356695
 20
4809.827895077784
 30
0.0
 10
7199.533354531699
 20
4809.281314587021
 30
0.0
 10
7199.510232114389
 20
4809.009342893771
 30
0.0
  0
LWPOLYLINE
  5
D8
330
1F
100
AcDbEntity
  8
0
  6
SLD-Plná
 62
     7
370
    25
100
AcDbPolyline
 90
        9
 70
   128
 43
0.0
 10
7188.5479377236
 20
4830.0243849392
 10
7188.5558514337
 20
4830.1174233401
 10
7188.5730620563
 20
4830.2060676218
 10
7188.5989589455
 20
4830.287172617
 10
7188.6326232595
 20
4830.3578606577
 10
7188.6728605627
 20
4830.415623678
 10
7188.7182432044
 20
4830.4584122014
 10
7188.7671609736
 20
4830.484708058
 10
7188.8178782302
 20
4830.4935782506
  0
LINE
  5
D9
330
1F
100
AcDbEntity
  8
0
  6
SLD-Plná
 62
     7
370
    25
100
AcDbLine
 10
7188.8178782302
 20
4830.4935782506
 30
0.0
 11
7195.17176339
 21
4830.4935782506
 31
0.0
  0
SPLINE
  5
DA
330
1F
100
AcDbEntity
  8
0
  6
SLD-Plná
 62
     7
370
    25
100
AcDbSpline
210
0.0
220
0.0
230
1.0
 70
    11
 71
     3
 72
    40
 73
    36
 74
     0
 42
0.00000001
 43
0.00000001
 40
0.0
 40
0.0
 40
0.0
 40
0.0
 40
0.0312514938108213
 40
0.0625929351890268
 40
0.1248354440664942
 40
0.1872445119379909
 40
0.2185725609819976
 40
0.2497754983428479
 40
0.2811290044686215
 40
0.3123168840657864
 40
0.3747093484706875
 40
0.4370981486812245
 40
0.4682844315827652
 40
0.4996868184176156
 40
0.5310952895705073
 40
0.5622898177955448
 40
0.5937006044260961
 40
0.6093170344787675
 40
0.6171380588687353
 40
0.6226727013919241
 40
0.6243129609375052
 40
0.6251674559587572
 40
0.6251947719228595
 40
0.6252011213176388
 40
0.6252026786915718
 40
0.6252044091055399
 40
0.6875123647851463
 40
0.718741526412336
 40
0.750107635938188
 40
0.7812925826181414
 40
0.8126321532821323
 40
0.8749521818219556
 40
0.9373527531995065
 40
0.9687396266610881
 40
1.0
 40
1.0
 40
1.0
 40
1.0
 10
7203.549438191158
 20
4827.497716796662
 30
0.0
 10
7203.552707887878
 20
4827.399289425574
 30
0.0
 10
7203.55925669211
 20
4827.202151391257
 30
0.0
 10
7203.657320070535
 20
4826.824695364935
 30
0.0
 10
7203.889231422347
 20
4826.407422101021
 30
0.0
 10
7204.223309782665
 20
4826.128672118318
 30
0.0
 10
7204.507913021766
 20
4826.01357412111
 30
0.0
 10
7204.721849828264
 20
4825.983820124904
 30
0.0
 10
7204.925830156747
 20
4826.012612672775
 30
0.0
 10
7205.174583729788
 20
4826.12654515091
 30
0.0
 10
7205.429887192371
 20
4826.40379241672
 30
0.0
 10
7205.589019840324
 20
4826.820191683411
 30
0.0
 10
7205.655875630729
 20
4827.197627347135
 30
0.0
 10
7205.675837508037
 20
4827.49372534317
 30
0.0
 10
7205.664990807643
 20
4827.789434447095
 30
0.0
 10
7205.623511737622
 20
4828.072692470312
 30
0.0
 10
7205.5635704398
 20
4828.289187819887
 30
0.0
 10
7205.508432501688
 20
4828.426502523788
 30
0.0
 10
7205.475883264015
 20
4828.494837399151
 30
0.0
 10
7205.458027098733
 20
4828.528903739389
 30
0.0
 10
7205.448181861118
 20
4828.546755113277
 30
0.0
 10
7205.445058807405
 20
4828.552319487108
 30
0.0
 10
7205.443954830665
 20
4828.554273694662
 30
0.0
 10
7205.443911041242
 20
4828.554351186929
 30
0.0
 10
7205.443899059663
 20
4828.554372388841
 30
0.0
 10
7205.366428326025
 20
4828.691456467377
 30
0.0
 10
7205.218319114925
 20
4828.859142360537
 30
0.0
 10
7204.973865222914
 20
4828.973712976468
 30
0.0
 10
7204.770843627208
 20
4829.003350297047
 30
0.0
 10
7204.55608861429
 20
4828.974344229066
 30
0.0
 10
7204.268371152789
 20
4828.860402579791
 30
0.0
 10
7203.926248098004
 20
4828.583631536674
 30
0.0
 10
7203.681090144632
 20
4828.169392053916
 30
0.0
 10
7203.569819972427
 20
4827.793181672165
 30
0.0
 10
7203.556222966353
 20
4827.596072417889
 30
0.0
 10
7203.549438191158
 20
4827.497716796662
 30
0.0
  0
SPLINE
  5
DB
330
1F
100
AcDbEntity
  8
0
  6
SLD-Plná
 62
     7
370
    25
100
AcDbSpline
210
0.0
220
0.0
230
1.0
 70
     8
 71
     3
 72
    11
 73
     7
 74
     0
 42
0.00000001
 43
0.00000001
 40
0.0
 40
0.0
 40
0.0
 40
0.0
 40
0.3003625479732404
 40
0.6070071708547338
 40
0.8011309396447021
 40
0.9999999999999999
 40
0.9999999999999999
 40
0.9999999999999999
 40
0.9999999999999999
 10
7179.19150507434
 20
4834.857211160363
 30
0.0
 10
7180.035782047184
 20
4834.157512251652
 30
0.0
 10
7181.741994023883
 20
4832.743480249685
 30
0.0
 10
7184.307622704864
 20
4831.394617028168
 30
0.0
 10
7186.702503715681
 20
4830.629780945756
 30
0.0
 10
7188.107100007323
 20
4830.539343153669
 30
0.0
 10
7188.817878230185
 20
4830.493578250599
 30
0.0
  0
ARC
  5
DC
330
1F
100
AcDbEntity
  8
0
  6
SLD-Plná
 62
     7
370
    25
100
AcDbCircle
 10
7192.5344079999
 20
4769.2645701016
 30
0.0
 40
66.93599644093658
100
AcDbArc
 50
90.909629731
 51
101.4982630887
  0
SPLINE
  5
DD
330
1F
100
AcDbEntity
  8
0
  6
SLD-Plná
 62
     7
370
    25
100
AcDbSpline
210
0.0
220
0.0
230
1.0
 70
     8
 71
     3
 72
    12
 73
     8
 74
     0
 42
0.00000001
 43
0.00000001
 40
0.0
 40
0.0
 40
0.0
 40
0.0
 40
0.2427914550828742
 40
0.4880681846577983
 40
0.7019438068197649
 40
0.9577199628241756
 40
1.0
 40
1.0
 40
1.0
 40
1.0
 10
7179.058261131964
 20
4834.69754535116
 30
0.0
 10
7179.060026352486
 20
4834.715973342767
 30
0.0
 10
7179.063574862768
 20
4834.753017959545
 30
0.0
 10
7179.088116052667
 20
4834.802531451771
 30
0.0
 10
7179.129919164524
 20
4834.838708638698
 30
0.0
 10
7179.166662803144
 20
4834.852206925783
 30
0.0
 10
7179.188418914078
 20
4834.856589483312
 30
0.0
 10
7179.19150507434
 20
4834.857211160363
 30
0.0
  0
LWPOLYLINE
  5
DE
330
1F
100
AcDbEntity
  8
0
  6
SLD-Plná
 62
     7
370
    25
100
AcDbPolyline
 90
       10
 70
   128
 43
0.0
 10
7169.1256716889
 20
4831.3046205761
 10
7169.1253961849
 20
4831.398339056
 10
7169.3501296727
 20
4831.7642936388
 10
7169.921497284
 20
4832.172576535
 10
7170.8241780869
 20
4832.6122398462
 10
7172.0339671545
 20
4833.0714942244
 10
7173.5184246083
 20
4833.5380249969
 10
7175.2377454765
 20
4833.9993223784
 10
7177.1458270441
 20
4834.4430169139
 10
7179.1915050743
 20
4834.8572111604
  0
SPLINE
  5
DF
330
1F
100
AcDbEntity
  8
0
  6
SLD-Plná
 62
     7
370
    25
100
AcDbSpline
210
0.0
220
0.0
230
1.0
 70
     8
 71
     3
 72
    16
 73
    12
 74
     0
 42
0.00000001
 43
0.00000001
 40
0.0
 40
0.0
 40
0.0
 40
0.0
 40
0.1698334429627589
 40
0.2685941300154108
 40
0.3709217896505044
 40
0.4768237177353261
 40
0.5863064723896895
 40
0.690781528816281
 40
0.821082028288686
 40
0.9771965405890003
 40
1.0
 40
1.0
 40
1.0
 40
1.0
 10
7174.920799642729
 20
4793.992072352175
 30
0.0
 10
7174.93866974234
 20
4793.991549345106
 30
0.0
 10
7174.966931572136
 20
4793.990722201607
 30
0.0
 10
7175.209707900354
 20
4793.991118942407
 30
0.0
 10
7175.486547744814
 20
4793.991991298521
 30
0.0
 10
7175.865841060567
 20
4793.993103618123
 30
0.0
 10
7176.337551811866
 20
4793.993856097954
 30
0.0
 10
7176.938168309829
 20
4793.992886214418
 30
0.0
 10
7177.730718438615
 20
4793.992917657411
 30
0.0
 10
7178.455432587347
 20
4793.99353991988
 30
0.0
 10
7178.90881246688
 20
4793.99359794832
 30
0.0
 10
7178.966596654694
 20
4793.993605344162
 30
0.0
  0
LWPOLYLINE
  5
E0
330
1F
100
AcDbEntity
  8
0
  6
SLD-Plná
 62
     7
370
    25
100
AcDbPolyline
 90
       20
 70
   128
 43
0.0
 10
7190.1967881769
 20
4842.9637585008
 10
7188.5613055957
 20
4842.9257991301
 10
7186.7255042778
 20
4842.8129564506
 10
7184.7394600976
 20
4842.6283085165
 10
7182.6573471631
 20
4842.376892042
 10
7180.5359600875
 20
4842.0655650132
 10
7178.4331647801
 20
4841.70281962
 10
7176.4063200154
 20
4841.2985506109
 10
7174.510712835
 20
4840.8637853907
 10
7172.7980504613
 20
4840.4103832213
 10
7171.3150498592
 20
4839.9507117319
 10
7170.1021634192
 20
4839.4973095625
 10
7169.1924755218
 20
4839.0625443423
 10
7168.6108000813
 20
4838.6582753332
 10
7168.3730036875
 20
4838.2955299399
 10
7168.4855728061
 20
4837.9842029112
 10
7168.9454368449
 20
4837.7327864367
 10
7169.7400519119
 20
4837.5481385026
 10
7170.8477429793
 20
4837.4352958231
 10
7171.1670472188
 20
4837.4188464878
  0
LINE
  5
E1
330
1F
100
AcDbEntity
  8
0
  6
SLD-Plná
 62
     7
370
    25
100
AcDbLine
 10
7191.6324971888
 20
4840.5905862211
 30
0.0
 11
7191.7493757388
 21
4840.6337509874
 31
0.0
  0
ARC
  5
E2
330
1F
100
AcDbEntity
  8
0
  6
SLD-Plná
 62
     7
370
    25
100
AcDbCircle
 10
7190.9431742119
 20
4834.6878013733
 30
0.0
 40
8.309546226434016
100
AcDbArc
 50
69.9467968183
 51
95.1534083255
  0
LWPOLYLINE
  5
E3
330
1F
100
AcDbEntity
  8
0
  6
SLD-Plná
 62
     7
370
    25
100
AcDbPolyline
 90
       17
 70
   128
 43
0.0
 10
7188.7739507049
 20
4842.5227352005
 10
7187.2712398556
 20
4842.4850952802
 10
7185.5739581649
 20
4842.3733852973
 10
7183.736657663
 20
4842.1911957026
 10
7181.8183906996
 20
4841.9443822195
 10
7179.8808119535
 20
4841.6408776365
 10
7177.9861967996
 20
4841.2904368406
 10
7176.1954397279
 20
4840.9043232873
 10
7174.5660971442
 20
4840.4949469839
 10
7173.1505374598
 20
4840.0754656217
 10
7171.9942579275
 20
4839.6593616767
 10
7171.1344223231
 20
4839.2600090722
 10
7170.5986664702
 20
4838.8902433295
 10
7170.4042100028
 20
4838.5619490236
 10
7170.5573029117
 20
4838.2856778039
 10
7171.053024665
 20
4838.0703092545
 10
7171.0666600577
 20
4838.0665882936
  0
LWPOLYLINE
  5
E4
330
1F
100
AcDbEntity
  8
0
  6
SLD-Plná
 62
     7
370
    25
100
AcDbPolyline
 90
        3
 70
   128
 43
0.0
 10
7191.5321100277
 20
4841.2383280269
 10
7191.6103774039
 20
4841.2904368406
 10
7191.7995756993
 20
4841.4369503554
  0
ARC
  5
E5
330
1F
100
AcDbEntity
  8
0
  6
SLD-Plná
 62
     7
370
    25
100
AcDbCircle
 10
7189.4660189754
 20
4836.1864042894
 30
0.0
 40
6.374013484936119
100
AcDbArc
 50
68.122717974
 51
96.2332653033
  0
LWPOLYLINE
  5
E6
330
1F
100
AcDbEntity
  8
0
  6
SLD-Plná
 62
     7
370
    25
100
AcDbPolyline
 90
       14
 70
   128
 43
0.0
 10
7188.3559055664
 20
4852.035222436
 10
7186.7510045533
 20
4851.9970389669
 10
7184.9458972011
 20
4851.8835870283
 10
7182.9925131619
 20
4851.6981304259
 10
7180.947047738
 20
4851.4460044086
 10
7178.8683452453
 20
4851.1344621829
 10
7176.8162061701
 20
4850.7724662513
 10
7174.8496668171
 20
4850.3704305777
 10
7173.025300943
 20
4849.9399209964
 10
7171.3955922324
 20
4849.4933224844
 10
7170.0074244378
 20
4849.0434828675
 10
7168.9007326192
 20
4848.6033432127
 10
7168.1073542852
 20
4848.1855655364
 10
7167.7732334642
 20
4847.9339176983
  0
ARC
  5
E7
330
1F
100
AcDbEntity
  8
0
  6
SLD-Plná
 62
     7
370
    25
100
AcDbCircle
 10
7188.7719907832
 20
4839.6030615332
 30
0.0
 40
12.43912181877793
100
AcDbArc
 50
78.9325111148
 51
91.9168857022
  0
LINE
  5
E8
330
1F
100
AcDbEntity
  8
0
  6
SLD-Plná
 62
     7
370
    25
100
AcDbLine
 10
7170.9029732715
 20
4839.1227669262
 30
0.0
 11
7171.7014163894
 21
4833.9708632215
 31
0.0
  0
ARC
  5
E9
330
1F
100
AcDbEntity
  8
0
  6
SLD-Plná
 62
     7
370
    25
100
AcDbCircle
 10
7174.4547719558
 20
4831.6089952615
 30
0.0
 40
3.533133301674177
100
AcDbArc
 50
97.885740971
 51
143.9465052655
  0
LINE
  5
EA
330
1F
100
AcDbEntity
  8
0
  6
SLD-Plná
 62
     7
370
    25
100
AcDbLine
 10
7173.9700330035
 20
4835.1087179756
 30
0.0
 11
7173.1979085207
 21
4840.0908023529
 31
0.0
  0
LINE
  5
EB
330
1F
100
AcDbEntity
  8
0
  6
SLD-Plná
 62
     7
370
    25
100
AcDbLine
 10
7174.411577503
 20
4840.4525309461
 30
0.0
 11
7175.1815635794
 21
4835.4842445016
 31
0.0
  0
ARC
  5
EC
330
1F
100
AcDbEntity
  8
0
  6
SLD-Plná
 62
     7
370
    25
100
AcDbCircle
 10
7190.8131354306
 20
4777.9228769196
 30
0.0
 40
59.64609858534591
100
AcDbArc
 50
96.8548866162
 51
105.1930423899
  0
LINE
  5
ED
330
1F
100
AcDbEntity
  8
0
  6
SLD-Plná
 62
     7
370
    25
100
AcDbLine
 10
7183.6940677413
 20
4837.1426029548
 30
0.0
 11
7182.9267526629
 21
4842.0936549546
 31
0.0
  0
LINE
  5
EE
330
1F
100
AcDbEntity
  8
0
  6
SLD-Plná
 62
     7
370
    25
100
AcDbLine
 10
7184.6061618251
 20
4842.2845010274
 30
0.0
 11
7185.3739546781
 21
4837.3303662179
 31
0.0
  0
ARC
  5
EF
330
1F
100
AcDbEntity
  8
0
  6
SLD-Plná
 62
     7
370
    25
100
AcDbCircle
 10
7188.5981451311
 20
4814.0818612332
 30
0.0
 40
23.47101165475155
100
AcDbArc
 50
82.7867910104
 51
97.895632676
  0
LINE
  5
F0
330
1F
100
AcDbEntity
  8
0
  6
SLD-Plná
 62
     7
370
    25
100
AcDbLine
 10
7191.5876296983
 20
4838.0458143397
 30
0.0
 11
7190.9144043739
 21
4842.3897581535
 31
0.0
  0
LINE
  5
F1
330
1F
100
AcDbEntity
  8
0
  6
SLD-Plná
 62
     7
370
    25
100
AcDbLine
 10
7191.3684232415
 20
4842.2945066596
 30
0.0
 11
7191.7138643943
 21
4840.0655694755
 31
0.0
  0
LINE
  5
F2
330
1F
100
AcDbEntity
  8
0
  6
SLD-Plná
 62
     7
370
    25
100
AcDbLine
 10
7504.2702592236
 20
4632.9935782506
 30
0.0
 11
7157.2702592236
 21
4632.9935782506
 31
0.0
  0
ARC
  5
F3
330
1F
100
AcDbEntity
  8
0
  6
SLD-Plná
 62
     7
370
    25
100
AcDbCircle
 10
7157.2702592236
 20
4634.4935782506
 30
0.0
 40
1.5
100
AcDbArc
 50
180.0
 51
270.0
  0
LINE
  5
F4
330
1F
100
AcDbEntity
  8
0
  6
SLD-Plná
 62
     7
370
    25
100
AcDbLine
 10
7155.7702592236
 20
4634.4935782506
 30
0.0
 11
7505.7702592236
 21
4634.4935782506
 31
0.0
  0
ARC
  5
F5
330
1F
100
AcDbEntity
  8
0
  6
SLD-Plná
 62
     7
370
    25
100
AcDbCircle
 10
7504.2702592236
 20
4634.4935782506
 30
0.0
 40
1.5
100
AcDbArc
 50
270.0
 51
0.0
  0
LINE
  5
F6
330
1F
100
AcDbEntity
  8
0
  6
SLD-Plná
 62
     7
370
    25
100
AcDbLine
 10
7505.7702592236
 20
4791.4935782506
 30
0.0
 11
7155.7702592236
 21
4791.4935782506
 31
0.0
  0
ARC
  5
F7
330
1F
100
AcDbEntity
  8
0
  6
SLD-Plná
 62
     7
370
    25
100
AcDbCircle
 10
7157.2702592236
 20
4791.4935782506
 30
0.0
 40
1.5
100
AcDbArc
 50
90.0
 51
180.0
  0
LINE
  5
F8
330
1F
100
AcDbEntity
  8
0
  6
SLD-Plná
 62
     7
370
    25
100
AcDbLine
 10
7157.2702592236
 20
4792.9935782506
 30
0.0
 11
7504.2702592236
 21
4792.9935782506
 31
0.0
  0
ARC
  5
F9
330
1F
100
AcDbEntity
  8
0
  6
SLD-Plná
 62
     7
370
    25
100
AcDbCircle
 10
7504.2702592236
 20
4791.4935782506
 30
0.0
 40
1.5
100
AcDbArc
 50
0.0
 51
90.0
  0
LINE
  5
FA
330
1F
100
AcDbEntity
  8
0
  6
SLD-Plná
 62
     7
370
    25
100
AcDbLine
 10
7155.7702592236
 20
4791.4935782506
 30
0.0
 11
7155.7702592236
 21
4634.4935782506
 31
0.0
  0
LINE
  5
FB
330
1F
100
AcDbEntity
  8
0
  6
SLD-Plná
 62
     7
370
    25
100
AcDbLine
 10
7505.7702592236
 20
4791.4935782506
 30
0.0
 11
7505.7702592236
 21
4634.4935782506
 31
0.0
  0
LINE
  5
FC
330
1F
100
AcDbEntity
  8
0
  6
SLD-Plná
 62
     7
370
    25
100
AcDbLine
 10
7157.3702592236
 20
4794.4935782506
 30
0.0
 11
7157.3702592236
 21
4792.9935782506
 31
0.0
  0
LINE
  5
FD
330
1F
100
AcDbEntity
  8
0
  6
SLD-Plná
 62
     7
370
    25
100
AcDbLine
 10
7504.1702592236
 20
4794.4935782506
 30
0.0
 11
7504.1702592236
 21
4792.9935782506
 31
0.0
  0
LINE
  5
FE
330
1F
100
AcDbEntity
  8
0
  6
SLD-Plná
 62
     7
370
    25
100
AcDbLine
 10
7505.7702592236
 20
4835.4405426865
 30
0.0
 11
7206.3064296655
 21
4835.4405426865
 31
0.0
  0
LINE
  5
FF
330
1F
100
AcDbEntity
  8
0
  6
SLD-Plná
 62
     7
370
    25
100
AcDbLine
 10
7171.4736451573
 20
4835.4405426865
 30
0.0
 11
7155.7702592236
 21
4835.4405426865
 31
0.0
  0
LINE
  5
100
330
1F
100
AcDbEntity
  8
0
  6
SLD-Plná
 62
     7
370
    25
100
AcDbLine
 10
7505.7702592236
 20
4833.9435782506
 30
0.0
 11
7505.7702592236
 21
4835.4405426865
 31
0.0
  0
LINE
  5
101
330
1F
100
AcDbEntity
  8
0
  6
SLD-Plná
 62
     7
370
    25
100
AcDbLine
 10
7155.7702592236
 20
4833.9435782506
 30
0.0
 11
7155.7702592236
 21
4835.4405426865
 31
0.0
  0
LINE
  5
102
330
1F
100
AcDbEntity
  8
0
  6
SLD-Plná
 62
     7
370
    25
100
AcDbLine
 10
7505.7702592236
 20
4792.9935782506
 30
0.0
 11
7505.7702592236
 21
4833.9435782506
 31
0.0
  0
LINE
  5
103
330
1F
100
AcDbEntity
  8
0
  6
SLD-Plná
 62
     7
370
    25
100
AcDbLine
 10
7505.7702592236
 20
4792.9935782506
 30
0.0
 11
7504.2702592236
 21
4792.9935782506
 31
0.0
  0
LINE
  5
104
330
1F
100
AcDbEntity
  8
0
  6
SLD-Plná
 62
     7
370
    25
100
AcDbLine
 10
7157.2702592236
 20
4792.9935782506
 30
0.0
 11
7155.7702592236
 21
4792.9935782506
 31
0.0
  0
LINE
  5
105
330
1F
100
AcDbEntity
  8
0
  6
SLD-Plná
 62
     7
370
    25
100
AcDbLine
 10
7155.7702592236
 20
4792.9935782506
 30
0.0
 11
7155.7702592236
 21
4833.9435782506
 31
0.0
  0
LWPOLYLINE
  5
106
330
1F
100
AcDbEntity
  8
0
  6
SLD-Plná
 62
     8
370
    25
100
AcDbPolyline
 90
       14
 70
   128
 43
0.0
 10
7240.9219690439
 20
5036.2586547614
 10
7240.9114242905
 20
5036.3422137988
 10
7241.0925004764
 20
5036.7335738586
 10
7241.6193168433
 20
5037.1849531492
 10
7242.4528018313
 20
5037.6628749336
 10
7243.5311396717
 20
5038.1318939395
 10
7244.7743549799
 20
5038.5572251727
 10
7246.090244164
 20
5038.9073237615
 10
7247.3812137429
 20
5039.1562244951
 10
7248.5515184087
 20
5039.2854675448
 10
7249.5143620182
 20
5039.2854675448
 10
7250.1983348655
 20
5039.1562244951
 10
7250.5527098136
 20
5038.9073237615
 10
7250.5865186831
 20
5038.8270161595
  0
LINE
  5
107
330
1F
100
AcDbEntity
  8
0
  6
SLD-Plná
 62
     8
370
    25
100
AcDbLine
 10
7202.4011488487
 20
5025.4935782506
 30
0.0
 11
7193.8656154039
 21
5025.4935782506
 31
0.0
  0
LINE
  5
108
330
1F
100
AcDbEntity
  8
0
  6
SLD-Plná
 62
     8
370
    25
100
AcDbLine
 10
7203.8656122217
 20
5025.4935782506
 30
0.0
 11
7202.4011488487
 21
5025.4935782506
 31
0.0
  0
SPLINE
  5
109
330
1F
100
AcDbEntity
  8
0
  6
SLD-Plná
 62
     8
370
    25
100
AcDbSpline
210
0.0
220
0.0
230
1.0
 70
     8
 71
     3
 72
    15
 73
    11
 74
     0
 42
0.00000001
 43
0.00000001
 40
0.0
 40
0.0
 40
0.0
 40
0.0
 40
0.054352415724004
 40
0.2116658214187657
 40
0.3689450042928519
 40
0.526133165684004
 40
0.6831488641597188
 40
0.8415271614455924
 40
0.8979048691775197
 40
1.0
 40
1.0
 40
1.0
 40
1.0
 10
7207.136517321897
 20
4829.984671208449
 30
0.0
 10
7207.164125524076
 20
4829.984694630882
 30
0.0
 10
7207.271640759857
 20
4829.984785845381
 30
0.0
 10
7206.524498616937
 20
4829.984254966379
 30
0.0
 10
7204.974726422731
 20
4829.984021394454
 30
0.0
 10
7202.720518099256
 20
4829.9843110773
 30
0.0
 10
7200.085436701167
 20
4829.984796616951
 30
0.0
 10
7197.932223654003
 20
4829.984827133022
 30
0.0
 10
7196.198870952482
 20
4829.984066834729
 30
0.0
 10
7195.410458576372
 20
4829.983643527449
 30
0.0
 10
7194.90252885532
 20
4829.983370814393
 30
0.0
  0
LWPOLYLINE
  5
10A
330
1F
100
AcDbEntity
  8
0
  6
SLD-Plná
 62
     8
370
    25
100
AcDbPolyline
 90
       16
 70
   128
 43
0.0
 10
7188.9097603622
 20
4851.2682240516
 10
7187.274277781
 20
4851.2302646809
 10
7185.4384764631
 20
4851.1174220014
 10
7183.4524322829
 20
4850.9327740672
 10
7181.3703193484
 20
4850.6813575928
 10
7179.2489322728
 20
4850.370030564
 10
7177.1461369654
 20
4850.0072851707
 10
7175.1192922007
 20
4849.6030161616
 10
7173.2236850203
 20
4849.1682509414
 10
7171.5110226466
 20
4848.714848772
 10
7170.0280220445
 20
4848.2551772826
 10
7168.8151356045
 20
4847.8017751132
 10
7167.9054477071
 20
4847.3670098931
 10
7167.3237722666
 20
4846.962740884
 10
7167.0859758728
 20
4846.5999954907
 10
7167.0838791788
 20
4846.494038891
  0
LWPOLYLINE
  5
10B
330
1F
100
AcDbEntity
  8
0
  6
SLD-Plná
 62
     8
370
    25
100
AcDbPolyline
 90
        6
 70
   128
 43
0.0
 10
7192.777148491
 20
4850.4759871637
 10
7192.6624826785
 20
4850.6813575928
 10
7192.2026186396
 20
4850.9327740672
 10
7191.4080035727
 20
4851.1174220014
 10
7190.3003125052
 20
4851.2302646809
 10
7188.9097603622
 20
4851.2682240516
  0
LINE
  5
10C
330
1F
100
AcDbEntity
  8
0
  6
SLD-Plná
 62
     8
370
    25
100
AcDbLine
 10
7157.3702592236
 20
4794.4935782506
 30
0.0
 11
7174.8306547576
 21
4794.4935782506
 31
0.0
  0
LINE
  5
10D
330
1F
100
AcDbEntity
  8
0
  6
SLD-Plná
 62
     8
370
    25
100
AcDbLine
 10
7208.2387258372
 20
4794.4935782506
 30
0.0
 11
7451.9424328219
 21
4794.4935782506
 31
0.0
  0
LINE
  5
10E
330
1F
100
AcDbEntity
  8
0
  6
SLD-Plná
 62
     8
370
    25
100
AcDbLine
 10
7484.1902032334
 20
4794.4935782506
 30
0.0
 11
7504.1702592236
 21
4794.4935782506
 31
0.0
  0
LINE
  5
10F
330
1F
100
AcDbEntity
  8
0
  6
SLD-Plná
 62
     8
370
    25
100
AcDbLine
 10
7505.7702592236
 20
4833.9435782506
 30
0.0
 11
7479.2714981848
 21
4833.9435782506
 31
0.0
  0
LINE
  5
110
330
1F
100
AcDbEntity
  8
0
  6
SLD-Plná
 62
     8
370
    25
100
AcDbLine
 10
7459.8935531824
 20
4833.9435782506
 30
0.0
 11
7206.3999899427
 21
4833.9435782506
 31
0.0
  0
LINE
  5
111
330
1F
100
AcDbEntity
  8
0
  6
SLD-Plná
 62
     8
370
    25
100
AcDbLine
 10
7171.6802381872
 20
4833.9435782506
 30
0.0
 11
7155.7702592236
 21
4833.9435782506
 31
0.0
  0
LINE
  5
112
330
1F
100
AcDbEntity
  8
0
  6
SLD-Plná
 62
     7
370
    25
100
AcDbLine
 10
7456.8149505305
 20
4382.3799489359
 30
0.0
 11
7452.4107523305
 21
4377.9757507359
 31
0.0
  0
LINE
  5
113
330
1F
100
AcDbEntity
  8
0
  6
SLD-Plná
 62
     7
370
    25
100
AcDbLine
 10
7475.0381693285
 20
4355.3483337379
 30
0.0
 11
7479.4423675285
 21
4359.7525319379
 31
0.0
  0
LINE
  5
114
330
1F
100
AcDbEntity
  8
0
  6
SLD-Plná
 62
     7
370
    25
100
AcDbLine
 10
7195.3300810368
 20
4362.0769510059
 30
0.0
 11
7242.2187099576
 21
4315.1883220851
 31
0.0
  0
LINE
  5
115
330
1F
100
AcDbEntity
  8
0
  6
SLD-Plná
 62
     7
370
    25
100
AcDbLine
 10
7249.2897777694
 20
4322.259389897
 30
0.0
 11
7202.4011488487
 21
4369.1480188178
 31
0.0
  0
LINE
  5
116
330
1F
100
AcDbEntity
  8
0
  6
SLD-Plná
 62
     7
370
    25
100
AcDbLine
 10
7254.0199438753
 20
4317.5292237912
 30
0.0
 11
7249.2897777694
 21
4322.259389897
 31
0.0
  0
LINE
  5
117
330
1F
100
AcDbEntity
  8
0
  6
SLD-Plná
 62
     7
370
    25
100
AcDbLine
 10
7242.2187099576
 20
4315.1883220851
 30
0.0
 11
7246.9488760634
 21
4310.4581559793
 31
0.0
  0
LINE
  5
118
330
1F
100
AcDbEntity
  8
0
  6
SLD-Plná
 62
     7
370
    25
100
AcDbLine
 10
7190.409929805
 20
4392.4529463604
 30
0.0
 11
7189.1229019903
 21
4393.7399741751
 31
0.0
  0
LINE
  5
119
330
1F
100
AcDbEntity
  8
0
  6
SLD-Plná
 62
     7
370
    25
100
AcDbLine
 10
7170.7381256795
 20
4375.3551978642
 30
0.0
 11
7172.0251534942
 21
4374.0681700495
 31
0.0
  0
LINE
  5
11A
330
1F
100
AcDbEntity
  8
0
  6
SLD-Plná
 62
     7
370
    25
100
AcDbLine
 10
7172.8666595489
 20
4372.7902619933
 30
0.0
 11
7178.9650186793
 21
4366.6919028629
 31
0.0
  0
LINE
  5
11B
330
1F
100
AcDbEntity
  8
0
  6
SLD-Plná
 62
     7
370
    25
100
AcDbLine
 10
7197.786192838
 20
4385.513085329
 30
0.0
 11
7191.6878378612
 21
4391.6114403057
 31
0.0
  0
LINE
  5
11C
330
1F
100
AcDbEntity
  8
0
  6
SLD-Plná
 62
     7
370
    25
100
AcDbLine
 10
7505.7702592236
 20
4436.0170792335
 30
0.0
 11
7155.7702592236
 21
4436.0170792335
 31
0.0
  0
ARC
  5
11D
330
1F
100
AcDbEntity
  8
0
  6
SLD-Plná
 62
     7
370
    25
100
AcDbCircle
 10
7468.3031912196
 20
4371.2407726269
 30
0.0
 40
16.00000000000123
100
AcDbArc
 50
314.5612087049
 51
135.4389051063
  0
LINE
  5
11E
330
1F
100
AcDbEntity
  8
0
  6
SLD-Plná
 62
     7
370
    25
100
AcDbLine
 10
7463.0941553108
 20
4382.0350101182
 30
0.0
 11
7479.0974287108
 21
4366.0317367182
 31
0.0
  0
ELLIPSE
  5
11F
330
1F
100
AcDbEntity
  8
0
  6
SLD-Plná
 62
     7
370
    25
100
AcDbEllipse
 10
7459.4029675951
 20
4362.3405490025
 30
0.0
 11
16.53953534574703
 21
16.53953534574703
 31
0.0
210
0.0
220
0.0
230
1.0
 40
0.6840402867
 41
5.497582535349076
 42
7.068788079010159
  0
ELLIPSE
  5
120
330
1F
100
AcDbEntity
  8
0
  6
SLD-Plná
 62
     7
370
    25
100
AcDbEllipse
 10
7463.7244608295
 20
4366.6620422369
 30
0.0
 11
11.31370849898576
 21
-11.31370849898394
 31
0.0
210
0.0
220
0.0
230
1.0
 40
0.9216049851
 41
2.356399098625385
 42
7.068378862143891
  0
ELLIPSE
  5
121
330
1F
100
AcDbEntity
  8
0
  6
SLD-Plná
 62
     7
370
    25
100
AcDbEllipse
 10
7468.1286590295
 20
4371.0662404369
 30
0.0
 11
11.48824068898648
 21
11.48824068898648
 31
2.131628207280301E-14
210
-9.277435357547152E-16
220
-9.277435357547152E-16
230
1.0
 40
0.984807753
 41
4.712388980384704
 42
6.283185307179586
  0
ELLIPSE
  5
122
330
1F
100
AcDbEntity
  8
0
  6
SLD-Plná
 62
     7
370
    25
100
AcDbEllipse
 10
7468.1286590295
 20
4371.0662404369
 30
0.0
 11
11.48824068898648
 21
11.48824068898648
 31
2.131628207280301E-14
210
-9.277435357547152E-16
220
-9.277435357547152E-16
230
1.0
 40
0.984807753
 41
0.0
 42
1.570796326794936
  0
LWPOLYLINE
  5
123
330
1F
100
AcDbEntity
  8
0
  6
SLD-Plná
 62
     7
370
    25
100
AcDbPolyline
 90
       17
 70
   128
 43
0.0
 10
7465.2782538717
 20
4368.2158352791
 10
7464.9422779107
 20
4368.6916534683
 10
7464.7972934724
 20
4369.2348748798
 10
7464.8653731232
 20
4369.7627989779
 10
7465.1361523535
 20
4370.1950541044
 10
7465.56840748
 20
4370.4658333346
 10
7466.0963315781
 20
4370.5339129855
 10
7466.6395529896
 20
4370.3889285471
 10
7467.1153711788
 20
4370.0529525862
 10
7467.4513471398
 20
4369.5771343969
 10
7467.5963315781
 20
4369.0339129855
 10
7467.5282519273
 20
4368.5059888873
 10
7467.257472697
 20
4368.0737337608
 10
7466.8252175705
 20
4367.8029545306
 10
7466.2972934724
 20
4367.7348748798
 10
7465.7540720609
 20
4367.8798593181
 10
7465.2782538717
 20
4368.2158352791
  0
LWPOLYLINE
  5
124
330
1F
100
AcDbEntity
  8
0
  6
SLD-Plná
 62
     7
370
    25
100
AcDbPolyline
 90
       22
 70
   128
 43
0.0
 10
7471.1465599936
 20
4364.1846464643
 10
7470.2040425066
 20
4364.9095160382
 10
7469.1276239214
 20
4365.3523298564
 10
7468.0129487532
 20
4365.4737419679
 10
7466.9590607822
 20
4365.2629643737
 10
7466.0596025796
 20
4364.7387255881
 10
7465.394494954
 20
4363.9476065277
 10
7465.0228356366
 20
4362.9599015929
 10
7464.9776481888
 20
4361.8633727016
 10
7465.2629477136
 20
4360.7554512577
 10
7465.8533840962
 20
4359.7345809437
 10
7466.696494473
 20
4358.891470567
 10
7467.717364787
 20
4358.3010341843
 10
7468.8252862308
 20
4358.0157346595
 10
7469.9218151222
 20
4358.0609221074
 10
7470.909520057
 20
4358.4325814248
 10
7471.7006391173
 20
4359.0976890504
 10
7472.224877903
 20
4359.997147253
 10
7472.4356554972
 20
4361.0510352239
 10
7472.3142433857
 20
4362.1657103922
 10
7471.8714295675
 20
4363.2421289773
 10
7471.1465599936
 20
4364.1846464643
  0
LWPOLYLINE
  5
125
330
1F
100
AcDbEntity
  8
0
  6
SLD-Plná
 62
     7
370
    25
100
AcDbPolyline
 90
       22
 70
   128
 43
0.0
 10
7461.2668741598
 20
4374.0643322981
 10
7460.3243566728
 20
4374.789201872
 10
7459.2479380877
 20
4375.2320156902
 10
7458.1332629194
 20
4375.3534278017
 10
7457.0793749485
 20
4375.1426502075
 10
7456.1799167459
 20
4374.6184114218
 10
7455.5148091203
 20
4373.8272923615
 10
7455.1431498029
 20
4372.8395874267
 10
7455.097962355
 20
4371.7430585353
 10
7455.3832618798
 20
4370.6351370915
 10
7455.9736982625
 20
4369.6142667775
 10
7456.8168086392
 20
4368.7711564007
 10
7457.8376789532
 20
4368.1807200181
 10
7458.9456003971
 20
4367.8954204933
 10
7460.0421292884
 20
4367.9406079411
 10
7461.0298342232
 20
4368.3122672585
 10
7461.8209532836
 20
4368.9773748841
 10
7462.3451920692
 20
4369.8768330867
 10
7462.5559696634
 20
4370.9307210577
 10
7462.4345575519
 20
4372.0453962259
 10
7461.9917437337
 20
4373.1218148111
 10
7461.2668741598
 20
4374.0643322981
  0
LWPOLYLINE
  5
126
330
1F
100
AcDbEntity
  8
0
  6
SLD-Plná
 62
     7
370
    25
100
AcDbPolyline
 90
       17
 70
   128
 43
0.0
 10
7458.5421570791
 20
4361.4797384864
 10
7457.7491267637
 20
4362.0396984214
 10
7456.8437577446
 20
4362.2813391519
 10
7455.9638842477
 20
4362.1678730672
 10
7455.2434590369
 20
4361.7165743501
 10
7454.7921603198
 20
4360.9961491393
 10
7454.6786942351
 20
4360.1162756424
 10
7454.9203349656
 20
4359.2109066233
 10
7455.4802949006
 20
4358.4178763079
 10
7456.273325216
 20
4357.857916373
 10
7457.1786942351
 20
4357.6162756424
 10
7458.058567732
 20
4357.7297417271
 10
7458.7789929428
 20
4358.1810404442
 10
7459.2302916599
 20
4358.901465655
 10
7459.3437577446
 20
4359.7813391519
 10
7459.102117014
 20
4360.686708171
 10
7458.5421570791
 20
4361.4797384864
  0
LWPOLYLINE
  5
127
330
1F
100
AcDbEntity
  8
0
  6
SLD-Plná
 62
     7
370
    25
100
AcDbPolyline
 90
       22
 70
   128
 43
0.0
 10
7456.3678946747
 20
4369.1653528129
 10
7457.3104121616
 20
4368.440483239
 10
7458.3868307467
 20
4367.9976694207
 10
7459.5015059149
 20
4367.8762573092
 10
7460.5553938858
 20
4368.0870349032
 10
7461.4548520882
 20
4368.6112736887
 10
7462.1199597137
 20
4369.402392749
 10
7462.491619031
 20
4370.3900976837
 10
7462.5368064787
 20
4371.4866265749
 10
7462.2515069539
 20
4372.5945480187
 10
7461.6610705712
 20
4373.6154183327
 10
7460.8179601944
 20
4374.4585287094
 10
7459.7970898804
 20
4375.0489650921
 10
7458.6891684367
 20
4375.334264617
 10
7457.5926395454
 20
4375.2890771692
 10
7456.6049346107
 20
4374.917417852
 10
7455.8138155505
 20
4374.2523102264
 10
7455.289576765
 20
4373.352852024
 10
7455.0787991709
 20
4372.2989640531
 10
7455.2002112824
 20
4371.184288885
 10
7455.6430251007
 20
4370.1078702999
 10
7456.3678946747
 20
4369.1653528129
  0
LWPOLYLINE
  5
128
330
1F
100
AcDbEntity
  8
0
  6
SLD-Plná
 62
     7
370
    25
100
AcDbPolyline
 90
       22
 70
   128
 43
0.0
 10
7466.2475805084
 20
4359.2856669792
 10
7467.1900979954
 20
4358.5607974052
 10
7468.2665165805
 20
4358.1179835869
 10
7469.3811917486
 20
4357.9965714754
 10
7470.4350797195
 20
4358.2073490695
 10
7471.3345379219
 20
4358.731587855
 10
7471.9996455475
 20
4359.5227069152
 10
7472.3713048648
 20
4360.5104118499
 10
7472.4164923125
 20
4361.6069407412
 10
7472.1311927876
 20
4362.7148621849
 10
7471.5407564049
 20
4363.7357324989
 10
7470.6976460282
 20
4364.5788428757
 10
7469.6767757142
 20
4365.1692792584
 10
7468.5688542704
 20
4365.4545787832
 10
7467.4723253792
 20
4365.4093913355
 10
7466.4846204445
 20
4365.0377320182
 10
7465.6935013842
 20
4364.3726243927
 10
7465.1692625987
 20
4363.4731661903
 10
7464.9584850047
 20
4362.4192782194
 10
7465.0798971162
 20
4361.3046030512
 10
7465.5227109345
 20
4360.2281844661
 10
7466.2475805084
 20
4359.2856669792
  0
LWPOLYLINE
  5
129
330
1F
100
AcDbEntity
  8
0
  6
SLD-Plná
 62
     7
370
    25
100
AcDbPolyline
 90
       17
 70
   128
 43
0.0
 10
7467.1153711789
 20
4370.0529525862
 10
7467.4513471398
 20
4369.577134397
 10
7467.5963315781
 20
4369.0339129855
 10
7467.5282519273
 20
4368.5059888873
 10
7467.257472697
 20
4368.0737337608
 10
7466.8252175705
 20
4367.8029545306
 10
7466.2972934724
 20
4367.7348748797
 10
7465.7540720609
 20
4367.879859318
 10
7465.2782538717
 20
4368.215835279
 10
7464.9422779107
 20
4368.6916534683
 10
7464.7972934724
 20
4369.2348748797
 10
7464.8653731232
 20
4369.7627989779
 10
7465.1361523535
 20
4370.1950541044
 10
7465.56840748
 20
4370.4658333347
 10
7466.0963315781
 20
4370.5339129855
 10
7466.6395529896
 20
4370.3889285472
 10
7467.1153711789
 20
4370.0529525862
  0
ARC
  5
12A
330
1F
100
AcDbEntity
  8
0
  6
SLD-Plná
 62
     7
370
    25
100
AcDbCircle
 10
7198.8656149427
 20
4365.6124849118
 30
0.0
 40
5.000000000000201
100
AcDbArc
 50
45.0
 51
225.0
  0
ARC
  5
12B
330
1F
100
AcDbEntity
  8
0
  6
SLD-Plná
 62
     7
370
    25
100
AcDbCircle
 10
7250.3173673911
 20
4314.1607324635
 30
0.0
 40
5.005577533701053
100
AcDbArc
 50
227.7050292788
 51
42.2949707212
  0
ARC
  5
12C
330
1F
100
AcDbEntity
  8
0
  6
SLD-Plná
 62
     7
370
    25
100
AcDbCircle
 10
7198.8656149427
 20
4365.6124849118
 30
0.0
 40
7.000000000000539
100
AcDbArc
 50
225.0
 51
269.4153085972
  0
ARC
  5
12D
330
1F
100
AcDbEntity
  8
0
  6
SLD-Plná
 62
     7
370
    25
100
AcDbCircle
 10
7198.8656149427
 20
4365.6124849118
 30
0.0
 40
7.000000000000978
100
AcDbArc
 50
0.5846914028
 51
225.0
  0
ARC
  5
12E
330
1F
100
AcDbEntity
  8
0
  6
SLD-Plná
 62
     7
370
    25
100
AcDbCircle
 10
7198.8656149427
 20
4365.6124849118
 30
0.0
 40
7.750000000000303
100
AcDbArc
 50
225.0
 51
274.8222304599
  0
ARC
  5
12F
330
1F
100
AcDbEntity
  8
0
  6
SLD-Plná
 62
     7
370
    25
100
AcDbCircle
 10
7198.8656149427
 20
4365.6124849118
 30
0.0
 40
7.750000000000556
100
AcDbArc
 50
355.1777695401
 51
78.5848509237
  0
ARC
  5
130
330
1F
100
AcDbEntity
  8
0
  6
SLD-Plná
 62
     7
370
    25
100
AcDbCircle
 10
7198.8656149427
 20
4365.6124849118
 30
0.0
 40
7.750000000000022
100
AcDbArc
 50
191.3853422798
 51
225.0
  0
LINE
  5
131
330
1F
100
AcDbEntity
  8
0
  6
SLD-Plná
 62
     7
370
    25
100
AcDbLine
 10
7178.9650186785
 20
4366.6919028637
 30
0.0
 11
7185.5947819881
 21
4360.0621395542
 31
0.0
  0
LINE
  5
132
330
1F
100
AcDbEntity
  8
0
  6
SLD-Plná
 62
     7
370
    25
100
AcDbLine
 10
7204.4159603004
 20
4378.8833178665
 30
0.0
 11
7197.7861969908
 21
4385.5130811761
 31
0.0
  0
ARC
  5
133
330
1F
100
AcDbEntity
  8
0
  6
SLD-Plná
 62
     7
370
    25
100
AcDbCircle
 10
7195.0053711442
 20
4369.4727287103
 30
0.0
 40
13.30858281458023
100
AcDbArc
 50
225.0
 51
292.015289608
  0
ARC
  5
134
330
1F
100
AcDbEntity
  8
0
  6
SLD-Plná
 62
     7
370
    25
100
AcDbCircle
 10
7195.0053711442
 20
4369.4727287103
 30
0.0
 40
13.30858281457946
100
AcDbArc
 50
337.06742315
 51
45.0
  0
LWPOLYLINE
  5
135
330
1F
100
AcDbEntity
  8
0
  6
SLD-Plná
 62
     7
370
    25
100
AcDbPolyline
 90
       38
 70
   128
 43
0.0
 10
7188.3559055664
 20
4376.1221942881
 10
7186.7510045533
 20
4374.7636696941
 10
7184.9458972011
 20
4373.6906037983
 10
7182.9925131619
 20
4372.9338667528
 10
7180.947047738
 20
4372.5152285047
 10
7178.8683452453
 20
4372.446732514
 10
7176.8162061701
 20
4372.7303492859
 10
7174.8496668171
 20
4373.357919682
 10
7173.025300943
 20
4374.3113896448
 10
7171.3955922324
 20
4375.5633295794
 10
7170.0074244378
 20
4377.0777234533
 10
7168.9007326192
 20
4378.8110049119
 10
7168.1073542852
 20
4380.7133106035
 10
7167.650113486
 20
4382.7299146568
 10
7167.5421642068
 20
4384.8028030449
 10
7167.786611952
 20
4386.872342543
 10
7168.3764244049
 20
4388.8789962676
 10
7169.2946337352
 20
4390.7650364446
 10
7170.5148247322
 20
4392.4762051321
 10
7172.0018947225
 20
4393.9632751224
 10
7173.7130634099
 20
4395.1834661193
 10
7175.599103587
 20
4396.1016754496
 10
7177.6057573116
 20
4396.6914879026
 10
7179.6752968096
 20
4396.9359356477
 10
7181.7481851977
 20
4396.8279863686
 10
7183.7647892511
 20
4396.3707455694
 10
7185.6670949427
 20
4395.5773672354
 10
7187.4003764013
 20
4394.4706754167
 10
7188.9147702751
 20
4393.0825076221
 10
7190.1667102097
 20
4391.4527989116
 10
7191.1201801725
 20
4389.6284330375
 10
7191.7477505687
 20
4387.6618936845
 10
7192.0313673405
 20
4385.6097546092
 10
7191.9628713499
 20
4383.5310521166
 10
7191.5442331018
 20
4381.4855866927
 10
7190.7874960563
 20
4379.5322026535
 10
7189.7144301605
 20
4377.7270953013
 10
7188.3559055664
 20
4376.1221942881
  0
ARC
  5
136
330
1F
100
AcDbEntity
  8
0
  6
SLD-Plná
 62
     7
370
    25
100
AcDbCircle
 10
7179.7174772645
 20
4384.5386291966
 30
0.0
 40
12.84383766338737
100
AcDbArc
 50
225.6437568633
 51
315.7002670457
  0
ARC
  5
137
330
1F
100
AcDbEntity
  8
0
  6
SLD-Plná
 62
     7
370
    25
100
AcDbCircle
 10
7179.939470658
 20
4384.76062259
 30
0.0
 40
12.84383766338937
100
AcDbArc
 50
314.2997329543
 51
44.3562431367
  0
ARC
  5
138
330
1F
100
AcDbEntity
  8
0
  6
SLD-Plná
 62
     7
370
    25
100
AcDbCircle
 10
7181.0045050792
 20
4383.2516013819
 30
0.0
 40
12.84383766338738
100
AcDbArc
 50
225.6437568633
 51
315.7002670458
  0
ARC
  5
139
330
1F
100
AcDbEntity
  8
0
  6
SLD-Plná
 62
     7
370
    25
100
AcDbCircle
 10
7181.2264984727
 20
4383.4735947753
 30
0.0
 40
12.84383766338937
100
AcDbArc
 50
314.2997329543
 51
44.3562431367
  0
ARC
  5
13A
330
1F
100
AcDbEntity
  8
0
  6
SLD-Plná
 62
     7
370
    25
100
AcDbCircle
 10
7181.9574995496
 20
4382.5206003049
 30
0.0
 40
13.46396312436881
100
AcDbArc
 50
258.1449256631
 51
11.8550743369
  0
ARC
  5
13B
330
1F
100
AcDbEntity
  8
0
  6
SLD-Plná
 62
     7
370
    25
100
AcDbCircle
 10
7182.6734305718
 20
4382.5961791199
 30
0.0
 40
12.74798562761491
100
AcDbArc
 50
12.183677258
 51
57.6134845992
  0
ARC
  5
13C
330
1F
100
AcDbEntity
  8
0
  6
SLD-Plná
 62
     7
370
    25
100
AcDbCircle
 10
7181.8848925717
 20
4381.8088563826
 30
0.0
 40
12.75270577289352
100
AcDbArc
 50
212.1961895492
 51
257.8072417043
  0
SPLINE
  5
13D
330
1F
100
AcDbEntity
  8
0
  6
SLD-Plná
 62
     7
370
    25
100
AcDbSpline
210
0.0
220
0.0
230
1.0
 70
     8
 71
     3
 72
    11
 73
     7
 74
     0
 42
0.00000001
 43
0.00000001
 40
0.0
 40
0.0
 40
0.0
 40
0.0
 40
0.3003625479732404
 40
0.6070071708547338
 40
0.8011309396447021
 40
0.9999999999999999
 40
0.9999999999999999
 40
0.9999999999999999
 40
0.9999999999999999
 10
7179.19150507434
 20
4369.343818543943
 30
0.0
 10
7180.035782047184
 20
4368.735201965525
 30
0.0
 10
7181.741994023883
 20
4367.50523960872
 30
0.0
 10
7184.307622704864
 20
4365.806317070354
 30
0.0
 10
7186.702503715681
 20
4364.297140819022
 30
0.0
 10
7188.107100007323
 20
4363.450276367899
 30
0.0
 10
7188.817878230185
 20
4363.021731302561
 30
0.0
  0
SPLINE
  5
13E
330
1F
100
AcDbEntity
  8
0
  6
SLD-Plná
 62
     7
370
    25
100
AcDbSpline
210
0.0
220
0.0
230
1.0
 70
     8
 71
     3
 72
    11
 73
     7
 74
     0
 42
0.00000001
 43
0.00000001
 40
0.0
 40
0.0
 40
0.0
 40
0.0
 40
0.1965730280152231
 40
0.3987007351625337
 40
0.6955183985613144
 40
1.0
 40
1.0
 40
1.0
 40
1.0
 10
7201.456368552009
 20
4375.660221624385
 30
0.0
 10
7201.032802058296
 20
4376.362793105507
 30
0.0
 10
7200.173700104489
 20
4377.787789041397
 30
0.0
 10
7198.673098446838
 20
4380.168156905443
 30
0.0
 10
7196.970001689702
 20
4382.739522422226
 30
0.0
 10
7195.751365532236
 20
4384.430386949595
 30
0.0
 10
7195.134281310628
 20
4385.286594780231
 30
0.0
  0
SPLINE
  5
13F
330
1F
100
AcDbEntity
  8
0
  6
SLD-Plná
 62
     7
370
    25
100
AcDbSpline
210
0.0
220
0.0
230
1.0
 70
     8
 71
     3
 72
    12
 73
     8
 74
     0
 42
0.00000001
 43
0.00000001
 40
0.0
 40
0.0
 40
0.0
 40
0.0
 40
0.1900943724388595
 40
0.3854791070104254
 40
0.653235518939504
 40
0.9282871170579161
 40
1.0
 40
1.0
 40
1.0
 40
1.0
 10
7188.547937723629
 20
4362.601989630984
 30
0.0
 10
7187.868356118865
 20
4363.042874842097
 30
0.0
 10
7186.490280025481
 20
4363.93691518266
 30
0.0
 10
7184.258592373221
 20
4365.459445463272
 30
0.0
 10
7181.919898432951
 20
4367.14542413645
 30
0.0
 10
7180.168382637015
 20
4368.484718771124
 30
0.0
 10
7179.248498455154
 20
4369.208337972749
 30
0.0
 10
7179.058261131964
 20
4369.357986572692
 30
0.0
  0
SPLINE
  5
140
330
1F
100
AcDbEntity
  8
0
  6
SLD-Plná
 62
     7
370
    25
100
AcDbSpline
210
0.0
220
0.0
230
1.0
 70
     8
 71
     3
 72
    12
 73
     8
 74
     0
 42
0.00000001
 43
0.00000001
 40
0.0
 40
0.0
 40
0.0
 40
0.0
 40
0.2427914550828742
 40
0.4880681846577983
 40
0.7019438068197649
 40
0.9577199628241756
 40
1.0
 40
1.0
 40
1.0
 40
1.0
 10
7179.058261131964
 20
4369.357986572692
 30
0.0
 10
7179.060026352486
 20
4369.359675543384
 30
0.0
 10
7179.063574862768
 20
4369.363070773494
 30
0.0
 10
7179.088116052667
 20
4369.362668835307
 30
0.0
 10
7179.129919164524
 20
4369.35655168527
 30
0.0
 10
7179.166662803144
 20
4369.349197452538
 30
0.0
 10
7179.188418914078
 20
4369.34448676682
 30
0.0
 10
7179.19150507434
 20
4369.343818543943
 30
0.0
  0
LINE
  5
141
330
1F
100
AcDbEntity
  8
0
  6
SLD-Plná
 62
     7
370
    25
100
AcDbLine
 10
7188.5479377236
 20
4362.601989631
 30
0.0
 11
7188.8178782302
 21
4363.0217313026
 31
0.0
  0
SPLINE
  5
142
330
1F
100
AcDbEntity
  8
0
  6
SLD-Plná
 62
     7
370
    25
100
AcDbSpline
210
0.0
220
0.0
230
1.0
 70
     8
 71
     3
 72
    12
 73
     8
 74
     0
 42
0.00000001
 43
0.00000001
 40
0.0
 40
0.0
 40
0.0
 40
0.0
 40
0.0717136050814575
 40
0.3400580287118615
 40
0.6145201036239849
 40
0.8048638788775236
 40
1.0
 40
1.0
 40
1.0
 40
1.0
 10
7195.120113281878
 20
4385.419838722606
 30
0.0
 10
7195.269763099293
 20
4385.229599910588
 30
0.0
 10
7195.979386075996
 20
4384.327508385201
 30
0.0
 10
7197.317425979094
 20
4382.578529049887
 30
0.0
 10
7198.991583512709
 20
4380.258256810601
 30
0.0
 10
7200.529214463914
 20
4378.005814782804
 30
0.0
 10
7201.423439256582
 20
4376.627757090563
 30
0.0
 10
7201.876110223585
 20
4375.930162130942
 30
0.0
  0
LINE
  5
143
330
1F
100
AcDbEntity
  8
0
  6
SLD-Plná
 62
     7
370
    25
100
AcDbLine
 10
7201.8761102236
 20
4375.9301621309
 30
0.0
 11
7201.456368552
 21
4375.6602216244
 31
0.0
  0
SPLINE
  5
144
330
1F
100
AcDbEntity
  8
0
  6
SLD-Plná
 62
     7
370
    25
100
AcDbSpline
210
0.0
220
0.0
230
1.0
 70
     8
 71
     3
 72
    12
 73
     8
 74
     0
 42
0.00000001
 43
0.00000001
 40
0.0
 40
0.0
 40
0.0
 40
0.0
 40
0.2332432267999994
 40
0.4687322585333416
 40
0.6766407870767067
 40
0.9387390538127394
 40
1.0
 40
1.0
 40
1.0
 40
1.0
 10
7195.134281310628
 20
4385.286594780231
 30
0.0
 10
7195.130684730977
 20
4385.303576036228
 30
0.0
 10
7195.12345694166
 20
4385.337702053886
 30
0.0
 10
7195.116532106016
 20
4385.380444632257
 30
0.0
 10
7195.114701823223
 20
4385.409411251457
 30
0.0
 10
7195.117161960139
 20
4385.418184025175
 30
0.0
 10
7195.11964320573
 20
4385.419575168218
 30
0.0
 10
7195.120113281878
 20
4385.419838722606
 30
0.0
  0
SPLINE
  5
145
330
1F
100
AcDbEntity
  8
0
  6
SLD-Plná
 62
     7
370
    25
100
AcDbSpline
210
0.0
220
0.0
230
1.0
 70
     8
 71
     3
 72
     9
 73
     5
 74
     0
 42
0.00000001
 43
0.00000001
 40
0.0
 40
0.0
 40
0.0
 40
0.0
 40
0.5200009629701166
 40
1.0
 40
1.0
 40
1.0
 40
1.0
 10
7205.952010740964
 20
4369.575570999016
 30
0.0
 10
7206.399252095144
 20
4368.72666281079
 30
0.0
 10
7207.259330029663
 20
4367.094150087397
 30
0.0
 10
7207.205787597511
 20
4365.252885576801
 30
0.0
 10
7207.180087281638
 20
4364.369080384798
 30
0.0
  0
SPLINE
  5
146
330
1F
100
AcDbEntity
  8
0
  6
SLD-Plná
 62
     7
370
    25
100
AcDbSpline
210
0.0
220
0.0
230
1.0
 70
     8
 71
     3
 72
    11
 73
     7
 74
     0
 42
0.00000001
 43
0.00000001
 40
0.0
 40
0.0
 40
0.0
 40
0.0
 40
0.0072836428039124
 40
0.5034937192601492
 40
0.6801289473406209
 40
1.0
 40
1.0
 40
1.0
 40
1.0
 10
7200.114377106112
 20
4357.292654936591
 30
0.0
 10
7200.101644357647
 20
4357.289065784164
 30
0.0
 10
7199.221472298963
 20
4357.040959753517
 30
0.0
 10
7197.927446317582
 20
4357.298060999624
 30
0.0
 10
7196.200257109934
 20
4357.787171085466
 30
0.0
 10
7195.411001697334
 20
4358.23656798441
 30
0.0
 10
7194.90252885532
 20
4358.526089113755
 30
0.0
  0
SPLINE
  5
147
330
1F
100
AcDbEntity
  8
0
  6
SLD-Plná
 62
     7
370
    25
100
AcDbSpline
210
0.0
220
0.0
230
1.0
 70
     8
 71
     3
 72
    10
 73
     6
 74
     0
 42
0.00000001
 43
0.00000001
 40
0.0
 40
0.0
 40
0.0
 40
0.0
 40
0.1324584258302932
 40
0.6622923738412412
 40
0.9999999999999999
 40
0.9999999999999999
 40
0.9999999999999999
 40
0.9999999999999999
 10
7201.876110223585
 20
4375.930162130942
 30
0.0
 10
7202.056452221387
 20
4375.649830576204
 30
0.0
 10
7202.95816254354
 20
4374.248172284664
 30
0.0
 10
7204.317835323046
 20
4372.130632282592
 30
0.0
 10
7205.494119127378
 20
4370.291492387332
 30
0.0
 10
7205.952010740964
 20
4369.575570999016
 30
0.0
  0
SPLINE
  5
148
330
1F
100
AcDbEntity
  8
0
  6
SLD-Plná
 62
     7
370
    25
100
AcDbSpline
210
0.0
220
0.0
230
1.0
 70
     8
 71
     3
 72
    19
 73
    15
 74
     0
 42
0.00000001
 43
0.00000001
 40
0.0
 40
0.0
 40
0.0
 40
0.0
 40
0.0102690536449125
 40
0.0409296505816995
 40
0.1635119560152287
 40
0.4083535453714948
 40
0.5321961060357343
 40
0.5945143775046343
 40
0.656673589593457
 40
0.6913535026641425
 40
0.7271543354592368
 40
0.8107933458168206
 40
0.8956199848361056
 40
1.0
 40
1.0
 40
1.0
 40
1.0
 10
7198.215148159586
 20
4385.052948220865
 30
0.0
 10
7198.234307658895
 20
4385.028568480606
 30
0.0
 10
7198.310672204174
 20
4384.931397476872
 30
0.0
 10
7198.314216922062
 20
4384.856781313505
 30
0.0
 10
7197.79218581922
 20
4385.276162954444
 30
0.0
 10
7196.840047838708
 20
4386.207104095296
 30
0.0
 10
7196.013702844047
 20
4387.007105956546
 30
0.0
 10
7195.602061890381
 20
4387.381849434642
 30
0.0
 10
7195.434853975301
 20
4387.467319156412
 30
0.0
 10
7195.429761572683
 20
4387.321855748674
 30
0.0
 10
7195.682851788019
 20
4386.654674250777
 30
0.0
 10
7195.690126656868
 20
4386.121466893936
 30
0.0
 10
7195.511004704294
 20
4385.632536119118
 30
0.0
 10
7195.259088435926
 20
4385.495459858684
 30
0.0
 10
7195.120113281878
 20
4385.419838722606
 30
0.0
  0
LINE
  5
149
330
1F
100
AcDbEntity
  8
0
  6
SLD-Plná
 62
     7
370
    25
100
AcDbLine
 10
7204.4159603037
 20
4378.8833178633
 30
0.0
 11
7197.7881435057
 21
4385.5111346612
 31
0.0
  0
SPLINE
  5
14A
330
1F
100
AcDbEntity
  8
0
  6
SLD-Plná
 62
     7
370
    25
100
AcDbSpline
210
0.0
220
0.0
230
1.0
 70
     8
 71
     3
 72
    14
 73
    10
 74
     0
 42
0.00000001
 43
0.00000001
 40
0.0
 40
0.0
 40
0.0
 40
0.0
 40
0.2492176845480468
 40
0.3895065799573927
 40
0.5338449804934
 40
0.6744869096385316
 40
0.8192157467245056
 40
0.959661423124337
 40
1.0
 40
1.0
 40
1.0
 40
1.0
 10
7185.594781991308
 20
4360.06213955092
 30
0.0
 10
7186.60029006683
 20
4359.211034983617
 30
0.0
 10
7188.171815828839
 20
4357.880829104377
 30
0.0
 10
7190.777822863857
 20
4356.792164818326
 30
0.0
 10
7192.950690939068
 20
4356.259279193752
 30
0.0
 10
7195.213329939811
 20
4356.098469679277
 30
0.0
 10
7197.437044745991
 20
4356.341668662955
 30
0.0
 10
7199.117539121573
 20
4356.737230223873
 30
0.0
 10
7199.970773727156
 20
4357.153085076034
 30
0.0
 10
7200.161156844638
 20
4357.245875198066
 30
0.0
  0
SPLINE
  5
14B
330
1F
100
AcDbEntity
  8
0
  6
SLD-Plná
 62
     7
370
    25
100
AcDbSpline
210
0.0
220
0.0
230
1.0
 70
     8
 71
     3
 72
    15
 73
    11
 74
     0
 42
0.00000001
 43
0.00000001
 40
0.0
 40
0.0
 40
0.0
 40
0.0
 40
0.0218341022643756
 40
0.1621649210132124
 40
0.3065715935562883
 40
0.4469050918514119
 40
0.5913142592239784
 40
0.7315795454496535
 40
0.8758866610499703
 40
1.0
 40
1.0
 40
1.0
 40
1.0
 10
7207.24305719372
 20
4364.306110472716
 30
0.0
 10
7207.294944615674
 20
4364.408411912846
 30
0.0
 10
7207.680319731216
 20
4365.168218968676
 30
0.0
 10
7208.074475759658
 20
4366.7497894404
 30
0.0
 10
7208.372828653035
 20
4368.964008597133
 30
0.0
 10
7208.260120181943
 20
4371.228065289953
 30
0.0
 10
7207.783275774685
 20
4373.419084295263
 30
0.0
 10
7206.929690876981
 20
4375.51259812373
 30
0.0
 10
7205.812961723419
 20
4377.362883927996
 30
0.0
 10
7204.857671345086
 20
4378.40257929888
 30
0.0
 10
7204.415960303651
 20
4378.883317863263
 30
0.0
  0
LINE
  5
14C
330
1F
100
AcDbEntity
  8
0
  6
SLD-Plná
 62
     7
370
    25
100
AcDbLine
 10
7178.9665965258
 20
4366.6903250164
 30
0.0
 11
7185.5947819913
 21
4360.0621395509
 31
0.0
  0
LINE
  5
14D
330
1F
100
AcDbEntity
  8
0
  6
SLD-Plná
 62
     7
370
    25
100
AcDbLine
 10
7179.4251516253
 20
4366.2629517017
 30
0.0
 11
7178.9650353947
 21
4366.6918861476
 31
0.0
  0
SPLINE
  5
14E
330
1F
100
AcDbEntity
  8
0
  6
SLD-Plná
 62
     7
370
    25
100
AcDbSpline
210
0.0
220
0.0
230
1.0
 70
     8
 71
     3
 72
    19
 73
    15
 74
     0
 42
0.00000001
 43
0.00000001
 40
0.0
 40
0.0
 40
0.0
 40
0.0
 40
0.1043803078942072
 40
0.1881904383078302
 40
0.2728454540968264
 40
0.3078217113500342
 40
0.3433244968867029
 40
0.404946856187664
 40
0.4667249034758885
 40
0.5916453085974568
 40
0.8364875850887439
 40
0.9590702345489268
 40
0.9897309175386502
 40
1.0
 40
1.0
 40
1.0
 40
1.0
 10
7179.058261131964
 20
4369.357986572692
 30
0.0
 10
7178.982696136509
 20
4369.218975236348
 30
0.0
 10
7178.846457703204
 20
4368.968347461397
 30
0.0
 10
7178.358446833751
 20
4368.788653538437
 30
0.0
 10
7177.830892877227
 20
4368.793111191782
 30
0.0
 10
7177.158824679746
 20
4369.047311662179
 30
0.0
 10
7177.010307768354
 20
4369.044521652286
 30
0.0
 10
7177.0953217466
 20
4368.877783695842
 30
0.0
 10
7177.467642932483
 20
4368.467711438813
 30
0.0
 10
7178.269212866777
 20
4367.639980705378
 30
0.0
 10
7179.201893002552
 20
4366.685941095079
 30
0.0
 10
7179.621320389703
 20
4366.163881790221
 30
0.0
 10
7179.546702323721
 20
4366.167427682283
 30
0.0
 10
7179.449531356397
 20
4366.243792207426
 30
0.0
 10
7179.425151625283
 20
4366.262951701676
 30
0.0
  0
SPLINE
  5
14F
330
1F
100
AcDbEntity
  8
0
  6
SLD-Plná
 62
     7
370
    25
100
AcDbSpline
210
0.0
220
0.0
230
1.0
 70
     8
 71
     3
 72
    10
 73
     6
 74
     0
 42
0.00000001
 43
0.00000001
 40
0.0
 40
0.0
 40
0.0
 40
0.0
 40
0.1324584287773581
 40
0.6622924464969028
 40
0.9999999999999999
 40
0.9999999999999999
 40
0.9999999999999999
 40
0.9999999999999999
 10
7194.90252885532
 20
4358.526089113755
 30
0.0
 10
7194.621683246937
 20
4358.705622114961
 30
0.0
 10
7193.217454563407
 20
4359.603287531144
 30
0.0
 10
7191.098939474863
 20
4360.961426585635
 30
0.0
 10
7189.262721532817
 20
4362.142308291213
 30
0.0
 10
7188.547937723629
 20
4362.601989630984
 30
0.0
  0
LINE
  5
150
330
1F
100
AcDbEntity
  8
0
  6
SLD-Plná
 62
     7
370
    25
100
AcDbLine
 10
7505.7702592236
 20
4434.6124599322
 30
0.0
 11
7155.7702592236
 21
4434.6124599322
 31
0.0
  0
LINE
  5
151
330
1F
100
AcDbEntity
  8
0
  6
SLD-Plná
 62
     7
370
    25
100
AcDbLine
 10
7505.7702592236
 20
4433.207840631
 30
0.0
 11
7155.7702592236
 21
4433.207840631
 31
0.0
  0
LINE
  5
152
330
1F
100
AcDbEntity
  8
0
  6
SLD-Plná
 62
     7
370
    25
100
AcDbLine
 10
7155.7702592236
 20
4433.207840631
 30
0.0
 11
7155.7702592236
 21
4434.6124599322
 31
0.0
  0
LINE
  5
153
330
1F
100
AcDbEntity
  8
0
  6
SLD-Plná
 62
     7
370
    25
100
AcDbLine
 10
7505.7702592236
 20
4433.207840631
 30
0.0
 11
7505.7702592236
 21
4434.6124599322
 31
0.0
  0
LINE
  5
154
330
1F
100
AcDbEntity
  8
0
  6
SLD-Plná
 62
     7
370
    25
100
AcDbLine
 10
7155.7702592236
 20
4434.6124599322
 30
0.0
 11
7155.7702592236
 21
4436.0170792335
 31
0.0
  0
LINE
  5
155
330
1F
100
AcDbEntity
  8
0
  6
SLD-Plná
 62
     7
370
    25
100
AcDbLine
 10
7505.7702592236
 20
4434.6124599322
 30
0.0
 11
7505.7702592236
 21
4436.0170792335
 31
0.0
  0
LINE
  5
156
330
1F
100
AcDbEntity
  8
0
  6
SLD-Plná
 62
     7
370
    25
100
AcDbLine
 10
7504.1702592236
 20
4433.207840631
 30
0.0
 11
7504.1702592236
 21
4431.707840631
 31
0.0
  0
LINE
  5
157
330
1F
100
AcDbEntity
  8
0
  6
SLD-Plná
 62
     7
370
    25
100
AcDbLine
 10
7504.1702592236
 20
4431.707840631
 30
0.0
 11
7157.3702592236
 21
4431.707840631
 31
0.0
  0
LINE
  5
158
330
1F
100
AcDbEntity
  8
0
  6
SLD-Plná
 62
     7
370
    25
100
AcDbLine
 10
7157.3702592236
 20
4433.207840631
 30
0.0
 11
7157.3702592236
 21
4431.707840631
 31
0.0
  0
LINE
  5
159
330
1F
100
AcDbEntity
  8
0
  6
SLD-Plná
 62
     7
370
    25
100
AcDbLine
 10
7505.7702592236
 20
4432.707840631
 30
0.0
 11
7505.7702592236
 21
4262.207840631
 31
0.0
  0
LINE
  5
15A
330
1F
100
AcDbEntity
  8
0
  6
SLD-Plná
 62
     7
370
    25
100
AcDbLine
 10
7505.7702592236
 20
4262.207840631
 30
0.0
 11
7504.2702592236
 21
4262.207840631
 31
0.0
  0
LINE
  5
15B
330
1F
100
AcDbEntity
  8
0
  6
SLD-Plná
 62
     7
370
    25
100
AcDbLine
 10
7504.2702592236
 20
4262.207840631
 30
0.0
 11
7504.2702592236
 21
4433.207840631
 31
0.0
  0
ARC
  5
15C
330
1F
100
AcDbEntity
  8
0
  6
SLD-Plná
 62
     7
370
    25
100
AcDbCircle
 10
7504.2702592236
 20
4432.707840631
 30
0.0
 40
1.500000000000528
100
AcDbArc
 50
0.0
 51
19.4712206345
  0
LINE
  5
15D
330
1F
100
AcDbEntity
  8
0
  6
SLD-Plná
 62
     7
370
    25
100
AcDbLine
 10
7157.2702592236
 20
4433.207840631
 30
0.0
 11
7157.2702592236
 21
4262.207840631
 31
0.0
  0
LINE
  5
15E
330
1F
100
AcDbEntity
  8
0
  6
SLD-Plná
 62
     7
370
    25
100
AcDbLine
 10
7155.7702592236
 20
4262.207840631
 30
0.0
 11
7157.2702592236
 21
4262.207840631
 31
0.0
  0
LINE
  5
15F
330
1F
100
AcDbEntity
  8
0
  6
SLD-Plná
 62
     7
370
    25
100
AcDbLine
 10
7155.7702592236
 20
4262.207840631
 30
0.0
 11
7155.7702592236
 21
4432.707840631
 31
0.0
  0
ARC
  5
160
330
1F
100
AcDbEntity
  8
0
  6
SLD-Plná
 62
     7
370
    25
100
AcDbCircle
 10
7157.2702592236
 20
4432.707840631
 30
0.0
 40
1.500000000000528
100
AcDbArc
 50
160.5287793655
 51
180.0
  0
ARC
  5
161
330
1F
100
AcDbEntity
  8
0
  6
SLD-Plná
 62
     7
370
    25
100
AcDbCircle
 10
7330.7702592236
 20
4262.207840631
 30
0.0
 40
173.5
100
AcDbArc
 50
180.0
 51
0.0
  0
ARC
  5
162
330
1F
100
AcDbEntity
  8
0
  6
SLD-Plná
 62
     7
370
    25
100
AcDbCircle
 10
7330.7702592236
 20
4262.207840631
 30
0.0
 40
175.0
100
AcDbArc
 50
180.0
 51
0.0
  0
LINE
  5
163
330
1F
100
AcDbEntity
  8
0
  6
SLD-Plná
 62
     7
370
    25
100
AcDbLine
 10
7330.7702592236
 20
4257.607840631
 30
0.0
 11
7329.8702592236
 21
4257.6967432035
 31
0.0
  0
LWPOLYLINE
  5
164
330
1F
100
AcDbEntity
  8
0
  6
SLD-Plná
 62
     7
370
    25
100
AcDbPolyline
 90
        3
 70
   128
 43
0.0
 10
7329.8702592236
 20
4266.7189380584
 10
7330.7702592236
 20
4266.807840631
 10
7331.6702592236
 20
4266.7189380584
  0
LINE
  5
165
330
1F
100
AcDbEntity
  8
0
  6
SLD-Plná
 62
     7
370
    25
100
AcDbLine
 10
7331.6702592236
 20
4257.6967432035
 30
0.0
 11
7330.7702592236
 21
4257.607840631
 31
0.0
  0
SPLINE
  5
166
330
1F
100
AcDbEntity
  8
0
  6
SLD-Plná
 62
     7
370
    25
100
AcDbSpline
210
0.0
220
0.0
230
1.0
 70
    11
 71
     3
 72
    26
 73
    22
 74
     0
 42
0.00000001
 43
0.00000001
 40
0.0
 40
0.0
 40
0.0
 40
0.0
 40
0.0535696648473168
 40
0.1071378406030171
 40
0.1607490568822182
 40
0.2144510879161824
 40
0.2682383244952474
 40
0.322067825039566
 40
0.3758778495404022
 40
0.4296150357974612
 40
0.4832581064467983
 40
0.5368272487212504
 40
0.590375014611726
 40
0.6439631391414812
 40
0.6976356399715665
 40
0.7513996980887651
 40
0.8052224135027505
 40
0.8590450361222264
 40
0.912808774186767
 40
0.9664807974787982
 40
1.0
 40
1.0
 40
1.0
 40
1.0
 10
7340.033358057997
 20
4252.944741798269
 30
0.0
 10
7340.390902169059
 20
4253.238339249595
 30
0.0
 10
7341.105980452423
 20
4253.825525991032
 30
0.0
 10
7342.471117646695
 20
4254.193884166132
 30
0.0
 10
7343.864989744141
 20
4254.119397233639
 30
0.0
 10
7345.161350387168
 20
4253.579959381059
 30
0.0
 10
7346.206030998789
 20
4252.642827159403
 30
0.0
 10
7346.882013591191
 20
4251.410841285096
 30
0.0
 10
7347.111207134442
 20
4250.024286612152
 30
0.0
 10
7346.867926225027
 20
4248.640874414266
 30
0.0
 10
7346.180868080376
 20
4247.417431728914
 30
0.0
 10
7345.128887963089
 20
4246.491201810295
 30
0.0
 10
7343.830741040949
 20
4245.965077303708
 30
0.0
 10
7342.431559256102
 20
4245.897441297879
 30
0.0
 10
7341.087676974837
 20
4246.296415738592
 30
0.0
 10
7339.950183693252
 20
4247.11865016831
 30
0.0
 10
7339.148834542024
 20
4248.272031295397
 30
0.0
 10
7338.773958748278
 20
4249.62794062376
 30
0.0
 10
7338.873923124557
 20
4251.025374730928
 30
0.0
 10
7339.348006002194
 20
4252.167792355547
 30
0.0
 10
7339.84304762108
 20
4252.72899634795
 30
0.0
 10
7340.033358057997
 20
4252.944741798269
 30
0.0
  0
SPLINE
  5
167
330
1F
100
AcDbEntity
  8
0
  6
SLD-Plná
 62
     7
370
    25
100
AcDbSpline
210
0.0
220
0.0
230
1.0
 70
    11
 71
     3
 72
    26
 73
    22
 74
     0
 42
0.00000001
 43
0.00000001
 40
0.0
 40
0.0
 40
0.0
 40
0.0
 40
0.0537588930341594
 40
0.1075154333757186
 40
0.1613243347945579
 40
0.2151542017337996
 40
0.268943066120431
 40
0.3226469021010954
 40
0.3762591774803682
 40
0.4298136325100956
 40
0.4833692252187516
 40
0.5369842572237906
 40
0.5906910324809589
 40
0.6444817868912962
 40
0.6983119184869697
 40
0.7521194097438855
 40
0.8058521674356502
 40
0.8594910546919398
 40
0.9130581702041403
 40
0.9666068712870959
 40
1.0
 40
1.0
 40
1.0
 40
1.0
 10
7345.09467036629
 20
4265.130337632449
 30
0.0
 10
7345.455539600943
 20
4265.421654106734
 30
0.0
 10
7346.177262277245
 20
4266.004274306193
 30
0.0
 10
7347.548956442836
 20
4266.360745906961
 30
0.0
 10
7348.945417110401
 20
4266.272061190846
 30
0.0
 10
7350.238575375643
 20
4265.717322270509
 30
0.0
 10
7351.273371997484
 20
4264.767352575674
 30
0.0
 10
7351.93463248902
 20
4263.528495291797
 30
0.0
 10
7352.148097126998
 20
4262.142283402326
 30
0.0
 10
7351.891391943035
 20
4260.76479269049
 30
0.0
 10
7351.194186196887
 20
4259.550030763441
 30
0.0
 10
7350.134372035955
 20
4258.633584815035
 30
0.0
 10
7348.82990303267
 20
4258.118670083183
 30
0.0
 10
7347.426936802252
 20
4258.064589216189
 30
0.0
 10
7346.084247238727
 20
4258.478832630944
 30
0.0
 10
7344.95462045897
 20
4259.315098790364
 30
0.0
 10
7344.166844505712
 20
4260.477481732301
 30
0.0
 10
7343.807832382461
 20
4261.835240224438
 30
0.0
 10
7343.922095625532
 20
4263.22820436857
 30
0.0
 10
7344.405552726906
 20
4264.362206189315
 30
0.0
 10
7344.90343920358
 20
4264.9171800225
 30
0.0
 10
7345.09467036629
 20
4265.130337632449
 30
0.0
  0
SPLINE
  5
168
330
1F
100
AcDbEntity
  8
0
  6
SLD-Plná
 62
     7
370
    25
100
AcDbSpline
210
0.0
220
0.0
230
1.0
 70
    11
 71
     3
 72
    26
 73
    22
 74
     0
 42
0.00000001
 43
0.00000001
 40
0.0
 40
0.0
 40
0.0
 40
0.0
 40
0.0538071611491443
 40
0.107615864346353
 40
0.1613800744004089
 40
0.2150524772032104
 40
0.2686403342244663
 40
0.3221880260003177
 40
0.3757573634640421
 40
0.4294005703084993
 40
0.4831376074843802
 40
0.5369474167064145
 40
0.5907769476910276
 40
0.6445643720043427
 40
0.6982664001994034
 40
0.7518773772603791
 40
0.8054315513957357
 40
0.8589878133589165
 40
0.9126039896524322
 40
0.9663118353837228
 40
0.9999999999999999
 40
0.9999999999999999
 40
0.9999999999999999
 40
0.9999999999999999
 10
7340.058475405933
 20
4277.294116670241
 30
0.0
 10
7340.419565790347
 20
4277.585309691636
 30
0.0
 10
7341.141756907591
 20
4278.167704079664
 30
0.0
 10
7342.514734930634
 20
4278.523492573996
 30
0.0
 10
7343.911336721241
 20
4278.433312512803
 30
0.0
 10
7345.202458637385
 20
4277.87810564936
 30
0.0
 10
7346.234720727992
 20
4276.930048224603
 30
0.0
 10
7346.895264970655
 20
4275.694501923513
 30
0.0
 10
7347.110330514713
 20
4274.310478056629
 30
0.0
 10
7346.855768341427
 20
4272.932324817205
 30
0.0
 10
7346.158909147585
 20
4271.714690849776
 30
0.0
 10
7345.096970427191
 20
4270.795563055562
 30
0.0
 10
7343.789563782338
 20
4270.280100619993
 30
0.0
 10
7342.385324844873
 20
4270.227335665908
 30
0.0
 10
7341.044029665374
 20
4270.642608962797
 30
0.0
 10
7339.917062215645
 20
4271.477713943073
 30
0.0
 10
7339.130735535966
 20
4272.63699063589
 30
0.0
 10
7338.770741525002
 20
4273.991949254654
 30
0.0
 10
7338.882789193686
 20
4275.384621513474
 30
0.0
 10
7339.365675852463
 20
4276.521966308649
 30
0.0
 10
7339.865723996342
 20
4277.079288196598
 30
0.0
 10
7340.058475405933
 20
4277.294116670241
 30
0.0
  0
SPLINE
  5
169
330
1F
100
AcDbEntity
  8
0
  6
SLD-Plná
 62
     7
370
    25
100
AcDbSpline
210
0.0
220
0.0
230
1.0
 70
    11
 71
     3
 72
    26
 73
    22
 74
     0
 42
0.00000001
 43
0.00000001
 40
0.0
 40
0.0
 40
0.0
 40
0.0
 40
0.0536194288228259
 40
0.1072412225944927
 40
0.1608105154518538
 40
0.2143581249611346
 40
0.2679457970084735
 40
0.3216177014171707
 40
0.3753812341546261
 40
0.4292036801532187
 40
0.4830263625805912
 40
0.5367904175851488
 40
0.590462829185739
 40
0.644050920843851
 40
0.6975988723948143
 40
0.7511681902631071
 40
0.8048109680893941
 40
0.8585473639278269
 40
0.9123567172059116
 40
0.9661862601349676
 40
1.0
 40
1.0
 40
1.0
 40
1.0
 10
7327.883976687444
 20
4282.319776949199
 30
0.0
 10
7328.242888556013
 20
4282.611864873927
 30
0.0
 10
7328.960728123386
 20
4283.196053606265
 30
0.0
 10
7330.328599956175
 20
4283.558420944715
 30
0.0
 10
7331.72235479234
 20
4283.477003423402
 30
0.0
 10
7333.014607218357
 20
4282.931999304298
 30
0.0
 10
7334.053083492619
 20
4281.992638387316
 30
0.0
 10
7334.723477232032
 20
4280.761302573543
 30
0.0
 10
7334.948803940207
 20
4279.376098207156
 30
0.0
 10
7334.702275523404
 20
4277.993063585913
 30
0.0
 10
7334.010846256794
 20
4276.769481197096
 30
0.0
 10
7332.953173293957
 20
4275.844665476458
 30
0.0
 10
7331.650035145152
 20
4275.323022448077
 30
0.0
 10
7330.249273085225
 20
4275.262144809847
 30
0.0
 10
7328.908292378677
 20
4275.667426730572
 30
0.0
 10
7327.776665630709
 20
4276.493008018529
 30
0.0
 10
7326.981329798131
 20
4277.646446987917
 30
0.0
 10
7326.610833991052
 20
4279.000974266751
 30
0.0
 10
7326.714046376325
 20
4280.397636417357
 30
0.0
 10
7327.191963753553
 20
4281.541485390748
 30
0.0
 10
7327.691319689788
 20
4282.10309990805
 30
0.0
 10
7327.883976687444
 20
4282.319776949199
 30
0.0
  0
SPLINE
  5
16A
330
1F
100
AcDbEntity
  8
0
  6
SLD-Plná
 62
     7
370
    25
100
AcDbSpline
210
0.0
220
0.0
230
1.0
 70
    11
 71
     3
 72
    26
 73
    22
 74
     0
 42
0.00000001
 43
0.00000001
 40
0.0
 40
0.0
 40
0.0
 40
0.0
 40
0.0536047210207997
 40
0.1072071498641634
 40
0.1608698090471758
 40
0.2146252617456414
 40
0.2684443811852605
 40
0.3222700262376494
 40
0.3760420932417373
 40
0.4297240934865726
 40
0.4833192011578433
 40
0.5368686048876292
 40
0.5904332580329946
 40
0.6440673478508698
 40
0.6977948698348561
 40
0.7515991064697845
 40
0.8054296199416041
 40
0.8592241700167936
 40
0.9129362080791226
 40
0.9665555647369182
 40
1.0
 40
1.0
 40
1.0
 40
1.0
 10
7316.330022563395
 20
4277.778994381584
 30
0.0
 10
7316.738190540924
 20
4277.997304281935
 30
0.0
 10
7317.554509042418
 20
4278.433914747545
 30
0.0
 10
7318.965869393736
 20
4278.528625711078
 30
0.0
 10
7320.319029085843
 20
4278.183042409931
 30
0.0
 10
7321.485604215855
 20
4277.399915388358
 30
0.0
 10
7322.326994500504
 20
4276.275703730769
 30
0.0
 10
7322.748498390501
 20
4274.934845714374
 30
0.0
 10
7322.701516852752
 20
4273.530596021463
 30
0.0
 10
7322.192330509944
 20
4272.222368913746
 30
0.0
 10
7321.279852475997
 20
4271.157648772366
 30
0.0
 10
7320.067730329451
 20
4270.455129347272
 30
0.0
 10
7318.691897322756
 20
4270.192662208515
 30
0.0
 10
7317.305935761096
 20
4270.399742341082
 30
0.0
 10
7316.065223282873
 20
4271.054221097897
 30
0.0
 10
7315.11012934946
 20
4272.083880723689
 30
0.0
 10
7314.550146291253
 20
4273.372361115134
 30
0.0
 10
7314.448315068804
 20
4274.7753041418
 30
0.0
 10
7314.819898761327
 20
4276.12542971454
 30
0.0
 10
7315.507618856765
 20
4277.151837436374
 30
0.0
 10
7316.10178231649
 20
4277.604940623231
 30
0.0
 10
7316.330022563395
 20
4277.778994381584
 30
0.0
  0
SPLINE
  5
16B
330
1F
100
AcDbEntity
  8
0
  6
SLD-Plná
 62
     7
370
    25
100
AcDbSpline
210
0.0
220
0.0
230
1.0
 70
    11
 71
     3
 72
    26
 73
    22
 74
     0
 42
0.00000001
 43
0.00000001
 40
0.0
 40
0.0
 40
0.0
 40
0.0
 40
0.0537562068349937
 40
0.1075100238238335
 40
0.1613172360448455
 40
0.2151474167966026
 40
0.2689384891421617
 40
0.3226456009169191
 40
0.3762609071995831
 40
0.4298168132318883
 40
0.4833715113559026
 40
0.5369835592148966
 40
0.590686551716783
 40
0.6444745061411249
 40
0.6983042003893389
 40
0.752113842731897
 40
0.8058502744076983
 40
0.8594925869960589
 40
0.9130613368302144
 40
0.9666092822105763
 40
1.0
 40
1.0
 40
1.0
 40
1.0
 10
7310.658322905371
 20
4265.094123167126
 30
0.0
 10
7311.0155067134
 20
4265.389924787642
 30
0.0
 10
7311.729858450095
 20
4265.981514878189
 30
0.0
 10
7313.096930428061
 20
4266.355132494475
 30
0.0
 10
7314.494352838896
 20
4266.28397155534
 30
0.0
 10
7315.79435785436
 20
4265.745510737254
 30
0.0
 10
7316.841009964325
 20
4264.808587467875
 30
0.0
 10
7317.517777247481
 20
4263.578075972421
 30
0.0
 10
7317.748597150893
 20
4262.194587663321
 30
0.0
 10
7317.509137683183
 20
4260.81394889548
 30
0.0
 10
7316.827169809779
 20
4259.590556118911
 30
0.0
 10
7315.778922945395
 20
4258.660948780658
 30
0.0
 10
7314.481057273509
 20
4258.129767124323
 30
0.0
 10
7313.0789394684
 20
4258.058107295664
 30
0.0
 10
7311.731188474701
 20
4258.455461069524
 30
0.0
 10
7310.59114553653
 20
4259.277490685925
 30
0.0
 10
7309.788825019474
 20
4260.429942081638
 30
0.0
 10
7309.412816617466
 20
4261.783156286563
 30
0.0
 10
7309.509645324051
 20
4263.177485360721
 30
0.0
 10
7309.978887277093
 20
4264.317450564889
 30
0.0
 10
7310.469783388762
 20
4264.87860094413
 30
0.0
 10
7310.658322905371
 20
4265.094123167126
 30
0.0
  0
SPLINE
  5
16C
330
1F
100
AcDbEntity
  8
0
  6
SLD-Plná
 62
     7
370
    25
100
AcDbSpline
210
0.0
220
0.0
230
1.0
 70
    11
 71
     3
 72
    26
 73
    22
 74
     0
 42
0.00000001
 43
0.00000001
 40
0.0
 40
0.0
 40
0.0
 40
0.0
 40
0.0538093119840906
 40
0.107620090096772
 40
0.1613880879382162
 40
0.2150651672522091
 40
0.268656628973331
 40
0.3222052237837719
 40
0.3757722233381178
 40
0.4294107677072213
 40
0.4831428917530536
 40
0.5369498406959888
 40
0.5907799501670997
 40
0.6445711209940036
 40
0.698278267065498
 40
0.751893351649833
 40
0.8054488387631549
 40
0.859003196473443
 40
0.9126152254084969
 40
0.966318495740419
 40
1.0
 40
1.0
 40
1.0
 40
1.0
 10
7315.683983184329
 20
4252.919624448638
 30
0.0
 10
7316.040009723331
 20
4253.217012513711
 30
0.0
 10
7316.752072501898
 20
4253.811796746714
 30
0.0
 10
7318.118747139314
 20
4254.191206383797
 30
0.0
 10
7319.516745528245
 20
4254.125101648046
 30
0.0
 10
7320.817304784582
 20
4253.592172817151
 30
0.0
 10
7321.865772638145
 20
4252.66195094991
 30
0.0
 10
7322.54746332934
 20
4251.437891726367
 30
0.0
 10
7322.786259915634
 20
4250.057771867636
 30
0.0
 10
7322.55542087579
 20
4248.675507485717
 30
0.0
 10
7321.879648559966
 20
4247.446143169904
 30
0.0
 10
7320.833749726947
 20
4246.508912068435
 30
0.0
 10
7319.535444066578
 20
4245.97100303072
 30
0.0
 10
7318.132288893348
 20
4245.894044560602
 30
0.0
 10
7316.783969494296
 20
4246.286183537814
 30
0.0
 10
7315.642742222768
 20
4247.101833090701
 30
0.0
 10
7314.83658914893
 20
4248.247471233393
 30
0.0
 10
7314.453381708439
 20
4249.596044345271
 30
0.0
 10
7314.541482428041
 20
4250.990384302821
 30
0.0
 10
7315.004697577661
 20
4252.135759208921
 30
0.0
 10
7315.495001072451
 20
4252.701547535223
 30
0.0
 10
7315.683983184329
 20
4252.919624448638
 30
0.0
  0
SPLINE
  5
16D
330
1F
100
AcDbEntity
  8
0
  6
SLD-Plná
 62
     7
370
    25
100
AcDbSpline
210
0.0
220
0.0
230
1.0
 70
    11
 71
     3
 72
    26
 73
    22
 74
     0
 42
0.00000001
 43
0.00000001
 40
0.0
 40
0.0
 40
0.0
 40
0.0
 40
0.0536224173293981
 40
0.1072472278510863
 40
0.1608186709777108
 40
0.2143662689735054
 40
0.2679516214335262
 40
0.321619844569844
 40
0.3753800267393253
 40
0.42920108161879
 40
0.4830250319052711
 40
0.5367923856657637
 40
0.5904685134946946
 40
0.6440590117320858
 40
0.6976070716126758
 40
0.7511743151548282
 40
0.8048138479822119
 40
0.8585471995569687
 40
0.9123548911420895
 40
0.9661847720115829
 40
1.0
 40
1.0
 40
1.0
 40
1.0
 10
7327.847762224777
 20
4247.88342949098
 30
0.0
 10
7328.203004337626
 20
4248.179995441607
 30
0.0
 10
7328.913504417937
 20
4248.773140578734
 30
0.0
 10
7330.276796248896
 20
4249.152587873314
 30
0.0
 10
7331.671509068894
 20
4249.08857109788
 30
0.0
 10
7332.970480407357
 20
4248.559716403509
 30
0.0
 10
7334.020577329052
 20
4247.633389583176
 30
0.0
 10
7334.706260039654
 20
4246.410561146016
 30
0.0
 10
7334.948867112811
 20
4245.028343128668
 30
0.0
 10
7334.719668063194
 20
4243.64237693242
 30
0.0
 10
7334.04361143705
 20
4242.410239519057
 30
0.0
 10
7332.997565410028
 20
4241.472236804027
 30
0.0
 10
7331.700993362238
 20
4240.934323499909
 30
0.0
 10
7330.301046827104
 20
4240.855961602691
 30
0.0
 10
7328.955093722781
 20
4241.244492286275
 30
0.0
 10
7327.813271737356
 20
4242.055885366272
 30
0.0
 10
7327.003628514925
 20
4243.199269248929
 30
0.0
 10
7326.616251911567
 20
4244.549006750934
 30
0.0
 10
7326.701982987767
 20
4245.946807440348
 30
0.0
 10
7327.165539199637
 20
4247.09653229392
 30
0.0
 10
7327.657827570116
 20
4247.66435296927
 30
0.0
 10
7327.847762224777
 20
4247.88342949098
 30
0.0
  0
LINE
  5
16E
330
1F
100
AcDbEntity
  8
0
  6
SLD-Plná
 62
     7
370
    25
100
AcDbLine
 10
7331.6702592236
 20
4266.9990435071
 30
0.0
 11
7331.6702592236
 21
4257.4166377549
 31
0.0
  0
ARC
  5
16F
330
1F
100
AcDbEntity
  8
0
  6
SLD-Plná
 62
     7
370
    25
100
AcDbCircle
 10
7330.7702592236
 20
4262.207840631
 30
0.0
 40
4.875000000000267
100
AcDbArc
 50
280.638709315
 51
79.361290685
  0
ARC
  5
170
330
1F
100
AcDbEntity
  8
0
  6
SLD-Plná
 62
     7
370
    25
100
AcDbCircle
 10
7330.7702592236
 20
4262.207840631
 30
0.0
 40
4.875000000000267
100
AcDbArc
 50
100.638709315
 51
259.361290685
  0
LINE
  5
171
330
1F
100
AcDbEntity
  8
0
  6
SLD-Plná
 62
     7
370
    25
100
AcDbLine
 10
7329.8702592236
 20
4257.4166377549
 30
0.0
 11
7329.8702592236
 21
4266.9990435071
 31
0.0
  0
ARC
  5
172
330
1F
100
AcDbEntity
  8
0
  6
SLD-Plná
 62
     7
370
    25
100
AcDbCircle
 10
7330.7702592236
 20
4262.207840631
 30
0.0
 40
4.562499999999907
100
AcDbArc
 50
258.6232071508
 51
281.3767928492
  0
ARC
  5
173
330
1F
100
AcDbEntity
  8
0
  6
SLD-Plná
 62
     7
370
    25
100
AcDbCircle
 10
7330.7702592236
 20
4262.207840631
 30
0.0
 40
4.562499999999907
100
AcDbArc
 50
78.6232071508
 51
101.3767928492
  0
ARC
  5
174
330
1F
100
AcDbEntity
  8
0
  6
SLD-Plná
 62
     8
370
    25
100
AcDbCircle
 10
7245.5872012852
 20
4318.8908985693
 30
0.0
 40
5.005577533702337
100
AcDbArc
 50
227.7050292788
 51
42.2949707212
  0
LINE
  5
175
330
1F
100
AcDbEntity
  8
0
  6
SLD-Plná
 62
     8
370
    25
100
AcDbLine
 10
7191.3696465895
 20
4364.1111346796
 30
0.0
 11
7188.8178782302
 21
4363.0217313026
 31
0.0
  0
SPLINE
  5
176
330
1F
100
AcDbEntity
  8
0
  6
SLD-Plná
 62
     8
370
    25
100
AcDbSpline
210
0.0
220
0.0
230
1.0
 70
     8
 71
     3
 72
     9
 73
     5
 74
     0
 42
0.00000001
 43
0.00000001
 40
0.0
 40
0.0
 40
0.0
 40
0.0
 40
0.8767282158468054
 40
1.0
 40
1.0
 40
1.0
 40
1.0
 10
7201.456368552009
 20
4375.660221624385
 30
0.0
 10
7201.175338240301
 20
4374.890871670121
 30
0.0
 10
7200.854793849659
 20
4374.013347780324
 30
0.0
 10
7200.432355570097
 20
4373.181963048576
 30
0.0
 10
7200.38028084968
 20
4373.079476769376
 30
0.0
  0
LINE
  5
177
330
1F
100
AcDbEntity
  8
0
  6
SLD-Plná
 62
     8
370
    25
100
AcDbLine
 10
7205.952010741
 20
4369.575570999
 30
0.0
 11
7205.6402820045
 21
4369.3763109177
 31
0.0
  0
LINE
  5
178
330
1F
100
AcDbEntity
  8
0
  6
SLD-Plná
 62
     8
370
    25
100
AcDbLine
 10
7204.4664103597
 20
4370.9662158541
 30
0.0
 11
7201.456368552
 21
4375.6602216244
 31
0.0
  0
LINE
  5
179
330
1F
100
AcDbEntity
  8
0
  6
SLD-Plná
 62
     8
370
    25
100
AcDbLine
 10
7194.9025288553
 20
4358.5260891138
 30
0.0
 11
7195.1017889366
 21
4358.8378178502
 31
0.0
  0
SPLINE
  5
17A
330
1F
100
AcDbEntity
  8
0
  6
SLD-Plná
 62
     8
370
    25
100
AcDbSpline
210
0.0
220
0.0
230
1.0
 70
     8
 71
     3
 72
     9
 73
     5
 74
     0
 42
0.00000001
 43
0.00000001
 40
0.0
 40
0.0
 40
0.0
 40
0.0
 40
0.2206157716081344
 40
1.0
 40
1.0
 40
1.0
 40
1.0
 10
7196.947912754249
 20
4358.182784492275
 30
0.0
 10
7197.128887926521
 20
4358.096915555365
 30
0.0
 10
7197.949206306083
 20
4357.707691628696
 30
0.0
 10
7198.876753805725
 20
4357.763705790443
 30
0.0
 10
7199.599669698028
 20
4357.807362344675
 30
0.0
  0
SPLINE
  5
17B
330
1F
100
AcDbEntity
  8
0
  6
SLD-Plná
 62
     8
370
    25
100
AcDbSpline
210
0.0
220
0.0
230
1.0
 70
     8
 71
     3
 72
     9
 73
     5
 74
     0
 42
0.00000001
 43
0.00000001
 40
0.0
 40
0.0
 40
0.0
 40
0.0
 40
0.6352740639313356
 40
1.0
 40
1.0
 40
1.0
 40
1.0
 10
7206.6599847869
 20
4364.889182879535
 30
0.0
 10
7206.696724936737
 20
4365.563348239798
 30
0.0
 10
7206.754558479648
 20
4366.624567953522
 30
0.0
 10
7206.288583988038
 20
4367.566036301101
 30
0.0
 10
7206.118631005402
 20
4367.909414225451
 30
0.0
  0
LINE
  5
17C
330
1F
100
AcDbEntity
  8
0
  6
SLD-Plná
 62
     8
370
    25
100
AcDbLine
 10
7188.8178782302
 20
4363.0217313026
 30
0.0
 11
7193.5118840004
 21
4360.0116894948
 31
0.0
  0
ARC
  5
17D
330
1F
100
AcDbEntity
  8
0
  6
SLD-Plná
 62
     8
370
    25
100
AcDbCircle
 10
7330.7702592236
 20
4262.207840631
 30
0.0
 40
144.3225554097498
100
AcDbArc
 50
145.0367646391
 51
270.0
  0
ARC
  5
17E
330
1F
100
AcDbEntity
  8
0
  6
SLD-Plná
 62
     8
370
    25
100
AcDbCircle
 10
7330.7702592236
 20
4262.207840631
 30
0.0
 40
144.3225554097492
100
AcDbArc
 50
270.0
 51
141.0266375924
  0
ARC
  5
17F
330
1F
100
AcDbEntity
  8
0
  6
SLD-Plná
 62
     8
370
    25
100
AcDbCircle
 10
7330.7702592236
 20
4262.207840631
 30
0.0
 40
141.8602660434444
100
AcDbArc
 50
270.0
 51
141.131640531
  0
ARC
  5
180
330
1F
100
AcDbEntity
  8
0
  6
SLD-Plná
 62
     8
370
    25
100
AcDbCircle
 10
7330.7702592236
 20
4262.207840631
 30
0.0
 40
141.8602660434441
100
AcDbArc
 50
145.2128264704
 51
270.0
  0
LINE
  5
181
330
1F
100
AcDbEntity
  8
0
  6
SLD-Plná
 62
     7
370
    25
100
AcDbLine
 10
7782.0985096387
 20
4792.9935782506
 30
0.0
 11
7782.0985096387
 21
4793.9935782506
 31
0.0
  0
LINE
  5
182
330
1F
100
AcDbEntity
  8
0
  6
SLD-Plná
 62
     7
370
    25
100
AcDbLine
 10
7782.3969270345
 20
4793.9935782506
 30
0.0
 11
7786.0448292891
 21
4823.2512268644
 31
0.0
  0
LINE
  5
183
330
1F
100
AcDbEntity
  8
0
  6
SLD-Plná
 62
     7
370
    25
100
AcDbLine
 10
7779.4767973538
 20
4830.4935782506
 30
0.0
 11
7778.7267973538
 21
4842.4935782506
 31
0.0
  0
LINE
  5
184
330
1F
100
AcDbEntity
  8
0
  6
SLD-Plná
 62
     7
370
    25
100
AcDbLine
 10
7764.6105581498
 20
4840.6337509874
 30
0.0
 11
7764.5750468054
 21
4840.0655694755
 31
0.0
  0
LINE
  5
185
330
1F
100
AcDbEntity
  8
0
  6
SLD-Plná
 62
     7
370
    25
100
AcDbLine
 10
7766.7267973538
 20
5025.4935782506
 30
0.0
 11
7766.7267973538
 21
4843.4527262459
 31
0.0
  0
LINE
  5
186
330
1F
100
AcDbEntity
  8
0
  6
SLD-Plná
 62
     7
370
    25
100
AcDbLine
 10
7776.7267973538
 20
4842.4935782506
 30
0.0
 11
7776.7267973538
 21
5025.4935782506
 31
0.0
  0
SPLINE
  5
187
330
1F
100
AcDbEntity
  8
0
  6
SLD-Plná
 62
     7
370
    25
100
AcDbSpline
210
0.0
220
0.0
230
1.0
 70
     8
 71
     3
 72
    35
 73
    31
 74
     0
 42
0.00000001
 43
0.00000001
 40
0.0
 40
0.0
 40
0.0
 40
0.0
 40
0.0184792132530177
 40
0.0545347344091641
 40
0.0905737527584602
 40
0.126568723953319
 40
0.1625074594380455
 40
0.1983831436269288
 40
0.2341976522322325
 40
0.2699662450014655
 40
0.3057189167014536
 40
0.3415009882831141
 40
0.3774013583985468
 40
0.4135552310370444
 40
0.4501525074718853
 40
0.4874334386006189
 40
0.5256470619803285
 40
0.5649283685690176
 40
0.6050764455417668
 40
0.6452785362416875
 40
0.6846583322851859
 40
0.722975877239565
 40
0.7603803603311049
 40
0.7971380743531775
 40
0.8334892300388563
 40
0.8696115027673408
 40
0.9056240840447116
 40
0.9416010422880692
 40
0.9775738236402608
 40
0.9999999999999999
 40
0.9999999999999999
 40
0.9999999999999999
 40
0.9999999999999999
 10
7776.7267973538
 20
5025.493578250598
 30
0.0
 10
7776.73237239528
 20
5026.010355939429
 30
0.0
 10
7776.748825119883
 20
5027.535438940698
 30
0.0
 10
7776.934358941151
 20
5030.059069121062
 30
0.0
 10
7777.353061308989
 20
5033.020469823715
 30
0.0
 10
7777.976046961086
 20
5035.896888183449
 30
0.0
 10
7778.790491418848
 20
5038.655629977337
 30
0.0
 10
7779.785272039903
 20
5041.266407361548
 30
0.0
 10
7780.945431279614
 20
5043.701265453136
 30
0.0
 10
7782.254009460584
 20
5045.935163685501
 30
0.0
 10
7783.691996578032
 20
5047.946348995647
 30
0.0
 10
7785.239271318726
 20
5049.717167160467
 30
0.0
 10
7786.875818970469
 20
5051.234540360588
 30
0.0
 10
7788.583569355047
 20
5052.490009605383
 30
0.0
 10
7790.348274235122
 20
5053.47868383885
 30
0.0
 10
7792.161266289058
 20
5054.197060815633
 30
0.0
 10
7794.019467947054
 20
5054.639446827372
 30
0.0
 10
7795.921203920131
 20
5054.79441025639
 30
0.0
 10
7797.855027184675
 20
5054.64562254214
 30
0.0
 10
7799.793588749549
 20
5054.181921058412
 30
0.0
 10
7801.700332399745
 20
5053.407418525146
 30
0.0
 10
7803.543619659175
 20
5052.338684975685
 30
0.0
 10
7805.303893863645
 20
5050.993418412066
 30
0.0
 10
7806.967039794188
 20
5049.386773782633
 30
0.0
 10
7808.519416550394
 20
5047.532957936122
 30
0.0
 10
7809.945762095015
 20
5045.447426408231
 30
0.0
 10
7811.231214765694
 20
5043.149201771488
 30
0.0
 10
7812.356242007608
 20
5040.65820095939
 30
0.0
 10
7813.198814221323
 20
5038.34059758683
 30
0.0
 10
7813.621018103665
 20
5036.836321813989
 30
0.0
 10
7813.783151454946
 20
5036.258654761407
 30
0.0
  0
SPLINE
  5
188
330
1F
100
AcDbEntity
  8
0
  6
SLD-Plná
 62
     7
370
    25
100
AcDbSpline
210
0.0
220
0.0
230
1.0
 70
     8
 71
     3
 72
    39
 73
    35
 74
     0
 42
0.00000001
 43
0.00000001
 40
0.0
 40
0.0
 40
0.0
 40
0.0
 40
0.0178212536119641
 40
0.0508440033926851
 40
0.0839181205026848
 40
0.1170218952632217
 40
0.1501309246608384
 40
0.1832088367041615
 40
0.2162059449824004
 40
0.2490598579393276
 40
0.2817024404407012
 40
0.314071966187092
 40
0.3461280163950246
 40
0.3778642982401491
 40
0.4093146322567259
 40
0.4405501607708754
 40
0.4716691889164613
 40
0.502760028711979
 40
0.5339204901368506
 40
0.565249117413648
 40
0.5968184339328932
 40
0.6286670463231245
 40
0.6607980125686734
 40
0.6931839683710908
 40
0.7257774716246672
 40
0.7585232272544372
 40
0.7913686070432235
 40
0.8242703131667924
 40
0.8571952577478493
 40
0.8901212070641927
 40
0.9230410198733744
 40
0.9559542289723038
 40
0.9888649868167173
 40
1.0
 40
1.0
 40
1.0
 40
1.0
 10
7823.447701094167
 20
5038.827016159465
 30
0.0
 10
7823.281425393397
 20
5039.424928833809
 30
0.0
 10
7822.807041128506
 20
5041.130772581101
 30
0.0
 10
7821.851700226294
 20
5043.855201420442
 30
0.0
 10
7820.519834697448
 20
5046.934187605215
 30
0.0
 10
7818.977318122963
 20
5049.843101316523
 30
0.0
 10
7817.238388951313
 20
5052.557623330332
 30
0.0
 10
7815.314428412817
 20
5055.052218143736
 30
0.0
 10
7813.22082170209
 20
5057.303011148376
 30
0.0
 10
7810.975571433233
 20
5059.287681367043
 30
0.0
 10
7808.599800799624
 20
5060.9865840458
 30
0.0
 10
7806.117185728181
 20
5062.383748601565
 30
0.0
 10
7803.553042542354
 20
5063.467709750819
 30
0.0
 10
7800.93305670566
 20
5064.231770069094
 30
0.0
 10
7798.282046639365
 20
5064.673584282116
 30
0.0
 10
7795.62309070624
 20
5064.79419661173
 30
0.0
 10
7792.977852844327
 20
5064.59691265368
 30
0.0
 10
7790.366426999412
 20
5064.086632052121
 30
0.0
 10
7787.80733788502
 20
5063.269264780035
 30
0.0
 10
7785.317632042558
 20
5062.151110158537
 30
0.0
 10
7782.914020564007
 20
5060.739016223467
 30
0.0
 10
7780.613855710225
 20
5059.041328018877
 30
0.0
 10
7778.43521031781
 20
5057.068895862965
 30
0.0
 10
7776.396445876324
 20
5054.835846287904
 30
0.0
 10
7774.515444501229
 20
5052.359845516567
 30
0.0
 10
7772.808790636391
 20
5049.661809477648
 30
0.0
 10
7771.291142558895
 20
5046.765232688821
 30
0.0
 10
7769.97496969584
 20
5043.69546074225
 30
0.0
 10
7768.870417012813
 20
5040.479041781655
 30
0.0
 10
7767.985708618606
 20
5037.143100596381
 30
0.0
 10
7767.326088946147
 20
5033.714872487386
 30
0.0
 10
7766.89887066288
 20
5030.221891236749
 30
0.0
 10
7766.740501350305
 20
5027.469609927711
 30
0.0
 10
7766.729562703802
 20
5025.89232464556
 30
0.0
 10
7766.726797353799
 20
5025.493578250599
 30
0.0
  0
LINE
  5
189
330
1F
100
AcDbEntity
  8
0
  6
SLD-Plná
 62
     7
370
    25
100
AcDbLine
 10
7828.1778672
 20
5021.0277589496
 30
0.0
 11
7823.4477010942
 21
5038.8270161595
 31
0.0
  0
LINE
  5
18A
330
1F
100
AcDbEntity
  8
0
  6
SLD-Plná
 62
     7
370
    25
100
AcDbLine
 10
7813.7831514549
 20
5036.2586547614
 30
0.0
 11
7818.5133175608
 21
5018.4593975516
 31
0.0
  0
LINE
  5
18B
330
1F
100
AcDbEntity
  8
0
  6
SLD-Plná
 62
     7
370
    25
100
AcDbLine
 10
7747.7693272704
 20
4793.9935782506
 30
0.0
 11
7747.7693272704
 21
4792.9935782506
 31
0.0
  0
LINE
  5
18C
330
1F
100
AcDbEntity
  8
0
  6
SLD-Plná
 62
     7
370
    25
100
AcDbLine
 10
7781.1751363699
 20
4792.9935782506
 30
0.0
 11
7781.1751363699
 21
4793.9935782506
 31
0.0
  0
SPLINE
  5
18D
330
1F
100
AcDbEntity
  8
0
  6
SLD-Plná
 62
     7
370
    25
100
AcDbSpline
210
0.0
220
0.0
230
1.0
 70
     8
 71
     3
 72
    12
 73
     8
 74
     0
 42
0.00000001
 43
0.00000001
 40
0.0
 40
0.0
 40
0.0
 40
0.0
 40
0.1507478143727436
 40
0.3502286606986753
 40
0.5715342071593221
 40
0.8764483327068449
 40
1.0
 40
1.0
 40
1.0
 40
1.0
 10
7765.594548904151
 20
4850.514664739105
 30
0.0
 10
7765.561750390063
 20
4850.667284017112
 30
0.0
 10
7765.485550415227
 20
4851.021860602888
 30
0.0
 10
7765.097571675694
 20
4851.378452992303
 30
0.0
 10
7764.627666211794
 20
4851.639969334825
 30
0.0
 10
7764.191030487657
 20
4851.791328747832
 30
0.0
 10
7763.809339328227
 20
4851.845952486383
 30
0.0
 10
7763.69927551467
 20
4851.861703694728
 30
0.0
  0
SPLINE
  5
18E
330
1F
100
AcDbEntity
  8
0
  6
SLD-Plná
 62
     7
370
    25
100
AcDbSpline
210
0.0
220
0.0
230
1.0
 70
     8
 71
     3
 72
    11
 73
     7
 74
     0
 42
0.00000001
 43
0.00000001
 40
0.0
 40
0.0
 40
0.0
 40
0.0
 40
0.1031748959291314
 40
0.506496805924664
 40
0.8892682190644788
 40
1.0
 40
1.0
 40
1.0
 40
1.0
 10
7740.427475779725
 20
4847.747937155756
 30
0.0
 10
7740.395714227618
 20
4847.722772366013
 30
0.0
 10
7740.239793307626
 20
4847.599235671244
 30
0.0
 10
7740.048092517204
 20
4847.2767131138
 30
0.0
 10
7739.87455172796
 20
4846.806346453011
 30
0.0
 10
7739.959004907189
 20
4846.556778107906
 30
0.0
 10
7739.977954431841
 20
4846.500780198166
 30
0.0
  0
LINE
  5
18F
330
1F
100
AcDbEntity
  8
0
  6
SLD-Plná
 62
     7
370
    25
100
AcDbLine
 10
7766.9253587168
 20
4842.1715216129
 30
0.0
 11
7765.6383309021
 21
4850.4759871637
 31
0.0
  0
LINE
  5
190
330
1F
100
AcDbEntity
  8
0
  6
SLD-Plná
 62
     7
370
    25
100
AcDbLine
 10
7739.9450615898
 20
4846.494038891
 30
0.0
 11
7741.2320894045
 21
4838.1895733402
 31
0.0
  0
ARC
  5
191
330
1F
100
AcDbEntity
  8
0
  6
SLD-Plná
 62
     7
370
    25
100
AcDbCircle
 10
7756.9652951318
 20
4821.5551302589
 30
0.0
 40
31.06753134593165
100
AcDbArc
 50
76.8729988925
 51
120.7462525068
  0
LINE
  5
192
330
1F
100
AcDbEntity
  8
0
  6
SLD-Plná
 62
     7
370
    25
100
AcDbLine
 10
7741.9868541
 20
4831.3046205761
 30
0.0
 11
7747.7693272704
 21
4793.9935782715
 31
0.0
  0
LINE
  5
193
330
1F
100
AcDbEntity
  8
0
  6
SLD-Plná
 62
     7
370
    25
100
AcDbLine
 10
7765.5145591076
 20
4834.9509492382
 30
0.0
 11
7765.2117856632
 21
4836.9045757334
 31
0.0
  0
LINE
  5
194
330
1F
100
AcDbEntity
  8
0
  6
SLD-Plná
 62
     7
370
    25
100
AcDbLine
 10
7744.4595296802
 20
4833.6883867439
 30
0.0
 11
7744.7623031246
 21
4831.7347602487
 31
0.0
  0
SPLINE
  5
195
330
1F
100
AcDbEntity
  8
0
  6
SLD-Plná
 62
     7
370
    25
100
AcDbSpline
210
0.0
220
0.0
230
1.0
 70
     8
 71
     3
 72
    20
 73
    16
 74
     0
 42
0.00000001
 43
0.00000001
 40
0.0
 40
0.0
 40
0.0
 40
0.0
 40
0.1072374609144503
 40
0.1974873865041706
 40
0.2705476035680725
 40
0.3284643491337656
 40
0.3752785358973681
 40
0.4115133215961075
 40
0.4464732073527333
 40
0.497291612193801
 40
0.5639866634635903
 40
0.6465674941056986
 40
0.781405602159501
 40
0.9445485819541033
 40
1.0
 40
1.0
 40
1.0
 40
1.0
 10
7781.175031991166
 20
4793.993578250599
 30
0.0
 10
7780.977344623
 20
4795.23513145214
 30
0.0
 10
7780.61328563325
 20
4797.521562843626
 30
0.0
 10
7780.267541285974
 20
4800.669661439208
 30
0.0
 10
7780.082669520496
 20
4803.271201815157
 30
0.0
 10
7780.007314679872
 20
4805.392103980087
 30
0.0
 10
7779.96994327932
 20
4807.077241160514
 30
0.0
 10
7779.946295922869
 20
4808.502688016515
 30
0.0
 10
7779.926556502625
 20
4809.986684344814
 30
0.0
 10
7779.911178154874
 20
4811.840345927893
 30
0.0
 10
7779.904696655826
 20
4814.274030763527
 30
0.0
 10
7779.916046557433
 20
4817.729336374924
 30
0.0
 10
7779.963638035511
 20
4822.356952243874
 30
0.0
 10
7780.032240159635
 20
4826.654017856273
 30
0.0
 10
7780.084291799151
 20
4829.309288990003
 30
0.0
 10
7780.097495875977
 20
4829.982858629099
 30
0.0
  0
ARC
  5
196
330
1F
100
AcDbEntity
  8
0
  6
SLD-Plná
 62
     7
370
    25
100
AcDbCircle
 10
7775.3266917829
 20
4837.9935780693
 30
0.0
 40
7.500000016269977
100
AcDbArc
 50
199.8642176408
 51
228.8626045876
  0
ARC
  5
197
330
1F
100
AcDbEntity
  8
0
  6
SLD-Plná
 62
     7
370
    25
100
AcDbCircle
 10
7779.6001787841
 20
4829.9935782738
 30
0.0
 40
0.4999999768159443
100
AcDbArc
 50
0.8499052387
 51
90.0336403384
  0
ARC
  5
198
330
1F
100
AcDbEntity
  8
0
  6
SLD-Plná
 62
     7
370
    25
100
AcDbCircle
 10
8048.6314416347
 20
4634.4935782506
 30
0.0
 40
1.5
100
AcDbArc
 50
270.0
 51
0.0
  0
LINE
  5
199
330
1F
100
AcDbEntity
  8
0
  6
SLD-Plná
 62
     7
370
    25
100
AcDbLine
 10
8050.1314416347
 20
4634.4935782506
 30
0.0
 11
8050.1314416347
 21
4791.4935782506
 31
0.0
  0
ARC
  5
19A
330
1F
100
AcDbEntity
  8
0
  6
SLD-Plná
 62
     7
370
    25
100
AcDbCircle
 10
8048.6314416347
 20
4791.4935782506
 30
0.0
 40
1.5
100
AcDbArc
 50
0.0
 51
90.0
  0
ELLIPSE
  5
19B
330
1F
100
AcDbEntity
  8
0
  6
SLD-Plná
 62
     7
370
    25
100
AcDbEllipse
 10
7770.6772400288
 20
4829.3170256368
 30
0.0
 11
15.20903517241823
 21
-6.649061119456746
 31
0.0
210
0.0
220
0.0
230
1.0
 40
0.3495815594
 41
5.514156627328466
 42
7.400175778662
  0
LINE
  5
19C
330
1F
100
AcDbEntity
  8
0
  6
SLD-Plná
 62
     7
370
    25
100
AcDbLine
 10
7782.3969270345
 20
4793.9935782506
 30
0.0
 11
7781.5827050583
 21
4793.9935782506
 31
0.0
  0
LINE
  5
19D
330
1F
100
AcDbEntity
  8
0
  6
SLD-Plná
 62
     7
370
    25
100
AcDbLine
 10
7776.6765448221
 20
4842.4935782506
 30
0.0
 11
7778.7267973538
 21
4842.4935782506
 31
0.0
  0
LINE
  5
19E
330
1F
100
AcDbEntity
  8
0
  6
SLD-Plná
 62
     7
370
    25
100
AcDbLine
 10
7766.8754463115
 20
4842.4935782506
 30
0.0
 11
7776.6765448221
 21
4842.4935782506
 31
0.0
  0
LINE
  5
19F
330
1F
100
AcDbEntity
  8
0
  6
SLD-Plná
 62
     7
370
    25
100
AcDbLine
 10
7777.206874908
 20
4830.4935782506
 30
0.0
 11
7779.4767973538
 21
4830.4935782506
 31
0.0
  0
LWPOLYLINE
  5
1A0
330
1F
100
AcDbEntity
  8
0
  6
SLD-Plná
 62
     7
370
    25
100
AcDbPolyline
 90
       10
 70
   128
 43
0.0
 10
7820.0360709695
 20
5017.9845625995
 10
7821.1126726331
 20
5018.0497916715
 10
7822.3548797395
 20
5018.2406411454
 10
7823.6705634702
 20
5018.542956589
 10
7824.9621455818
 20
5018.9343166487
 10
7826.1338353378
 20
5019.3856959393
 10
7827.0987338689
 20
5019.8636177238
 10
7827.7852790654
 20
5020.3326367296
 10
7828.1425530106
 20
5020.7579679629
 10
7828.1778672
 20
5021.0277589496
  0
LWPOLYLINE
  5
1A1
330
1F
100
AcDbEntity
  8
0
  6
SLD-Plná
 62
     7
370
    25
100
AcDbPolyline
 90
        4
 70
   128
 43
0.0
 10
7818.5133175608
 20
5018.4593975516
 10
7818.6808663948
 20
5018.2406411454
 10
7819.2049213688
 20
5018.0497916715
 10
7820.0360709695
 20
5017.9845625995
  0
LINE
  5
1A2
330
1F
100
AcDbEntity
  8
0
  6
SLD-Plná
 62
     7
370
    25
100
AcDbLine
 10
7770.6473794019
 20
4793.9935782506
 30
0.0
 11
7770.6473794019
 21
4792.9935782506
 31
0.0
  0
LINE
  5
1A3
330
1F
100
AcDbEntity
  8
0
  6
SLD-Plná
 62
     7
370
    25
100
AcDbLine
 10
7747.7693277994
 20
4793.9935782506
 30
0.0
 11
7770.6473794019
 21
4793.9935782506
 31
0.0
  0
LINE
  5
1A4
330
1F
100
AcDbEntity
  8
0
  6
SLD-Plná
 62
     7
370
    25
100
AcDbLine
 10
7777.2771427115
 20
4793.9935782506
 30
0.0
 11
7777.2771427115
 21
4792.9935782506
 31
0.0
  0
LINE
  5
1A5
330
1F
100
AcDbEntity
  8
0
  6
SLD-Plná
 62
     7
370
    25
100
AcDbLine
 10
7770.6473794019
 20
4793.9935782506
 30
0.0
 11
7777.2771427115
 21
4793.9935782506
 31
0.0
  0
LINE
  5
1A6
330
1F
100
AcDbEntity
  8
0
  6
SLD-Plná
 62
     7
370
    25
100
AcDbLine
 10
7777.2771427115
 20
4793.9935782506
 30
0.0
 11
7781.1751363699
 21
4793.9935782506
 31
0.0
  0
LWPOLYLINE
  5
1A7
330
1F
100
AcDbEntity
  8
0
  6
SLD-Plná
 62
     7
370
    25
100
AcDbPolyline
 90
        3
 70
   128
 43
0.0
 10
7740.5941111679
 20
4847.8950832011
 10
7740.9685366962
 20
4848.1855655364
 10
7741.082427506
 20
4848.2558047806
  0
LWPOLYLINE
  5
1A8
330
1F
100
AcDbEntity
  8
0
  6
SLD-Plná
 62
     7
370
    25
100
AcDbPolyline
 90
       21
 70
   128
 43
0.0
 10
7766.9253587168
 20
4842.1715216129
 10
7766.9232620228
 20
4842.0655650132
 10
7766.685465629
 20
4841.70281962
 10
7766.1037901885
 20
4841.2985506109
 10
7765.1941022911
 20
4840.8637853907
 10
7763.9812158511
 20
4840.4103832213
 10
7762.498215249
 20
4839.9507117319
 10
7760.7855528753
 20
4839.4973095625
 10
7758.8899456948
 20
4839.0625443423
 10
7756.8631009302
 20
4838.6582753332
 10
7754.7603056228
 20
4838.2955299399
 10
7752.6389185472
 20
4837.9842029112
 10
7750.5568056127
 20
4837.7327864367
 10
7748.5707614325
 20
4837.5481385026
 10
7746.7349601146
 20
4837.4352958231
 10
7745.0994775334
 20
4837.3973364523
 10
7743.7089253903
 20
4837.4352958231
 10
7742.6012343229
 20
4837.5481385026
 10
7741.806619256
 20
4837.7327864367
 10
7741.3467552171
 20
4837.9842029112
 10
7741.2320894045
 20
4838.1895733402
  0
LINE
  5
1A9
330
1F
100
AcDbEntity
  8
0
  6
SLD-Plná
 62
     7
370
    25
100
AcDbLine
 10
7771.076330564
 20
4794.7019699297
 30
0.0
 11
7770.6473961181
 21
4793.9936048814
 31
0.0
  0
SPLINE
  5
1AA
330
1F
100
AcDbEntity
  8
0
  6
SLD-Plná
 62
     7
370
    25
100
AcDbSpline
210
0.0
220
0.0
230
1.0
 70
     8
 71
     3
 72
    20
 73
    16
 74
     0
 42
0.00000001
 43
0.00000001
 40
0.0
 40
0.0
 40
0.0
 40
0.0
 40
0.0783938570876148
 40
0.1577510973837892
 40
0.2381013429282654
 40
0.3486517196966943
 40
0.4682538720175287
 40
0.5315130005525996
 40
0.5970568800731865
 40
0.6648901837971474
 40
0.735017112393358
 40
0.8019364627992044
 40
0.8853977700288153
 40
0.9853937126910057
 40
1.0
 40
1.0
 40
1.0
 40
1.0
 10
7755.059041207899
 20
4793.992353165772
 30
0.0
 10
7755.46053563284
 20
4793.992426227062
 30
0.0
 10
7756.268458453341
 20
4793.992573247493
 30
0.0
 10
7757.551386934166
 20
4793.993216415014
 30
0.0
 10
7759.041755371479
 20
4793.99396666794
 30
0.0
 10
7760.788737919116
 20
4793.992032241289
 30
0.0
 10
7762.44287993493
 20
4793.990731702008
 30
0.0
 10
7763.820195264824
 20
4793.991113360813
 30
0.0
 10
7764.89199722061
 20
4793.991992873928
 30
0.0
 10
7765.97385378509
 20
4793.993103173313
 30
0.0
 10
7767.027047860744
 20
4793.993856211785
 30
0.0
 10
7768.114131559623
 20
4793.992886176265
 30
0.0
 10
7769.281219688046
 20
4793.992917671611
 30
0.0
 10
7770.132129379313
 20
4793.993539919456
 30
0.0
 10
7770.590532690003
 20
4793.993597948272
 30
0.0
 10
7770.648957124335
 20
4793.993605344162
 30
0.0
  0
LINE
  5
1AB
330
1F
100
AcDbEntity
  8
0
  6
SLD-Plná
 62
     7
370
    25
100
AcDbLine
 10
7755.052672941
 20
4794.0619375704
 30
0.0
 11
7755.0589103219
 21
4793.9937772542
 31
0.0
  0
LINE
  5
1AC
330
1F
100
AcDbEntity
  8
0
  6
SLD-Plná
 62
     7
370
    25
100
AcDbLine
 10
7755.052672941
 20
4794.0619375704
 30
0.0
 11
7754.9571675462
 21
4793.993578231
 31
0.0
  0
SPLINE
  5
1AD
330
1F
100
AcDbEntity
  8
0
  6
SLD-Plná
 62
     7
370
    25
100
AcDbSpline
210
0.0
220
0.0
230
1.0
 70
     8
 71
     3
 72
    11
 73
     7
 74
     0
 42
0.00000001
 43
0.00000001
 40
0.0
 40
0.0
 40
0.0
 40
0.0
 40
0.0107105652240131
 40
0.4995198694553565
 40
0.9883161184895244
 40
1.0
 40
1.0
 40
1.0
 40
1.0
 10
7749.179192023897
 20
4793.992357163272
 30
0.0
 10
7749.192555516645
 20
4793.992356950007
 30
0.0
 10
7749.815802750904
 20
4793.992347003763
 30
0.0
 10
7751.451130212713
 20
4793.994785479081
 30
0.0
 10
7753.70197772183
 20
4793.992339729162
 30
0.0
 10
7754.935591217441
 20
4793.992349836933
 30
0.0
 10
7754.96439035058
 20
4793.992350072903
 30
0.0
  0
LINE
  5
1AE
330
1F
100
AcDbEntity
  8
0
  6
SLD-Plná
 62
     7
370
    25
100
AcDbLine
 10
7749.1789650637
 20
4793.993578231
 30
0.0
 11
7749.1155510931
 21
4794.0619381243
 31
0.0
  0
LINE
  5
1AF
330
1F
100
AcDbEntity
  8
0
  6
SLD-Plná
 62
     7
370
    25
100
AcDbLine
 10
7749.1155510931
 20
4794.0619381243
 30
0.0
 11
7749.128244676
 21
4793.9937792549
 31
0.0
  0
SPLINE
  5
1B0
330
1F
100
AcDbEntity
  8
0
  6
SLD-Plná
 62
     7
370
    25
100
AcDbSpline
210
0.0
220
0.0
230
1.0
 70
     8
 71
     3
 72
    10
 73
     6
 74
     0
 42
0.00000001
 43
0.00000001
 40
0.0
 40
0.0
 40
0.0
 40
0.0
 40
0.3999825215360863
 40
0.9972587356477772
 40
1.0
 40
1.0
 40
1.0
 40
1.0
 10
7747.784034029765
 20
4793.992032214785
 30
0.0
 10
7747.787696775375
 20
4793.992289523584
 30
0.0
 10
7747.796828937056
 20
4793.992931060237
 30
0.0
 10
7747.803147827374
 20
4793.993703006892
 30
0.0
 10
7747.926799913477
 20
4793.993577112563
 30
0.0
 10
7747.927364835448
 20
4793.993576537397
 30
0.0
  0
LWPOLYLINE
  5
1B1
330
1F
100
AcDbEntity
  8
0
  6
SLD-Plná
 62
     7
370
    25
100
AcDbPolyline
 90
       24
 70
   128
 43
0.0
 10
7744.5727109354
 20
4832.9580918555
 10
7743.6853604979
 20
4832.6122398462
 10
7742.7826796951
 20
4832.172576535
 10
7742.2113120838
 20
4831.7642936388
 10
7741.9865785959
 20
4831.398339056
 10
7742.1145053458
 20
4831.0845256726
 10
7742.5916620426
 20
4830.8312682348
 10
7743.4052539722
 20
4830.6453577122
 10
7744.5334650806
 20
4830.5317792008
 10
7745.9460429607
 20
4830.4935782506
 10
7747.6051100549
 20
4830.5317792008
 10
7749.4661793228
 20
4830.6453577122
 10
7751.4793471381
 20
4830.8312682348
 10
7753.5906314298
 20
4831.0845256726
 10
7755.7434191829
 20
4831.398339056
 10
7757.8799844887
 20
4831.7642936388
 10
7759.9430364349
 20
4832.172576535
 10
7761.8772553325
 20
4832.6122398462
 10
7763.6307760854
 20
4833.0714942244
 10
7765.1565789263
 20
4833.5380249969
 10
7766.4137502279
 20
4833.9993223784
 10
7767.3685795808
 20
4834.4430169139
 10
7767.9954637217
 20
4834.8572111604
 10
7767.9954637217
 20
4834.8572111604
  0
SPLINE
  5
1B2
330
1F
100
AcDbEntity
  8
0
  6
SLD-Plná
 62
     7
370
    25
100
AcDbSpline
210
0.0
220
0.0
230
1.0
 70
     8
 71
     3
 72
    12
 73
     8
 74
     0
 42
0.00000001
 43
0.00000001
 40
0.0
 40
0.0
 40
0.0
 40
0.0
 40
0.2427914550828742
 40
0.4880681846577983
 40
0.7019438068197649
 40
0.9577199628241756
 40
1.0
 40
1.0
 40
1.0
 40
1.0
 10
7767.981295692947
 20
4834.69754535116
 30
0.0
 10
7767.979606722257
 20
4834.715973342767
 30
0.0
 10
7767.976211492147
 20
4834.753017959545
 30
0.0
 10
7767.976613430334
 20
4834.802531451771
 30
0.0
 10
7767.98273058037
 20
4834.838708638698
 30
0.0
 10
7767.990084813103
 20
4834.852206925783
 30
0.0
 10
7767.994795498818
 20
4834.856589483312
 30
0.0
 10
7767.995463721698
 20
4834.857211160363
 30
0.0
  0
SPLINE
  5
1B3
330
1F
100
AcDbEntity
  8
0
  6
SLD-Plná
 62
     7
370
    25
100
AcDbSpline
210
0.0
220
0.0
230
1.0
 70
     8
 71
     3
 72
    18
 73
    14
 74
     0
 42
0.00000001
 43
0.00000001
 40
0.0
 40
0.0
 40
0.0
 40
0.0
 40
0.1043946742900807
 40
0.1887322298944983
 40
0.2728966994994951
 40
0.3081643621458517
 40
0.3432317557001283
 40
0.4670522449582009
 40
0.5915891046517906
 40
0.8364650800384117
 40
0.9590646011758764
 40
0.9897295041522857
 40
1.0
 40
1.0
 40
1.0
 40
1.0
 10
7767.981295692947
 20
4834.69754535116
 30
0.0
 10
7768.118494801133
 20
4833.295707538021
 30
0.0
 10
7768.366533255235
 20
4830.761363921132
 30
0.0
 10
7768.566688817443
 20
4827.104146638243
 30
0.0
 10
7768.522390034886
 20
4824.40703684421
 30
0.0
 10
7768.323329235953
 20
4822.407654414645
 30
0.0
 10
7768.267134406497
 20
4819.79152502719
 30
0.0
 10
7768.724515392159
 20
4815.965673442271
 30
0.0
 10
7769.717147144949
 20
4809.472539266152
 30
0.0
 10
7770.650444151515
 20
4802.942754519648
 30
0.0
 10
7771.175522033264
 20
4797.599539298745
 30
0.0
 10
7771.17185100746
 20
4795.376954720283
 30
0.0
 10
7771.095489340987
 20
4794.837353336852
 30
0.0
 10
7771.076330563965
 20
4794.701969929652
 30
0.0
  0
LWPOLYLINE
  5
1B4
330
1F
100
AcDbEntity
  8
0
  6
SLD-Plná
 62
     7
370
    25
100
AcDbPolyline
 90
        7
 70
   128
 43
0.0
 10
7767.9954637217
 20
4834.8572111604
 10
7768.280365331
 20
4835.2403228213
 10
7768.1934311371
 20
4835.5697478212
 10
7767.7371208424
 20
4835.8361654614
 10
7766.9243452179
 20
4836.0320377635
 10
7765.7781008085
 20
4836.1518227476
 10
7765.3249669183
 20
4836.174280845
  0
LWPOLYLINE
  5
1B5
330
1F
100
AcDbEntity
  8
0
  6
SLD-Plná
 62
     7
370
    25
100
AcDbPolyline
 90
       14
 70
   128
 43
0.0
 10
7747.8859627672
 20
4831.0948766084
 10
7749.3737203887
 20
4831.1331527081
 10
7751.0577883201
 20
4831.2466775603
 10
7752.8808176477
 20
4831.4315852123
 10
7754.7807272942
 20
4831.681578856
 10
7756.6928181154
 20
4831.9881452575
 10
7758.5519761516
 20
4832.3408446657
 10
7760.2948900057
 20
4832.7276663254
 10
7761.8622068369
 20
4833.1354374888
 10
7763.2005535501
 20
4833.550271998
 10
7764.2643543533
 20
4833.9580431614
 10
7765.017382786
 20
4834.3448648211
 10
7765.433995368
 20
4834.6975642294
 10
7765.5145591076
 20
4834.9509492382
  0
LWPOLYLINE
  5
1B6
330
1F
100
AcDbEntity
  8
0
  6
SLD-Plná
 62
     7
370
    25
100
AcDbPolyline
 90
        6
 70
   128
 43
0.0
 10
7744.7623031246
 20
4831.7347602487
 10
7744.7768573746
 20
4831.681578856
 10
7745.0636988514
 20
4831.4315852123
 10
7745.6936232521
 20
4831.2466775603
 10
7746.6451792569
 20
4831.1331527081
 10
7747.8859627672
 20
4831.0948766084
  0
LWPOLYLINE
  5
1B7
330
1F
100
AcDbEntity
  8
0
  6
SLD-Plná
 62
     7
370
    25
100
AcDbPolyline
 90
        5
 70
   128
 43
0.0
 10
7744.5625988004
 20
4833.9708632215
 10
7744.5583331886
 20
4833.9655792677
 10
7744.4613701759
 20
4833.7747522901
 10
7744.489795826
 20
4833.6023176655
 10
7744.643266573
 20
4833.4503595224
  0
LINE
  5
1B8
330
1F
100
AcDbEntity
  8
0
  6
SLD-Plná
 62
     7
370
    25
100
AcDbLine
 10
7744.643266573
 20
4833.4503595224
 30
0.0
 11
7744.0282296299
 21
4837.4188464878
 31
0.0
  0
LINE
  5
1B9
330
1F
100
AcDbEntity
  8
0
  6
SLD-Plná
 62
     7
370
    25
100
AcDbLine
 10
7744.4697323681
 20
4837.4043545262
 30
0.0
 11
7745.1116229339
 21
4833.2625962594
 31
0.0
  0
ARC
  5
1BA
330
1F
100
AcDbEntity
  8
0
  6
SLD-Plná
 62
     7
370
    25
100
AcDbCircle
 10
7748.2739005941
 20
4855.4047060189
 30
0.0
 40
22.36678395755851
100
AcDbArc
 50
261.8721314616
 51
278.1278685384
  0
LINE
  5
1BB
330
1F
100
AcDbEntity
  8
0
  6
SLD-Plná
 62
     7
370
    25
100
AcDbLine
 10
7751.4361782543
 20
4833.2625962594
 30
0.0
 11
7750.7403036985
 21
4837.7526828059
 31
0.0
  0
LINE
  5
1BC
330
1F
100
AcDbEntity
  8
0
  6
SLD-Plná
 62
     7
370
    25
100
AcDbLine
 10
7752.4179473078
 20
4837.9549209978
 30
0.0
 11
7753.1160651911
 21
4833.4503595224
 31
0.0
  0
ARC
  5
1BD
330
1F
100
AcDbEntity
  8
0
  6
SLD-Plná
 62
     7
370
    25
100
AcDbCircle
 10
7745.9969975018
 20
4892.6700855574
 30
0.0
 40
59.64609858512278
100
AcDbArc
 50
276.8548866162
 51
285.19304239
  0
LINE
  5
1BE
330
1F
100
AcDbEntity
  8
0
  6
SLD-Plná
 62
     7
370
    25
100
AcDbLine
 10
7761.628569353
 20
4835.1087179756
 30
0.0
 11
7760.9424035951
 21
4839.5361591182
 31
0.0
  0
LINE
  5
1BF
330
1F
100
AcDbEntity
  8
0
  6
SLD-Plná
 62
     7
370
    25
100
AcDbLine
 10
7762.1625139874
 20
4839.8563249211
 30
0.0
 11
7762.8400999288
 21
4835.4842445016
 31
0.0
  0
LWPOLYLINE
  5
1C0
330
1F
100
AcDbEntity
  8
0
  6
SLD-Plná
 62
     7
370
    25
100
AcDbPolyline
 90
        9
 70
   128
 43
0.0
 10
7762.8400999288
 20
4835.4842445016
 10
7763.5169908453
 20
4835.7290133048
 10
7764.0889549647
 20
4835.968554316
 10
7764.5490792515
 20
4836.1999723265
 10
7764.891802421
 20
4836.4204703061
 10
7765.1129821548
 20
4836.6273832095
 10
7765.2099451676
 20
4836.8182101871
 10
7765.1815195174
 20
4836.9906448117
 10
7765.0280487704
 20
4837.1426029548
  0
LINE
  5
1C1
330
1F
100
AcDbEntity
  8
0
  6
SLD-Plná
 62
     7
370
    25
100
AcDbLine
 10
7765.0280487704
 20
4837.1426029548
 30
0.0
 11
7764.4936795999
 21
4840.5905862211
 31
0.0
  0
LINE
  5
1C2
330
1F
100
AcDbEntity
  8
0
  6
SLD-Plná
 62
     7
370
    25
100
AcDbLine
 10
7753.1160651911
 20
4833.4503595224
 30
0.0
 11
7761.628569353
 21
4835.1087179756
 31
0.0
  0
LINE
  5
1C3
330
1F
100
AcDbEntity
  8
0
  6
SLD-Plná
 62
     7
370
    25
100
AcDbLine
 10
7780.0032129635
 20
4829.9846681935
 30
0.0
 11
7779.9869610854
 21
4829.9846522307
 31
0.0
  0
SPLINE
  5
1C4
330
1F
100
AcDbEntity
  8
0
  6
SLD-Plná
 62
     7
370
    25
100
AcDbSpline
210
0.0
220
0.0
230
1.0
 70
    24
 71
     3
 72
    11
 73
     7
 74
     0
 42
0.00000001
 43
0.00000001
 40
0.0
 40
0.0
 40
0.0
 40
0.0
 40
0.3768981074053372
 40
0.5890604957432887
 40
0.8073470514770439
 40
0.9999999999999999
 40
0.9999999999999999
 40
0.9999999999999999
 40
0.9999999999999999
 10
7777.277142714721
 20
4793.993578250599
 30
0.0
 10
7778.129319754569
 20
4793.993578250599
 30
0.0
 10
7779.461201819485
 20
4793.993578250599
 30
0.0
 10
7780.541391843973
 20
4793.993578250599
 30
0.0
 10
7781.084863500779
 20
4793.993578250599
 30
0.0
 10
7781.135544083487
 20
4793.993578250599
 30
0.0
 10
7781.15930369674
 20
4793.993578250599
 30
0.0
  0
SPLINE
  5
1C5
330
1F
100
AcDbEntity
  8
0
  6
SLD-Plná
 62
     7
370
    25
100
AcDbSpline
210
0.0
220
0.0
230
1.0
 70
     8
 71
     3
 72
    12
 73
     8
 74
     0
 42
0.00000001
 43
0.00000001
 40
0.0
 40
0.0
 40
0.0
 40
0.0
 40
0.1900943724388595
 40
0.3854791070104254
 40
0.653235518939504
 40
0.9282871170579161
 40
1.0
 40
1.0
 40
1.0
 40
1.0
 10
7774.737292634655
 20
4830.024384939193
 30
0.0
 10
7774.296407423541
 20
4830.070935616811
 30
0.0
 10
7773.402367082981
 20
4830.165332486159
 30
0.0
 10
7771.879836802368
 20
4830.898413914446
 30
0.0
 10
7770.19385812919
 20
4832.181771361999
 30
0.0
 10
7768.854563494515
 20
4833.611166394784
 30
0.0
 10
7768.13094429289
 20
4834.511376698729
 30
0.0
 10
7767.981295692947
 20
4834.69754535116
 30
0.0
  0
SPLINE
  5
1C6
330
1F
100
AcDbEntity
  8
0
  6
SLD-Plná
 62
     7
370
    25
100
AcDbSpline
210
0.0
220
0.0
230
1.0
 70
     8
 71
     3
 72
    10
 73
     6
 74
     0
 42
0.00000001
 43
0.00000001
 40
0.0
 40
0.0
 40
0.0
 40
0.0
 40
0.1324584287773581
 40
0.6622924464969028
 40
0.9999999999999999
 40
0.9999999999999999
 40
0.9999999999999999
 40
0.9999999999999999
 10
7778.813193151885
 20
4829.983370814393
 30
0.0
 10
7778.633660150679
 20
4829.985553667964
 30
0.0
 10
7777.735994734497
 20
4829.996467940808
 30
0.0
 10
7776.377855680005
 20
4830.010805239434
 30
0.0
 10
7775.196973974426
 20
4830.020579943953
 30
0.0
 10
7774.737292634655
 20
4830.024384939193
 30
0.0
  0
LINE
  5
1C7
330
1F
100
AcDbEntity
  8
0
  6
SLD-Plná
 62
     7
370
    25
100
AcDbLine
 10
7745.1116229339
 20
4833.2625962594
 30
0.0
 11
7751.4361782543
 21
4833.2625962594
 31
0.0
  0
LINE
  5
1C8
330
1F
100
AcDbEntity
  8
0
  6
SLD-Plná
 62
     7
370
    25
100
AcDbLine
 10
7762.8400999288
 20
4835.4842445016
 30
0.0
 11
7765.0280487704
 21
4837.1426029548
 31
0.0
  0
LINE
  5
1C9
330
1F
100
AcDbEntity
  8
0
  6
SLD-Plná
 62
     7
370
    25
100
AcDbLine
 10
7754.9606966696
 20
4793.9935782506
 30
0.0
 11
7755.0589127997
 21
4793.9935782506
 31
0.0
  0
SPLINE
  5
1CA
330
1F
100
AcDbEntity
  8
0
  6
SLD-Plná
 62
     7
370
    25
100
AcDbSpline
210
0.0
220
0.0
230
1.0
 70
     8
 71
     3
 72
    11
 73
     7
 74
     0
 42
0.00000001
 43
0.00000001
 40
0.0
 40
0.0
 40
0.0
 40
0.0
 40
0.3003625479732404
 40
0.6070071708547338
 40
0.8011309396447021
 40
0.9999999999999999
 40
0.9999999999999999
 40
0.9999999999999999
 40
0.9999999999999999
 10
7767.995463721698
 20
4834.857211160363
 30
0.0
 10
7768.604080300116
 20
4834.157512251652
 30
0.0
 10
7769.83404265692
 20
4832.743480249685
 30
0.0
 10
7771.532965195286
 20
4831.394617028168
 30
0.0
 10
7773.042141446617
 20
4830.629780945756
 30
0.0
 10
7773.88900589774
 20
4830.539343153669
 30
0.0
 10
7774.317550963078
 20
4830.493578250599
 30
0.0
  0
ARC
  5
1CB
330
1F
100
AcDbEntity
  8
0
  6
SLD-Plná
 62
     7
370
    25
100
AcDbCircle
 10
7774.2776487336
 20
4830.0355338999
 30
0.0
 40
0.4597790938285992
100
AcDbArc
 50
358.6105261849
 51
85.0212851574
  0
LINE
  5
1CC
330
1F
100
AcDbEntity
  8
0
  6
SLD-Plná
 62
     7
370
    25
100
AcDbLine
 10
7749.1282623348
 20
4793.9935782506
 30
0.0
 11
7749.1789637665
 21
4793.9935782506
 31
0.0
  0
LINE
  5
1CD
330
1F
100
AcDbEntity
  8
0
  6
SLD-Plná
 62
     7
370
    25
100
AcDbLine
 10
7774.3175509631
 20
4830.4935782506
 30
0.0
 11
7778.3919941804
 21
4830.4935782506
 31
0.0
  0
ARC
  5
1CE
330
1F
100
AcDbEntity
  8
0
  6
SLD-Plná
 62
     7
370
    25
100
AcDbCircle
 10
7778.3477801396
 20
4830.0281146128
 30
0.0
 40
0.4675588513872436
100
AcDbArc
 50
354.5085845303
 51
84.5737980522
  0
LINE
  5
1CF
330
1F
100
AcDbEntity
  8
0
  6
SLD-Plná
 62
     7
370
    25
100
AcDbLine
 10
7778.3919941804
 20
4830.4935782506
 30
0.0
 11
7779.3149413567
 21
4830.4935782506
 31
0.0
  0
LINE
  5
1D0
330
1F
100
AcDbEntity
  8
0
  6
SLD-Plná
 62
     7
370
    25
100
AcDbLine
 10
7703.1314416347
 20
4632.9935782506
 30
0.0
 11
7703.1314416347
 21
4792.9935782506
 31
0.0
  0
LINE
  5
1D1
330
1F
100
AcDbEntity
  8
0
  6
SLD-Plná
 62
     7
370
    25
100
AcDbLine
 10
7703.1314416347
 20
4792.9935782506
 30
0.0
 11
7704.6314416347
 21
4791.4935782506
 31
0.0
  0
LINE
  5
1D2
330
1F
100
AcDbEntity
  8
0
  6
SLD-Plná
 62
     7
370
    25
100
AcDbLine
 10
7704.6314416347
 20
4791.4935782506
 30
0.0
 11
7704.6314416347
 21
4634.4935782506
 31
0.0
  0
LINE
  5
1D3
330
1F
100
AcDbEntity
  8
0
  6
SLD-Plná
 62
     7
370
    25
100
AcDbLine
 10
7703.1314416347
 20
4632.9935782506
 30
0.0
 11
7704.6314416347
 21
4634.4935782506
 31
0.0
  0
LINE
  5
1D4
330
1F
100
AcDbEntity
  8
0
  6
SLD-Plná
 62
     7
370
    25
100
AcDbLine
 10
7704.1314416347
 20
4792.9935782506
 30
0.0
 11
7875.1314416347
 21
4792.9935782506
 31
0.0
  0
LINE
  5
1D5
330
1F
100
AcDbEntity
  8
0
  6
SLD-Plná
 62
     7
370
    25
100
AcDbLine
 10
7875.1314416347
 20
4791.4935782506
 30
0.0
 11
7875.1314416347
 21
4792.9935782506
 31
0.0
  0
LINE
  5
1D6
330
1F
100
AcDbEntity
  8
0
  6
SLD-Plná
 62
     7
370
    25
100
AcDbLine
 10
7875.1314416347
 20
4791.4935782506
 30
0.0
 11
7704.6314416347
 21
4791.4935782506
 31
0.0
  0
LINE
  5
1D7
330
1F
100
AcDbEntity
  8
0
  6
SLD-Plná
 62
     7
370
    25
100
AcDbLine
 10
7704.1314416347
 20
4792.9935782506
 30
0.0
 11
7703.1314416347
 21
4792.9935782506
 31
0.0
  0
LINE
  5
1D8
330
1F
100
AcDbEntity
  8
0
  6
SLD-Plná
 62
     7
370
    25
100
AcDbLine
 10
7703.1314416347
 20
4834.0435782506
 30
0.0
 11
7703.1314416347
 21
4792.9935782506
 31
0.0
  0
ARC
  5
1D9
330
1F
100
AcDbEntity
  8
0
  6
SLD-Plná
 62
     7
370
    25
100
AcDbCircle
 10
7702.7314416347
 20
4834.0435782506
 30
0.0
 40
0.4000000000005457
100
AcDbArc
 50
0.0
 51
90.0
  0
ARC
  5
1DA
330
1F
100
AcDbEntity
  8
0
  6
SLD-Plná
 62
     7
370
    25
100
AcDbCircle
 10
7702.7023113407
 20
4834.0435782506
 30
0.0
 40
0.3999999999997426
100
AcDbArc
 50
90.0
 51
186.8427734127
  0
LINE
  5
1DB
330
1F
100
AcDbEntity
  8
0
  6
SLD-Plná
 62
     7
370
    25
100
AcDbLine
 10
7704.1314416347
 20
4792.9935782506
 30
0.0
 11
7704.1314416347
 21
4833.9435782506
 31
0.0
  0
ARC
  5
1DC
330
1F
100
AcDbEntity
  8
0
  6
SLD-Plná
 62
     7
370
    25
100
AcDbCircle
 10
7702.6314416347
 20
4833.9435782506
 30
0.0
 40
1.5
100
AcDbArc
 50
0.0
 51
86.3542660436
  0
ARC
  5
1DD
330
1F
100
AcDbEntity
  8
0
  6
SLD-Plná
 62
     7
370
    25
100
AcDbCircle
 10
7702.8222030321
 20
4833.9435782506
 30
0.0
 40
1.500000000000227
100
AcDbArc
 50
93.6457339565
 51
186.8427734126
  0
LINE
  5
1DE
330
1F
100
AcDbEntity
  8
0
  6
SLD-Plná
 62
     7
370
    25
100
AcDbLine
 10
7701.3328877744
 20
4833.7648604197
 30
0.0
 11
7702.0314416347
 21
4827.9435782506
 31
0.0
  0
LINE
  5
1DF
330
1F
100
AcDbEntity
  8
0
  6
SLD-Plná
 62
     7
370
    25
100
AcDbLine
 10
7702.0314416347
 20
4827.9435782506
 30
0.0
 11
7703.0314416347
 21
4827.9435782506
 31
0.0
  0
LINE
  5
1E0
330
1F
100
AcDbEntity
  8
0
  6
SLD-Plná
 62
     7
370
    25
100
AcDbLine
 10
7703.0314416347
 20
4827.9435782506
 30
0.0
 11
7702.3051606053
 21
4833.9959201624
 31
0.0
  0
LINE
  5
1E1
330
1F
100
AcDbEntity
  8
0
  6
SLD-Plná
 62
     7
370
    25
100
AcDbLine
 10
7702.7023113407
 20
4834.4435782506
 30
0.0
 11
7702.7314416347
 21
4834.4435782506
 31
0.0
  0
LINE
  5
1E2
330
1F
100
AcDbEntity
  8
0
  6
SLD-Plná
 62
     7
370
    25
100
AcDbLine
 10
7704.6314416347
 20
4634.4935782506
 30
0.0
 11
7875.1314416347
 21
4634.4935782506
 31
0.0
  0
LINE
  5
1E3
330
1F
100
AcDbEntity
  8
0
  6
SLD-Plná
 62
     7
370
    25
100
AcDbLine
 10
7875.1314416347
 20
4791.4935782506
 30
0.0
 11
7875.1314416347
 21
4634.4935782506
 31
0.0
  0
LINE
  5
1E4
330
1F
100
AcDbEntity
  8
0
  6
SLD-Plná
 62
     7
370
    25
100
AcDbLine
 10
7875.1314416347
 20
4632.9935782506
 30
0.0
 11
7703.1314416347
 21
4632.9935782506
 31
0.0
  0
LINE
  5
1E5
330
1F
100
AcDbEntity
  8
0
  6
SLD-Plná
 62
     7
370
    25
100
AcDbLine
 10
7875.1314416347
 20
4632.9935782506
 30
0.0
 11
7875.1314416347
 21
4634.4935782506
 31
0.0
  0
LINE
  5
1E6
330
1F
100
AcDbEntity
  8
0
  6
SLD-Plná
 62
     7
370
    25
100
AcDbLine
 10
8048.6314416347
 20
4632.9935782506
 30
0.0
 11
7875.1314416347
 21
4632.9935782506
 31
0.0
  0
LINE
  5
1E7
330
1F
100
AcDbEntity
  8
0
  6
SLD-Plná
 62
     7
370
    25
100
AcDbLine
 10
7875.1314416347
 20
4792.9935782506
 30
0.0
 11
8048.6314416347
 21
4792.9935782506
 31
0.0
  0
ARC
  5
1E8
330
1F
100
AcDbEntity
  8
0
  6
SLD-Plná
 62
     7
370
    25
100
AcDbCircle
 10
7705.6314416347
 20
4794.4935782506
 30
0.0
 40
1.500000000000909
100
AcDbArc
 50
180.0
 51
270.0
  0
LINE
  5
1E9
330
1F
100
AcDbEntity
  8
0
  6
SLD-Plná
 62
     8
370
    25
100
AcDbLine
 10
7776.7267973538
 20
5025.4935782506
 30
0.0
 11
7766.7267973538
 21
5025.4935782506
 31
0.0
  0
LWPOLYLINE
  5
1EA
330
1F
100
AcDbEntity
  8
0
  6
SLD-Plná
 62
     8
370
    25
100
AcDbPolyline
 90
       10
 70
   128
 43
0.0
 10
7815.3059048636
 20
5035.7838198094
 10
7816.3825065272
 20
5035.8490488813
 10
7817.6247136336
 20
5036.0398983553
 10
7818.9403973643
 20
5036.3422137988
 10
7820.231979476
 20
5036.7335738586
 10
7821.4036692319
 20
5037.1849531492
 10
7822.3685677631
 20
5037.6628749336
 10
7823.0551129595
 20
5038.1318939395
 10
7823.4123869047
 20
5038.5572251727
 10
7823.4476442724
 20
5038.8272296682
  0
LWPOLYLINE
  5
1EB
330
1F
100
AcDbEntity
  8
0
  6
SLD-Plná
 62
     8
370
    25
100
AcDbPolyline
 90
        4
 70
   128
 43
0.0
 10
7813.7838142814
 20
5036.2562012344
 10
7813.9507002889
 20
5036.0398983553
 10
7814.474755263
 20
5035.8490488813
 10
7815.3059048636
 20
5035.7838198094
  0
LWPOLYLINE
  5
1EC
330
1F
100
AcDbEntity
  8
0
  6
SLD-Plná
 62
     8
370
    25
100
AcDbPolyline
 90
       24
 70
   128
 43
0.0
 10
7764.021050764
 20
4851.8108374295
 10
7764.4054155128
 20
4851.6981304259
 10
7764.824053761
 20
4851.4460044086
 10
7764.8925497516
 20
4851.1344621829
 10
7764.6089329798
 20
4850.7724662513
 10
7763.9813625836
 20
4850.3704305777
 10
7763.0278926208
 20
4849.9399209964
 10
7761.7759526862
 20
4849.4933224844
 10
7760.2615588124
 20
4849.0434828675
 10
7758.5282773537
 20
4848.6033432127
 10
7756.6259716621
 20
4848.1855655364
 10
7754.6093676088
 20
4847.8021685418
 10
7752.5364792207
 20
4847.4641818622
 10
7750.4669397227
 20
4847.1813287591
 10
7748.460285998
 20
4846.9617464014
 10
7746.574245821
 20
4846.8117517735
 10
7744.8630771335
 20
4846.735659948
 10
7743.3760071433
 20
4846.735659948
 10
7742.1558161463
 20
4846.8117517735
 10
7741.237606816
 20
4846.9617464014
 10
7740.6477943631
 20
4847.1813287591
 10
7740.4033466179
 20
4847.4641818622
 10
7740.511295897
 20
4847.8021685418
 10
7740.5941111679
 20
4847.8950832011
  0
LWPOLYLINE
  5
1ED
330
1F
100
AcDbEntity
  8
0
  6
SLD-Plná
 62
     8
370
    25
100
AcDbPolyline
 90
       21
 70
   128
 43
0.0
 10
7765.6361595684
 20
4850.4882884532
 10
7765.6362342081
 20
4850.370030564
 10
7765.3984378143
 20
4850.0072851707
 10
7764.8167623738
 20
4849.6030161616
 10
7763.9070744764
 20
4849.1682509414
 10
7762.6941880364
 20
4848.714848772
 10
7761.2111874343
 20
4848.2551772826
 10
7759.4985250606
 20
4847.8017751132
 10
7757.6029178801
 20
4847.3670098931
 10
7755.5760731155
 20
4846.962740884
 10
7753.4732778081
 20
4846.5999954907
 10
7751.3518907325
 20
4846.2886684619
 10
7749.269777798
 20
4846.0372519874
 10
7747.2837336178
 20
4845.8526040533
 10
7745.4479322999
 20
4845.7397613738
 10
7743.8124497187
 20
4845.7018020031
 10
7742.4218975756
 20
4845.7397613738
 10
7741.3142065082
 20
4845.8526040533
 10
7740.5195914413
 20
4846.0372519874
 10
7740.0597274024
 20
4846.2886684619
 10
7739.9452617978
 20
4846.492765276
  0
SPLINE
  5
1EE
330
1F
100
AcDbEntity
  8
0
  6
SLD-Plná
 62
     8
370
    25
100
AcDbSpline
210
0.0
220
0.0
230
1.0
 70
     8
 71
     3
 72
    10
 73
     6
 74
     0
 42
0.00000001
 43
0.00000001
 40
0.0
 40
0.0
 40
0.0
 40
0.0
 40
0.3774686112434476
 40
0.598938063102973
 40
1.0
 40
1.0
 40
1.0
 40
1.0
 10
7779.986961085422
 20
4829.984652230732
 30
0.0
 10
7779.986175637074
 20
4829.984672246225
 30
0.0
 10
7779.984929348248
 20
4829.984704005266
 30
0.0
 10
7779.536615070096
 20
4829.984056595892
 30
0.0
 10
7779.096642631713
 20
4829.983639515693
 30
0.0
 10
7778.813193151885
 20
4829.983370814393
 30
0.0
  0
LINE
  5
1EF
330
1F
100
AcDbEntity
  8
0
  6
SLD-Plná
 62
     8
370
    25
100
AcDbLine
 10
7875.1314416347
 20
4634.4935782506
 30
0.0
 11
8050.1314416347
 21
4634.4935782506
 31
0.0
  0
LINE
  5
1F0
330
1F
100
AcDbEntity
  8
0
  6
SLD-Plná
 62
     8
370
    25
100
AcDbLine
 10
8050.1314416347
 20
4791.4935782506
 30
0.0
 11
7875.1314416347
 21
4791.4935782506
 31
0.0
  0
ENDSEC
  0
SECTION
  2
OBJECTS
  0
DICTIONARY
  5
C
330
0
100
AcDbDictionary
281
     1
  3
ACAD_GROUP
350
D
  3
ACAD_LAYOUT
350
1A
  3
ACAD_MLINESTYLE
350
17
  3
ACAD_PLOTSETTINGS
350
19
  3
ACAD_PLOTSTYLENAME
350
E
  3
ACAD_SCALELIST
350
47
  3
DWGPROPS
350
1F1
  0
DICTIONARY
  5
D
102
{ACAD_REACTORS
330
C
102
}
330
C
100
AcDbDictionary
281
     1
  0
DICTIONARY
  5
1A
102
{ACAD_REACTORS
330
C
102
}
330
C
100
AcDbDictionary
281
     1
  3
Layout1
350
1E
  3
Layout2
350
26
  3
Model
350
22
  0
DICTIONARY
  5
17
102
{ACAD_REACTORS
330
C
102
}
330
C
100
AcDbDictionary
281
     1
  3
Standard
350
18
  0
DICTIONARY
  5
19
102
{ACAD_REACTORS
330
C
102
}
330
C
100
AcDbDictionary
281
     1
  0
ACDBDICTIONARYWDFLT
  5
E
102
{ACAD_REACTORS
330
C
102
}
330
C
100
AcDbDictionary
281
     1
  3
Normal
350
F
100
AcDbDictionaryWithDefault
340
F
  0
DICTIONARY
  5
47
102
{ACAD_REACTORS
330
C
102
}
330
C
100
AcDbDictionary
281
     1
  3
A0
350
48
  3
A1
350
49
  3
A2
350
4A
  3
A3
350
4B
  3
A4
350
4C
  3
A5
350
4D
  3
A6
350
4E
  3
A7
350
4F
  3
A8
350
50
  3
A9
350
51
  3
B0
350
52
  3
B1
350
53
  3
B2
350
54
  3
B3
350
55
  3
B4
350
56
  3
B5
350
57
  3
B6
350
58
  3
B7
350
59
  3
B8
350
5A
  3
B9
350
5B
  3
C0
350
5C
  3
C1
350
5D
  3
C2
350
5E
  3
C3
350
5F
  3
C4
350
60
  3
C5
350
61
  3
C6
350
62
  3
C7
350
63
  3
C8
350
64
  3
C9
350
65
  3
D0
350
66
  3
D1
350
67
  3
D2
350
68
  0
XRECORD
  5
1F1
102
{ACAD_REACTORS
330
C
102
}
330
C
100
AcDbXrecord
280
     1
  1
DWGPROPS COOKIE
  2

  3

  4

  6

  7

  8
radek.stransky
  9

300
=
301
=
302
=
303
=
304
=
305
=
306
=
307
=
308
=
309
=
 40
0.0
 41
2460963.384890116
 42
2460963.384891065
  1

 90
        0
  0
LAYOUT
  5
1E
102
{ACAD_REACTORS
330
1A
102
}
330
1A
100
AcDbPlotSettings
  1

  2
none_device
  4

  6

 40
0.0
 41
0.0
 42
0.0
 43
0.0
 44
0.0
 45
0.0
 46
0.0
 47
0.0
 48
0.0
 49
0.0
140
0.0
141
0.0
142
1.0
143
1.0
 70
   688
 72
     1
 73
     0
 74
     5
  7

 75
    16
147
1.0
148
0.0
149
0.0
100
AcDbLayout
  1
Layout1
 70
     1
 71
     1
 10
0.0
 20
0.0
 11
420.0
 21
297.0
 12
0.0
 22
0.0
 32
0.0
 14
1.0000000000E+20
 24
1.0000000000E+20
 34
1.0000000000E+20
 15
-1.0000000000E+20
 25
-1.0000000000E+20
 35
-1.0000000000E+20
146
0.0
 13
0.0
 23
0.0
 33
0.0
 16
1.0
 26
0.0
 36
0.0
 17
0.0
 27
1.0
 37
0.0
 76
     0
330
1B
  0
LAYOUT
  5
26
102
{ACAD_REACTORS
330
1A
102
}
330
1A
100
AcDbPlotSettings
  1

  2
none_device
  4

  6

 40
0.0
 41
0.0
 42
0.0
 43
0.0
 44
0.0
 45
0.0
 46
0.0
 47
0.0
 48
0.0
 49
0.0
140
0.0
141
0.0
142
1.0
143
1.0
 70
   688
 72
     1
 73
     0
 74
     5
  7

 75
    16
147
1.0
148
0.0
149
0.0
100
AcDbLayout
  1
Layout2
 70
     1
 71
     2
 10
0.0
 20
0.0
 11
0.0
 21
0.0
 12
0.0
 22
0.0
 32
0.0
 14
0.0
 24
0.0
 34
0.0
 15
0.0
 25
0.0
 35
0.0
146
0.0
 13
0.0
 23
0.0
 33
0.0
 16
1.0
 26
0.0
 36
0.0
 17
0.0
 27
1.0
 37
0.0
 76
     0
330
23
  0
LAYOUT
  5
22
102
{ACAD_REACTORS
330
1A
102
}
330
1A
100
AcDbPlotSettings
  1

  2
none_device
  4
Letter_(8.50_x_11.00_Inches)
  6

 40
6.35
 41
6.35
 42
6.35000508
 43
6.35000508
 44
215.9
 45
279.4
 46
0.0
 47
0.0
 48
0.0
 49
0.0
140
0.0
141
0.0
142
1.0
143
1.0
 70
  1712
 72
     1
 73
     0
 74
     0
  7

 75
     0
147
1.0
148
0.0
149
0.0
100
AcDbLayout
  1
Model
 70
     1
 71
     0
 10
0.0
 20
0.0
 11
20000.0
 21
10000.0
 12
0.0
 22
0.0
 32
0.0
 14
0.0
 24
0.0
 34
0.0
 15
20000.0
 25
10000.0
 35
0.0
146
0.0
 13
0.0
 23
0.0
 33
0.0
 16
1.0
 26
0.0
 36
0.0
 17
0.0
 27
1.0
 37
0.0
 76
     0
330
1F
331
29
  0
MLINESTYLE
  5
18
102
{ACAD_REACTORS
330
17
102
}
330
17
100
AcDbMlineStyle
  2
Standard
 70
     0
  3

 62
   256
 51
90.0
 52
90.0
 71
     2
 49
0.5
 62
   256
  6
BYLAYER
 49
-0.5
 62
   256
  6
BYLAYER
  0
ACDBPLACEHOLDER
  5
F
102
{ACAD_REACTORS
330
E
102
}
330
E
  0
SCALE
  5
48
102
{ACAD_REACTORS
330
47
102
}
330
47
100
AcDbScale
 70
     0
300
1:1
140
1.0
141
1.0
290
     1
  0
SCALE
  5
49
102
{ACAD_REACTORS
330
47
102
}
330
47
100
AcDbScale
 70
     0
300
1:2
140
1.0
141
2.0
290
     0
  0
SCALE
  5
4A
102
{ACAD_REACTORS
330
47
102
}
330
47
100
AcDbScale
 70
     0
300
1:4
140
1.0
141
4.0
290
     0
  0
SCALE
  5
4B
102
{ACAD_REACTORS
330
47
102
}
330
47
100
AcDbScale
 70
     0
300
1:5
140
1.0
141
5.0
290
     0
  0
SCALE
  5
4C
102
{ACAD_REACTORS
330
47
102
}
330
47
100
AcDbScale
 70
     0
300
1:8
140
1.0
141
8.0
290
     0
  0
SCALE
  5
4D
102
{ACAD_REACTORS
330
47
102
}
330
47
100
AcDbScale
 70
     0
300
1:10
140
1.0
141
10.0
290
     0
  0
SCALE
  5
4E
102
{ACAD_REACTORS
330
47
102
}
330
47
100
AcDbScale
 70
     0
300
1:16
140
1.0
141
16.0
290
     0
  0
SCALE
  5
4F
102
{ACAD_REACTORS
330
47
102
}
330
47
100
AcDbScale
 70
     0
300
1:20
140
1.0
141
20.0
290
     0
  0
SCALE
  5
50
102
{ACAD_REACTORS
330
47
102
}
330
47
100
AcDbScale
 70
     0
300
1:30
140
1.0
141
30.0
290
     0
  0
SCALE
  5
51
102
{ACAD_REACTORS
330
47
102
}
330
47
100
AcDbScale
 70
     0
300
1:40
140
1.0
141
40.0
290
     0
  0
SCALE
  5
52
102
{ACAD_REACTORS
330
47
102
}
330
47
100
AcDbScale
 70
     0
300
1:50
140
1.0
141
50.0
290
     0
  0
SCALE
  5
53
102
{ACAD_REACTORS
330
47
102
}
330
47
100
AcDbScale
 70
     0
300
1:100
140
1.0
141
100.0
290
     0
  0
SCALE
  5
54
102
{ACAD_REACTORS
330
47
102
}
330
47
100
AcDbScale
 70
     0
300
2:1
140
2.0
141
1.0
290
     0
  0
SCALE
  5
55
102
{ACAD_REACTORS
330
47
102
}
330
47
100
AcDbScale
 70
     0
300
4:1
140
4.0
141
1.0
290
     0
  0
SCALE
  5
56
102
{ACAD_REACTORS
330
47
102
}
330
47
100
AcDbScale
 70
     0
300
8:1
140
8.0
141
1.0
290
     0
  0
SCALE
  5
57
102
{ACAD_REACTORS
330
47
102
}
330
47
100
AcDbScale
 70
     0
300
10:1
140
10.0
141
1.0
290
     0
  0
SCALE
  5
58
102
{ACAD_REACTORS
330
47
102
}
330
47
100
AcDbScale
 70
     0
300
100:1
140
100.0
141
1.0
290
     0
  0
SCALE
  5
59
102
{ACAD_REACTORS
330
47
102
}
330
47
100
AcDbScale
 70
     0
300
1/128" = 1'-0"
140
0.0078125
141
12.0
290
     0
  0
SCALE
  5
5A
102
{ACAD_REACTORS
330
47
102
}
330
47
100
AcDbScale
 70
     0
300
1/64" = 1'-0"
140
0.015625
141
12.0
290
     0
  0
SCALE
  5
5B
102
{ACAD_REACTORS
330
47
102
}
330
47
100
AcDbScale
 70
     0
300
1/32" = 1'-0"
140
0.03125
141
12.0
290
     0
  0
SCALE
  5
5C
102
{ACAD_REACTORS
330
47
102
}
330
47
100
AcDbScale
 70
     0
300
1/16" = 1'-0"
140
0.0625
141
12.0
290
     0
  0
SCALE
  5
5D
102
{ACAD_REACTORS
330
47
102
}
330
47
100
AcDbScale
 70
     0
300
3/32" = 1'-0"
140
0.09375
141
12.0
290
     0
  0
SCALE
  5
5E
102
{ACAD_REACTORS
330
47
102
}
330
47
100
AcDbScale
 70
     0
300
1/8" = 1'-0"
140
0.125
141
12.0
290
     0
  0
SCALE
  5
5F
102
{ACAD_REACTORS
330
47
102
}
330
47
100
AcDbScale
 70
     0
300
3/16" = 1'-0"
140
0.1875
141
12.0
290
     0
  0
SCALE
  5
60
102
{ACAD_REACTORS
330
47
102
}
330
47
100
AcDbScale
 70
     0
300
1/4" = 1'-0"
140
0.25
141
12.0
290
     0
  0
SCALE
  5
61
102
{ACAD_REACTORS
330
47
102
}
330
47
100
AcDbScale
 70
     0
300
3/8" = 1'-0"
140
0.375
141
12.0
290
     0
  0
SCALE
  5
62
102
{ACAD_REACTORS
330
47
102
}
330
47
100
AcDbScale
 70
     0
300
1/2" = 1'-0"
140
0.5
141
12.0
290
     0
  0
SCALE
  5
63
102
{ACAD_REACTORS
330
47
102
}
330
47
100
AcDbScale
 70
     0
300
3/4" = 1'-0"
140
0.75
141
12.0
290
     0
  0
SCALE
  5
64
102
{ACAD_REACTORS
330
47
102
}
330
47
100
AcDbScale
 70
     0
300
1" = 1'-0"
140
1.0
141
12.0
290
     0
  0
SCALE
  5
65
102
{ACAD_REACTORS
330
47
102
}
330
47
100
AcDbScale
 70
     0
300
1-1/2" = 1'-0"
140
1.5
141
12.0
290
     0
  0
SCALE
  5
66
102
{ACAD_REACTORS
330
47
102
}
330
47
100
AcDbScale
 70
     0
300
3" = 1'-0"
140
3.0
141
12.0
290
     0
  0
SCALE
  5
67
102
{ACAD_REACTORS
330
47
102
}
330
47
100
AcDbScale
 70
     0
300
6" = 1'-0"
140
6.0
141
12.0
290
     0
  0
SCALE
  5
68
102
{ACAD_REACTORS
330
47
102
}
330
47
100
AcDbScale
 70
     0
300
1'-0" = 1'-0"
140
12.0
141
12.0
290
     0
  0
ENDSEC
  0
EOF
