  0
SECTION
  2
HEADER
  9
$ACADVER
  1
AC1015
  9
$ACADMAINTVER
 70
     6
  9
$DWGCODEPAGE
  3
ANSI_1250
  9
$INSBASE
 10
0.0
 20
0.0
 30
0.0
  9
$EXTMIN
 10
0.0
 20
0.0
 30
0.0
  9
$EXTMAX
 10
20000.0
 20
10000.0
 30
0.0
  9
$LIMMIN
 10
0.0
 20
0.0
  9
$LIMMAX
 10
20000.0
 20
10000.0
  9
$ORTHOMODE
 70
     0
  9
$REGENMODE
 70
     1
  9
$FILLMODE
 70
     1
  9
$QTEXTMODE
 70
     0
  9
$MIRRTEXT
 70
     1
  9
$LTSCALE
 40
1.0
  9
$ATTMODE
 70
     1
  9
$TEXTSIZE
 40
2.0
  9
$TRACEWID
 40
1.0
  9
$TEXTSTYLE
  7
Standard
  9
$CLAYER
  8
0
  9
$CELTYPE
  6
ByLayer
  9
$CECOLOR
 62
   256
  9
$CELTSCALE
 40
1.0
  9
$DISPSILH
 70
     0
  9
$DIMSCALE
 40
1.0
  9
$DIMASZ
 40
2.0
  9
$DIMEXO
 40
1.0
  9
$DIMDLI
 40
3.75
  9
$DIMRND
 40
0.0
  9
$DIMDLE
 40
0.0
  9
$DIMEXE
 40
1.0
  9
$DIMTP
 40
0.0
  9
$DIMTM
 40
0.0
  9
$DIMTXT
 40
2.0
  9
$DIMCEN
 40
2.5
  9
$DIMTSZ
 40
0.0
  9
$DIMTOL
 70
     0
  9
$DIMLIM
 70
     0
  9
$DIMTIH
 70
     1
  9
$DIMTOH
 70
     1
  9
$DIMSE1
 70
     0
  9
$DIMSE2
 70
     0
  9
$DIMTAD
 70
     1
  9
$DIMZIN
 70
     0
  9
$DIMBLK
  1

  9
$DIMASO
 70
     1
  9
$DIMSHO
 70
     1
  9
$DIMPOST
  1

  9
$DIMAPOST
  1

  9
$DIMALT
 70
     0
  9
$DIMALTD
 70
     3
  9
$DIMALTF
 40
0.0393700787
  9
$DIMLFAC
 40
1.0
  9
$DIMTOFL
 70
     1
  9
$DIMTVP
 40
0.0
  9
$DIMTIX
 70
     0
  9
$DIMSOXD
 70
     0
  9
$DIMSAH
 70
     0
  9
$DIMBLK1
  1

  9
$DIMBLK2
  1

  9
$DIMSTYLE
  2
ISO-25
  9
$DIMCLRD
 70
     0
  9
$DIMCLRE
 70
     0
  9
$DIMCLRT
 70
     0
  9
$DIMTFAC
 40
1.0
  9
$DIMGAP
 40
1.524
  9
$DIMJUST
 70
     0
  9
$DIMSD1
 70
     0
  9
$DIMSD2
 70
     0
  9
$DIMTOLJ
 70
     0
  9
$DIMTZIN
 70
     0
  9
$DIMALTZ
 70
     0
  9
$DIMALTTZ
 70
     0
  9
$DIMUPT
 70
     0
  9
$DIMDEC
 70
     2
  9
$DIMTDEC
 70
     0
  9
$DIMALTU
 70
     2
  9
$DIMALTTD
 70
     3
  9
$DIMTXSTY
  7
Standard
  9
$DIMAUNIT
 70
     0
  9
$DIMADEC
 70
     2
  9
$DIMALTRND
 40
0.0
  9
$DIMAZIN
 70
     0
  9
$DIMDSEP
 70
    44
  9
$DIMATFIT
 70
     3
  9
$DIMFRAC
 70
     0
  9
$DIMLDRBLK
  1

  9
$DIMLUNIT
 70
     2
  9
$DIMLWD
 70
    -2
  9
$DIMLWE
 70
    -2
  9
$DIMTMOVE
 70
     0
  9
$LUNITS
 70
     2
  9
$LUPREC
 70
     3
  9
$SKETCHINC
 40
1.0
  9
$FILLETRAD
 40
10.0
  9
$AUNITS
 70
     0
  9
$AUPREC
 70
     2
  9
$MENU
  1
.
  9
$ELEVATION
 40
0.0
  9
$PELEVATION
 40
0.0
  9
$THICKNESS
 40
0.0
  9
$LIMCHECK
 70
     0
  9
$CHAMFERA
 40
0.0
  9
$CHAMFERB
 40
0.0
  9
$CHAMFERC
 40
0.0
  9
$CHAMFERD
 40
0.0
  9
$SKPOLY
 70
     0
  9
$TDCREATE
 40
2458677.457933125
  9
$TDUCREATE
 40
2458677.374599792
  9
$TDUPDATE
 40
2458677.457933357
  9
$TDUUPDATE
 40
2458677.374600023
  9
$TDINDWG
 40
0.0000000116
  9
$TDUSRTIMER
 40
0.0000000116
  9
$USRTIMER
 70
     1
  9
$ANGBASE
 50
0.0
  9
$ANGDIR
 70
     0
  9
$PDMODE
 70
     0
  9
$PDSIZE
 40
-1.0
  9
$PLINEWID
 40
0.0
  9
$SPLFRAME
 70
     0
  9
$SPLINETYPE
 70
     6
  9
$SPLINESEGS
 70
     8
  9
$HANDSEED
  5
19A
  9
$SURFTAB1
 70
     6
  9
$SURFTAB2
 70
     6
  9
$SURFTYPE
 70
     6
  9
$SURFU
 70
     6
  9
$SURFV
 70
     6
  9
$UCSBASE
  2

  9
$UCSNAME
  2

  9
$UCSORG
 10
0.0
 20
0.0
 30
0.0
  9
$UCSXDIR
 10
1.0
 20
0.0
 30
0.0
  9
$UCSYDIR
 10
0.0
 20
1.0
 30
0.0
  9
$UCSORTHOREF
  2

  9
$UCSORTHOVIEW
 70
     0
  9
$UCSORGTOP
 10
0.0
 20
0.0
 30
0.0
  9
$UCSORGBOTTOM
 10
0.0
 20
0.0
 30
0.0
  9
$UCSORGLEFT
 10
0.0
 20
0.0
 30
0.0
  9
$UCSORGRIGHT
 10
0.0
 20
0.0
 30
0.0
  9
$UCSORGFRONT
 10
0.0
 20
0.0
 30
0.0
  9
$UCSORGBACK
 10
0.0
 20
0.0
 30
0.0
  9
$PUCSBASE
  2

  9
$PUCSNAME
  2

  9
$PUCSORG
 10
0.0
 20
0.0
 30
0.0
  9
$PUCSXDIR
 10
1.0
 20
0.0
 30
0.0
  9
$PUCSYDIR
 10
0.0
 20
1.0
 30
0.0
  9
$PUCSORTHOREF
  2

  9
$PUCSORTHOVIEW
 70
     0
  9
$PUCSORGTOP
 10
0.0
 20
0.0
 30
0.0
  9
$PUCSORGBOTTOM
 10
0.0
 20
0.0
 30
0.0
  9
$PUCSORGLEFT
 10
0.0
 20
0.0
 30
0.0
  9
$PUCSORGRIGHT
 10
0.0
 20
0.0
 30
0.0
  9
$PUCSORGFRONT
 10
0.0
 20
0.0
 30
0.0
  9
$PUCSORGBACK
 10
0.0
 20
0.0
 30
0.0
  9
$USERI1
 70
     0
  9
$USERI2
 70
     0
  9
$USERI3
 70
     0
  9
$USERI4
 70
     0
  9
$USERI5
 70
     0
  9
$USERR1
 40
0.0
  9
$USERR2
 40
0.0
  9
$USERR3
 40
0.0
  9
$USERR4
 40
0.0
  9
$USERR5
 40
0.0
  9
$WORLDVIEW
 70
     1
  9
$SHADEDGE
 70
     3
  9
$SHADEDIF
 70
    70
  9
$TILEMODE
 70
     1
  9
$MAXACTVP
 70
    64
  9
$PINSBASE
 10
0.0
 20
0.0
 30
0.0
  9
$PLIMCHECK
 70
     0
  9
$PEXTMIN
 10
1.0000000000E+20
 20
1.0000000000E+20
 30
1.0000000000E+20
  9
$PEXTMAX
 10
-1.0000000000E+20
 20
-1.0000000000E+20
 30
-1.0000000000E+20
  9
$PLIMMIN
 10
0.0
 20
0.0
  9
$PLIMMAX
 10
420.0
 20
297.0
  9
$UNITMODE
 70
     0
  9
$VISRETAIN
 70
     1
  9
$PLINEGEN
 70
     0
  9
$PSLTSCALE
 70
     1
  9
$TREEDEPTH
 70
  3020
  9
$CMLSTYLE
  2
Standard
  9
$CMLJUST
 70
     0
  9
$CMLSCALE
 40
20.0
  9
$PROXYGRAPHICS
 70
     1
  9
$MEASUREMENT
 70
     1
  9
$CELWEIGHT
370
    -1
  9
$ENDCAPS
280
     0
  9
$JOINSTYLE
280
     0
  9
$LWDISPLAY
290
     1
  9
$INSUNITS
 70
     4
  9
$HYPERLINKBASE
  1

  9
$STYLESHEET
  1

  9
$XEDIT
290
     1
  9
$CEPSNTYPE
380
     0
  9
$PSTYLEMODE
290
     1
  9
$FINGERPRINTGUID
  2
{4C8C6C6F-6219-4B93-90DF-8000B6D718CA}
  9
$VERSIONGUID
  2
{FAEB1C32-E019-11D5-929B-00C0DF256EC4}
  9
$EXTNAMES
290
     1
  9
$PSVPSCALE
 40
0.0
  9
$OLESTARTUP
290
     0
  0
ENDSEC
  0
SECTION
  2
CLASSES
  0
CLASS
  1
ACDBDICTIONARYWDFLT
  2
AcDbDictionaryWithDefault
  3
ObjectDBX Classes
 90
        0
280
     0
281
     0
  0
CLASS
  1
VISUALSTYLE
  2
AcDbVisualStyle
  3
ObjectDBX Classes
 90
     4095
280
     0
281
     0
  0
CLASS
  1
MATERIAL
  2
AcDbMaterial
  3
ObjectDBX Classes
 90
     1153
280
     0
281
     0
  0
CLASS
  1
SCALE
  2
AcDbScale
  3
ObjectDBX Classes
 90
     1153
280
     0
281
     0
  0
CLASS
  1
TABLESTYLE
  2
AcDbTableStyle
  3
ObjectDBX Classes
 90
     4095
280
     0
281
     0
  0
CLASS
  1
MLEADERSTYLE
  2
AcDbMLeaderStyle
  3
ACDB_MLEADERSTYLE_CLASS
 90
     4095
280
     0
281
     0
  0
CLASS
  1
SUN
  2
AcDbSun
  3
SCENEOE
 90
     1153
280
     0
281
     0
  0
CLASS
  1
ACDBPLACEHOLDER
  2
AcDbPlaceHolder
  3
ObjectDBX Classes
 90
        0
280
     0
281
     0
  0
CLASS
  1
LAYOUT
  2
AcDbLayout
  3
ObjectDBX Classes
 90
        0
280
     0
281
     0
  0
ENDSEC
  0
SECTION
  2
TABLES
  0
TABLE
  2
VPORT
  5
8
330
0
100
AcDbSymbolTable
 70
     1
  0
VPORT
  5
29
330
8
100
AcDbSymbolTableRecord
100
AcDbViewportTableRecord
  2
*Active
 70
     0
 10
0.0
 20
0.0
 11
1.0
 21
1.0
 12
10000.0
 22
5000.0
 13
0.0
 23
0.0
 14
10.0
 24
10.0
 15
10.0
 25
10.0
 16
0.0
 26
0.0
 36
1.0
 17
0.0
 27
0.0
 37
0.0
 40
10000.0
 41
2.0
 42
50.0
 43
0.0
 44
0.0
 50
0.0
 51
0.0
 71
     0
 72
  2000
 73
     1
 74
     3
 75
     0
 76
     0
 77
     0
 78
     0
281
     0
 65
     1
110
0.0
120
0.0
130
0.0
111
1.0
121
0.0
131
0.0
112
0.0
122
1.0
132
0.0
 79
     0
146
0.0
  0
ENDTAB
  0
TABLE
  2
LTYPE
  5
5
330
0
100
AcDbSymbolTable
 70
     6
  0
LTYPE
  5
14
330
5
100
AcDbSymbolTableRecord
100
AcDbLinetypeTableRecord
  2
ByBlock
 70
     0
  3

 72
    65
 73
     0
 40
0.0
  0
LTYPE
  5
15
330
5
100
AcDbSymbolTableRecord
100
AcDbLinetypeTableRecord
  2
ByLayer
 70
     0
  3

 72
    65
 73
     0
 40
0.0
  0
LTYPE
  5
16
330
5
100
AcDbSymbolTableRecord
100
AcDbLinetypeTableRecord
  2
Continuous
 70
     0
  3
Solid line
 72
    65
 73
     0
 40
0.0
  0
LTYPE
  5
6E
330
5
100
AcDbSymbolTableRecord
100
AcDbLinetypeTableRecord
  2
HIDDEN
 70
     0
  3
Hidden __ __ __ __ __ __ __ __ __ __ __ __ __ __
 72
    65
 73
     2
 40
1.905
 49
1.27
 74
     0
 49
-0.635
 74
     0
  0
LTYPE
  5
6F
330
5
100
AcDbSymbolTableRecord
100
AcDbLinetypeTableRecord
  2
PHANTOM
 70
     0
  3
Phantom ______  __  __  ______  __  __  ______
 72
    65
 73
     6
 40
12.7
 49
6.35
 74
     0
 49
-1.27
 74
     0
 49
1.27
 74
     0
 49
-1.27
 74
     0
 49
1.27
 74
     0
 49
-1.27
 74
     0
  0
LTYPE
  5
70
330
5
100
AcDbSymbolTableRecord
100
AcDbLinetypeTableRecord
  2
CENTER
 70
     0
  3
Center ____ _ ____ _ ____ _ ____ _ ____ _ ____
 72
    65
 73
     4
 40
10.16
 49
6.35
 74
     0
 49
-1.27
 74
     0
 49
1.27
 74
     0
 49
-1.27
 74
     0
  0
LTYPE
  5
71
330
5
100
AcDbSymbolTableRecord
100
AcDbLinetypeTableRecord
  2
CENTERX2
 70
     0
  3
Center (2x) ________  __  ________  __  _____
 72
    65
 73
     4
 40
20.32
 49
12.7
 74
     0
 49
-2.54
 74
     0
 49
2.54
 74
     0
 49
-2.54
 74
     0
  0
LTYPE
  5
72
330
5
100
AcDbSymbolTableRecord
100
AcDbLinetypeTableRecord
  2
DOT2
 70
     0
  3
Dot (.5x) ........................................
 72
    65
 73
     2
 40
0.635
 49
0.0
 74
     0
 49
-0.635
 74
     0
  0
ENDTAB
  0
TABLE
  2
LAYER
  5
2
330
0
100
AcDbSymbolTable
 70
    13
  0
LAYER
  5
10
330
2
100
AcDbSymbolTableRecord
100
AcDbLayerTableRecord
  2
0
 70
     0
 62
     7
  6
Continuous
370
    -3
390
F
  0
LAYER
  5
73
330
2
100
AcDbSymbolTableRecord
100
AcDbLayerTableRecord
  2
FORMAT
 70
     0
 62
     7
  6
Continuous
370
    -3
390
F
  0
LAYER
  5
74
330
2
100
AcDbSymbolTableRecord
100
AcDbLayerTableRecord
  2
OSA
 70
     0
 62
     7
  6
CENTER
370
    -3
390
F
  0
LAYER
  5
75
330
2
100
AcDbSymbolTableRecord
100
AcDbLayerTableRecord
  2
0_35
 70
     0
 62
     7
  6
Continuous
370
    35
390
F
  0
LAYER
  5
76
330
2
100
AcDbSymbolTableRecord
100
AcDbLayerTableRecord
  2
0_5
 70
     0
 62
     7
  6
Continuous
370
    50
390
F
  0
LAYER
  5
77
330
2
100
AcDbSymbolTableRecord
100
AcDbLayerTableRecord
  2
0_25
 70
     0
 62
     7
  6
Continuous
370
    25
390
F
  0
LAYER
  5
78
330
2
100
AcDbSymbolTableRecord
100
AcDbLayerTableRecord
  2
0_18
 70
     0
 62
     7
  6
Continuous
370
    -3
390
F
  0
LAYER
  5
79
330
2
100
AcDbSymbolTableRecord
100
AcDbLayerTableRecord
  2
SLD-0
 70
     0
 62
   179
  6
Continuous
370
    -3
390
F
  0
LAYER
  5
7A
330
2
100
AcDbSymbolTableRecord
100
AcDbLayerTableRecord
  2
KOTY
 70
     0
 62
     7
  6
Continuous
370
    -3
390
F
  0
LAYER
  5
7B
330
2
100
AcDbSymbolTableRecord
100
AcDbLayerTableRecord
  2
SILNA
 70
     0
 62
   179
  6
Continuous
370
    -3
390
F
  0
LAYER
  5
7C
330
2
100
AcDbSymbolTableRecord
100
AcDbLayerTableRecord
  2
0_18_1
 70
     0
 62
   179
  6
Continuous
370
    -3
390
F
  0
LAYER
  5
7D
330
2
100
AcDbSymbolTableRecord
100
AcDbLayerTableRecord
  2
0_35_1
 70
     0
 62
   179
  6
Continuous
370
    35
390
F
  0
LAYER
  5
7E
330
2
100
AcDbSymbolTableRecord
100
AcDbLayerTableRecord
  2
0_5_1
 70
     0
 62
   179
  6
Continuous
370
    50
390
F
  0
ENDTAB
  0
TABLE
  2
STYLE
  5
3
330
0
100
AcDbSymbolTable
 70
     1
  0
STYLE
  5
11
330
3
100
AcDbSymbolTableRecord
100
AcDbTextStyleTableRecord
  2
Standard
 70
     0
 40
0.0
 41
1.0
 50
0.0
 71
     0
 42
2.0
  3
txt
  4

  0
ENDTAB
  0
TABLE
  2
VIEW
  5
6
330
0
100
AcDbSymbolTable
 70
     0
  0
ENDTAB
  0
TABLE
  2
UCS
  5
7
330
0
100
AcDbSymbolTable
 70
     0
  0
ENDTAB
  0
TABLE
  2
APPID
  5
9
330
0
100
AcDbSymbolTable
 70
     1
  0
APPID
  5
12
330
9
100
AcDbSymbolTableRecord
100
AcDbRegAppTableRecord
  2
ACAD
 70
     0
  0
ENDTAB
  0
TABLE
  2
DIMSTYLE
  5
A
330
0
100
AcDbSymbolTable
 70
     1
100
AcDbDimStyleTable
  0
DIMSTYLE
105
27
330
A
100
AcDbSymbolTableRecord
100
AcDbDimStyleTableRecord
  2
ISO-25
 70
     0
 41
2.5
 42
0.625
 43
3.75
 44
1.25
 73
     0
 74
     0
 77
     1
 78
     8
140
2.5
141
2.5
143
0.0393700787
147
0.625
171
     3
172
     1
178
     0
271
     2
272
     2
274
     3
278
    44
283
     0
284
     8
340
11
  0
ENDTAB
  0
TABLE
  2
BLOCK_RECORD
  5
1
330
0
100
AcDbSymbolTable
 70
     1
  0
BLOCK_RECORD
  5
1F
330
1
100
AcDbSymbolTableRecord
100
AcDbBlockTableRecord
  2
*Model_Space
340
22
  0
BLOCK_RECORD
  5
1B
330
1
100
AcDbSymbolTableRecord
100
AcDbBlockTableRecord
  2
*Paper_Space
340
1E
  0
BLOCK_RECORD
  5
23
330
1
100
AcDbSymbolTableRecord
100
AcDbBlockTableRecord
  2
*Paper_Space0
340
26
  0
ENDTAB
  0
ENDSEC
  0
SECTION
  2
BLOCKS
  0
BLOCK
  5
20
330
1F
100
AcDbEntity
  8
0
100
AcDbBlockBegin
  2
*Model_Space
 70
     0
 10
0.0
 20
0.0
 30
0.0
  3
*Model_Space
  1

  0
ENDBLK
  5
21
330
1F
100
AcDbEntity
  8
0
100
AcDbBlockEnd
  0
BLOCK
  5
1C
330
1B
100
AcDbEntity
 67
     1
  8
0
100
AcDbBlockBegin
  2
*Paper_Space
 70
     0
 10
0.0
 20
0.0
 30
0.0
  3
*Paper_Space
  1

  0
ENDBLK
  5
1D
330
1B
100
AcDbEntity
 67
     1
  8
0
100
AcDbBlockEnd
  0
BLOCK
  5
24
330
23
100
AcDbEntity
  8
0
100
AcDbBlockBegin
  2
*Paper_Space0
 70
     0
 10
0.0
 20
0.0
 30
0.0
  3
*Paper_Space0
  1

  0
ENDBLK
  5
25
330
23
100
AcDbEntity
  8
0
100
AcDbBlockEnd
  0
ENDSEC
  0
SECTION
  2
ENTITIES
  0
LINE
  5
7F
330
1F
100
AcDbEntity
  8
0
  6
Continuous
 62
     7
370
    25
100
AcDbLine
 10
6239.0187553361
 20
5238.4991611688
 30
0.0
 11
6242.0187553361
 21
5231.4991611688
 31
0.0
  0
LINE
  5
80
330
1F
100
AcDbEntity
  8
0
  6
Continuous
 62
     7
370
    25
100
AcDbLine
 10
6306.0187553361
 20
5231.4991611688
 30
0.0
 11
6309.0187553361
 21
5238.4991611688
 31
0.0
  0
LINE
  5
81
330
1F
100
AcDbEntity
  8
0
  6
Continuous
 62
     7
370
    25
100
AcDbLine
 10
6242.0187553361
 20
5231.4991611688
 30
0.0
 11
6247.5187553361
 21
5225.9991611688
 31
0.0
  0
LINE
  5
82
330
1F
100
AcDbEntity
  8
0
  6
Continuous
 62
     7
370
    25
100
AcDbLine
 10
6300.5187553361
 20
5225.9991611688
 30
0.0
 11
6306.0187553361
 21
5231.4991611688
 31
0.0
  0
LINE
  5
83
330
1F
100
AcDbEntity
  8
0
  6
Continuous
 62
     7
370
    25
100
AcDbLine
 10
6244.5187553361
 20
5201.4991611688
 30
0.0
 11
6244.5187553361
 21
5198.4991611688
 31
0.0
  0
LINE
  5
84
330
1F
100
AcDbEntity
  8
0
  6
Continuous
 62
     7
370
    25
100
AcDbLine
 10
6303.5187553361
 20
5198.4991611688
 30
0.0
 11
6303.5187553361
 21
5201.4991611688
 31
0.0
  0
LINE
  5
85
330
1F
100
AcDbEntity
  8
0
  6
Continuous
 62
     7
370
    25
100
AcDbLine
 10
6247.5187553361
 20
5225.9991611688
 30
0.0
 11
6247.5187553361
 21
5201.4991611688
 31
0.0
  0
LINE
  5
86
330
1F
100
AcDbEntity
  8
0
  6
Continuous
 62
     7
370
    25
100
AcDbLine
 10
6300.5187553361
 20
5201.4991611688
 30
0.0
 11
6300.5187553361
 21
5225.9991611688
 31
0.0
  0
LINE
  5
87
330
1F
100
AcDbEntity
  8
0
  6
Continuous
 62
     7
370
    25
100
AcDbLine
 10
6244.0187553361
 20
5198.4991611688
 30
0.0
 11
6246.0187553361
 21
5194.4991611688
 31
0.0
  0
LINE
  5
88
330
1F
100
AcDbEntity
  8
0
  6
Continuous
 62
     7
370
    25
100
AcDbLine
 10
6302.0187553361
 20
5194.4991611688
 30
0.0
 11
6304.0187553361
 21
5198.4991611688
 31
0.0
  0
LINE
  5
89
330
1F
100
AcDbEntity
  8
0
  6
Continuous
 62
     7
370
    25
100
AcDbLine
 10
6246.0187553361
 20
5194.4991611688
 30
0.0
 11
6246.0187553361
 21
5187.4991611688
 31
0.0
  0
LINE
  5
8A
330
1F
100
AcDbEntity
  8
0
  6
Continuous
 62
     7
370
    25
100
AcDbLine
 10
6302.0187553361
 20
5187.4991611688
 30
0.0
 11
6302.0187553361
 21
5194.4991611688
 31
0.0
  0
ARC
  5
8B
330
1F
100
AcDbEntity
  8
0
  6
Continuous
 62
     7
370
    25
100
AcDbCircle
 10
6249.0187553361
 20
5187.4991611688
 30
0.0
 40
3.0
100
AcDbArc
 50
180.0
 51
270.0
  0
ARC
  5
8C
330
1F
100
AcDbEntity
  8
0
  6
Continuous
 62
     7
370
    25
100
AcDbCircle
 10
6299.0187553361
 20
5187.4991611688
 30
0.0
 40
3.0
100
AcDbArc
 50
270.0
 51
0.0
  0
LINE
  5
8D
330
1F
100
AcDbEntity
  8
0
  6
Continuous
 62
     7
370
    25
100
AcDbLine
 10
6258.0187553361
 20
5184.4991611688
 30
0.0
 11
6258.0187553361
 21
5174.4991611688
 31
0.0
  0
LINE
  5
8E
330
1F
100
AcDbEntity
  8
0
  6
Continuous
 62
     7
370
    25
100
AcDbLine
 10
6258.0187553361
 20
5160.4991611688
 30
0.0
 11
6258.0187553361
 21
5157.9991611688
 31
0.0
  0
LINE
  5
8F
330
1F
100
AcDbEntity
  8
0
  6
Continuous
 62
     7
370
    25
100
AcDbLine
 10
6290.0187553361
 20
5157.9991611688
 30
0.0
 11
6290.0187553361
 21
5160.4991611688
 31
0.0
  0
LINE
  5
90
330
1F
100
AcDbEntity
  8
0
  6
Continuous
 62
     7
370
    25
100
AcDbLine
 10
6290.0187553361
 20
5174.4991611688
 30
0.0
 11
6290.0187553361
 21
5184.4991611688
 31
0.0
  0
LINE
  5
91
330
1F
100
AcDbEntity
  8
0
  6
Continuous
 62
     7
370
    25
100
AcDbLine
 10
6240.0187553361
 20
5097.9991611688
 30
0.0
 11
6246.912541056
 21
5030.6934853074
 31
0.0
  0
LINE
  5
92
330
1F
100
AcDbEntity
  8
0
  6
Continuous
 62
     7
370
    25
100
AcDbLine
 10
6301.1249696162
 20
5030.6934853074
 30
0.0
 11
6308.0187553361
 21
5097.9991611688
 31
0.0
  0
LINE
  5
93
330
1F
100
AcDbEntity
  8
0
  6
Continuous
 62
     7
370
    25
100
AcDbLine
 10
6308.0187553361
 20
5097.9991611688
 30
0.0
 11
6301.3281970913
 21
5155.3468032675
 31
0.0
  0
LINE
  5
94
330
1F
100
AcDbEntity
  8
0
  6
Continuous
 62
     7
370
    25
100
AcDbLine
 10
6246.7093135809
 20
5155.3468032675
 30
0.0
 11
6240.0187553361
 21
5097.9991611688
 31
0.0
  0
ARC
  5
95
330
1F
100
AcDbEntity
  8
0
  6
Continuous
 62
     7
370
    25
100
AcDbCircle
 10
6249.6891029982
 20
5154.9991611688
 30
0.0
 40
3.000000000000909
100
AcDbArc
 50
90.0
 51
173.345574954
  0
ARC
  5
96
330
1F
100
AcDbEntity
  8
0
  6
Continuous
 62
     7
370
    25
100
AcDbCircle
 10
6298.348407674
 20
5154.9991611688
 30
0.0
 40
3.000000000000909
100
AcDbArc
 50
6.654425046
 51
90.0
  0
ARC
  5
97
330
1F
100
AcDbEntity
  8
0
  6
Continuous
 62
     7
370
    25
100
AcDbCircle
 10
6249.8969274699
 20
5030.9991611688
 30
0.0
 40
3.000000000000517
100
AcDbArc
 50
185.8481280262
 51
270.0
  0
ARC
  5
98
330
1F
100
AcDbEntity
  8
0
  6
Continuous
 62
     7
370
    25
100
AcDbCircle
 10
6298.1405832023
 20
5030.9991611688
 30
0.0
 40
3.000000000000517
100
AcDbArc
 50
270.0
 51
354.1518719738
  0
LINE
  5
99
330
1F
100
AcDbEntity
  8
0
  6
Continuous
 62
     7
370
    25
100
AcDbLine
 10
6299.0187553361
 20
5160.4991611688
 30
0.0
 11
6297.0187553361
 21
5164.4991611688
 31
0.0
  0
LINE
  5
9A
330
1F
100
AcDbEntity
  8
0
  6
Continuous
 62
     7
370
    25
100
AcDbLine
 10
6251.0187553361
 20
5164.4991611688
 30
0.0
 11
6249.0187553361
 21
5160.4991611688
 31
0.0
  0
LINE
  5
9B
330
1F
100
AcDbEntity
  8
0
  6
Continuous
 62
     7
370
    25
100
AcDbLine
 10
6251.0187553361
 20
5171.4991611688
 30
0.0
 11
6251.0187553361
 21
5164.4991611688
 31
0.0
  0
LINE
  5
9C
330
1F
100
AcDbEntity
  8
0
  6
Continuous
 62
     7
370
    25
100
AcDbLine
 10
6297.0187553361
 20
5164.4991611688
 30
0.0
 11
6297.0187553361
 21
5171.4991611688
 31
0.0
  0
ARC
  5
9D
330
1F
100
AcDbEntity
  8
0
  6
Continuous
 62
     7
370
    25
100
AcDbCircle
 10
6254.0187553361
 20
5171.4991611688
 30
0.0
 40
3.0
100
AcDbArc
 50
90.0
 51
180.0
  0
ARC
  5
9E
330
1F
100
AcDbEntity
  8
0
  6
Continuous
 62
     7
370
    25
100
AcDbCircle
 10
6294.0187553361
 20
5171.4991611688
 30
0.0
 40
3.0
100
AcDbArc
 50
0.0
 51
90.0
  0
LINE
  5
9F
330
1F
100
AcDbEntity
  8
0
  6
Continuous
 62
     7
370
    25
100
AcDbLine
 10
6258.0187553361
 20
5160.4991611688
 30
0.0
 11
6258.0187553361
 21
5157.9991611688
 31
0.0
  0
LINE
  5
A0
330
1F
100
AcDbEntity
  8
0
  6
Continuous
 62
     7
370
    25
100
AcDbLine
 10
6290.0187553361
 20
5157.9991611688
 30
0.0
 11
6290.0187553361
 21
5160.4991611688
 31
0.0
  0
ARC
  5
A1
330
1F
100
AcDbEntity
  8
0
  6
Continuous
 62
     7
370
    25
100
AcDbCircle
 10
6051.3696342073
 20
5394.3997480167
 30
0.0
 40
5.000000000000226
100
AcDbArc
 50
90.0
 51
165.9716192483
  0
ARC
  5
A2
330
1F
100
AcDbEntity
  8
0
  6
Continuous
 62
     7
370
    25
100
AcDbCircle
 10
6496.6678764649
 20
5394.3997480167
 30
0.0
 40
5.000000000000226
100
AcDbArc
 50
14.0283807517
 51
90.0
  0
LINE
  5
A3
330
1F
100
AcDbEntity
  8
0
  6
Continuous
 62
     7
370
    25
100
AcDbLine
 10
6046.5187553361
 20
5395.6117604657
 30
0.0
 11
6047.6829662652
 21
5395.320877478
 31
0.0
  0
LINE
  5
A4
330
1F
100
AcDbEntity
  8
0
  6
Continuous
 62
     7
370
    25
100
AcDbLine
 10
6500.354544407
 20
5395.320877478
 30
0.0
 11
6501.5187553361
 21
5395.6117604657
 31
0.0
  0
LINE
  5
A5
330
1F
100
AcDbEntity
  8
0
  6
Continuous
 62
     7
370
    25
100
AcDbLine
 10
6064.8158081492
 20
5395.320877478
 30
0.0
 11
6064.8452477051
 21
5395.193816693
 31
0.0
  0
LINE
  5
A6
330
1F
100
AcDbEntity
  8
0
  6
Continuous
 62
     7
370
    25
100
AcDbLine
 10
6483.1922629671
 20
5395.193816693
 30
0.0
 11
6483.221702523
 21
5395.320877478
 31
0.0
  0
ARC
  5
A7
330
1F
100
AcDbEntity
  8
0
  6
Continuous
 62
     7
370
    25
100
AcDbCircle
 10
6259.3582803644
 20
5436.7579281874
 30
0.0
 40
198.9042363516359
100
AcDbArc
 50
192.0617313502
 51
265.3828824108
  0
ARC
  5
A8
330
1F
100
AcDbEntity
  8
0
  6
Continuous
 62
     7
370
    25
100
AcDbCircle
 10
6288.6792303078
 20
5436.7579281874
 30
0.0
 40
198.9042363516359
100
AcDbArc
 50
274.6171175892
 51
347.9382686498
  0
LINE
  5
A9
330
1F
100
AcDbEntity
  8
0
  6
Continuous
 62
     7
370
    25
100
AcDbLine
 10
6239.0187553361
 20
5238.4991611688
 30
0.0
 11
6309.0187553361
 21
5238.4991611688
 31
0.0
  0
LINE
  5
AA
330
1F
100
AcDbEntity
  8
0
  6
Continuous
 62
     7
370
    25
100
AcDbLine
 10
6242.0187553361
 20
5231.4991611688
 30
0.0
 11
6306.0187553361
 21
5231.4991611688
 31
0.0
  0
LINE
  5
AB
330
1F
100
AcDbEntity
  8
0
  6
Continuous
 62
     7
370
    25
100
AcDbLine
 10
6247.5187553361
 20
5225.9991611688
 30
0.0
 11
6300.5187553361
 21
5225.9991611688
 31
0.0
  0
LINE
  5
AC
330
1F
100
AcDbEntity
  8
0
  6
Continuous
 62
     7
370
    25
100
AcDbLine
 10
6244.5187553361
 20
5201.4991611688
 30
0.0
 11
6303.5187553361
 21
5201.4991611688
 31
0.0
  0
LINE
  5
AD
330
1F
100
AcDbEntity
  8
0
  6
Continuous
 62
     7
370
    25
100
AcDbLine
 10
6277.5473180784
 20
5194.4991611688
 30
0.0
 11
6302.0187553361
 21
5194.4991611688
 31
0.0
  0
LINE
  5
AE
330
1F
100
AcDbEntity
  8
0
  6
Continuous
 62
     7
370
    25
100
AcDbLine
 10
6246.0187553361
 20
5194.4991611688
 30
0.0
 11
6277.5473180784
 21
5194.4991611688
 31
0.0
  0
LINE
  5
AF
330
1F
100
AcDbEntity
  8
0
  6
Continuous
 62
     7
370
    25
100
AcDbLine
 10
6277.7993582742
 20
5198.4991611688
 30
0.0
 11
6304.0187553361
 21
5198.4991611688
 31
0.0
  0
LINE
  5
B0
330
1F
100
AcDbEntity
  8
0
  6
Continuous
 62
     7
370
    25
100
AcDbLine
 10
6244.0187553361
 20
5198.4991611688
 30
0.0
 11
6277.7993582742
 21
5198.4991611688
 31
0.0
  0
LINE
  5
B1
330
1F
100
AcDbEntity
  8
0
  6
Continuous
 62
     7
370
    25
100
AcDbLine
 10
6277.1692577846
 20
5184.4991611688
 30
0.0
 11
6299.0187553361
 21
5184.4991611688
 31
0.0
  0
LINE
  5
B2
330
1F
100
AcDbEntity
  8
0
  6
Continuous
 62
     7
370
    25
100
AcDbLine
 10
6249.0187553361
 20
5184.4991611688
 30
0.0
 11
6277.1692577846
 21
5184.4991611688
 31
0.0
  0
ARC
  5
B3
330
1F
100
AcDbEntity
  8
0
  6
Continuous
 62
     7
370
    25
100
AcDbCircle
 10
6274.0187553361
 20
5135.9991611688
 30
0.0
 40
40.00000000000055
100
AcDbArc
 50
0.0
 51
54.9003678046
  0
ARC
  5
B4
330
1F
100
AcDbEntity
  8
0
  6
Continuous
 62
     7
370
    25
100
AcDbCircle
 10
6274.0187553361
 20
5135.9991611688
 30
0.0
 40
39.99999999999996
100
AcDbArc
 50
125.0996321954
 51
216.1070114058
  0
ARC
  5
B5
330
1F
100
AcDbEntity
  8
0
  6
Continuous
 62
     7
370
    25
100
AcDbCircle
 10
6274.0187553361
 20
5135.9991611688
 30
0.0
 40
40.0
100
AcDbArc
 50
323.8929885942
 51
0.0
  0
LINE
  5
B6
330
1F
100
AcDbEntity
  8
0
  6
Continuous
 62
     7
370
    25
100
AcDbLine
 10
6240.0187553361
 20
5097.9991611688
 30
0.0
 11
6308.0187553361
 21
5097.9991611688
 31
0.0
  0
LINE
  5
B7
330
1F
100
AcDbEntity
  8
0
  6
Continuous
 62
     7
370
    25
100
AcDbLine
 10
6249.6891029982
 20
5157.9991611688
 30
0.0
 11
6298.348407674
 21
5157.9991611688
 31
0.0
  0
LINE
  5
B8
330
1F
100
AcDbEntity
  8
0
  6
Continuous
 62
     7
370
    25
100
AcDbLine
 10
6249.8969274699
 20
5027.9991611688
 30
0.0
 11
6298.1405832023
 21
5027.9991611688
 31
0.0
  0
LINE
  5
B9
330
1F
100
AcDbEntity
  8
0
  6
Continuous
 62
     7
370
    25
100
AcDbLine
 10
6251.0187553361
 20
5164.4991611688
 30
0.0
 11
6297.0187553361
 21
5164.4991611688
 31
0.0
  0
LINE
  5
BA
330
1F
100
AcDbEntity
  8
0
  6
Continuous
 62
     7
370
    25
100
AcDbLine
 10
6249.0187553361
 20
5160.4991611688
 30
0.0
 11
6299.0187553361
 21
5160.4991611688
 31
0.0
  0
LINE
  5
BB
330
1F
100
AcDbEntity
  8
0
  6
Continuous
 62
     7
370
    25
100
AcDbLine
 10
6254.0187553361
 20
5174.4991611688
 30
0.0
 11
6294.0187553361
 21
5174.4991611688
 31
0.0
  0
LINE
  5
BC
330
1F
100
AcDbEntity
  8
0
  6
Continuous
 62
     7
370
    25
100
AcDbLine
 10
6290.5187553361
 20
5157.9991611688
 30
0.0
 11
6290.0187553361
 21
5158.3654304151
 31
0.0
  0
LINE
  5
BD
330
1F
100
AcDbEntity
  8
0
  6
Continuous
 62
     7
370
    25
100
AcDbLine
 10
6258.0187553361
 20
5158.3654304151
 30
0.0
 11
6257.5187553361
 21
5157.9991611688
 31
0.0
  0
LINE
  5
BE
330
1F
100
AcDbEntity
  8
0
  6
Continuous
 62
     7
370
    25
100
AcDbLine
 10
6274.0187553361
 20
5399.3997480167
 30
0.0
 11
6496.6678764649
 21
5399.3997480167
 31
0.0
  0
LINE
  5
BF
330
1F
100
AcDbEntity
  8
0
  6
Continuous
 62
     7
370
    25
100
AcDbLine
 10
6051.3696342073
 20
5399.3997480167
 30
0.0
 11
6274.0187553361
 21
5399.3997480167
 31
0.0
  0
LINE
  5
C0
330
1F
100
AcDbEntity
  8
0
  6
Continuous
 62
     7
370
    25
100
AcDbLine
 10
6274.0187553361
 20
5395.6117604657
 30
0.0
 11
6501.5187553361
 21
5395.6117604657
 31
0.0
  0
LINE
  5
C1
330
1F
100
AcDbEntity
  8
0
  6
Continuous
 62
     7
370
    25
100
AcDbLine
 10
6046.5187553361
 20
5395.6117604657
 30
0.0
 11
6274.0187553361
 21
5395.6117604657
 31
0.0
  0
LINE
  5
C2
330
1F
100
AcDbEntity
  8
0
  6
Continuous
 62
     7
370
    25
100
AcDbLine
 10
6274.0187553361
 20
5395.320877478
 30
0.0
 11
6500.354544407
 21
5395.320877478
 31
0.0
  0
LINE
  5
C3
330
1F
100
AcDbEntity
  8
0
  6
Continuous
 62
     7
370
    25
100
AcDbLine
 10
6047.6829662652
 20
5395.320877478
 30
0.0
 11
6274.0187553361
 21
5395.320877478
 31
0.0
  0
LINE
  5
C4
330
1F
100
AcDbEntity
  8
0
  6
Continuous
 62
     8
370
    25
100
AcDbLine
 10
6277.5473180784
 20
5187.4991611688
 30
0.0
 11
6302.0187553361
 21
5187.4991611688
 31
0.0
  0
LINE
  5
C5
330
1F
100
AcDbEntity
  8
0
  6
Continuous
 62
     8
370
    25
100
AcDbLine
 10
6246.0187553361
 20
5187.4991611688
 30
0.0
 11
6277.5473180784
 21
5187.4991611688
 31
0.0
  0
LINE
  5
C6
330
1F
100
AcDbEntity
  8
0
  6
Continuous
 62
     8
370
    25
100
AcDbLine
 10
6246.912541056
 20
5030.6934853074
 30
0.0
 11
6301.1249696162
 21
5030.6934853074
 31
0.0
  0
LINE
  5
C7
330
1F
100
AcDbEntity
  8
0
  6
Continuous
 62
     8
370
    25
100
AcDbLine
 10
6301.3281970913
 20
5155.3468032675
 30
0.0
 11
6246.7093135809
 21
5155.3468032675
 31
0.0
  0
LINE
  5
C8
330
1F
100
AcDbEntity
  8
0
  6
Continuous
 62
     8
370
    25
100
AcDbLine
 10
6251.0187553361
 20
5171.4991611688
 30
0.0
 11
6297.0187553361
 21
5171.4991611688
 31
0.0
  0
LINE
  5
C9
330
1F
100
AcDbEntity
  8
0
  6
Continuous
 62
     8
370
    25
100
AcDbLine
 10
6274.0187553361
 20
5395.193816693
 30
0.0
 11
6483.1922629671
 21
5395.193816693
 31
0.0
  0
LINE
  5
CA
330
1F
100
AcDbEntity
  8
0
  6
Continuous
 62
     8
370
    25
100
AcDbLine
 10
6064.8452477051
 20
5395.193816693
 30
0.0
 11
6274.0187553361
 21
5395.193816693
 31
0.0
  0
LINE
  5
CB
330
1F
100
AcDbEntity
  8
0
  6
Continuous
 62
     7
370
    25
100
AcDbLine
 10
7109.2128484706
 20
5238.4991611688
 30
0.0
 11
7112.2128484706
 21
5231.4991611688
 31
0.0
  0
LINE
  5
CC
330
1F
100
AcDbEntity
  8
0
  6
Continuous
 62
     7
370
    25
100
AcDbLine
 10
7176.2128484706
 20
5231.4991611688
 30
0.0
 11
7179.2128484706
 21
5238.4991611688
 31
0.0
  0
LINE
  5
CD
330
1F
100
AcDbEntity
  8
0
  6
Continuous
 62
     7
370
    25
100
AcDbLine
 10
7112.2128484706
 20
5231.4991611688
 30
0.0
 11
7116.7238093961
 21
5226.9882002433
 31
0.0
  0
LINE
  5
CE
330
1F
100
AcDbEntity
  8
0
  6
Continuous
 62
     7
370
    25
100
AcDbLine
 10
7170.7128484706
 20
5225.9991611688
 30
0.0
 11
7176.2128484706
 21
5231.4991611688
 31
0.0
  0
LINE
  5
CF
330
1F
100
AcDbEntity
  8
0
  6
Continuous
 62
     7
370
    25
100
AcDbLine
 10
7114.7128484706
 20
5201.4991611688
 30
0.0
 11
7114.7128484706
 21
5198.4991611688
 31
0.0
  0
LINE
  5
D0
330
1F
100
AcDbEntity
  8
0
  6
Continuous
 62
     7
370
    25
100
AcDbLine
 10
7173.7128484706
 20
5198.4991611688
 30
0.0
 11
7173.7128484706
 21
5201.4991611688
 31
0.0
  0
LINE
  5
D1
330
1F
100
AcDbEntity
  8
0
  6
Continuous
 62
     7
370
    25
100
AcDbLine
 10
7117.7128484706
 20
5202.0371268814
 30
0.0
 11
7117.7128484706
 21
5201.4991611688
 31
0.0
  0
LINE
  5
D2
330
1F
100
AcDbEntity
  8
0
  6
Continuous
 62
     7
370
    25
100
AcDbLine
 10
7170.7128484706
 20
5201.4991611688
 30
0.0
 11
7170.7128484706
 21
5225.9991611688
 31
0.0
  0
LINE
  5
D3
330
1F
100
AcDbEntity
  8
0
  6
Continuous
 62
     7
370
    25
100
AcDbLine
 10
6947.2051461304
 20
5350.3126130419
 30
0.0
 11
6949.938568086
 21
5351.3074972715
 31
0.0
  0
LINE
  5
D4
330
1F
100
AcDbEntity
  8
0
  6
Continuous
 62
     7
370
    25
100
AcDbLine
 10
6935.6593779731
 20
5390.8057635449
 30
0.0
 11
6932.8403001107
 21
5389.7797031149
 31
0.0
  0
LINE
  5
D5
330
1F
100
AcDbEntity
  8
0
  6
Continuous
 62
     7
370
    25
100
AcDbLine
 10
6932.8403001107
 20
5389.7797031149
 30
0.0
 11
6932.4568216095
 21
5386.4475950376
 31
0.0
  0
LINE
  5
D6
330
1F
100
AcDbEntity
  8
0
  6
Continuous
 62
     7
370
    25
100
AcDbLine
 10
6944.7695467692
 20
5352.6186606893
 30
0.0
 11
6947.2051461304
 21
5350.3126130419
 31
0.0
  0
LINE
  5
D7
330
1F
100
AcDbEntity
  8
0
  6
Continuous
 62
     7
370
    25
100
AcDbLine
 10
6942.4203152173
 20
5351.763610331
 30
0.0
 11
6944.7695467692
 21
5352.6186606893
 31
0.0
  0
LINE
  5
D8
330
1F
100
AcDbEntity
  8
0
  6
Continuous
 62
     7
370
    25
100
AcDbLine
 10
6932.4568216095
 20
5386.4475950376
 30
0.0
 11
6930.1075900576
 21
5385.5925446793
 31
0.0
  0
LINE
  5
D9
330
1F
100
AcDbEntity
  8
0
  6
Continuous
 62
     7
370
    25
100
AcDbLine
 10
6928.3318280924
 20
5323.2239093772
 30
0.0
 11
6962.2759120872
 21
5229.9633050774
 31
0.0
  0
LINE
  5
DA
330
1F
100
AcDbEntity
  8
0
  6
Continuous
 62
     7
370
    25
100
AcDbLine
 10
6985.7682276068
 20
5238.5138086606
 30
0.0
 11
6951.824143612
 21
5331.7744129604
 31
0.0
  0
ARC
  5
DB
330
1F
100
AcDbEntity
  8
0
  6
Continuous
 62
     7
370
    25
100
AcDbCircle
 10
7002.2128484706
 20
5244.4991611688
 30
0.0
 40
17.50000000000091
100
AcDbArc
 50
200.0
 51
270.0
  0
ARC
  5
DC
330
1F
100
AcDbEntity
  8
0
  6
Continuous
 62
     7
370
    25
100
AcDbCircle
 10
7002.2128484706
 20
5244.4991611688
 30
0.0
 40
42.50000000000091
100
AcDbArc
 50
200.0
 51
270.0
  0
LINE
  5
DD
330
1F
100
AcDbEntity
  8
0
  6
Continuous
 62
     7
370
    25
100
AcDbLine
 10
7116.7257421203
 20
5226.9991611688
 30
0.0
 11
7002.2128484706
 21
5226.9991611688
 31
0.0
  0
LINE
  5
DE
330
1F
100
AcDbEntity
  8
0
  6
Continuous
 62
     7
370
    25
100
AcDbLine
 10
7002.2128484706
 20
5201.9991611688
 30
0.0
 11
7117.7307354034
 21
5201.9991611688
 31
0.0
  0
LINE
  5
DF
330
1F
100
AcDbEntity
  8
0
  6
Continuous
 62
     7
370
    25
100
AcDbLine
 10
6949.9447583704
 20
5331.0903726737
 30
0.0
 11
6942.4203152173
 21
5351.763610331
 31
0.0
  0
LINE
  5
E0
330
1F
100
AcDbEntity
  8
0
  6
Continuous
 62
     7
370
    25
100
AcDbLine
 10
6922.6867701808
 20
5344.5811873212
 30
0.0
 11
6930.2112133339
 21
5323.9079496639
 31
0.0
  0
LINE
  5
E1
330
1F
100
AcDbEntity
  8
0
  6
Continuous
 62
     7
370
    25
100
AcDbLine
 10
7114.2128484706
 20
5198.4991611688
 30
0.0
 11
7116.2128484706
 21
5194.4991611688
 31
0.0
  0
LINE
  5
E2
330
1F
100
AcDbEntity
  8
0
  6
Continuous
 62
     7
370
    25
100
AcDbLine
 10
7172.2128484706
 20
5194.4991611688
 30
0.0
 11
7174.2128484706
 21
5198.4991611688
 31
0.0
  0
LINE
  5
E3
330
1F
100
AcDbEntity
  8
0
  6
Continuous
 62
     7
370
    25
100
AcDbLine
 10
7116.2128484706
 20
5194.4991611688
 30
0.0
 11
7116.2128484706
 21
5187.4991611688
 31
0.0
  0
LINE
  5
E4
330
1F
100
AcDbEntity
  8
0
  6
Continuous
 62
     7
370
    25
100
AcDbLine
 10
7172.2128484706
 20
5187.4991611688
 30
0.0
 11
7172.2128484706
 21
5194.4991611688
 31
0.0
  0
ARC
  5
E5
330
1F
100
AcDbEntity
  8
0
  6
Continuous
 62
     7
370
    25
100
AcDbCircle
 10
7119.2128484706
 20
5187.4991611688
 30
0.0
 40
3.000000000000909
100
AcDbArc
 50
180.0
 51
270.0
  0
ARC
  5
E6
330
1F
100
AcDbEntity
  8
0
  6
Continuous
 62
     7
370
    25
100
AcDbCircle
 10
7169.2128484706
 20
5187.4991611688
 30
0.0
 40
3.0
100
AcDbArc
 50
270.0
 51
0.0
  0
LINE
  5
E7
330
1F
100
AcDbEntity
  8
0
  6
Continuous
 62
     7
370
    25
100
AcDbLine
 10
7128.2128484706
 20
5184.4991611688
 30
0.0
 11
7128.2128484706
 21
5174.4991611688
 31
0.0
  0
LINE
  5
E8
330
1F
100
AcDbEntity
  8
0
  6
Continuous
 62
     7
370
    25
100
AcDbLine
 10
7128.2128484706
 20
5160.4991611688
 30
0.0
 11
7128.2128484706
 21
5157.9991611688
 31
0.0
  0
LINE
  5
E9
330
1F
100
AcDbEntity
  8
0
  6
Continuous
 62
     7
370
    25
100
AcDbLine
 10
7160.2128484706
 20
5157.9991611688
 30
0.0
 11
7160.2128484706
 21
5160.4991611688
 31
0.0
  0
LINE
  5
EA
330
1F
100
AcDbEntity
  8
0
  6
Continuous
 62
     7
370
    25
100
AcDbLine
 10
7160.2128484706
 20
5174.4991611688
 30
0.0
 11
7160.2128484706
 21
5184.4991611688
 31
0.0
  0
LINE
  5
EB
330
1F
100
AcDbEntity
  8
0
  6
Continuous
 62
     7
370
    25
100
AcDbLine
 10
6927.0155817756
 20
5368.5044791134
 30
0.0
 11
6900.3753552263
 21
5358.8082296154
 31
0.0
  0
LINE
  5
EC
330
1F
100
AcDbEntity
  8
0
  6
Continuous
 62
     7
370
    25
100
AcDbLine
 10
6902.4274760863
 20
5353.1700738907
 30
0.0
 11
6925.7787784628
 21
5361.669252887
 31
0.0
  0
LINE
  5
ED
330
1F
100
AcDbEntity
  8
0
  6
Continuous
 62
     7
370
    25
100
AcDbLine
 10
6916.1468317483
 20
5175.9991611688
 30
0.0
 11
6901.1468317483
 21
5175.9991611688
 31
0.0
  0
LINE
  5
EE
330
1F
100
AcDbEntity
  8
0
  6
Continuous
 62
     7
370
    25
100
AcDbLine
 10
6901.1468317483
 20
5095.9991611688
 30
0.0
 11
6916.1468317483
 21
5095.9991611688
 31
0.0
  0
ARC
  5
EF
330
1F
100
AcDbEntity
  8
0
  6
Continuous
 62
     7
370
    25
100
AcDbCircle
 10
6916.1468317483
 20
5155.9991611688
 30
0.0
 40
20.00000000000091
100
AcDbArc
 50
0.0
 51
90.0
  0
ARC
  5
F0
330
1F
100
AcDbEntity
  8
0
  6
Continuous
 62
     7
370
    25
100
AcDbCircle
 10
6916.1468317483
 20
5115.9991611688
 30
0.0
 40
20.00000000000091
100
AcDbArc
 50
270.0
 51
0.0
  0
LINE
  5
F1
330
1F
100
AcDbEntity
  8
0
  6
Continuous
 62
     7
370
    25
100
AcDbLine
 10
6901.1468317483
 20
5155.9991611688
 30
0.0
 11
6891.1468317483
 21
5155.9991611688
 31
0.0
  0
LINE
  5
F2
330
1F
100
AcDbEntity
  8
0
  6
Continuous
 62
     7
370
    25
100
AcDbLine
 10
6891.1468317483
 20
5115.9991611688
 30
0.0
 11
6901.1468317483
 21
5115.9991611688
 31
0.0
  0
LINE
  5
F3
330
1F
100
AcDbEntity
  8
0
  6
Continuous
 62
     7
370
    25
100
AcDbLine
 10
7084.2128484706
 20
5155.9991611688
 30
0.0
 11
6936.1468317483
 21
5155.9991611688
 31
0.0
  0
LINE
  5
F4
330
1F
100
AcDbEntity
  8
0
  6
Continuous
 62
     7
370
    25
100
AcDbLine
 10
6936.1468317483
 20
5115.9991611688
 30
0.0
 11
7084.2128484706
 21
5115.9991611688
 31
0.0
  0
LINE
  5
F5
330
1F
100
AcDbEntity
  8
0
  6
Continuous
 62
     7
370
    25
100
AcDbLine
 10
7110.2128484706
 20
5097.9991611688
 30
0.0
 11
7117.1066341904
 21
5030.6934853074
 31
0.0
  0
LINE
  5
F6
330
1F
100
AcDbEntity
  8
0
  6
Continuous
 62
     7
370
    25
100
AcDbLine
 10
7171.3190627507
 20
5030.6934853074
 30
0.0
 11
7178.2128484706
 21
5097.9991611688
 31
0.0
  0
LINE
  5
F7
330
1F
100
AcDbEntity
  8
0
  6
Continuous
 62
     7
370
    25
100
AcDbLine
 10
7178.2128484706
 20
5097.9991611688
 30
0.0
 11
7171.5222902257
 21
5155.3468032675
 31
0.0
  0
LINE
  5
F8
330
1F
100
AcDbEntity
  8
0
  6
Continuous
 62
     7
370
    25
100
AcDbLine
 10
7112.0839501057
 20
5114.0371751838
 30
0.0
 11
7110.2128484706
 21
5097.9991611688
 31
0.0
  0
LINE
  5
F9
330
1F
100
AcDbEntity
  8
0
  6
Continuous
 62
     7
370
    25
100
AcDbLine
 10
7100.2128484706
 20
5163.4991611688
 30
0.0
 11
7096.2128484706
 21
5161.9991611688
 31
0.0
  0
LINE
  5
FA
330
1F
100
AcDbEntity
  8
0
  6
Continuous
 62
     7
370
    25
100
AcDbLine
 10
7096.2128484706
 20
5109.9991611688
 30
0.0
 11
7100.2128484706
 21
5108.4991611688
 31
0.0
  0
ARC
  5
FB
330
1F
100
AcDbEntity
  8
0
  6
Continuous
 62
     7
370
    25
100
AcDbCircle
 10
7168.5425008085
 20
5154.9991611688
 30
0.0
 40
3.000000000000909
100
AcDbArc
 50
6.654425046
 51
90.0
  0
ARC
  5
FC
330
1F
100
AcDbEntity
  8
0
  6
Continuous
 62
     7
370
    25
100
AcDbCircle
 10
7120.0910206044
 20
5030.9991611688
 30
0.0
 40
3.0
100
AcDbArc
 50
185.8481280262
 51
270.0
  0
ARC
  5
FD
330
1F
100
AcDbEntity
  8
0
  6
Continuous
 62
     7
370
    25
100
AcDbCircle
 10
7168.3346763368
 20
5030.9991611688
 30
0.0
 40
3.000000000000517
100
AcDbArc
 50
270.0
 51
354.1518719738
  0
ARC
  5
FE
330
1F
100
AcDbEntity
  8
0
  6
Continuous
 62
     7
370
    25
100
AcDbCircle
 10
7087.2128484706
 20
5158.9991611688
 30
0.0
 40
3.0
100
AcDbArc
 50
90.0
 51
180.0
  0
ARC
  5
FF
330
1F
100
AcDbEntity
  8
0
  6
Continuous
 62
     7
370
    25
100
AcDbCircle
 10
7087.2128484706
 20
5112.9991611688
 30
0.0
 40
3.0
100
AcDbArc
 50
180.0
 51
270.0
  0
LINE
  5
100
330
1F
100
AcDbEntity
  8
0
  6
Continuous
 62
     7
370
    25
100
AcDbLine
 10
7096.2128484706
 20
5161.9991611688
 30
0.0
 11
7087.2128484706
 21
5161.9991611688
 31
0.0
  0
LINE
  5
101
330
1F
100
AcDbEntity
  8
0
  6
Continuous
 62
     7
370
    25
100
AcDbLine
 10
7087.2128484706
 20
5109.9991611688
 30
0.0
 11
7096.2128484706
 21
5109.9991611688
 31
0.0
  0
LINE
  5
102
330
1F
100
AcDbEntity
  8
0
  6
Continuous
 62
     7
370
    25
100
AcDbLine
 10
7169.2128484706
 20
5160.4991611688
 30
0.0
 11
7167.2128484706
 21
5164.4991611688
 31
0.0
  0
LINE
  5
103
330
1F
100
AcDbEntity
  8
0
  6
Continuous
 62
     7
370
    25
100
AcDbLine
 10
7121.2128484706
 20
5164.4991611688
 30
0.0
 11
7119.2128484706
 21
5160.4991611688
 31
0.0
  0
ARC
  5
104
330
1F
100
AcDbEntity
  8
0
  6
Continuous
 62
     7
370
    25
100
AcDbCircle
 10
7124.2128484706
 20
5171.4991611688
 30
0.0
 40
3.0
100
AcDbArc
 50
90.0
 51
180.0
  0
ARC
  5
105
330
1F
100
AcDbEntity
  8
0
  6
Continuous
 62
     7
370
    25
100
AcDbCircle
 10
7164.2128484706
 20
5171.4991611688
 30
0.0
 40
3.000000000000909
100
AcDbArc
 50
0.0
 51
90.0
  0
LINE
  5
106
330
1F
100
AcDbEntity
  8
0
  6
Continuous
 62
     7
370
    25
100
AcDbLine
 10
7121.2128484706
 20
5171.4991611688
 30
0.0
 11
7121.2128484706
 21
5164.4991611688
 31
0.0
  0
LINE
  5
107
330
1F
100
AcDbEntity
  8
0
  6
Continuous
 62
     7
370
    25
100
AcDbLine
 10
7167.2128484706
 20
5164.4991611688
 30
0.0
 11
7167.2128484706
 21
5171.4991611688
 31
0.0
  0
LINE
  5
108
330
1F
100
AcDbEntity
  8
0
  6
Continuous
 62
     7
370
    25
100
AcDbLine
 10
7100.2128484706
 20
5113.9991611688
 30
0.0
 11
7112.1076936324
 21
5113.9991611688
 31
0.0
  0
LINE
  5
109
330
1F
100
AcDbEntity
  8
0
  6
Continuous
 62
     7
370
    25
100
AcDbLine
 10
7117.2128484706
 20
5157.9991611688
 30
0.0
 11
7100.2128484706
 21
5157.9991611688
 31
0.0
  0
LINE
  5
10A
330
1F
100
AcDbEntity
  8
0
  6
Continuous
 62
     7
370
    25
100
AcDbLine
 10
7128.2128484706
 20
5160.4991611688
 30
0.0
 11
7128.2128484706
 21
5157.9991611688
 31
0.0
  0
LINE
  5
10B
330
1F
100
AcDbEntity
  8
0
  6
Continuous
 62
     7
370
    25
100
AcDbLine
 10
7160.2128484706
 20
5157.9991611688
 30
0.0
 11
7160.2128484706
 21
5160.4991611688
 31
0.0
  0
ARC
  5
10C
330
1F
100
AcDbEntity
  8
0
  6
Continuous
 62
     7
370
    25
100
AcDbCircle
 10
6921.5637273418
 20
5394.3997480167
 30
0.0
 40
5.000000000000226
100
AcDbArc
 50
90.0
 51
165.9716192483
  0
ARC
  5
10D
330
1F
100
AcDbEntity
  8
0
  6
Continuous
 62
     7
370
    25
100
AcDbCircle
 10
7366.8619695993
 20
5394.3997480167
 30
0.0
 40
5.000000000000226
100
AcDbArc
 50
14.0283807517
 51
90.0
  0
LINE
  5
10E
330
1F
100
AcDbEntity
  8
0
  6
Continuous
 62
     7
370
    25
100
AcDbLine
 10
6916.7128484706
 20
5395.6117604657
 30
0.0
 11
6917.8770593997
 21
5395.320877478
 31
0.0
  0
LINE
  5
10F
330
1F
100
AcDbEntity
  8
0
  6
Continuous
 62
     7
370
    25
100
AcDbLine
 10
7370.5486375415
 20
5395.320877478
 30
0.0
 11
7371.7128484706
 21
5395.6117604657
 31
0.0
  0
LINE
  5
110
330
1F
100
AcDbEntity
  8
0
  6
Continuous
 62
     7
370
    25
100
AcDbLine
 10
6935.0099012836
 20
5395.320877478
 30
0.0
 11
6935.0393408396
 21
5395.193816693
 31
0.0
  0
LINE
  5
111
330
1F
100
AcDbEntity
  8
0
  6
Continuous
 62
     7
370
    25
100
AcDbLine
 10
7353.3863561015
 20
5395.193816693
 30
0.0
 11
7353.4157956575
 21
5395.320877478
 31
0.0
  0
ARC
  5
112
330
1F
100
AcDbEntity
  8
0
  6
Continuous
 62
     7
370
    25
100
AcDbCircle
 10
7129.5523734989
 20
5436.7579281874
 30
0.0
 40
198.9042363516359
100
AcDbArc
 50
205.442551354
 51
265.3828824108
  0
ARC
  5
113
330
1F
100
AcDbEntity
  8
0
  6
Continuous
 62
     7
370
    25
100
AcDbCircle
 10
7129.5523734989
 20
5436.7579281874
 30
0.0
 40
198.9042363516353
100
AcDbArc
 50
192.0617313502
 51
194.287295668
  0
ARC
  5
114
330
1F
100
AcDbEntity
  8
0
  6
Continuous
 62
     7
370
    25
100
AcDbCircle
 10
7158.8733234423
 20
5436.7579281874
 30
0.0
 40
198.9042363516358
100
AcDbArc
 50
274.6171175892
 51
347.9382686498
  0
LINE
  5
115
330
1F
100
AcDbEntity
  8
0
  6
Continuous
 62
     7
370
    25
100
AcDbLine
 10
7144.2128484706
 20
5238.4991611688
 30
0.0
 11
7179.2128484706
 21
5238.4991611688
 31
0.0
  0
LINE
  5
116
330
1F
100
AcDbEntity
  8
0
  6
Continuous
 62
     7
370
    25
100
AcDbLine
 10
7109.2128484706
 20
5238.4991611688
 30
0.0
 11
7144.2128484706
 21
5238.4991611688
 31
0.0
  0
LINE
  5
117
330
1F
100
AcDbEntity
  8
0
  6
Continuous
 62
     7
370
    25
100
AcDbLine
 10
7144.2128484706
 20
5231.4991611688
 30
0.0
 11
7176.2128484706
 21
5231.4991611688
 31
0.0
  0
LINE
  5
118
330
1F
100
AcDbEntity
  8
0
  6
Continuous
 62
     7
370
    25
100
AcDbLine
 10
7112.2128484706
 20
5231.4991611688
 30
0.0
 11
7144.2128484706
 21
5231.4991611688
 31
0.0
  0
SPLINE
  5
119
330
1F
100
AcDbEntity
  8
0
  6
Continuous
 62
     7
370
    25
100
AcDbSpline
210
0.0
220
0.0
230
1.0
 70
     8
 71
     3
 72
    10
 73
     6
 74
     0
 42
0.000000001
 43
0.00000001
 40
0.0
 40
0.0
 40
0.0
 40
0.0
 40
0.4575030543493942
 40
0.9222007526202949
 40
1.0
 40
1.0
 40
1.0
 40
1.0
 10
7116.725840908343
 20
5226.990231755527
 30
0.0
 10
7116.788401554783
 20
5226.947208015712
 30
0.0
 10
7116.914506669674
 20
5226.860483949371
 30
0.0
 10
7117.637813684823
 20
5226.363683822239
 30
0.0
 10
7118.102915183803
 20
5226.044880598328
 30
0.0
 10
7118.169615184357
 20
5225.999161168786
 30
0.0
  0
LINE
  5
11A
330
1F
100
AcDbEntity
  8
0
  6
Continuous
 62
     7
370
    25
100
AcDbLine
 10
7118.1696151844
 20
5225.9991611688
 30
0.0
 11
7170.7128484706
 21
5225.9991611688
 31
0.0
  0
LINE
  5
11B
330
1F
100
AcDbEntity
  8
0
  6
Continuous
 62
     7
370
    25
100
AcDbLine
 10
7144.2128484706
 20
5201.4991611688
 30
0.0
 11
7173.7128484706
 21
5201.4991611688
 31
0.0
  0
LINE
  5
11C
330
1F
100
AcDbEntity
  8
0
  6
Continuous
 62
     7
370
    25
100
AcDbLine
 10
7114.7128484706
 20
5201.4991611688
 30
0.0
 11
7144.2128484706
 21
5201.4991611688
 31
0.0
  0
SPLINE
  5
11D
330
1F
100
AcDbEntity
  8
0
  6
Continuous
 62
     7
370
    25
100
AcDbSpline
210
0.0
220
0.0
230
1.0
 70
     8
 71
     3
 72
    14
 73
    10
 74
     0
 42
0.000000001
 43
0.00000001
 40
0.0
 40
0.0
 40
0.0
 40
0.0
 40
0.1533532004492748
 40
0.3112237015158164
 40
0.4645392318064644
 40
0.6224054285957876
 40
0.772938480168057
 40
0.9287239189072324
 40
1.0
 40
1.0
 40
1.0
 40
1.0
 10
7120.212848470568
 20
5209.021935593735
 30
0.0
 10
7120.056632226921
 20
5208.399122284007
 30
0.0
 10
7119.739598102808
 20
5207.135149552829
 30
0.0
 10
7119.191906621768
 20
5205.521758511758
 30
0.0
 10
7118.663026187588
 20
5204.143348618327
 30
0.0
 10
7118.208479219444
 20
5203.078790669319
 30
0.0
 10
7117.881444737414
 20
5202.35724550309
 30
0.0
 10
7117.717918447037
 20
5202.009904750435
 30
0.0
 10
7117.727673393763
 20
5202.030623219764
 30
0.0
 10
7117.730735534696
 20
5202.037126881421
 30
0.0
  0
SPLINE
  5
11E
330
1F
100
AcDbEntity
  8
0
  6
Continuous
 62
     7
370
    25
100
AcDbSpline
210
0.0
220
0.0
230
1.0
 70
     8
 71
     3
 72
    10
 73
     6
 74
     0
 42
0.000000001
 43
0.00000001
 40
0.0
 40
0.0
 40
0.0
 40
0.0
 40
0.1883898901716103
 40
0.6332747442565537
 40
1.0
 40
1.0
 40
1.0
 40
1.0
 10
7118.169615184357
 20
5225.999161168786
 30
0.0
 10
7118.275046177916
 20
5225.755965171719
 30
0.0
 10
7118.629453653934
 20
5224.938459079927
 30
0.0
 10
7119.414644363894
 20
5223.003197799801
 30
0.0
 10
7119.964428866347
 20
5220.918400444706
 30
0.0
 10
7120.212848470568
 20
5219.976386743839
 30
0.0
  0
LINE
  5
11F
330
1F
100
AcDbEntity
  8
0
  6
Continuous
 62
     7
370
    25
100
AcDbLine
 10
6947.2051461304
 20
5350.3126130419
 30
0.0
 11
6932.8403001107
 21
5389.7797031149
 31
0.0
  0
LINE
  5
120
330
1F
100
AcDbEntity
  8
0
  6
Continuous
 62
     7
370
    25
100
AcDbLine
 10
6944.7198249323
 20
5365.9123901142
 30
0.0
 11
6935.6593779731
 21
5390.8057635449
 31
0.0
  0
LINE
  5
121
330
1F
100
AcDbEntity
  8
0
  6
Continuous
 62
     7
370
    25
100
AcDbLine
 10
6944.7695467692
 20
5352.6186606893
 30
0.0
 11
6932.4568216095
 21
5386.4475950376
 31
0.0
  0
LWPOLYLINE
  5
122
330
1F
100
AcDbEntity
  8
0
  6
Continuous
 62
     7
370
    25
100
AcDbPolyline
 90
       16
 70
   128
 43
0.0
 10
6942.4203152173
 20
5351.763610331
 10
6941.860835598
 20
5351.8608815048
 10
6940.3076200807
 20
5352.0857964623
 10
6937.8054422079
 20
5352.2806329653
 10
6936.1692712776
 20
5352.2685222131
 10
6934.3486894406
 20
5352.0923952499
 10
6931.5050916917
 20
5351.3870358913
 10
6928.8434397661
 20
5350.1328055639
 10
6926.6177144765
 20
5348.5652204216
 10
6924.6191426555
 20
5346.7302143601
 10
6923.7963465626
 20
5345.858750519
 10
6923.1719247763
 20
5345.1539133613
 10
6922.8222757784
 20
5344.743320221
 10
6922.6872800886
 20
5344.5818005471
 10
6922.6867701808
 20
5344.5811873212
 10
6922.6867701808
 20
5344.5811873212
  0
LINE
  5
123
330
1F
100
AcDbEntity
  8
0
  6
Continuous
 62
     7
370
    25
100
AcDbLine
 10
6922.6867701808
 20
5344.5811873212
 30
0.0
 11
6930.1075900576
 21
5385.5925446793
 31
0.0
  0
LINE
  5
124
330
1F
100
AcDbEntity
  8
0
  6
Continuous
 62
     7
370
    25
100
AcDbLine
 10
6928.3318280924
 20
5323.2239093772
 30
0.0
 11
6951.824143612
 21
5331.7744129604
 31
0.0
  0
LINE
  5
125
330
1F
100
AcDbEntity
  8
0
  6
Continuous
 62
     7
370
    25
100
AcDbLine
 10
7120.2128484706
 20
5209.0219355937
 30
0.0
 11
7120.2128484706
 21
5219.9763867438
 31
0.0
  0
LINE
  5
126
330
1F
100
AcDbEntity
  8
0
  6
Continuous
 62
     7
370
    25
100
AcDbLine
 10
7116.2128484706
 20
5194.4991611688
 30
0.0
 11
7172.2128484706
 21
5194.4991611688
 31
0.0
  0
LINE
  5
127
330
1F
100
AcDbEntity
  8
0
  6
Continuous
 62
     7
370
    25
100
AcDbLine
 10
7114.2128484706
 20
5198.4991611688
 30
0.0
 11
7174.2128484706
 21
5198.4991611688
 31
0.0
  0
LINE
  5
128
330
1F
100
AcDbEntity
  8
0
  6
Continuous
 62
     7
370
    25
100
AcDbLine
 10
7119.2128484706
 20
5184.4991611688
 30
0.0
 11
7169.2128484706
 21
5184.4991611688
 31
0.0
  0
LINE
  5
129
330
1F
100
AcDbEntity
  8
0
  6
Continuous
 62
     7
370
    25
100
AcDbLine
 10
6901.3833978576
 20
5356.0386552482
 30
0.0
 11
6902.4274760863
 21
5353.1700738907
 31
0.0
  0
LINE
  5
12A
330
1F
100
AcDbEntity
  8
0
  6
Continuous
 62
     7
370
    25
100
AcDbLine
 10
6900.3753552263
 20
5358.8082296154
 30
0.0
 11
6901.3833978576
 21
5356.0386552482
 31
0.0
  0
LINE
  5
12B
330
1F
100
AcDbEntity
  8
0
  6
Continuous
 62
     7
370
    25
100
AcDbLine
 10
6901.1468317483
 20
5175.9991611688
 30
0.0
 11
6901.1468317483
 21
5095.9991611688
 31
0.0
  0
LINE
  5
12C
330
1F
100
AcDbEntity
  8
0
  6
Continuous
 62
     7
370
    25
100
AcDbLine
 10
6936.1468317483
 20
5155.9991611688
 30
0.0
 11
6936.1468317483
 21
5115.9991611688
 31
0.0
  0
LINE
  5
12D
330
1F
100
AcDbEntity
  8
0
  6
Continuous
 62
     7
370
    25
100
AcDbLine
 10
6891.1468317483
 20
5155.9991611688
 30
0.0
 11
6891.1468317483
 21
5115.9991611688
 31
0.0
  0
LINE
  5
12E
330
1F
100
AcDbEntity
  8
0
  6
Continuous
 62
     7
370
    25
100
AcDbLine
 10
7110.2128484706
 20
5097.9991611688
 30
0.0
 11
7178.2128484706
 21
5097.9991611688
 31
0.0
  0
SPLINE
  5
12F
330
1F
100
AcDbEntity
  8
0
  6
Continuous
 62
     7
370
    25
100
AcDbSpline
210
0.0
220
0.0
230
1.0
 70
     8
 71
     3
 72
    26
 73
    22
 74
     0
 42
0.000000001
 43
0.00000001
 40
0.0
 40
0.0
 40
0.0
 40
0.0
 40
0.0518150172945305
 40
0.1113808078124127
 40
0.1722817355657404
 40
0.2246887683321144
 40
0.2783592031179679
 40
0.3194181051080678
 40
0.3616214636267097
 40
0.4027069642412898
 40
0.4449491661733319
 40
0.5015057252198566
 40
0.5596412612698695
 40
0.6344161126990221
 40
0.7113477101488561
 40
0.7733911371889467
 40
0.8370630869835014
 40
0.887715327975027
 40
0.9397479072163227
 40
0.9904520470067906
 40
0.9999999999999999
 40
0.9999999999999999
 40
0.9999999999999999
 40
0.9999999999999999
 10
7118.991094690215
 20
5155.346803267467
 30
0.0
 10
7119.31820818162
 20
5154.828783349941
 30
0.0
 10
7120.021366586682
 20
5153.71525526697
 30
0.0
 10
7121.280943848568
 20
5151.5211600558
 30
0.0
 10
7122.542846788357
 20
5148.985358167634
 30
0.0
 10
7123.642270450599
 20
5146.212692044192
 30
0.0
 10
7124.384493823384
 20
5143.514858476903
 30
0.0
 10
7124.760510541088
 20
5140.827964096778
 30
0.0
 10
7124.784251415394
 20
5138.297306144081
 30
0.0
 10
7124.464304413149
 20
5135.732116010826
 30
0.0
 10
7123.764900036316
 20
5132.943927633503
 30
0.0
 10
7122.629156527884
 20
5129.975094270758
 30
0.0
 10
7120.968265297117
 20
5126.661072021984
 30
0.0
 10
7118.954912487127
 20
5123.331537819633
 30
0.0
 10
7116.914721699818
 20
5120.350102670083
 30
0.0
 10
7115.142182216689
 20
5117.931103514609
 30
0.0
 10
7113.82592648436
 20
5116.210088123848
 30
0.0
 10
7112.859351044053
 20
5114.977256268253
 30
0.0
 10
7112.294972731463
 20
5114.267897546129
 30
0.0
 10
7112.042558092607
 20
5113.952992508036
 30
0.0
 10
7112.098812297028
 20
5114.023265339004
 30
0.0
 10
7112.107726717667
 20
5114.034401245754
 30
0.0
  0
LINE
  5
130
330
1F
100
AcDbEntity
  8
0
  6
Continuous
 62
     7
370
    25
100
AcDbLine
 10
7100.2128484706
 20
5163.4991611688
 30
0.0
 11
7100.2128484706
 21
5108.4991611688
 31
0.0
  0
LINE
  5
131
330
1F
100
AcDbEntity
  8
0
  6
Continuous
 62
     7
370
    25
100
AcDbLine
 10
7096.2128484706
 20
5161.9991611688
 30
0.0
 11
7096.2128484706
 21
5109.9991611688
 31
0.0
  0
ARC
  5
132
330
1F
100
AcDbEntity
  8
0
  6
Continuous
 62
     7
370
    25
100
AcDbCircle
 10
7121.8441033543
 20
5155.1404863256
 30
0.0
 40
2.860458899834954
100
AcDbArc
 50
92.0237024967
 51
175.863823239
  0
LINE
  5
133
330
1F
100
AcDbEntity
  8
0
  6
Continuous
 62
     7
370
    25
100
AcDbLine
 10
7121.7430921742
 20
5157.9991611688
 30
0.0
 11
7168.5425008085
 21
5157.9991611688
 31
0.0
  0
LINE
  5
134
330
1F
100
AcDbEntity
  8
0
  6
Continuous
 62
     7
370
    25
100
AcDbLine
 10
7120.0910206044
 20
5027.9991611688
 30
0.0
 11
7168.3346763225
 21
5027.9991611688
 31
0.0
  0
LINE
  5
135
330
1F
100
AcDbEntity
  8
0
  6
Continuous
 62
     7
370
    25
100
AcDbLine
 10
7084.2128484706
 20
5158.9991611688
 30
0.0
 11
7084.2128484706
 21
5112.9991611688
 31
0.0
  0
LINE
  5
136
330
1F
100
AcDbEntity
  8
0
  6
Continuous
 62
     7
370
    25
100
AcDbLine
 10
7121.2128484706
 20
5164.4991611688
 30
0.0
 11
7167.2128484706
 21
5164.4991611688
 31
0.0
  0
LINE
  5
137
330
1F
100
AcDbEntity
  8
0
  6
Continuous
 62
     7
370
    25
100
AcDbLine
 10
7119.2128484706
 20
5160.4991611688
 30
0.0
 11
7169.2128484706
 21
5160.4991611688
 31
0.0
  0
LINE
  5
138
330
1F
100
AcDbEntity
  8
0
  6
Continuous
 62
     7
370
    25
100
AcDbLine
 10
7124.2128484706
 20
5174.4991611688
 30
0.0
 11
7164.2128482967
 21
5174.4991611688
 31
0.0
  0
SPLINE
  5
139
330
1F
100
AcDbEntity
  8
0
  6
Continuous
 62
     7
370
    25
100
AcDbSpline
210
0.0
220
0.0
230
1.0
 70
     8
 71
     3
 72
    11
 73
     7
 74
     0
 42
0.000000001
 43
0.00000001
 40
0.0
 40
0.0
 40
0.0
 40
0.0
 40
0.1561474091523022
 40
0.4307960512583158
 40
0.7130079383195165
 40
1.0
 40
1.0
 40
1.0
 40
1.0
 10
7117.212848470568
 20
5157.999161168787
 30
0.0
 10
7117.222315186744
 20
5157.985644454334
 30
0.0
 10
7117.248432968457
 20
5157.948353107367
 30
0.0
 10
7117.532254174302
 20
5157.539571834411
 30
0.0
 10
7118.115502756203
 20
5156.691069722914
 30
0.0
 10
7118.697601224613
 20
5155.797393782724
 30
0.0
 10
7118.991094690215
 20
5155.346803267467
 30
0.0
  0
SPLINE
  5
13A
330
1F
100
AcDbEntity
  8
0
  6
Continuous
 62
     7
370
    25
100
AcDbSpline
210
0.0
220
0.0
230
1.0
 70
    24
 71
     3
 72
    12
 73
     8
 74
     0
 42
0.000000001
 43
0.00000001
 40
0.0
 40
0.0
 40
0.0
 40
0.0
 40
0.0026572740835311
 40
0.0516700043743781
 40
0.3670805910300619
 40
0.7311420885359105
 40
0.9999999999999999
 40
0.9999999999999999
 40
0.9999999999999999
 40
0.9999999999999999
 10
7117.212848470568
 20
5157.999161168787
 30
0.0
 10
7117.216244492099
 20
5157.999161168787
 30
0.0
 10
7117.2822792487
 20
5157.999161168787
 30
0.0
 10
7117.762624578146
 20
5157.999161168786
 30
0.0
 10
7118.850007847586
 20
5157.999161168787
 30
0.0
 10
7120.443232616139
 20
5157.999161168787
 30
0.0
 10
7121.355549132196
 20
5157.999161168787
 30
0.0
 10
7121.743092174209
 20
5157.999161168787
 30
0.0
  0
LINE
  5
13B
330
1F
100
AcDbEntity
  8
0
  6
Continuous
 62
     7
370
    25
100
AcDbLine
 10
6921.5637273424
 20
5399.3997480167
 30
0.0
 11
7366.8619695993
 21
5399.3997480167
 31
0.0
  0
LINE
  5
13C
330
1F
100
AcDbEntity
  8
0
  6
Continuous
 62
     7
370
    25
100
AcDbLine
 10
6916.7128484706
 20
5395.6117604657
 30
0.0
 11
7371.7128484706
 21
5395.6117604657
 31
0.0
  0
LINE
  5
13D
330
1F
100
AcDbEntity
  8
0
  6
Continuous
 62
     7
370
    25
100
AcDbLine
 10
6917.8770593997
 20
5395.320877478
 30
0.0
 11
7370.5486375415
 21
5395.320877478
 31
0.0
  0
LINE
  5
13E
330
1F
100
AcDbEntity
  8
0
  6
Continuous
 62
     8
370
    25
100
AcDbLine
 10
6962.2759120872
 20
5229.9633050774
 30
0.0
 11
6985.7682276068
 21
5238.5138086606
 31
0.0
  0
LINE
  5
13F
330
1F
100
AcDbEntity
  8
0
  6
Continuous
 62
     8
370
    25
100
AcDbLine
 10
7002.2128484706
 20
5201.9991611688
 30
0.0
 11
7002.2128484706
 21
5226.9991611688
 31
0.0
  0
LINE
  5
140
330
1F
100
AcDbEntity
  8
0
  6
Continuous
 62
     8
370
    25
100
AcDbLine
 10
7116.2128484706
 20
5187.4991611688
 30
0.0
 11
7172.2128484706
 21
5187.4991611688
 31
0.0
  0
LINE
  5
141
330
1F
100
AcDbEntity
  8
0
  6
Continuous
 62
     8
370
    25
100
AcDbLine
 10
6916.1468317483
 20
5175.9991611688
 30
0.0
 11
6916.1468317483
 21
5095.9991611688
 31
0.0
  0
LINE
  5
142
330
1F
100
AcDbEntity
  8
0
  6
Continuous
 62
     8
370
    25
100
AcDbLine
 10
7117.1066341904
 20
5030.6934853074
 30
0.0
 11
7171.3190627507
 21
5030.6934853074
 31
0.0
  0
LINE
  5
143
330
1F
100
AcDbEntity
  8
0
  6
Continuous
 62
     8
370
    25
100
AcDbLine
 10
7171.5222902257
 20
5155.3468032675
 30
0.0
 11
7118.9910946902
 21
5155.3468032675
 31
0.0
  0
LINE
  5
144
330
1F
100
AcDbEntity
  8
0
  6
Continuous
 62
     8
370
    25
100
AcDbLine
 10
7087.2128484706
 20
5161.9991611688
 30
0.0
 11
7087.2128484706
 21
5109.9991611688
 31
0.0
  0
LINE
  5
145
330
1F
100
AcDbEntity
  8
0
  6
Continuous
 62
     8
370
    25
100
AcDbLine
 10
7121.2128484706
 20
5171.4991611688
 30
0.0
 11
7167.2128484706
 21
5171.4991611688
 31
0.0
  0
LINE
  5
146
330
1F
100
AcDbEntity
  8
0
  6
Continuous
 62
     8
370
    25
100
AcDbLine
 10
6935.0393408396
 20
5395.193816693
 30
0.0
 11
7353.3863561015
 21
5395.193816693
 31
0.0
  0
ARC
  5
147
330
1F
100
AcDbEntity
  8
0
  6
Continuous
 62
     7
370
    25
100
AcDbCircle
 10
6274.0187553361
 20
4598.4763249894
 30
0.0
 40
8.552641741589866
100
AcDbArc
 50
237.1496100414
 51
264.6242945608
  0
ARC
  5
148
330
1F
100
AcDbEntity
  8
0
  6
Continuous
 62
     7
370
    25
100
AcDbCircle
 10
6274.0187553361
 20
4598.4763249894
 30
0.0
 40
8.552641741589373
100
AcDbArc
 50
274.687378367
 51
302.8503899586
  0
LINE
  5
149
330
1F
100
AcDbEntity
  8
0
  6
Continuous
 62
     7
370
    25
100
AcDbLine
 10
6279.2687553361
 20
4592.131821259
 30
0.0
 11
6279.2687553361
 21
4592.7896060936
 31
0.0
  0
LINE
  5
14A
330
1F
100
AcDbEntity
  8
0
  6
Continuous
 62
     7
370
    25
100
AcDbLine
 10
6268.7687553361
 20
4592.7896060936
 30
0.0
 11
6268.7687553361
 21
4592.131821259
 31
0.0
  0
LINE
  5
14B
330
1F
100
AcDbEntity
  8
0
  6
Continuous
 62
     7
370
    25
100
AcDbLine
 10
6278.0941116052
 20
4593.921582783
 30
0.0
 11
6277.8187033183
 21
4594.0375695573
 31
0.0
  0
LINE
  5
14C
330
1F
100
AcDbEntity
  8
0
  6
Continuous
 62
     7
370
    25
100
AcDbLine
 10
6270.2188073539
 20
4594.0375695573
 30
0.0
 11
6269.943399067
 21
4593.921582783
 31
0.0
  0
LINE
  5
14D
330
1F
100
AcDbEntity
  8
0
  6
Continuous
 62
     7
370
    25
100
AcDbLine
 10
6277.0187553361
 20
4622.0928878019
 30
0.0
 11
6277.0187553361
 21
4637.4241016959
 31
0.0
  0
LINE
  5
14E
330
1F
100
AcDbEntity
  8
0
  6
Continuous
 62
     7
370
    25
100
AcDbLine
 10
6271.0187553361
 20
4637.4241016959
 30
0.0
 11
6271.0187553361
 21
4622.0928878019
 31
0.0
  0
LINE
  5
14F
330
1F
100
AcDbEntity
  8
0
  6
Continuous
 62
     7
370
    25
100
AcDbLine
 10
6314.0187553361
 20
4622.678685604
 30
0.0
 11
6314.0187553361
 21
4637.678685604
 31
0.0
  0
LINE
  5
150
330
1F
100
AcDbEntity
  8
0
  6
Continuous
 62
     7
370
    25
100
AcDbLine
 10
6234.0187553361
 20
4637.678685604
 30
0.0
 11
6234.0187553361
 21
4622.678685604
 31
0.0
  0
LWPOLYLINE
  5
151
330
1F
100
AcDbEntity
  8
0
  6
Continuous
 62
     7
370
    25
100
AcDbPolyline
 90
        3
 70
   128
 43
0.0
 10
6313.6070904436
 20
4618.6417154882
 10
6313.8151841737
 20
4619.8323888385
 10
6314.0187553361
 20
4622.678685604
  0
LWPOLYLINE
  5
152
330
1F
100
AcDbEntity
  8
0
  6
Continuous
 62
     7
370
    25
100
AcDbPolyline
 90
        3
 70
   128
 43
0.0
 10
6234.0187553361
 20
4622.678685604
 10
6234.2223264985
 20
4619.8323888385
 10
6234.4304202286
 20
4618.6417154882
  0
LINE
  5
153
330
1F
100
AcDbEntity
  8
0
  6
Continuous
 62
     7
370
    25
100
AcDbLine
 10
6294.0187553361
 20
4637.678685604
 30
0.0
 11
6294.0187553361
 21
4647.678685604
 31
0.0
  0
LINE
  5
154
330
1F
100
AcDbEntity
  8
0
  6
Continuous
 62
     7
370
    25
100
AcDbLine
 10
6254.0187553361
 20
4647.678685604
 30
0.0
 11
6254.0187553361
 21
4637.678685604
 31
0.0
  0
SPLINE
  5
155
330
1F
100
AcDbEntity
  8
0
  6
Continuous
 62
     7
370
    25
100
AcDbSpline
210
0.0
220
0.0
230
1.0
 70
     8
 71
     3
 72
    32
 73
    28
 74
     0
 42
0.000000001
 43
0.00000001
 40
0.0
 40
0.0
 40
0.0
 40
0.0
 40
0.0173964074906675
 40
0.0523371321565208
 40
0.0878756462386717
 40
0.1263852526723065
 40
0.1688607324824852
 40
0.2137833139369341
 40
0.2587140872619592
 40
0.3030276578455031
 40
0.3468376925546136
 40
0.3903073052189824
 40
0.4335612256048397
 40
0.4766892366051491
 40
0.5197595505688231
 40
0.5628299445217286
 40
0.605939597165789
 40
0.6491478405549614
 40
0.692529265578312
 40
0.7361849138277483
 40
0.7802595396776018
 40
0.8249580077154881
 40
0.8705099615305021
 40
0.9113372081413424
 40
0.9481660726645416
 40
0.9822934575940918
 40
1.0
 40
1.0
 40
1.0
 40
1.0
 10
6256.034820132643
 20
4594.42509878704
 30
0.0
 10
6256.034738917865
 20
4594.252913286868
 30
0.0
 10
6256.034494583016
 20
4593.734892811504
 30
0.0
 10
6256.30738681587
 20
4592.897189405328
 30
0.0
 10
6256.868411303693
 20
4591.978847673367
 30
0.0
 10
6257.699334821598
 20
4591.12725283988
 30
0.0
 10
6258.820128463288
 20
4590.32485560183
 30
0.0
 10
6260.242258842482
 20
4589.585536301706
 30
0.0
 10
6261.924990913201
 20
4588.933376676731
 30
0.0
 10
6263.810883745865
 20
4588.383074744547
 30
0.0
 10
6265.860170976551
 20
4587.93777174056
 30
0.0
 10
6268.040360736165
 20
4587.59891531853
 30
0.0
 10
6270.317275110438
 20
4587.368506102925
 30
0.0
 10
6272.654167953796
 20
4587.248396748446
 30
0.0
 10
6275.012438888873
 20
4587.239637216399
 30
0.0
 10
6277.352388171436
 20
4587.342113857484
 30
0.0
 10
6279.634601698183
 20
4587.554409700932
 30
0.0
 10
6281.821143974106
 20
4587.873957313942
 30
0.0
 10
6283.876941958583
 20
4588.297565740513
 30
0.0
 10
6285.770710704021
 20
4588.822338422001
 30
0.0
 10
6287.475693011282
 20
4589.447448506438
 30
0.0
 10
6288.970552928875
 20
4590.177378295702
 30
0.0
 10
6290.18098911422
 20
4590.992375602867
 30
0.0
 10
6291.091539727599
 20
4591.875605124536
 30
0.0
 10
6291.681747940757
 20
4592.805566738447
 30
0.0
 10
6291.997338008237
 20
4593.642147502614
 30
0.0
 10
6291.981241681206
 20
4594.155169413015
 30
0.0
 10
6291.975743153277
 20
4594.330418418417
 30
0.0
  0
LINE
  5
156
330
1F
100
AcDbEntity
  8
0
  6
Continuous
 62
     7
370
    25
100
AcDbLine
 10
6267.5147138495
 20
4596.158042622
 30
0.0
 11
6267.5147138495
 21
4592.8691184493
 31
0.0
  0
LINE
  5
157
330
1F
100
AcDbEntity
  8
0
  6
Continuous
 62
     7
370
    25
100
AcDbLine
 10
6280.5227968227
 20
4593.0950628727
 30
0.0
 11
6280.5227968227
 21
4596.3839870455
 31
0.0
  0
ARC
  5
158
330
1F
100
AcDbEntity
  8
0
  6
Continuous
 62
     7
370
    25
100
AcDbCircle
 10
6272.031152957
 20
4625.717302994
 30
0.0
 40
31.88401501542144
100
AcDbArc
 50
253.829486459
 51
261.8565399713
  0
ARC
  5
159
330
1F
100
AcDbEntity
  8
0
  6
Continuous
 62
     7
370
    25
100
AcDbCircle
 10
6276.0063577152
 20
4625.717302994
 30
0.0
 40
31.88401501545952
100
AcDbArc
 50
278.1434600287
 51
286.170513541
  0
LWPOLYLINE
  5
15A
330
1F
100
AcDbEntity
  8
0
  6
Continuous
 62
     7
370
    25
100
AcDbPolyline
 90
        3
 70
   128
 43
0.0
 10
6275.9090568052
 20
4379.7322535529
 10
6278.1583880218
 20
4380.1951988808
 10
6279.4302824002
 20
4380.6228377592
  0
ARC
  5
15B
330
1F
100
AcDbEntity
  8
0
  6
Continuous
 62
     7
370
    25
100
AcDbCircle
 10
6274.0187553361
 20
4394.6126688817
 30
0.0
 40
15.00000000000033
100
AcDbArc
 50
312.221496058
 51
351.1473979506
  0
ARC
  5
15C
330
1F
100
AcDbEntity
  8
0
  6
Continuous
 62
     7
370
    25
100
AcDbCircle
 10
6274.0187553361
 20
4394.6126688817
 30
0.0
 40
15.00000000000007
100
AcDbArc
 50
12.221496058
 51
51.1473979506
  0
ARC
  5
15D
330
1F
100
AcDbEntity
  8
0
  6
Continuous
 62
     7
370
    25
100
AcDbCircle
 10
6274.0187553361
 20
4394.6126688817
 30
0.0
 40
15.00000000000037
100
AcDbArc
 50
72.221496058
 51
111.1473979506
  0
ARC
  5
15E
330
1F
100
AcDbEntity
  8
0
  6
Continuous
 62
     7
370
    25
100
AcDbCircle
 10
6274.0187553361
 20
4394.6126688817
 30
0.0
 40
15.00000000000033
100
AcDbArc
 50
132.221496058
 51
171.1473979506
  0
ARC
  5
15F
330
1F
100
AcDbEntity
  8
0
  6
Continuous
 62
     7
370
    25
100
AcDbCircle
 10
6274.0187553361
 20
4394.6126688817
 30
0.0
 40
15.00000000000021
100
AcDbArc
 50
192.221496058
 51
231.1473979506
  0
ARC
  5
160
330
1F
100
AcDbEntity
  8
0
  6
Continuous
 62
     7
370
    25
100
AcDbCircle
 10
6274.0187553361
 20
4394.6126688817
 30
0.0
 40
15.00000000000003
100
AcDbArc
 50
252.221496058
 51
277.2396689556
  0
ARC
  5
161
330
1F
100
AcDbEntity
  8
0
  6
Continuous
 62
     7
370
    25
100
AcDbCircle
 10
6274.0187553361
 20
4394.6126688817
 30
0.0
 40
5.250000000000102
100
AcDbArc
 50
101.1056418114
 51
264.6792204079
  0
LINE
  5
162
330
1F
100
AcDbEntity
  8
0
  6
Continuous
 62
     7
370
    25
100
AcDbLine
 10
6273.0075077297
 20
4399.7643558169
 30
0.0
 11
6273.5319138947
 21
4389.3852904363
 31
0.0
  0
ARC
  5
163
330
1F
100
AcDbEntity
  8
0
  6
Continuous
 62
     7
370
    25
100
AcDbCircle
 10
6274.0187553361
 20
4394.6126688817
 30
0.0
 40
5.249999999999334
100
AcDbArc
 50
281.1056418114
 51
84.6792204079
  0
LINE
  5
164
330
1F
100
AcDbEntity
  8
0
  6
Continuous
 62
     7
370
    25
100
AcDbLine
 10
6275.0300029425
 20
4389.4609819465
 30
0.0
 11
6274.5055967775
 21
4399.840047327
 31
0.0
  0
ARC
  5
165
330
1F
100
AcDbEntity
  8
0
  6
Continuous
 62
     7
370
    25
100
AcDbCircle
 10
6274.0187553361
 20
4394.6126688817
 30
0.0
 40
5.250000000000102
100
AcDbArc
 50
84.6792204079
 51
101.1056418114
  0
ARC
  5
166
330
1F
100
AcDbEntity
  8
0
  6
Continuous
 62
     7
370
    25
100
AcDbCircle
 10
6274.0187553361
 20
4394.6126688817
 30
0.0
 40
5.249999999999334
100
AcDbArc
 50
264.6792204079
 51
281.1056418114
  0
LWPOLYLINE
  5
167
330
1F
100
AcDbEntity
  8
0
  6
Continuous
 62
     7
370
    25
100
AcDbPolyline
 90
        9
 70
   128
 43
0.0
 10
6273.3601163157
 20
4593.9132404773
 10
6272.0455001476
 20
4593.7957682013
 10
6270.8630560688
 20
4593.5668418443
 10
6269.8919862549
 20
4593.2417952946
 10
6269.1973346633
 20
4592.8424007396
 10
6268.8256302743
 20
4592.3954103262
 10
6268.8017704992
 20
4591.9307642554
 10
6269.1273535075
 20
4591.4795853349
 10
6269.3793983057
 20
4591.2913373691
  0
ARC
  5
168
330
1F
100
AcDbEntity
  8
0
  6
Continuous
 62
     7
370
    25
100
AcDbCircle
 10
6243.4235011721
 20
4593.0151062255
 30
0.0
 40
29.95008466414407
100
AcDbArc
 50
354.1477683105
 51
1.7184264529
  0
LINE
  5
169
330
1F
100
AcDbEntity
  8
0
  6
Continuous
 62
     7
370
    25
100
AcDbLine
 10
6274.8598850281
 20
4593.9042315779
 30
0.0
 11
6274.6773943565
 21
4590.3504020408
 31
0.0
  0
LWPOLYLINE
  5
16A
330
1F
100
AcDbEntity
  8
0
  6
Continuous
 62
     7
370
    25
100
AcDbPolyline
 90
        9
 70
   128
 43
0.0
 10
6274.6773943565
 20
4590.3504020408
 10
6274.6979733762
 20
4590.0391595135
 10
6274.7204483951
 20
4589.954167897
 10
6274.7442164015
 20
4590.0977075427
 10
6274.7686396923
 20
4590.4659272375
 10
6274.7930629831
 20
4591.0489475327
 10
6274.8168309895
 20
4591.831125813
 10
6274.8393060084
 20
4592.7914759924
 10
6274.8598850281
 20
4593.9042315779
  0
LWPOLYLINE
  5
16B
330
1F
100
AcDbEntity
  8
0
  6
Continuous
 62
     7
370
    25
100
AcDbPolyline
 90
        9
 70
   128
 43
0.0
 10
6278.6581123665
 20
4591.2913373691
 10
6278.8401760089
 20
4591.4212417785
 10
6279.2118803978
 20
4591.8682321919
 10
6279.235740173
 20
4592.3328782627
 10
6278.9101571647
 20
4592.7840571832
 10
6278.2569394934
 20
4593.191548199
 10
6277.3198408228
 20
4593.5280568479
 10
6276.1616296636
 20
4593.7710431912
 10
6274.8598850281
 20
4593.9042315779
  0
LWPOLYLINE
  5
16C
330
1F
100
AcDbEntity
  8
0
  6
Continuous
 62
     7
370
    25
100
AcDbPolyline
 90
       13
 70
   128
 43
0.0
 10
6279.2687553361
 20
4592.7896060936
 10
6279.1129447637
 20
4593.2238146513
 10
6278.610783107
 20
4593.6599637611
 10
6277.7956823464
 20
4594.0367994342
 10
6276.7231902516
 20
4594.3286409422
 10
6275.4663953867
 20
4594.5155997687
 10
6274.1109462447
 20
4594.5849349785
 10
6272.7492144446
 20
4594.5319214918
 10
6271.4739997582
 20
4594.36017209
 10
6270.3722059591
 20
4594.081391211
 10
6269.5189184738
 20
4593.714577311
 10
6268.9722874343
 20
4593.2847281512
 10
6268.7695648427
 20
4592.8211372414
  0
ARC
  5
16D
330
1F
100
AcDbEntity
  8
0
  6
Continuous
 62
     7
370
    25
100
AcDbCircle
 10
6274.0184325843
 20
4578.6648147384
 30
0.0
 40
15.26262978068904
100
AcDbArc
 50
86.8395924568
 51
92.4720804709
  0
ARC
  5
16E
330
1F
100
AcDbEntity
  8
0
  6
Continuous
 62
     7
370
    25
100
AcDbCircle
 10
6274.0190780878
 20
4605.5988277792
 30
0.0
 40
15.26262978025249
100
AcDbArc
 50
266.8395924568
 51
272.472080471
  0
LWPOLYLINE
  5
16F
330
1F
100
AcDbEntity
  8
0
  6
Continuous
 62
     7
370
    25
100
AcDbPolyline
 90
       10
 70
   128
 43
0.0
 10
6277.0187553361
 20
4637.4241016959
 10
6276.8554163187
 20
4637.7580497277
 10
6276.3503966973
 20
4638.0697364971
 10
6275.5641467164
 20
4638.3035501808
 10
6274.5914997275
 20
4638.4312893981
 10
6273.5497713122
 20
4638.4375469139
 10
6272.5646092916
 20
4638.3215679796
 10
6271.7548387449
 20
4638.0973413663
 10
6271.2181299509
 20
4637.7919121127
 10
6271.0192179113
 20
4637.4421194947
  0
CIRCLE
  5
170
330
1F
100
AcDbEntity
  8
0
  6
Continuous
 62
     7
370
    25
100
AcDbCircle
 10
6274.0187553361
 20
4394.6126688817
 30
0.0
 40
35.00000000000025
  0
CIRCLE
  5
171
330
1F
100
AcDbEntity
  8
0
  6
Continuous
 62
     7
370
    25
100
AcDbCircle
 10
6274.0187553361
 20
4394.6126688817
 30
0.0
 40
35.16921944985835
  0
CIRCLE
  5
172
330
1F
100
AcDbEntity
  8
0
  6
Continuous
 62
     7
370
    25
100
AcDbCircle
 10
6274.0187553361
 20
4394.6126688817
 30
0.0
 40
24.96512544439378
  0
CIRCLE
  5
173
330
1F
100
AcDbEntity
  8
0
  6
Continuous
 62
     7
370
    25
100
AcDbCircle
 10
6274.0187553361
 20
4394.6126688817
 30
0.0
 40
22.00000000000011
  0
CIRCLE
  5
174
330
1F
100
AcDbEntity
  8
0
  6
Continuous
 62
     7
370
    25
100
AcDbCircle
 10
6274.0187553361
 20
4394.6126688817
 30
0.0
 40
20.49999999999934
  0
CIRCLE
  5
175
330
1F
100
AcDbEntity
  8
0
  6
Continuous
 62
     7
370
    25
100
AcDbCircle
 10
6274.0187553361
 20
4394.6126688817
 30
0.0
 40
19.48700763430358
  0
CIRCLE
  5
176
330
1F
100
AcDbEntity
  8
0
  6
Continuous
 62
     7
370
    25
100
AcDbCircle
 10
6274.0187553361
 20
4394.6126688817
 30
0.0
 40
5.700000000000114
  0
CIRCLE
  5
177
330
1F
100
AcDbEntity
  8
0
  6
Continuous
 62
     7
370
    25
100
AcDbCircle
 10
6273.6072265753
 20
4408.6066191488
 30
0.0
 40
4.999999999999768
  0
CIRCLE
  5
178
330
1F
100
AcDbEntity
  8
0
  6
Continuous
 62
     7
370
    25
100
AcDbCircle
 10
6285.9321073863
 20
4401.9660383765
 30
0.0
 40
4.999999999999795
  0
CIRCLE
  5
179
330
1F
100
AcDbEntity
  8
0
  6
Continuous
 62
     7
370
    25
100
AcDbCircle
 10
6286.3436361472
 20
4387.9720881094
 30
0.0
 40
5.000000000000678
  0
CIRCLE
  5
17A
330
1F
100
AcDbEntity
  8
0
  6
Continuous
 62
     7
370
    25
100
AcDbCircle
 10
6274.4302840969
 20
4380.6187186145
 30
0.0
 40
5.000000000000704
  0
CIRCLE
  5
17B
330
1F
100
AcDbEntity
  8
0
  6
Continuous
 62
     7
370
    25
100
AcDbCircle
 10
6262.1054032859
 20
4387.2592993868
 30
0.0
 40
5.000000000000704
  0
CIRCLE
  5
17C
330
1F
100
AcDbEntity
  8
0
  6
Continuous
 62
     7
370
    25
100
AcDbCircle
 10
6261.693874525
 20
4401.253249654
 30
0.0
 40
4.99999999999886
  0
LINE
  5
17D
330
1F
100
AcDbEntity
  8
0
  6
Continuous
 62
     7
370
    25
100
AcDbLine
 10
6314.0187553361
 20
4637.678685604
 30
0.0
 11
6276.9249449018
 21
4637.678685604
 31
0.0
  0
LINE
  5
17E
330
1F
100
AcDbEntity
  8
0
  6
Continuous
 62
     7
370
    25
100
AcDbLine
 10
6271.1125657704
 20
4637.678685604
 30
0.0
 11
6234.0187553361
 21
4637.678685604
 31
0.0
  0
LINE
  5
17F
330
1F
100
AcDbEntity
  8
0
  6
Continuous
 62
     7
370
    25
100
AcDbLine
 10
6294.0187553361
 20
4647.678685604
 30
0.0
 11
6254.0187553361
 21
4647.678685604
 31
0.0
  0
LWPOLYLINE
  5
180
330
1F
100
AcDbEntity
  8
0
  6
Continuous
 62
     7
370
    25
100
AcDbPolyline
 90
       44
 70
   128
 43
0.0
 10
6257.5236949308
 20
4593.1201678087
 10
6257.6406959874
 20
4592.2972665736
 10
6258.1067669443
 20
4591.4889611751
 10
6258.9119743081
 20
4590.7124792392
 10
6260.039156482
 20
4589.9843701304
 10
6261.4642895347
 20
4589.3201522303
 10
6263.1569992295
 20
4588.7339821901
 10
6265.0812083981
 20
4588.2383532066
 10
6267.1959058627
 20
4587.8438287511
 10
6269.4560205184
 20
4587.5588174274
 10
6271.8133819451
 20
4587.3893937571
 10
6274.2177470768
 20
4587.3391687115
 10
6276.6178710451
 20
4587.4092127503
 10
6278.9625993744
 20
4587.5980330065
 10
6281.2019582513
 20
4587.901605104
 10
6283.2882196292
 20
4588.3134589306
 10
6285.1769184689
 20
4588.8248165372
 10
6286.8278004337
 20
4589.424779224
 10
6288.2056798406
 20
4590.1005598281
 10
6289.2811895823
 20
4590.8377552592
 10
6290.031407036
 20
4591.6206534764
 10
6290.440342619
 20
4592.4325683636
 10
6290.4992805795
 20
4593.2561953644
 10
6290.2069647571
 20
4594.0739802995
 10
6289.569625356
 20
4594.8684935025
 10
6288.6008461591
 20
4595.6228013041
 10
6287.3212750129
 20
4596.320826943
 10
6285.7581837551
 20
4596.9476932145
 10
6283.9448869619
 20
4597.4900395526
 10
6281.9200319064
 20
4597.9363067865
 10
6279.7267748586
 20
4598.2769835049
 10
6277.4118612846
 20
4598.5048087751
 10
6275.0246295483
 20
4598.6149268969
 10
6272.6159593495
 20
4598.6049908939
 10
6270.2371873117
 20
4598.4752125346
 10
6267.9390128309
 20
4598.2283578194
 10
6265.7704175063
 20
4597.869688028
 10
6263.7776211822
 20
4597.4068475844
 10
6262.0030968525
 20
4596.849701129
 10
6260.4846654223
 20
4596.2101232712
 10
6259.2546896214
 20
4595.5017455027
 10
6258.3393842486
 20
4594.7396656658
 10
6257.7582574488
 20
4593.940126169
 10
6257.5236949308
 20
4593.1201678087
  0
LINE
  5
181
330
1F
100
AcDbEntity
  8
0
  6
Continuous
 62
     7
370
    25
100
AcDbLine
 10
6256.0241439849
 20
4594.5422592078
 30
0.0
 11
6256.0188541708
 21
4594.41203086
 31
0.0
  0
LWPOLYLINE
  5
182
330
1F
100
AcDbEntity
  8
0
  6
Continuous
 62
     7
370
    25
100
AcDbPolyline
 90
       24
 70
   128
 43
0.0
 10
6292.0184094539
 20
4594.3534646184
 10
6292.000254274
 20
4594.6706844844
 10
6291.7117079619
 20
4595.5238881616
 10
6291.0787884524
 20
4596.3550537137
 10
6290.1138148037
 20
4597.1480034486
 10
6288.8355691304
 20
4597.8873035017
 10
6287.2689310305
 20
4598.5585642385
 10
6285.4443933325
 20
4599.1487203322
 10
6283.3974685874
 20
4599.6462850657
 10
6281.1679978569
 20
4600.0415739076
 10
6278.799375253
 20
4600.32689301
 10
6276.3377033202
 20
4600.4966889613
 10
6273.8308957027
 20
4600.5476568764
 10
6271.3277445593
 20
4600.4788047227
 10
6268.8769708797
 20
4600.2914726292
 10
6266.5262761858
 20
4599.989306802
 10
6264.321414076
 20
4599.5781885551
 10
6262.3052996833
 20
4599.0661198377
 10
6260.517174381
 20
4598.4630674847
 10
6258.9918419941
 20
4597.7807692244
 10
6257.7589913826
 20
4597.0325052162
 10
6256.8426185813
 20
4596.232839568
 10
6256.2605597443
 20
4595.3973368619
 10
6256.0241439849
 20
4594.5422592078
  0
LWPOLYLINE
  5
183
330
1F
100
AcDbEntity
  8
0
  6
Continuous
 62
     7
370
    25
100
AcDbPolyline
 90
       16
 70
   128
 43
0.0
 10
6277.3515260003
 20
4588.8615975414
 10
6279.3438825325
 20
4589.114191826
 10
6281.1823669024
 20
4589.4785509447
 10
6282.8138552023
 20
4589.9441465619
 10
6284.1912047777
 20
4590.497525064
 10
6285.274616437
 20
4591.1226963076
 10
6286.0327844689
 20
4591.8015956632
 10
6286.4438012361
 20
4592.5146060007
 10
6286.4957902077
 20
4593.2411245367
 10
6286.1872491368
 20
4593.9601581619
 10
6285.5270934689
 20
4594.6509300469
 10
6284.534398726
 20
4595.2934799993
 10
6283.2378493094
 20
4595.869241223
 10
6281.6749096506
 20
4596.3615768151
 10
6279.8907416576
 20
4596.7562604972
 10
6277.9368997397
 20
4597.0418876907
  0
LWPOLYLINE
  5
184
330
1F
100
AcDbEntity
  8
0
  6
Continuous
 62
     7
370
    25
100
AcDbPolyline
 90
        9
 70
   128
 43
0.0
 10
6277.9368997397
 20
4597.0418876907
 10
6277.7858512685
 20
4597.0504948569
 10
6277.6342702899
 20
4597.0430630295
 10
6277.4963744641
 20
4597.0202892829
 10
6277.3850978412
 20
4596.9843096988
 10
6277.3108777017
 20
4596.9384990115
 10
6277.2806755836
 20
4596.8871540713
 10
6277.2973243189
 20
4596.8350908182
 10
6277.3592623259
 20
4596.7871925671
  0
LWPOLYLINE
  5
185
330
1F
100
AcDbEntity
  8
0
  6
Continuous
 62
     7
370
    25
100
AcDbPolyline
 90
        9
 70
   128
 43
0.0
 10
6277.3592623259
 20
4596.7871925671
 10
6278.7723996753
 20
4595.8936153059
 10
6279.7830022618
 20
4594.9383098719
 10
6280.3687790429
 20
4593.9423476082
 10
6280.5168094352
 20
4592.9276966331
 10
6280.2238283056
 20
4591.9167372852
 10
6279.4962979915
 20
4590.9317684762
 10
6278.3502657595
 20
4589.9945158395
 10
6276.8110098481
 20
4589.1256525248
  0
LWPOLYLINE
  5
186
330
1F
100
AcDbEntity
  8
0
  6
Continuous
 62
     7
370
    25
100
AcDbPolyline
 90
        9
 70
   128
 43
0.0
 10
6276.8110098481
 20
4589.1256525248
 10
6276.7422949971
 20
4589.078847945
 10
6276.7182194628
 20
4589.0271255874
 10
6276.7410414294
 20
4588.9753367922
 10
6276.8086202922
 20
4588.9283391313
 10
6276.9146174372
 20
4588.8905407881
 10
6277.0490907768
 20
4588.8654870887
 10
6277.1994272755
 20
4588.8555279651
 10
6277.3515260003
 20
4588.8615975414
  0
LWPOLYLINE
  5
187
330
1F
100
AcDbEntity
  8
0
  6
Continuous
 62
     7
370
    25
100
AcDbPolyline
 90
        9
 70
   128
 43
0.0
 10
6271.2265008241
 20
4596.8385287972
 10
6271.2952156751
 20
4596.885333377
 10
6271.3192912094
 20
4596.9370557346
 10
6271.2964692428
 20
4596.9888445298
 10
6271.22889038
 20
4597.0358421907
 10
6271.122893235
 20
4597.0736405339
 10
6270.9884198954
 20
4597.0986942333
 10
6270.8380833967
 20
4597.1086533569
 10
6270.6859846719
 20
4597.1025837806
  0
LWPOLYLINE
  5
188
330
1F
100
AcDbEntity
  8
0
  6
Continuous
 62
     7
370
    25
100
AcDbPolyline
 90
       16
 70
   128
 43
0.0
 10
6270.6859846719
 20
4597.1025837806
 10
6268.6936281397
 20
4596.849989496
 10
6266.8551437698
 20
4596.4856303773
 10
6265.2236554699
 20
4596.0200347601
 10
6263.8463058945
 20
4595.466656258
 10
6262.7628942352
 20
4594.8414850143
 10
6262.0047262033
 20
4594.1625856588
 10
6261.5937094361
 20
4593.4495753213
 10
6261.5417204645
 20
4592.7230567853
 10
6261.8502615354
 20
4592.0040231601
 10
6262.5104172033
 20
4591.3132512751
 10
6263.5031119462
 20
4590.6707013227
 10
6264.7996613628
 20
4590.094940099
 10
6266.3626010216
 20
4589.6026045069
 10
6268.1467690146
 20
4589.2079208248
 10
6270.1006109325
 20
4588.9222936313
  0
LWPOLYLINE
  5
189
330
1F
100
AcDbEntity
  8
0
  6
Continuous
 62
     7
370
    25
100
AcDbPolyline
 90
        9
 70
   128
 43
0.0
 10
6270.1006109325
 20
4588.9222936313
 10
6270.2516594037
 20
4588.9136864651
 10
6270.4032403823
 20
4588.9211182925
 10
6270.5411362081
 20
4588.9438920391
 10
6270.652412831
 20
4588.9798716232
 10
6270.7266329705
 20
4589.0256823105
 10
6270.7568350886
 20
4589.0770272507
 10
6270.7401863533
 20
4589.1290905038
 10
6270.6782483463
 20
4589.1769887549
  0
LWPOLYLINE
  5
18A
330
1F
100
AcDbEntity
  8
0
  6
Continuous
 62
     7
370
    25
100
AcDbPolyline
 90
        9
 70
   128
 43
0.0
 10
6270.6782483463
 20
4589.1769887549
 10
6269.2651109969
 20
4590.070566016
 10
6268.2545084104
 20
4591.0258714501
 10
6267.6687316293
 20
4592.0218337138
 10
6267.520701237
 20
4593.0364846889
 10
6267.8136823666
 20
4594.0474440368
 10
6268.5412126807
 20
4595.0324128458
 10
6269.6872449127
 20
4595.9696654825
 10
6271.2265008241
 20
4596.8385287972
  0
ARC
  5
18B
330
1F
100
AcDbEntity
  8
0
  6
Continuous
 62
     7
370
    25
100
AcDbCircle
 10
6269.3235758566
 20
4604.4727727983
 30
0.0
 40
11.99067622649643
100
AcDbArc
 50
235.2007179627
 51
261.3890256118
  0
ARC
  5
18C
330
1F
100
AcDbEntity
  8
0
  6
Continuous
 62
     7
370
    25
100
AcDbCircle
 10
6278.7341096679
 20
4604.4095215552
 30
0.0
 40
11.92723920272303
100
AcDbArc
 50
278.3800669034
 51
304.8931045396
  0
LWPOLYLINE
  5
18D
330
1F
100
AcDbEntity
  8
0
  6
Continuous
 62
     7
370
    25
100
AcDbPolyline
 90
        3
 70
   128
 43
0.0
 10
6267.5147138495
 20
4596.158042622
 10
6267.520701237
 20
4596.3254088616
 10
6267.5651388351
 20
4596.6434771437
  0
LINE
  5
18E
330
1F
100
AcDbEntity
  8
0
  6
Continuous
 62
     7
370
    25
100
AcDbLine
 10
6280.509235532
 20
4596.6358466754
 30
0.0
 11
6280.5227968227
 21
4596.3839870455
 31
0.0
  0
CIRCLE
  5
18F
330
1F
100
AcDbEntity
  8
0
  6
Continuous
 62
     7
370
    25
100
AcDbCircle
 10
6274.0187553361
 20
4394.6126688817
 30
0.0
 40
222.6491211287812
  0
CIRCLE
  5
190
330
1F
100
AcDbEntity
  8
0
  6
Continuous
 62
     7
370
    25
100
AcDbCircle
 10
6274.0187553361
 20
4394.6126688817
 30
0.0
 40
227.5
  0
CIRCLE
  5
191
330
1F
100
AcDbEntity
  8
0
  6
Continuous
 62
     7
370
    25
100
AcDbCircle
 10
6274.0187553361
 20
4394.6126688817
 30
0.0
 40
212.8896151290464
  0
CIRCLE
  5
192
330
1F
100
AcDbEntity
  8
0
  6
Continuous
 62
     7
370
    25
100
AcDbCircle
 10
6274.0187553361
 20
4394.6126688817
 30
0.0
 40
208.0
  0
CIRCLE
  5
193
330
1F
100
AcDbEntity
  8
0
  6
Continuous
 62
     7
370
    25
100
AcDbCircle
 10
6274.0187553361
 20
4394.6126688817
 30
0.0
 40
27.1829316025578
  0
LINE
  5
194
330
1F
100
AcDbEntity
  8
0
  6
Continuous
 62
     8
370
    25
100
AcDbLine
 10
6314.0187553361
 20
4622.678685604
 30
0.0
 11
6277.0187553361
 21
4622.678685604
 31
0.0
  0
LINE
  5
195
330
1F
100
AcDbEntity
  8
0
  6
Continuous
 62
     8
370
    25
100
AcDbLine
 10
6271.0187553361
 20
4622.678685604
 30
0.0
 11
6234.0187553361
 21
4622.678685604
 31
0.0
  0
LINE
  5
196
330
1F
100
AcDbEntity
  8
0
  6
Continuous
 62
     8
370
    25
100
AcDbLine
 10
6270.1006109325
 20
4589.5049713986
 30
0.0
 11
6270.1006109325
 21
4588.9222936313
 31
0.0
  0
LINE
  5
197
330
1F
100
AcDbEntity
  8
0
  6
Continuous
 62
     8
370
    25
100
AcDbLine
 10
6271.2265008241
 20
4597.0369993146
 30
0.0
 11
6271.2265008241
 21
4596.8385287972
 31
0.0
  0
LINE
  5
198
330
1F
100
AcDbEntity
  8
0
  6
Continuous
 62
     8
370
    25
100
AcDbLine
 10
6277.3592623259
 20
4596.9717990518
 30
0.0
 11
6277.3592623259
 21
4596.7871925671
 31
0.0
  0
LINE
  5
199
330
1F
100
AcDbEntity
  8
0
  6
Continuous
 62
     8
370
    25
100
AcDbLine
 10
6277.3515260003
 20
4589.3988096418
 30
0.0
 11
6277.3515260003
 21
4588.8615975414
 31
0.0
  0
ENDSEC
  0
SECTION
  2
OBJECTS
  0
DICTIONARY
  5
C
330
0
100
AcDbDictionary
281
     1
  3
ACAD_GROUP
350
D
  3
ACAD_LAYOUT
350
1A
  3
ACAD_MLINESTYLE
350
17
  3
ACAD_PLOTSETTINGS
350
19
  3
ACAD_PLOTSTYLENAME
350
E
  3
ACAD_SCALELIST
350
47
  0
DICTIONARY
  5
D
102
{ACAD_REACTORS
330
C
102
}
330
C
100
AcDbDictionary
281
     1
  0
DICTIONARY
  5
1A
102
{ACAD_REACTORS
330
C
102
}
330
C
100
AcDbDictionary
281
     1
  3
Layout1
350
1E
  3
Layout2
350
26
  3
Model
350
22
  0
DICTIONARY
  5
17
102
{ACAD_REACTORS
330
C
102
}
330
C
100
AcDbDictionary
281
     1
  3
Standard
350
18
  0
DICTIONARY
  5
19
102
{ACAD_REACTORS
330
C
102
}
330
C
100
AcDbDictionary
281
     1
  0
ACDBDICTIONARYWDFLT
  5
E
102
{ACAD_REACTORS
330
C
102
}
330
C
100
AcDbDictionary
281
     1
  3
Normal
350
F
100
AcDbDictionaryWithDefault
340
F
  0
DICTIONARY
  5
47
102
{ACAD_REACTORS
330
C
102
}
330
C
100
AcDbDictionary
281
     1
  3
A0
350
48
  3
A1
350
49
  3
A2
350
4A
  3
A3
350
4B
  3
A4
350
4C
  3
A5
350
4D
  3
A6
350
4E
  3
A7
350
4F
  3
A8
350
50
  3
A9
350
51
  3
B0
350
52
  3
B1
350
53
  3
B2
350
54
  3
B3
350
55
  3
B4
350
56
  3
B5
350
57
  3
B6
350
58
  3
B7
350
59
  3
B8
350
5A
  3
B9
350
5B
  3
C0
350
5C
  3
C1
350
5D
  3
C2
350
5E
  3
C3
350
5F
  3
C4
350
60
  3
C5
350
61
  3
C6
350
62
  3
C7
350
63
  3
C8
350
64
  3
C9
350
65
  3
D0
350
66
  3
D1
350
67
  3
D2
350
68
  0
LAYOUT
  5
1E
102
{ACAD_REACTORS
330
1A
102
}
330
1A
100
AcDbPlotSettings
  1

  2
none_device
  4

  6

 40
0.0
 41
0.0
 42
0.0
 43
0.0
 44
0.0
 45
0.0
 46
0.0
 47
0.0
 48
0.0
 49
0.0
140
0.0
141
0.0
142
1.0
143
1.0
 70
   688
 72
     1
 73
     0
 74
     5
  7

 75
    16
147
1.0
148
0.0
149
0.0
100
AcDbLayout
  1
Layout1
 70
     1
 71
     1
 10
0.0
 20
0.0
 11
420.0
 21
297.0
 12
0.0
 22
0.0
 32
0.0
 14
1.0000000000E+20
 24
1.0000000000E+20
 34
1.0000000000E+20
 15
-1.0000000000E+20
 25
-1.0000000000E+20
 35
-1.0000000000E+20
146
0.0
 13
0.0
 23
0.0
 33
0.0
 16
1.0
 26
0.0
 36
0.0
 17
0.0
 27
1.0
 37
0.0
 76
     0
330
1B
  0
LAYOUT
  5
26
102
{ACAD_REACTORS
330
1A
102
}
330
1A
100
AcDbPlotSettings
  1

  2
none_device
  4

  6

 40
0.0
 41
0.0
 42
0.0
 43
0.0
 44
0.0
 45
0.0
 46
0.0
 47
0.0
 48
0.0
 49
0.0
140
0.0
141
0.0
142
1.0
143
1.0
 70
   688
 72
     1
 73
     0
 74
     5
  7

 75
    16
147
1.0
148
0.0
149
0.0
100
AcDbLayout
  1
Layout2
 70
     1
 71
     2
 10
0.0
 20
0.0
 11
0.0
 21
0.0
 12
0.0
 22
0.0
 32
0.0
 14
0.0
 24
0.0
 34
0.0
 15
0.0
 25
0.0
 35
0.0
146
0.0
 13
0.0
 23
0.0
 33
0.0
 16
1.0
 26
0.0
 36
0.0
 17
0.0
 27
1.0
 37
0.0
 76
     0
330
23
  0
LAYOUT
  5
22
102
{ACAD_REACTORS
330
1A
102
}
330
1A
100
AcDbPlotSettings
  1

  2
none_device
  4
Letter_(8.50_x_11.00_Inches)
  6

 40
6.35
 41
6.35
 42
6.35000508
 43
6.35000508
 44
215.9
 45
279.4
 46
0.0
 47
0.0
 48
0.0
 49
0.0
140
0.0
141
0.0
142
1.0
143
1.0
 70
  1712
 72
     1
 73
     0
 74
     0
  7

 75
     0
147
1.0
148
0.0
149
0.0
100
AcDbLayout
  1
Model
 70
     1
 71
     0
 10
0.0
 20
0.0
 11
20000.0
 21
10000.0
 12
0.0
 22
0.0
 32
0.0
 14
0.0
 24
0.0
 34
0.0
 15
20000.0
 25
10000.0
 35
0.0
146
0.0
 13
0.0
 23
0.0
 33
0.0
 16
1.0
 26
0.0
 36
0.0
 17
0.0
 27
1.0
 37
0.0
 76
     0
330
1F
331
29
  0
MLINESTYLE
  5
18
102
{ACAD_REACTORS
330
17
102
}
330
17
100
AcDbMlineStyle
  2
Standard
 70
     0
  3

 62
   256
 51
90.0
 52
90.0
 71
     2
 49
0.5
 62
   256
  6
BYLAYER
 49
-0.5
 62
   256
  6
BYLAYER
  0
ACDBPLACEHOLDER
  5
F
102
{ACAD_REACTORS
330
E
102
}
330
E
  0
SCALE
  5
48
102
{ACAD_REACTORS
330
47
102
}
330
47
100
AcDbScale
 70
     0
300
1:1
140
1.0
141
1.0
290
     1
  0
SCALE
  5
49
102
{ACAD_REACTORS
330
47
102
}
330
47
100
AcDbScale
 70
     0
300
1:2
140
1.0
141
2.0
290
     0
  0
SCALE
  5
4A
102
{ACAD_REACTORS
330
47
102
}
330
47
100
AcDbScale
 70
     0
300
1:4
140
1.0
141
4.0
290
     0
  0
SCALE
  5
4B
102
{ACAD_REACTORS
330
47
102
}
330
47
100
AcDbScale
 70
     0
300
1:5
140
1.0
141
5.0
290
     0
  0
SCALE
  5
4C
102
{ACAD_REACTORS
330
47
102
}
330
47
100
AcDbScale
 70
     0
300
1:8
140
1.0
141
8.0
290
     0
  0
SCALE
  5
4D
102
{ACAD_REACTORS
330
47
102
}
330
47
100
AcDbScale
 70
     0
300
1:10
140
1.0
141
10.0
290
     0
  0
SCALE
  5
4E
102
{ACAD_REACTORS
330
47
102
}
330
47
100
AcDbScale
 70
     0
300
1:16
140
1.0
141
16.0
290
     0
  0
SCALE
  5
4F
102
{ACAD_REACTORS
330
47
102
}
330
47
100
AcDbScale
 70
     0
300
1:20
140
1.0
141
20.0
290
     0
  0
SCALE
  5
50
102
{ACAD_REACTORS
330
47
102
}
330
47
100
AcDbScale
 70
     0
300
1:30
140
1.0
141
30.0
290
     0
  0
SCALE
  5
51
102
{ACAD_REACTORS
330
47
102
}
330
47
100
AcDbScale
 70
     0
300
1:40
140
1.0
141
40.0
290
     0
  0
SCALE
  5
52
102
{ACAD_REACTORS
330
47
102
}
330
47
100
AcDbScale
 70
     0
300
1:50
140
1.0
141
50.0
290
     0
  0
SCALE
  5
53
102
{ACAD_REACTORS
330
47
102
}
330
47
100
AcDbScale
 70
     0
300
1:100
140
1.0
141
100.0
290
     0
  0
SCALE
  5
54
102
{ACAD_REACTORS
330
47
102
}
330
47
100
AcDbScale
 70
     0
300
2:1
140
2.0
141
1.0
290
     0
  0
SCALE
  5
55
102
{ACAD_REACTORS
330
47
102
}
330
47
100
AcDbScale
 70
     0
300
4:1
140
4.0
141
1.0
290
     0
  0
SCALE
  5
56
102
{ACAD_REACTORS
330
47
102
}
330
47
100
AcDbScale
 70
     0
300
8:1
140
8.0
141
1.0
290
     0
  0
SCALE
  5
57
102
{ACAD_REACTORS
330
47
102
}
330
47
100
AcDbScale
 70
     0
300
10:1
140
10.0
141
1.0
290
     0
  0
SCALE
  5
58
102
{ACAD_REACTORS
330
47
102
}
330
47
100
AcDbScale
 70
     0
300
100:1
140
100.0
141
1.0
290
     0
  0
SCALE
  5
59
102
{ACAD_REACTORS
330
47
102
}
330
47
100
AcDbScale
 70
     0
300
1/128" = 1'-0"
140
0.0078125
141
12.0
290
     0
  0
SCALE
  5
5A
102
{ACAD_REACTORS
330
47
102
}
330
47
100
AcDbScale
 70
     0
300
1/64" = 1'-0"
140
0.015625
141
12.0
290
     0
  0
SCALE
  5
5B
102
{ACAD_REACTORS
330
47
102
}
330
47
100
AcDbScale
 70
     0
300
1/32" = 1'-0"
140
0.03125
141
12.0
290
     0
  0
SCALE
  5
5C
102
{ACAD_REACTORS
330
47
102
}
330
47
100
AcDbScale
 70
     0
300
1/16" = 1'-0"
140
0.0625
141
12.0
290
     0
  0
SCALE
  5
5D
102
{ACAD_REACTORS
330
47
102
}
330
47
100
AcDbScale
 70
     0
300
3/32" = 1'-0"
140
0.09375
141
12.0
290
     0
  0
SCALE
  5
5E
102
{ACAD_REACTORS
330
47
102
}
330
47
100
AcDbScale
 70
     0
300
1/8" = 1'-0"
140
0.125
141
12.0
290
     0
  0
SCALE
  5
5F
102
{ACAD_REACTORS
330
47
102
}
330
47
100
AcDbScale
 70
     0
300
3/16" = 1'-0"
140
0.1875
141
12.0
290
     0
  0
SCALE
  5
60
102
{ACAD_REACTORS
330
47
102
}
330
47
100
AcDbScale
 70
     0
300
1/4" = 1'-0"
140
0.25
141
12.0
290
     0
  0
SCALE
  5
61
102
{ACAD_REACTORS
330
47
102
}
330
47
100
AcDbScale
 70
     0
300
3/8" = 1'-0"
140
0.375
141
12.0
290
     0
  0
SCALE
  5
62
102
{ACAD_REACTORS
330
47
102
}
330
47
100
AcDbScale
 70
     0
300
1/2" = 1'-0"
140
0.5
141
12.0
290
     0
  0
SCALE
  5
63
102
{ACAD_REACTORS
330
47
102
}
330
47
100
AcDbScale
 70
     0
300
3/4" = 1'-0"
140
0.75
141
12.0
290
     0
  0
SCALE
  5
64
102
{ACAD_REACTORS
330
47
102
}
330
47
100
AcDbScale
 70
     0
300
1" = 1'-0"
140
1.0
141
12.0
290
     0
  0
SCALE
  5
65
102
{ACAD_REACTORS
330
47
102
}
330
47
100
AcDbScale
 70
     0
300
1-1/2" = 1'-0"
140
1.5
141
12.0
290
     0
  0
SCALE
  5
66
102
{ACAD_REACTORS
330
47
102
}
330
47
100
AcDbScale
 70
     0
300
3" = 1'-0"
140
3.0
141
12.0
290
     0
  0
SCALE
  5
67
102
{ACAD_REACTORS
330
47
102
}
330
47
100
AcDbScale
 70
     0
300
6" = 1'-0"
140
6.0
141
12.0
290
     0
  0
SCALE
  5
68
102
{ACAD_REACTORS
330
47
102
}
330
47
100
AcDbScale
 70
     0
300
1'-0" = 1'-0"
140
12.0
141
12.0
290
     0
  0
ENDSEC
  0
EOF
