  0
SECTION
  2
HEADER
  9
$ACADVER
  1
AC1015
  9
$ACADMAINTVER
 70
     6
  9
$DWGCODEPAGE
  3
ANSI_1250
  9
$INSBASE
 10
0.0
 20
0.0
 30
0.0
  9
$EXTMIN
 10
0.0
 20
0.0
 30
0.0
  9
$EXTMAX
 10
20000.0
 20
10000.0
 30
0.0
  9
$LIMMIN
 10
0.0
 20
0.0
  9
$LIMMAX
 10
20000.0
 20
10000.0
  9
$ORTHOMODE
 70
     0
  9
$REGENMODE
 70
     1
  9
$FILLMODE
 70
     1
  9
$QTEXTMODE
 70
     0
  9
$MIRRTEXT
 70
     1
  9
$LTSCALE
 40
1.0
  9
$ATTMODE
 70
     1
  9
$TEXTSIZE
 40
2.0
  9
$TRACEWID
 40
1.0
  9
$TEXTSTYLE
  7
Standard
  9
$CLAYER
  8
0
  9
$CELTYPE
  6
ByLayer
  9
$CECOLOR
 62
   256
  9
$CELTSCALE
 40
1.0
  9
$DISPSILH
 70
     0
  9
$DIMSCALE
 40
1.0
  9
$DIMASZ
 40
2.0
  9
$DIMEXO
 40
1.0
  9
$DIMDLI
 40
3.75
  9
$DIMRND
 40
0.0
  9
$DIMDLE
 40
0.0
  9
$DIMEXE
 40
1.0
  9
$DIMTP
 40
0.0
  9
$DIMTM
 40
0.0
  9
$DIMTXT
 40
2.0
  9
$DIMCEN
 40
2.5
  9
$DIMTSZ
 40
0.0
  9
$DIMTOL
 70
     0
  9
$DIMLIM
 70
     0
  9
$DIMTIH
 70
     1
  9
$DIMTOH
 70
     1
  9
$DIMSE1
 70
     0
  9
$DIMSE2
 70
     0
  9
$DIMTAD
 70
     1
  9
$DIMZIN
 70
     0
  9
$DIMBLK
  1

  9
$DIMASO
 70
     1
  9
$DIMSHO
 70
     1
  9
$DIMPOST
  1

  9
$DIMAPOST
  1

  9
$DIMALT
 70
     0
  9
$DIMALTD
 70
     3
  9
$DIMALTF
 40
0.0393700787
  9
$DIMLFAC
 40
1.0
  9
$DIMTOFL
 70
     1
  9
$DIMTVP
 40
0.0
  9
$DIMTIX
 70
     0
  9
$DIMSOXD
 70
     0
  9
$DIMSAH
 70
     0
  9
$DIMBLK1
  1

  9
$DIMBLK2
  1

  9
$DIMSTYLE
  2
ISO-25
  9
$DIMCLRD
 70
     0
  9
$DIMCLRE
 70
     0
  9
$DIMCLRT
 70
     0
  9
$DIMTFAC
 40
1.0
  9
$DIMGAP
 40
1.524
  9
$DIMJUST
 70
     0
  9
$DIMSD1
 70
     0
  9
$DIMSD2
 70
     0
  9
$DIMTOLJ
 70
     0
  9
$DIMTZIN
 70
     0
  9
$DIMALTZ
 70
     0
  9
$DIMALTTZ
 70
     0
  9
$DIMUPT
 70
     0
  9
$DIMDEC
 70
     2
  9
$DIMTDEC
 70
     0
  9
$DIMALTU
 70
     2
  9
$DIMALTTD
 70
     3
  9
$DIMTXSTY
  7
Standard
  9
$DIMAUNIT
 70
     0
  9
$DIMADEC
 70
     2
  9
$DIMALTRND
 40
0.0
  9
$DIMAZIN
 70
     0
  9
$DIMDSEP
 70
    44
  9
$DIMATFIT
 70
     3
  9
$DIMFRAC
 70
     0
  9
$DIMLDRBLK
  1

  9
$DIMLUNIT
 70
     2
  9
$DIMLWD
 70
    -2
  9
$DIMLWE
 70
    -2
  9
$DIMTMOVE
 70
     0
  9
$LUNITS
 70
     2
  9
$LUPREC
 70
     3
  9
$SKETCHINC
 40
1.0
  9
$FILLETRAD
 40
10.0
  9
$AUNITS
 70
     0
  9
$AUPREC
 70
     2
  9
$MENU
  1
.
  9
$ELEVATION
 40
0.0
  9
$PELEVATION
 40
0.0
  9
$THICKNESS
 40
0.0
  9
$LIMCHECK
 70
     0
  9
$CHAMFERA
 40
0.0
  9
$CHAMFERB
 40
0.0
  9
$CHAMFERC
 40
0.0
  9
$CHAMFERD
 40
0.0
  9
$SKPOLY
 70
     0
  9
$TDCREATE
 40
2458701.629381169
  9
$TDUCREATE
 40
2458701.546047836
  9
$TDUPDATE
 40
2458701.62938147
  9
$TDUUPDATE
 40
2458701.546048136
  9
$TDINDWG
 40
0.0000000116
  9
$TDUSRTIMER
 40
0.0000000116
  9
$USRTIMER
 70
     1
  9
$ANGBASE
 50
0.0
  9
$ANGDIR
 70
     0
  9
$PDMODE
 70
     0
  9
$PDSIZE
 40
-1.0
  9
$PLINEWID
 40
0.0
  9
$SPLFRAME
 70
     0
  9
$SPLINETYPE
 70
     6
  9
$SPLINESEGS
 70
     8
  9
$HANDSEED
  5
380
  9
$SURFTAB1
 70
     6
  9
$SURFTAB2
 70
     6
  9
$SURFTYPE
 70
     6
  9
$SURFU
 70
     6
  9
$SURFV
 70
     6
  9
$UCSBASE
  2

  9
$UCSNAME
  2

  9
$UCSORG
 10
0.0
 20
0.0
 30
0.0
  9
$UCSXDIR
 10
1.0
 20
0.0
 30
0.0
  9
$UCSYDIR
 10
0.0
 20
1.0
 30
0.0
  9
$UCSORTHOREF
  2

  9
$UCSORTHOVIEW
 70
     0
  9
$UCSORGTOP
 10
0.0
 20
0.0
 30
0.0
  9
$UCSORGBOTTOM
 10
0.0
 20
0.0
 30
0.0
  9
$UCSORGLEFT
 10
0.0
 20
0.0
 30
0.0
  9
$UCSORGRIGHT
 10
0.0
 20
0.0
 30
0.0
  9
$UCSORGFRONT
 10
0.0
 20
0.0
 30
0.0
  9
$UCSORGBACK
 10
0.0
 20
0.0
 30
0.0
  9
$PUCSBASE
  2

  9
$PUCSNAME
  2

  9
$PUCSORG
 10
0.0
 20
0.0
 30
0.0
  9
$PUCSXDIR
 10
1.0
 20
0.0
 30
0.0
  9
$PUCSYDIR
 10
0.0
 20
1.0
 30
0.0
  9
$PUCSORTHOREF
  2

  9
$PUCSORTHOVIEW
 70
     0
  9
$PUCSORGTOP
 10
0.0
 20
0.0
 30
0.0
  9
$PUCSORGBOTTOM
 10
0.0
 20
0.0
 30
0.0
  9
$PUCSORGLEFT
 10
0.0
 20
0.0
 30
0.0
  9
$PUCSORGRIGHT
 10
0.0
 20
0.0
 30
0.0
  9
$PUCSORGFRONT
 10
0.0
 20
0.0
 30
0.0
  9
$PUCSORGBACK
 10
0.0
 20
0.0
 30
0.0
  9
$USERI1
 70
     0
  9
$USERI2
 70
     0
  9
$USERI3
 70
     0
  9
$USERI4
 70
     0
  9
$USERI5
 70
     0
  9
$USERR1
 40
0.0
  9
$USERR2
 40
0.0
  9
$USERR3
 40
0.0
  9
$USERR4
 40
0.0
  9
$USERR5
 40
0.0
  9
$WORLDVIEW
 70
     1
  9
$SHADEDGE
 70
     3
  9
$SHADEDIF
 70
    70
  9
$TILEMODE
 70
     1
  9
$MAXACTVP
 70
    64
  9
$PINSBASE
 10
0.0
 20
0.0
 30
0.0
  9
$PLIMCHECK
 70
     0
  9
$PEXTMIN
 10
1.0000000000E+20
 20
1.0000000000E+20
 30
1.0000000000E+20
  9
$PEXTMAX
 10
-1.0000000000E+20
 20
-1.0000000000E+20
 30
-1.0000000000E+20
  9
$PLIMMIN
 10
0.0
 20
0.0
  9
$PLIMMAX
 10
420.0
 20
297.0
  9
$UNITMODE
 70
     0
  9
$VISRETAIN
 70
     1
  9
$PLINEGEN
 70
     0
  9
$PSLTSCALE
 70
     1
  9
$TREEDEPTH
 70
  3020
  9
$CMLSTYLE
  2
Standard
  9
$CMLJUST
 70
     0
  9
$CMLSCALE
 40
20.0
  9
$PROXYGRAPHICS
 70
     1
  9
$MEASUREMENT
 70
     1
  9
$CELWEIGHT
370
    -1
  9
$ENDCAPS
280
     0
  9
$JOINSTYLE
280
     0
  9
$LWDISPLAY
290
     1
  9
$INSUNITS
 70
     4
  9
$HYPERLINKBASE
  1

  9
$STYLESHEET
  1

  9
$XEDIT
290
     1
  9
$CEPSNTYPE
380
     0
  9
$PSTYLEMODE
290
     1
  9
$FINGERPRINTGUID
  2
{4F91F5AF-C1A3-4E58-ADA8-E7B467A1D28E}
  9
$VERSIONGUID
  2
{FAEB1C32-E019-11D5-929B-00C0DF256EC4}
  9
$EXTNAMES
290
     1
  9
$PSVPSCALE
 40
0.0
  9
$OLESTARTUP
290
     0
  0
ENDSEC
  0
SECTION
  2
CLASSES
  0
CLASS
  1
ACDBDICTIONARYWDFLT
  2
AcDbDictionaryWithDefault
  3
ObjectDBX Classes
 90
        0
280
     0
281
     0
  0
CLASS
  1
VISUALSTYLE
  2
AcDbVisualStyle
  3
ObjectDBX Classes
 90
     4095
280
     0
281
     0
  0
CLASS
  1
MATERIAL
  2
AcDbMaterial
  3
ObjectDBX Classes
 90
     1153
280
     0
281
     0
  0
CLASS
  1
SCALE
  2
AcDbScale
  3
ObjectDBX Classes
 90
     1153
280
     0
281
     0
  0
CLASS
  1
TABLESTYLE
  2
AcDbTableStyle
  3
ObjectDBX Classes
 90
     4095
280
     0
281
     0
  0
CLASS
  1
MLEADERSTYLE
  2
AcDbMLeaderStyle
  3
ACDB_MLEADERSTYLE_CLASS
 90
     4095
280
     0
281
     0
  0
CLASS
  1
SUN
  2
AcDbSun
  3
SCENEOE
 90
     1153
280
     0
281
     0
  0
CLASS
  1
ACDBPLACEHOLDER
  2
AcDbPlaceHolder
  3
ObjectDBX Classes
 90
        0
280
     0
281
     0
  0
CLASS
  1
LAYOUT
  2
AcDbLayout
  3
ObjectDBX Classes
 90
        0
280
     0
281
     0
  0
ENDSEC
  0
SECTION
  2
TABLES
  0
TABLE
  2
VPORT
  5
8
330
0
100
AcDbSymbolTable
 70
     1
  0
VPORT
  5
29
330
8
100
AcDbSymbolTableRecord
100
AcDbViewportTableRecord
  2
*Active
 70
     0
 10
0.0
 20
0.0
 11
1.0
 21
1.0
 12
10000.0
 22
5000.0
 13
0.0
 23
0.0
 14
10.0
 24
10.0
 15
10.0
 25
10.0
 16
0.0
 26
0.0
 36
1.0
 17
0.0
 27
0.0
 37
0.0
 40
10000.0
 41
2.0
 42
50.0
 43
0.0
 44
0.0
 50
0.0
 51
0.0
 71
     0
 72
  2000
 73
     1
 74
     3
 75
     0
 76
     0
 77
     0
 78
     0
281
     0
 65
     1
110
0.0
120
0.0
130
0.0
111
1.0
121
0.0
131
0.0
112
0.0
122
1.0
132
0.0
 79
     0
146
0.0
  0
ENDTAB
  0
TABLE
  2
LTYPE
  5
5
330
0
100
AcDbSymbolTable
 70
     6
  0
LTYPE
  5
14
330
5
100
AcDbSymbolTableRecord
100
AcDbLinetypeTableRecord
  2
ByBlock
 70
     0
  3

 72
    65
 73
     0
 40
0.0
  0
LTYPE
  5
15
330
5
100
AcDbSymbolTableRecord
100
AcDbLinetypeTableRecord
  2
ByLayer
 70
     0
  3

 72
    65
 73
     0
 40
0.0
  0
LTYPE
  5
16
330
5
100
AcDbSymbolTableRecord
100
AcDbLinetypeTableRecord
  2
Continuous
 70
     0
  3
Solid line
 72
    65
 73
     0
 40
0.0
  0
LTYPE
  5
6E
330
5
100
AcDbSymbolTableRecord
100
AcDbLinetypeTableRecord
  2
HIDDEN
 70
     0
  3
Hidden __ __ __ __ __ __ __ __ __ __ __ __ __ __
 72
    65
 73
     2
 40
1.905
 49
1.27
 74
     0
 49
-0.635
 74
     0
  0
LTYPE
  5
6F
330
5
100
AcDbSymbolTableRecord
100
AcDbLinetypeTableRecord
  2
PHANTOM
 70
     0
  3
Phantom ______  __  __  ______  __  __  ______
 72
    65
 73
     6
 40
12.7
 49
6.35
 74
     0
 49
-1.27
 74
     0
 49
1.27
 74
     0
 49
-1.27
 74
     0
 49
1.27
 74
     0
 49
-1.27
 74
     0
  0
LTYPE
  5
70
330
5
100
AcDbSymbolTableRecord
100
AcDbLinetypeTableRecord
  2
CENTER
 70
     0
  3
Center ____ _ ____ _ ____ _ ____ _ ____ _ ____
 72
    65
 73
     4
 40
10.16
 49
6.35
 74
     0
 49
-1.27
 74
     0
 49
1.27
 74
     0
 49
-1.27
 74
     0
  0
LTYPE
  5
71
330
5
100
AcDbSymbolTableRecord
100
AcDbLinetypeTableRecord
  2
CENTERX2
 70
     0
  3
Center (2x) ________  __  ________  __  _____
 72
    65
 73
     4
 40
20.32
 49
12.7
 74
     0
 49
-2.54
 74
     0
 49
2.54
 74
     0
 49
-2.54
 74
     0
  0
LTYPE
  5
72
330
5
100
AcDbSymbolTableRecord
100
AcDbLinetypeTableRecord
  2
DOT2
 70
     0
  3
Dot (.5x) ........................................
 72
    65
 73
     2
 40
0.635
 49
0.0
 74
     0
 49
-0.635
 74
     0
  0
ENDTAB
  0
TABLE
  2
LAYER
  5
2
330
0
100
AcDbSymbolTable
 70
    13
  0
LAYER
  5
10
330
2
100
AcDbSymbolTableRecord
100
AcDbLayerTableRecord
  2
0
 70
     0
 62
     7
  6
Continuous
370
    -3
390
F
  0
LAYER
  5
73
330
2
100
AcDbSymbolTableRecord
100
AcDbLayerTableRecord
  2
FORMAT
 70
     0
 62
     7
  6
Continuous
370
    -3
390
F
  0
LAYER
  5
74
330
2
100
AcDbSymbolTableRecord
100
AcDbLayerTableRecord
  2
OSA
 70
     0
 62
     7
  6
CENTER
370
    -3
390
F
  0
LAYER
  5
75
330
2
100
AcDbSymbolTableRecord
100
AcDbLayerTableRecord
  2
0_35
 70
     0
 62
     7
  6
Continuous
370
    35
390
F
  0
LAYER
  5
76
330
2
100
AcDbSymbolTableRecord
100
AcDbLayerTableRecord
  2
0_5
 70
     0
 62
     7
  6
Continuous
370
    50
390
F
  0
LAYER
  5
77
330
2
100
AcDbSymbolTableRecord
100
AcDbLayerTableRecord
  2
0_25
 70
     0
 62
     7
  6
Continuous
370
    25
390
F
  0
LAYER
  5
78
330
2
100
AcDbSymbolTableRecord
100
AcDbLayerTableRecord
  2
0_18
 70
     0
 62
     7
  6
Continuous
370
    -3
390
F
  0
LAYER
  5
79
330
2
100
AcDbSymbolTableRecord
100
AcDbLayerTableRecord
  2
SLD-0
 70
     0
 62
   179
  6
Continuous
370
    -3
390
F
  0
LAYER
  5
7A
330
2
100
AcDbSymbolTableRecord
100
AcDbLayerTableRecord
  2
KOTY
 70
     0
 62
     7
  6
Continuous
370
    -3
390
F
  0
LAYER
  5
7B
330
2
100
AcDbSymbolTableRecord
100
AcDbLayerTableRecord
  2
SILNA
 70
     0
 62
   179
  6
Continuous
370
    -3
390
F
  0
LAYER
  5
7C
330
2
100
AcDbSymbolTableRecord
100
AcDbLayerTableRecord
  2
0_18_1
 70
     0
 62
   179
  6
Continuous
370
    -3
390
F
  0
LAYER
  5
7D
330
2
100
AcDbSymbolTableRecord
100
AcDbLayerTableRecord
  2
0_35_1
 70
     0
 62
   179
  6
Continuous
370
    35
390
F
  0
LAYER
  5
7E
330
2
100
AcDbSymbolTableRecord
100
AcDbLayerTableRecord
  2
0_5_1
 70
     0
 62
   179
  6
Continuous
370
    50
390
F
  0
ENDTAB
  0
TABLE
  2
STYLE
  5
3
330
0
100
AcDbSymbolTable
 70
     1
  0
STYLE
  5
11
330
3
100
AcDbSymbolTableRecord
100
AcDbTextStyleTableRecord
  2
Standard
 70
     0
 40
0.0
 41
1.0
 50
0.0
 71
     0
 42
2.0
  3
txt
  4

  0
ENDTAB
  0
TABLE
  2
VIEW
  5
6
330
0
100
AcDbSymbolTable
 70
     0
  0
ENDTAB
  0
TABLE
  2
UCS
  5
7
330
0
100
AcDbSymbolTable
 70
     0
  0
ENDTAB
  0
TABLE
  2
APPID
  5
9
330
0
100
AcDbSymbolTable
 70
     1
  0
APPID
  5
12
330
9
100
AcDbSymbolTableRecord
100
AcDbRegAppTableRecord
  2
ACAD
 70
     0
  0
ENDTAB
  0
TABLE
  2
DIMSTYLE
  5
A
330
0
100
AcDbSymbolTable
 70
     1
100
AcDbDimStyleTable
  0
DIMSTYLE
105
27
330
A
100
AcDbSymbolTableRecord
100
AcDbDimStyleTableRecord
  2
ISO-25
 70
     0
 41
2.5
 42
0.625
 43
3.75
 44
1.25
 73
     0
 74
     0
 77
     1
 78
     8
140
2.5
141
2.5
143
0.0393700787
147
0.625
171
     3
172
     1
178
     0
271
     2
272
     2
274
     3
278
    44
283
     0
284
     8
340
11
  0
ENDTAB
  0
TABLE
  2
BLOCK_RECORD
  5
1
330
0
100
AcDbSymbolTable
 70
     1
  0
BLOCK_RECORD
  5
1F
330
1
100
AcDbSymbolTableRecord
100
AcDbBlockTableRecord
  2
*Model_Space
340
22
  0
BLOCK_RECORD
  5
1B
330
1
100
AcDbSymbolTableRecord
100
AcDbBlockTableRecord
  2
*Paper_Space
340
1E
  0
BLOCK_RECORD
  5
23
330
1
100
AcDbSymbolTableRecord
100
AcDbBlockTableRecord
  2
*Paper_Space0
340
26
  0
ENDTAB
  0
ENDSEC
  0
SECTION
  2
BLOCKS
  0
BLOCK
  5
20
330
1F
100
AcDbEntity
  8
0
100
AcDbBlockBegin
  2
*Model_Space
 70
     0
 10
0.0
 20
0.0
 30
0.0
  3
*Model_Space
  1

  0
ENDBLK
  5
21
330
1F
100
AcDbEntity
  8
0
100
AcDbBlockEnd
  0
BLOCK
  5
1C
330
1B
100
AcDbEntity
 67
     1
  8
0
100
AcDbBlockBegin
  2
*Paper_Space
 70
     0
 10
0.0
 20
0.0
 30
0.0
  3
*Paper_Space
  1

  0
ENDBLK
  5
1D
330
1B
100
AcDbEntity
 67
     1
  8
0
100
AcDbBlockEnd
  0
BLOCK
  5
24
330
23
100
AcDbEntity
  8
0
100
AcDbBlockBegin
  2
*Paper_Space0
 70
     0
 10
0.0
 20
0.0
 30
0.0
  3
*Paper_Space0
  1

  0
ENDBLK
  5
25
330
23
100
AcDbEntity
  8
0
100
AcDbBlockEnd
  0
ENDSEC
  0
SECTION
  2
ENTITIES
  0
LINE
  5
7F
330
1F
100
AcDbEntity
  8
0
  6
Continuous
 62
     7
370
    25
100
AcDbLine
 10
5783.7121229894
 20
6227.4114951519
 30
0.0
 11
5783.7288122899
 21
6227.4114951519
 31
0.0
  0
LINE
  5
80
330
1F
100
AcDbEntity
  8
0
  6
Continuous
 62
     7
370
    25
100
AcDbLine
 10
5783.7288122899
 20
6237.911494079
 30
0.0
 11
5783.7121229894
 21
6237.911494079
 31
0.0
  0
LINE
  5
81
330
1F
100
AcDbEntity
  8
0
  6
Continuous
 62
     7
370
    25
100
AcDbLine
 10
5806.0221415288
 20
6475.1627497403
 30
0.0
 11
5806.0221415288
 21
6485.0365981487
 31
0.0
  0
LINE
  5
82
330
1F
100
AcDbEntity
  8
0
  6
Continuous
 62
     7
370
    25
100
AcDbLine
 10
5766.0221796758
 20
6485.0365981487
 30
0.0
 11
5766.0221796758
 21
6475.1627497403
 31
0.0
  0
LINE
  5
83
330
1F
100
AcDbEntity
  8
0
  6
Continuous
 62
     7
370
    25
100
AcDbLine
 10
6046.8997698552
 20
6424.8598432545
 30
0.0
 11
6048.3998995549
 21
6423.3598432997
 31
0.0
  0
LINE
  5
84
330
1F
100
AcDbEntity
  8
0
  6
Continuous
 62
     7
370
    25
100
AcDbLine
 10
6073.3997565038
 20
6423.3598432997
 30
0.0
 11
6074.8998862035
 21
6424.8598432545
 31
0.0
  0
LINE
  5
85
330
1F
100
AcDbEntity
  8
0
  6
Continuous
 62
     7
370
    25
100
AcDbLine
 10
6046.8997698552
 20
6425.1598432688
 30
0.0
 11
6046.8997698552
 21
6424.8598432545
 31
0.0
  0
LINE
  5
86
330
1F
100
AcDbEntity
  8
0
  6
Continuous
 62
     7
370
    25
100
AcDbLine
 10
6074.8998862035
 20
6424.8598432545
 30
0.0
 11
6074.8998862035
 21
6425.1598432688
 31
0.0
  0
LINE
  5
87
330
1F
100
AcDbEntity
  8
0
  6
Continuous
 62
     7
370
    25
100
AcDbLine
 10
6646.8997936971
 20
6425.1598432688
 30
0.0
 11
6646.8997936971
 21
6424.8598432545
 31
0.0
  0
LINE
  5
88
330
1F
100
AcDbEntity
  8
0
  6
Continuous
 62
     7
370
    25
100
AcDbLine
 10
6674.8997908361
 20
6424.8598432545
 30
0.0
 11
6674.8997908361
 21
6425.1598432688
 31
0.0
  0
LINE
  5
89
330
1F
100
AcDbEntity
  8
0
  6
Continuous
 62
     7
370
    25
100
AcDbLine
 10
6646.8997936971
 20
6424.8598432545
 30
0.0
 11
6648.3998041875
 21
6423.3598432997
 31
0.0
  0
LINE
  5
8A
330
1F
100
AcDbEntity
  8
0
  6
Continuous
 62
     7
370
    25
100
AcDbLine
 10
6673.3997803456
 20
6423.3598432997
 30
0.0
 11
6674.8997908361
 21
6424.8598432545
 31
0.0
  0
LINE
  5
8B
330
1F
100
AcDbEntity
  8
0
  6
Continuous
 62
     7
370
    25
100
AcDbLine
 10
6590.8997994191
 20
6422.6598433247
 30
0.0
 11
6590.8997994191
 21
6425.1598432688
 31
0.0
  0
LINE
  5
8C
330
1F
100
AcDbEntity
  8
0
  6
Continuous
 62
     7
370
    25
100
AcDbLine
 10
6530.8997374303
 20
6425.1598432688
 30
0.0
 11
6530.8997374303
 21
6422.6598433247
 31
0.0
  0
LINE
  5
8D
330
1F
100
AcDbEntity
  8
0
  6
Continuous
 62
     7
370
    25
100
AcDbLine
 10
6530.8997374303
 20
6422.6598433247
 30
0.0
 11
6531.3998204
 21
6422.1598432427
 31
0.0
  0
LINE
  5
8E
330
1F
100
AcDbEntity
  8
0
  6
Continuous
 62
     7
370
    25
100
AcDbLine
 10
6590.3998356588
 20
6422.1598432427
 30
0.0
 11
6590.8997994191
 21
6422.6598433247
 31
0.0
  0
LINE
  5
8F
330
1F
100
AcDbEntity
  8
0
  6
Continuous
 62
     7
370
    25
100
AcDbLine
 10
5990.8997755773
 20
6422.6598433247
 30
0.0
 11
5990.8997755773
 21
6425.1598432688
 31
0.0
  0
LINE
  5
90
330
1F
100
AcDbEntity
  8
0
  6
Continuous
 62
     7
370
    25
100
AcDbLine
 10
5930.8998327977
 20
6425.1598432688
 30
0.0
 11
5930.8998327977
 21
6422.6598433247
 31
0.0
  0
LINE
  5
91
330
1F
100
AcDbEntity
  8
0
  6
Continuous
 62
     7
370
    25
100
AcDbLine
 10
5930.8998327977
 20
6422.6598433247
 30
0.0
 11
5931.3997965581
 21
6422.1598432427
 31
0.0
  0
LINE
  5
92
330
1F
100
AcDbEntity
  8
0
  6
Continuous
 62
     7
370
    25
100
AcDbLine
 10
5990.3998118169
 20
6422.1598432427
 30
0.0
 11
5990.8997755773
 21
6422.6598433247
 31
0.0
  0
LINE
  5
93
330
1F
100
AcDbEntity
  8
0
  6
Continuous
 62
     7
370
    25
100
AcDbLine
 10
6546.8997698552
 20
6422.1598432427
 30
0.0
 11
6546.8997698552
 21
6257.1598455338
 31
0.0
  0
LINE
  5
94
330
1F
100
AcDbEntity
  8
0
  6
Continuous
 62
     7
370
    25
100
AcDbLine
 10
6574.8997669942
 20
6257.1598455338
 30
0.0
 11
6574.8997669942
 21
6422.1598432427
 31
0.0
  0
LINE
  5
95
330
1F
100
AcDbEntity
  8
0
  6
Continuous
 62
     7
370
    25
100
AcDbLine
 10
6546.8997698552
 20
6257.1598455338
 30
0.0
 11
6547.8998165853
 21
6256.1598435072
 31
0.0
  0
LINE
  5
96
330
1F
100
AcDbEntity
  8
0
  6
Continuous
 62
     7
370
    25
100
AcDbLine
 10
6573.8998394735
 20
6256.1598435072
 30
0.0
 11
6574.8997669942
 21
6257.1598455338
 31
0.0
  0
LINE
  5
97
330
1F
100
AcDbEntity
  8
0
  6
Continuous
 62
     7
370
    25
100
AcDbLine
 10
5946.8998652227
 20
6422.1598432427
 30
0.0
 11
5946.8998652227
 21
6257.1598455338
 31
0.0
  0
LINE
  5
98
330
1F
100
AcDbEntity
  8
0
  6
Continuous
 62
     7
370
    25
100
AcDbLine
 10
5974.8997431523
 20
6257.1598455338
 30
0.0
 11
5974.8997431523
 21
6422.1598432427
 31
0.0
  0
LINE
  5
99
330
1F
100
AcDbEntity
  8
0
  6
Continuous
 62
     7
370
    25
100
AcDbLine
 10
5946.8998652227
 20
6257.1598455338
 30
0.0
 11
5947.8997927434
 21
6256.1598435072
 31
0.0
  0
LINE
  5
9A
330
1F
100
AcDbEntity
  8
0
  6
Continuous
 62
     7
370
    25
100
AcDbLine
 10
5973.8998156316
 20
6256.1598435072
 30
0.0
 11
5974.8997431523
 21
6257.1598455338
 31
0.0
  0
CIRCLE
  5
9B
330
1F
100
AcDbEntity
  8
0
  6
Continuous
 62
     7
370
    25
100
AcDbCircle
 10
5783.3913428465
 20
6232.6687537528
 30
0.0
 40
34.99340145034377
  0
CIRCLE
  5
9C
330
1F
100
AcDbEntity
  8
0
  6
Continuous
 62
     7
370
    25
100
AcDbCircle
 10
5783.4079601036
 20
6232.6688667496
 30
0.0
 40
35.16260691971518
  0
CIRCLE
  5
9D
330
1F
100
AcDbEntity
  8
0
  6
Continuous
 62
     7
370
    25
100
AcDbCircle
 10
5783.4499519329
 20
6232.6667010845
 30
0.0
 40
24.96038696089597
  0
CIRCLE
  5
9E
330
1F
100
AcDbEntity
  8
0
  6
Continuous
 62
     7
370
    25
100
AcDbCircle
 10
5783.524692673
 20
6232.6661461485
 30
0.0
 40
21.99574906639384
  0
CIRCLE
  5
9F
330
1F
100
AcDbEntity
  8
0
  6
Continuous
 62
     7
370
    25
100
AcDbCircle
 10
5783.7162040466
 20
6232.6654677705
 30
0.0
 40
20.49630338305773
  0
CIRCLE
  5
A0
330
1F
100
AcDbEntity
  8
0
  6
Continuous
 62
     7
370
    25
100
AcDbCircle
 10
5783.7358168669
 20
6232.6656085785
 30
0.0
 40
19.48327478699781
  0
CIRCLE
  5
A1
330
1F
100
AcDbEntity
  8
0
  6
Continuous
 62
     7
370
    25
100
AcDbCircle
 10
5783.7340975156
 20
6232.6627762014
 30
0.0
 40
5.698777159998657
  0
CIRCLE
  5
A2
330
1F
100
AcDbEntity
  8
0
  6
Continuous
 62
     7
370
    25
100
AcDbCircle
 10
5789.3690627782
 20
6219.8474845843
 30
0.0
 40
4.998901527746344
  0
CIRCLE
  5
A3
330
1F
100
AcDbEntity
  8
0
  6
Continuous
 62
     7
370
    25
100
AcDbCircle
 10
5775.4564126674
 20
6221.373430449
 30
0.0
 40
4.999001409887136
  0
CIRCLE
  5
A4
330
1F
100
AcDbEntity
  8
0
  6
Continuous
 62
     7
370
    25
100
AcDbCircle
 10
5769.8213624905
 20
6234.1886580571
 30
0.0
 40
4.998903674087869
  0
CIRCLE
  5
A5
330
1F
100
AcDbEntity
  8
0
  6
Continuous
 62
     7
370
    25
100
AcDbCircle
 10
5778.0988051854
 20
6245.4776551877
 30
0.0
 40
4.998999263545185
  0
CIRCLE
  5
A6
330
1F
100
AcDbEntity
  8
0
  6
Continuous
 62
     7
370
    25
100
AcDbCircle
 10
5792.0114570953
 20
6243.9517030155
 30
0.0
 40
4.998905879476971
  0
CIRCLE
  5
A7
330
1F
100
AcDbEntity
  8
0
  6
Continuous
 62
     7
370
    25
100
AcDbCircle
 10
5797.6465072723
 20
6231.136475407
 30
0.0
 40
4.999003615617338
  0
ARC
  5
A8
330
1F
100
AcDbEntity
  8
0
  6
Continuous
 62
     7
370
    25
100
AcDbCircle
 10
5797.6638635244
 20
6231.1354517964
 30
0.0
 40
5.000002766077473
100
AcDbArc
 50
90.0104942604
 51
269.9895057396
  0
ARC
  5
A9
330
1F
100
AcDbEntity
  8
0
  6
Continuous
 62
     7
370
    25
100
AcDbCircle
 10
5792.0286814815
 20
6243.9505845336
 30
0.0
 40
5.000002781269225
100
AcDbArc
 50
90.0114051796
 51
269.9885948204
  0
ARC
  5
AA
330
1F
100
AcDbEntity
  8
0
  6
Continuous
 62
     7
370
    25
100
AcDbCircle
 10
5789.3862763953
 20
6219.8463544277
 30
0.0
 40
4.999995328319577
100
AcDbArc
 50
90.0112679838
 51
269.9887320162
  0
ARC
  5
AB
330
1F
100
AcDbEntity
  8
0
  6
Continuous
 62
     7
370
    25
100
AcDbCircle
 10
5778.1161506685
 20
6245.476619902
 30
0.0
 40
4.999995313318185
100
AcDbArc
 50
90.010357064
 51
269.989642936
  0
ARC
  5
AC
330
1F
100
AcDbEntity
  8
0
  6
Continuous
 62
     7
370
    25
100
AcDbCircle
 10
5775.4737576239
 20
6221.3723972467
 30
0.0
 40
4.999995362115681
100
AcDbArc
 50
90.0130899169
 51
269.9869100831
  0
ARC
  5
AD
330
1F
100
AcDbEntity
  8
0
  6
Continuous
 62
     7
370
    25
100
AcDbCircle
 10
5769.8385755133
 20
6234.1875299839
 30
0.0
 40
4.999995328319577
100
AcDbArc
 50
90.0112679838
 51
269.9887320162
  0
ARC
  5
AE
330
1F
100
AcDbEntity
  8
0
  6
Continuous
 62
     7
370
    25
100
AcDbCircle
 10
5783.7123041528
 20
6232.6603162769
 30
0.0
 40
5.248488576628924
100
AcDbArc
 50
203.2848299533
 51
6.8800044174
  0
LWPOLYLINE
  5
AF
330
1F
100
AcDbEntity
  8
0
  6
Continuous
 62
     7
370
    25
100
AcDbPolyline
 90
        9
 70
   128
 43
0.0
 10
5778.8912993199
 20
6230.5855765966
 10
5780.0044756658
 20
6230.8904394535
 10
5781.2266093022
 20
6231.2233909992
 10
5782.525036884
 20
6231.5755054382
 10
5783.8649492986
 20
6231.937305632
 10
5785.2103453405
 20
6232.299120727
 10
5786.5249853856
 20
6232.6512202648
 10
5787.7735834844
 20
6232.9841718105
 10
5788.9229994542
 20
6233.2890346674
  0
ARC
  5
B0
330
1F
100
AcDbEntity
  8
0
  6
Continuous
 62
     7
370
    25
100
AcDbCircle
 10
5783.7119821677
 20
6232.6625083572
 30
0.0
 40
5.248510697996184
100
AcDbArc
 50
23.2865051058
 51
186.8783292649
  0
LWPOLYLINE
  5
B1
330
1F
100
AcDbEntity
  8
0
  6
Continuous
 62
     7
370
    25
100
AcDbPolyline
 90
        9
 70
   128
 43
0.0
 10
5788.5329466588
 20
6234.7373977331
 10
5787.383530689
 20
6234.4325348763
 10
5786.1349325902
 20
6234.0995833305
 10
5784.8200541265
 20
6233.7474837927
 10
5783.4748965032
 20
6233.3856686977
 10
5782.1349840886
 20
6233.0238536028
 10
5780.8365565068
 20
6232.6717540649
 10
5779.6144228704
 20
6232.3388025192
 10
5778.5012465245
 20
6232.0339396624
  0
LINE
  5
B2
330
1F
100
AcDbEntity
  8
0
  6
Continuous
 62
     7
370
    25
100
AcDbLine
 10
5788.5329466588
 20
6234.7373977331
 30
0.0
 11
5778.5012465245
 21
6232.0339396624
 31
0.0
  0
ARC
  5
B3
330
1F
100
AcDbEntity
  8
0
  6
Continuous
 62
     7
370
    25
100
AcDbCircle
 10
5783.7277475094
 20
6232.6614946155
 30
0.0
 40
5.249999571535117
100
AcDbArc
 50
270.0116204639
 51
89.9883795361
  0
ARC
  5
B4
330
1F
100
AcDbEntity
  8
0
  6
Continuous
 62
     7
370
    25
100
AcDbCircle
 10
5783.7107066381
 20
6232.662036487
 30
0.0
 40
5.249868866891592
100
AcDbArc
 50
6.8592771222
 51
23.2857321649
  0
ARC
  5
B5
330
1F
100
AcDbEntity
  8
0
  6
Continuous
 62
     7
370
    25
100
AcDbCircle
 10
5783.7233408914
 20
6232.6635774587
 30
0.0
 40
5.259915715186614
100
AcDbArc
 50
186.8750730573
 51
203.2699362298
  0
LINE
  5
B6
330
1F
100
AcDbEntity
  8
0
  6
Continuous
 62
     7
370
    25
100
AcDbLine
 10
5806.0221415288
 20
6485.0365981487
 30
0.0
 11
5766.0221796758
 21
6485.0365981487
 31
0.0
  0
ARC
  5
B7
330
1F
100
AcDbEntity
  8
0
  6
Continuous
 62
     7
370
    25
100
AcDbCircle
 10
5783.9862001787
 20
6232.6617564747
 30
0.0
 40
14.5013788582531
100
AcDbArc
 50
215.1816886669
 51
252.9728275567
  0
ARC
  5
B8
330
1F
100
AcDbEntity
  8
0
  6
Continuous
 62
     7
370
    25
100
AcDbCircle
 10
5783.9807280083
 20
6232.6552714667
 30
0.0
 40
14.49380209214411
100
AcDbArc
 50
272.7384229456
 51
312.9532965072
  0
LINE
  5
B9
330
1F
100
AcDbEntity
  8
0
  6
Continuous
 62
     7
370
    25
100
AcDbLine
 10
5797.8355627782
 20
6226.1748179821
 30
0.0
 11
5797.1386652715
 21
6226.5758082298
 31
0.0
  0
ARC
  5
BA
330
1F
100
AcDbEntity
  8
0
  6
Continuous
 62
     7
370
    25
100
AcDbCircle
 10
5783.964988538
 20
6232.6622951077
 30
0.0
 40
14.51175665425754
100
AcDbArc
 50
335.2021732182
 51
13.777694598
  0
ARC
  5
BB
330
1F
100
AcDbEntity
  8
0
  6
Continuous
 62
     7
370
    25
100
AcDbCircle
 10
5783.9792260251
 20
6232.6646964002
 30
0.0
 40
14.49711544507593
100
AcDbArc
 50
34.4143289216
 51
74.6503611502
  0
ARC
  5
BC
330
1F
100
AcDbEntity
  8
0
  6
Continuous
 62
     7
370
    25
100
AcDbCircle
 10
5783.9814274623
 20
6232.6681347323
 30
0.0
 40
14.49336246227441
100
AcDbArc
 50
95.1858316766
 51
134.6887096114
  0
ARC
  5
BD
330
1F
100
AcDbEntity
  8
0
  6
Continuous
 62
     7
370
    25
100
AcDbCircle
 10
5783.9866737929
 20
6232.6619818499
 30
0.0
 40
14.50141996875824
100
AcDbArc
 50
153.8475713061
 51
193.8595222086
  0
LINE
  5
BE
330
1F
100
AcDbEntity
  8
0
  6
Continuous
 62
     7
370
    25
100
AcDbLine
 10
5771.1956244237
 20
6223.7627670197
 30
0.0
 11
5772.1338015325
 21
6224.3064805893
 31
0.0
  0
LINE
  5
BF
330
1F
100
AcDbEntity
  8
0
  6
Continuous
 62
     7
370
    25
100
AcDbLine
 10
5782.5753432042
 20
6247.7004691986
 30
0.0
 11
5782.6764326818
 21
6243.4691056637
 31
0.0
  0
LINE
  5
C0
330
1F
100
AcDbEntity
  8
0
  6
Continuous
 62
     7
370
    25
100
AcDbLine
 10
5797.8551131017
 20
6226.1398300556
 30
0.0
 11
5793.3566313512
 21
6228.5964056877
 31
0.0
  0
LINE
  5
C1
330
1F
100
AcDbEntity
  8
0
  6
Continuous
 62
     7
370
    25
100
AcDbLine
 10
5771.0447054631
 20
6223.6922547249
 30
0.0
 11
5775.4394751317
 21
6226.3722881702
 31
0.0
  0
LINE
  5
C2
330
1F
100
AcDbEntity
  8
0
  6
Continuous
 62
     7
370
    25
100
AcDbLine
 10
5797.196124149
 20
6226.7778530745
 30
0.0
 11
5793.2533961064
 21
6228.8415148882
 31
0.0
  0
LINE
  5
C3
330
1F
100
AcDbEntity
  8
0
  6
Continuous
 62
     7
370
    25
100
AcDbLine
 10
5772.5772600896
 20
6224.3064805893
 30
0.0
 11
5775.6526213414
 21
6226.2693360476
 31
0.0
  0
LINE
  5
C4
330
1F
100
AcDbEntity
  8
0
  6
Continuous
 62
     7
370
    25
100
AcDbLine
 10
5772.1338015325
 20
6224.3064805893
 30
0.0
 11
5772.5772600896
 21
6224.3064805893
 31
0.0
  0
LWPOLYLINE
  5
C5
330
1F
100
AcDbEntity
  8
0
  6
Continuous
 62
     7
370
    25
100
AcDbPolyline
 90
        3
 70
   128
 43
0.0
 10
5771.4564543492
 20
6232.3152437834
 10
5771.6891508824
 20
6230.0518617062
 10
5771.7816572911
 20
6229.5882865814
  0
ARC
  5
C6
330
1F
100
AcDbEntity
  8
0
  6
Continuous
 62
     7
370
    25
100
AcDbCircle
 10
5785.950808448
 20
6232.6582827326
 30
0.0
 40
14.49745327754397
100
AcDbArc
 50
211.9043891051
 51
246.0037093354
  0
LINE
  5
C7
330
1F
100
AcDbEntity
  8
0
  6
Continuous
 62
     7
370
    25
100
AcDbLine
 10
5784.658883167
 20
6218.2189539103
 30
0.0
 11
5784.964774204
 21
6218.1949034361
 31
0.0
  0
ARC
  5
C8
330
1F
100
AcDbEntity
  8
0
  6
Continuous
 62
     7
370
    25
100
AcDbCircle
 10
5785.9498447055
 20
6232.6656870995
 30
0.0
 40
14.4960832841534
100
AcDbArc
 50
103.3711197404
 51
140.8496774439
  0
ARC
  5
C9
330
1F
100
AcDbEntity
  8
0
  6
Continuous
 62
     7
370
    25
100
AcDbCircle
 10
5785.9549391782
 20
6232.661368023
 30
0.0
 40
14.50261577529216
100
AcDbArc
 50
156.9596173459
 51
181.3675699321
  0
ARC
  5
CA
330
1F
100
AcDbEntity
  8
0
  6
Continuous
 62
     7
370
    25
100
AcDbCircle
 10
5787.8870598374
 20
6232.6650880216
 30
0.0
 40
14.99694352665228
100
AcDbArc
 50
110.6462314531
 51
145.3715283567
  0
ARC
  5
CB
330
1F
100
AcDbEntity
  8
0
  6
Continuous
 62
     7
370
    25
100
AcDbCircle
 10
5787.8967175417
 20
6232.6609785338
 30
0.0
 40
15.00759805062456
100
AcDbArc
 50
161.6118429581
 51
188.7342224371
  0
ARC
  5
CC
330
1F
100
AcDbEntity
  8
0
  6
Continuous
 62
     7
370
    25
100
AcDbCircle
 10
5787.8877662897
 20
6232.6584403122
 30
0.0
 40
14.99782146791121
100
AcDbArc
 50
207.9033731315
 51
239.1430994628
  0
LINE
  5
CD
330
1F
100
AcDbEntity
  8
0
  6
Continuous
 62
     7
370
    25
100
AcDbLine
 10
6073.3997565038
 20
6423.3598432997
 30
0.0
 11
6048.3998995549
 21
6423.3598432997
 31
0.0
  0
LINE
  5
CE
330
1F
100
AcDbEntity
  8
0
  6
Continuous
 62
     7
370
    25
100
AcDbLine
 10
6074.8934489019
 20
6424.8598432545
 30
0.0
 11
6074.8998862035
 21
6424.8598432545
 31
0.0
  0
LINE
  5
CF
330
1F
100
AcDbEntity
  8
0
  6
Continuous
 62
     7
370
    25
100
AcDbLine
 10
6046.8997698552
 20
6424.8598432545
 30
0.0
 11
6074.8934489019
 21
6424.8598432545
 31
0.0
  0
LINE
  5
D0
330
1F
100
AcDbEntity
  8
0
  6
Continuous
 62
     7
370
    25
100
AcDbLine
 10
6646.8997936971
 20
6424.8598432545
 30
0.0
 11
6674.8996716268
 21
6424.8598432545
 31
0.0
  0
LINE
  5
D1
330
1F
100
AcDbEntity
  8
0
  6
Continuous
 62
     7
370
    25
100
AcDbLine
 10
6673.3996611364
 20
6423.3598432997
 30
0.0
 11
6648.3998041875
 21
6423.3598432997
 31
0.0
  0
LINE
  5
D2
330
1F
100
AcDbEntity
  8
0
  6
Continuous
 62
     7
370
    25
100
AcDbLine
 10
6533.2326632268
 20
6422.6598433247
 30
0.0
 11
6590.8997994191
 21
6422.6598433247
 31
0.0
  0
LINE
  5
D3
330
1F
100
AcDbEntity
  8
0
  6
Continuous
 62
     7
370
    25
100
AcDbLine
 10
6530.8997374303
 20
6422.6598433247
 30
0.0
 11
6533.2326632268
 21
6422.6598433247
 31
0.0
  0
LINE
  5
D4
330
1F
100
AcDbEntity
  8
0
  6
Continuous
 62
     7
370
    25
100
AcDbLine
 10
6533.6937647588
 20
6422.1598432427
 30
0.0
 11
6531.3998204
 21
6422.1598432427
 31
0.0
  0
LINE
  5
D5
330
1F
100
AcDbEntity
  8
0
  6
Continuous
 62
     7
370
    25
100
AcDbLine
 10
6590.3998356588
 20
6422.1598432427
 30
0.0
 11
6533.6937647588
 21
6422.1598432427
 31
0.0
  0
LINE
  5
D6
330
1F
100
AcDbEntity
  8
0
  6
Continuous
 62
     7
370
    25
100
AcDbLine
 10
5933.2456331975
 20
6422.6598433247
 30
0.0
 11
5990.8997755773
 21
6422.6598433247
 31
0.0
  0
LINE
  5
D7
330
1F
100
AcDbEntity
  8
0
  6
Continuous
 62
     7
370
    25
100
AcDbLine
 10
5930.8998327977
 20
6422.6598433247
 30
0.0
 11
5933.2456331975
 21
6422.6598433247
 31
0.0
  0
LINE
  5
D8
330
1F
100
AcDbEntity
  8
0
  6
Continuous
 62
     7
370
    25
100
AcDbLine
 10
5933.7064963109
 20
6422.1598432427
 30
0.0
 11
5931.3997965581
 21
6422.1598432427
 31
0.0
  0
LINE
  5
D9
330
1F
100
AcDbEntity
  8
0
  6
Continuous
 62
     7
370
    25
100
AcDbLine
 10
5990.3998118169
 20
6422.1598432427
 30
0.0
 11
5933.7064963109
 21
6422.1598432427
 31
0.0
  0
LINE
  5
DA
330
1F
100
AcDbEntity
  8
0
  6
Continuous
 62
     7
370
    25
100
AcDbLine
 10
6546.8997698552
 20
6257.1598455338
 30
0.0
 11
6574.8997669942
 21
6257.1598455338
 31
0.0
  0
LINE
  5
DB
330
1F
100
AcDbEntity
  8
0
  6
Continuous
 62
     7
370
    25
100
AcDbLine
 10
6573.8998394735
 20
6256.1598435072
 30
0.0
 11
6547.8998165853
 21
6256.1598435072
 31
0.0
  0
LINE
  5
DC
330
1F
100
AcDbEntity
  8
0
  6
Continuous
 62
     7
370
    25
100
AcDbLine
 10
5946.8998652227
 20
6257.1598455338
 30
0.0
 11
5974.8997431523
 21
6257.1598455338
 31
0.0
  0
LINE
  5
DD
330
1F
100
AcDbEntity
  8
0
  6
Continuous
 62
     7
370
    25
100
AcDbLine
 10
5973.8998156316
 20
6256.1598435072
 30
0.0
 11
5947.8997927434
 21
6256.1598435072
 31
0.0
  0
LINE
  5
DE
330
1F
100
AcDbEntity
  8
0
  6
Continuous
 62
     7
370
    25
100
AcDbLine
 10
5635.8997565038
 20
6471.2945275036
 30
0.0
 11
5637.8998499639
 21
6471.2945275036
 31
0.0
  0
LINE
  5
DF
330
1F
100
AcDbEntity
  8
0
  6
Continuous
 62
     7
370
    25
100
AcDbLine
 10
5635.8997565038
 20
6475.1598440138
 30
0.0
 11
5637.8998499639
 21
6475.1598440138
 31
0.0
  0
LINE
  5
E0
330
1F
100
AcDbEntity
  8
0
  6
Continuous
 62
     7
370
    25
100
AcDbLine
 10
5635.8997565038
 20
6471.2945275036
 30
0.0
 11
5635.8997565038
 21
6475.1598440138
 31
0.0
  0
LINE
  5
E1
330
1F
100
AcDbEntity
  8
0
  6
Continuous
 62
     7
370
    25
100
AcDbLine
 10
5635.8997565038
 20
6427.6945258984
 30
0.0
 11
5637.8998499639
 21
6427.6945258984
 31
0.0
  0
LINE
  5
E2
330
1F
100
AcDbEntity
  8
0
  6
Continuous
 62
     7
370
    25
100
AcDbLine
 10
5637.8998499639
 20
6471.2945275036
 30
0.0
 11
5637.8998499639
 21
6427.6945258984
 31
0.0
  0
LINE
  5
E3
330
1F
100
AcDbEntity
  8
0
  6
Continuous
 62
     7
370
    25
100
AcDbLine
 10
5635.8997565038
 20
6427.6945258984
 30
0.0
 11
5635.8997565038
 21
6471.2945275036
 31
0.0
  0
LINE
  5
E4
330
1F
100
AcDbEntity
  8
0
  6
Continuous
 62
     7
370
    25
100
AcDbLine
 10
5635.8997565038
 20
6425.1598432688
 30
0.0
 11
5637.8998499639
 21
6425.1598432688
 31
0.0
  0
LINE
  5
E5
330
1F
100
AcDbEntity
  8
0
  6
Continuous
 62
     7
370
    25
100
AcDbLine
 10
5635.8997565038
 20
6425.1598432688
 30
0.0
 11
5635.8997565038
 21
6427.6945258984
 31
0.0
  0
LINE
  5
E6
330
1F
100
AcDbEntity
  8
0
  6
Continuous
 62
     7
370
    25
100
AcDbLine
 10
5635.8997565038
 20
5995.1598361162
 30
0.0
 11
5637.8998499639
 21
5995.1598361162
 31
0.0
  0
LINE
  5
E7
330
1F
100
AcDbEntity
  8
0
  6
Continuous
 62
     7
370
    25
100
AcDbLine
 10
5637.8998499639
 20
6425.1598432688
 30
0.0
 11
5637.8998499639
 21
6039.0531137613
 31
0.0
  0
LINE
  5
E8
330
1F
100
AcDbEntity
  8
0
  6
Continuous
 62
     7
370
    25
100
AcDbLine
 10
5637.8998499639
 20
5996.2731614737
 30
0.0
 11
5637.8998499639
 21
5995.1598361162
 31
0.0
  0
LINE
  5
E9
330
1F
100
AcDbEntity
  8
0
  6
Continuous
 62
     7
370
    25
100
AcDbLine
 10
5635.8997565038
 20
5995.1598361162
 30
0.0
 11
5635.8997565038
 21
6425.1598432688
 31
0.0
  0
LINE
  5
EA
330
1F
100
AcDbEntity
  8
0
  6
Continuous
 62
     7
370
    25
100
AcDbLine
 10
5677.9424887426
 20
5995.163144174
 30
0.0
 11
5677.7996760137
 21
5995.1598361162
 31
0.0
  0
LINE
  5
EB
330
1F
100
AcDbEntity
  8
0
  6
Continuous
 62
     7
370
    25
100
AcDbLine
 10
5677.7996760137
 20
5995.1598361162
 30
0.0
 11
5638.9996748693
 21
5995.1598361162
 31
0.0
  0
LINE
  5
EC
330
1F
100
AcDbEntity
  8
0
  6
Continuous
 62
     7
370
    25
100
AcDbLine
 10
5638.9996748693
 20
5995.1598361162
 30
0.0
 11
5638.857100559
 21
5995.163144174
 31
0.0
  0
LINE
  5
ED
330
1F
100
AcDbEntity
  8
0
  6
Continuous
 62
     7
370
    25
100
AcDbLine
 10
6885.8997565038
 20
6471.2945275036
 30
0.0
 11
6883.899782253
 21
6471.2945275036
 31
0.0
  0
LINE
  5
EE
330
1F
100
AcDbEntity
  8
0
  6
Continuous
 62
     7
370
    25
100
AcDbLine
 10
6885.8997565038
 20
6475.1598440138
 30
0.0
 11
6883.899782253
 21
6475.1598440138
 31
0.0
  0
LINE
  5
EF
330
1F
100
AcDbEntity
  8
0
  6
Continuous
 62
     7
370
    25
100
AcDbLine
 10
6885.8997565038
 20
6475.1598440138
 30
0.0
 11
6885.8997565038
 21
6471.2945275036
 31
0.0
  0
LINE
  5
F0
330
1F
100
AcDbEntity
  8
0
  6
Continuous
 62
     7
370
    25
100
AcDbLine
 10
6885.8997565038
 20
6427.6945258984
 30
0.0
 11
6883.899782253
 21
6427.6945258984
 31
0.0
  0
LINE
  5
F1
330
1F
100
AcDbEntity
  8
0
  6
Continuous
 62
     7
370
    25
100
AcDbLine
 10
6883.899782253
 20
6471.2945275036
 30
0.0
 11
6883.899782253
 21
6427.6945258984
 31
0.0
  0
LINE
  5
F2
330
1F
100
AcDbEntity
  8
0
  6
Continuous
 62
     7
370
    25
100
AcDbLine
 10
6885.8997565038
 20
6471.2945275036
 30
0.0
 11
6885.8997565038
 21
6427.6945258984
 31
0.0
  0
LINE
  5
F3
330
1F
100
AcDbEntity
  8
0
  6
Continuous
 62
     7
370
    25
100
AcDbLine
 10
6885.8997565038
 20
6425.1598432688
 30
0.0
 11
6883.899782253
 21
6425.1598432688
 31
0.0
  0
LINE
  5
F4
330
1F
100
AcDbEntity
  8
0
  6
Continuous
 62
     7
370
    25
100
AcDbLine
 10
6885.8997565038
 20
6427.6945258984
 30
0.0
 11
6885.8997565038
 21
6425.1598432688
 31
0.0
  0
LINE
  5
F5
330
1F
100
AcDbEntity
  8
0
  6
Continuous
 62
     7
370
    25
100
AcDbLine
 10
6885.8997565038
 20
5995.1598361162
 30
0.0
 11
6883.899782253
 21
5995.1598361162
 31
0.0
  0
LINE
  5
F6
330
1F
100
AcDbEntity
  8
0
  6
Continuous
 62
     7
370
    25
100
AcDbLine
 10
6883.899782253
 20
6425.1598432688
 30
0.0
 11
6883.899782253
 21
6039.0770152239
 31
0.0
  0
LINE
  5
F7
330
1F
100
AcDbEntity
  8
0
  6
Continuous
 62
     7
370
    25
100
AcDbLine
 10
6883.899782253
 20
5996.2492600111
 30
0.0
 11
6883.899782253
 21
5995.1598361162
 31
0.0
  0
LINE
  5
F8
330
1F
100
AcDbEntity
  8
0
  6
Continuous
 62
     7
370
    25
100
AcDbLine
 10
6885.8997565038
 20
6425.1598432688
 30
0.0
 11
6885.8997565038
 21
5995.1598361162
 31
0.0
  0
LINE
  5
F9
330
1F
100
AcDbEntity
  8
0
  6
Continuous
 62
     7
370
    25
100
AcDbLine
 10
6843.9998369939
 20
5995.1598361162
 30
0.0
 11
6843.857024265
 21
5995.163144174
 31
0.0
  0
LINE
  5
FA
330
1F
100
AcDbEntity
  8
0
  6
Continuous
 62
     7
370
    25
100
AcDbLine
 10
6882.9425316579
 20
5995.163144174
 30
0.0
 11
6882.7998381383
 21
5995.1598361162
 31
0.0
  0
LINE
  5
FB
330
1F
100
AcDbEntity
  8
0
  6
Continuous
 62
     7
370
    25
100
AcDbLine
 10
6882.7998381383
 20
5995.1598361162
 30
0.0
 11
6843.9998369939
 21
5995.1598361162
 31
0.0
  0
LINE
  5
FC
330
1F
100
AcDbEntity
  8
0
  6
Continuous
 62
     7
370
    25
100
AcDbLine
 10
5637.8998499639
 20
6473.1696933536
 30
0.0
 11
6883.899782253
 21
6473.1696933536
 31
0.0
  0
LINE
  5
FD
330
1F
100
AcDbEntity
  8
0
  6
Continuous
 62
     7
370
    25
100
AcDbLine
 10
5637.8998499639
 20
6475.1627497403
 30
0.0
 11
6883.899782253
 21
6475.1627497403
 31
0.0
  0
LINE
  5
FE
330
1F
100
AcDbEntity
  8
0
  6
Continuous
 62
     7
370
    25
100
AcDbLine
 10
6883.899782253
 20
6473.1696933536
 30
0.0
 11
6883.899782253
 21
6475.1627497403
 31
0.0
  0
LINE
  5
FF
330
1F
100
AcDbEntity
  8
0
  6
Continuous
 62
     7
370
    25
100
AcDbLine
 10
5637.8998499639
 20
6473.1696933536
 30
0.0
 11
5637.8998499639
 21
6475.1627497403
 31
0.0
  0
LINE
  5
100
330
1F
100
AcDbEntity
  8
0
  6
Continuous
 62
     7
370
    25
100
AcDbLine
 10
5637.8998499639
 20
6426.4667889597
 30
0.0
 11
6883.899782253
 21
6426.4667889597
 31
0.0
  0
LINE
  5
101
330
1F
100
AcDbEntity
  8
0
  6
Continuous
 62
     7
370
    25
100
AcDbLine
 10
6883.899782253
 20
6426.4667889597
 30
0.0
 11
6883.899782253
 21
6473.1696933536
 31
0.0
  0
LINE
  5
102
330
1F
100
AcDbEntity
  8
0
  6
Continuous
 62
     7
370
    25
100
AcDbLine
 10
5637.8998499639
 20
6426.4667889597
 30
0.0
 11
5637.8998499639
 21
6473.1696933536
 31
0.0
  0
LINE
  5
103
330
1F
100
AcDbEntity
  8
0
  6
Continuous
 62
     7
370
    25
100
AcDbLine
 10
5637.8998499639
 20
6425.1598432688
 30
0.0
 11
6883.899782253
 21
6425.1598432688
 31
0.0
  0
LINE
  5
104
330
1F
100
AcDbEntity
  8
0
  6
Continuous
 62
     7
370
    25
100
AcDbLine
 10
6883.899782253
 20
6425.1598432688
 30
0.0
 11
6883.899782253
 21
6426.4667889597
 31
0.0
  0
LINE
  5
105
330
1F
100
AcDbEntity
  8
0
  6
Continuous
 62
     7
370
    25
100
AcDbLine
 10
5637.8998499639
 20
6425.1598432688
 30
0.0
 11
5637.8998499639
 21
6426.4667889597
 31
0.0
  0
LINE
  5
106
330
1F
100
AcDbEntity
  8
0
  6
Continuous
 62
     7
370
    25
100
AcDbLine
 10
5637.8998499639
 20
5996.8131199507
 30
0.0
 11
6883.899782253
 21
5996.8131199507
 31
0.0
  0
LINE
  5
107
330
1F
100
AcDbEntity
  8
0
  6
Continuous
 62
     7
370
    25
100
AcDbLine
 10
5637.8998499639
 20
6038.513125482
 30
0.0
 11
6883.899782253
 21
6038.513125482
 31
0.0
  0
LINE
  5
108
330
1F
100
AcDbEntity
  8
0
  6
Continuous
 62
     7
370
    25
100
AcDbLine
 10
6883.899782253
 20
5996.8131199507
 30
0.0
 11
6883.899782253
 21
6038.513125482
 31
0.0
  0
LINE
  5
109
330
1F
100
AcDbEntity
  8
0
  6
Continuous
 62
     7
370
    25
100
AcDbLine
 10
5637.8998499639
 20
5996.8131199507
 30
0.0
 11
5637.8998499639
 21
6038.513125482
 31
0.0
  0
LINE
  5
10A
330
1F
100
AcDbEntity
  8
0
  6
Continuous
 62
     7
370
    25
100
AcDbLine
 10
5637.8998499639
 20
6040.163131061
 30
0.0
 11
6883.899782253
 21
6040.163131061
 31
0.0
  0
LINE
  5
10B
330
1F
100
AcDbEntity
  8
0
  6
Continuous
 62
     7
370
    25
100
AcDbLine
 10
6883.899782253
 20
6038.513125482
 30
0.0
 11
6883.899782253
 21
6039.0770152239
 31
0.0
  0
LINE
  5
10C
330
1F
100
AcDbEntity
  8
0
  6
Continuous
 62
     7
370
    25
100
AcDbLine
 10
5637.8998499639
 20
6038.513125482
 30
0.0
 11
5637.8998499639
 21
6039.0531137613
 31
0.0
  0
LINE
  5
10D
330
1F
100
AcDbEntity
  8
0
  6
Continuous
 62
     7
370
    25
100
AcDbLine
 10
5637.8998499639
 20
5995.163144174
 30
0.0
 11
6883.899782253
 21
5995.163144174
 31
0.0
  0
LINE
  5
10E
330
1F
100
AcDbEntity
  8
0
  6
Continuous
 62
     7
370
    25
100
AcDbLine
 10
6883.899782253
 20
5996.2492600111
 30
0.0
 11
6883.899782253
 21
5996.8131199507
 31
0.0
  0
LINE
  5
10F
330
1F
100
AcDbEntity
  8
0
  6
Continuous
 62
     7
370
    25
100
AcDbLine
 10
5637.8998499639
 20
5996.2731614737
 30
0.0
 11
5637.8998499639
 21
5996.8131199507
 31
0.0
  0
LINE
  5
110
330
1F
100
AcDbEntity
  8
0
  6
Continuous
 62
     7
370
    25
100
AcDbLine
 10
5637.8998499639
 20
6040.3178945211
 30
0.0
 11
6883.899782253
 21
6040.3178945211
 31
0.0
  0
LINE
  5
111
330
1F
100
AcDbEntity
  8
0
  6
Continuous
 62
     7
370
    25
100
AcDbLine
 10
6883.899782253
 20
6165.6986787943
 30
0.0
 11
5637.8998499639
 21
6165.6986787943
 31
0.0
  0
LINE
  5
112
330
1F
100
AcDbEntity
  8
0
  6
Continuous
 62
     7
370
    25
100
AcDbLine
 10
5637.8998499639
 20
6165.9939005999
 30
0.0
 11
6883.899782253
 21
6165.9939005999
 31
0.0
  0
CIRCLE
  5
113
330
1F
100
AcDbEntity
  8
0
  6
Continuous
 62
     7
370
    25
100
AcDbCircle
 10
5783.45781347
 20
6232.661392194
 30
0.0
 40
24.99779428630823
  0
LINE
  5
114
330
1F
100
AcDbEntity
  8
0
  6
Continuous
 62
     8
370
    25
100
AcDbLine
 10
6883.899782253
 20
6425.005069826
 30
0.0
 11
6674.8997908361
 21
6425.005069826
 31
0.0
  0
LINE
  5
115
330
1F
100
AcDbEntity
  8
0
  6
Continuous
 62
     8
370
    25
100
AcDbLine
 10
6646.8997936971
 20
6425.005069826
 30
0.0
 11
6590.8997994191
 21
6425.005069826
 31
0.0
  0
LINE
  5
116
330
1F
100
AcDbEntity
  8
0
  6
Continuous
 62
     8
370
    25
100
AcDbLine
 10
6530.8997374303
 20
6425.005069826
 30
0.0
 11
6074.8998862035
 21
6425.005069826
 31
0.0
  0
LINE
  5
117
330
1F
100
AcDbEntity
  8
0
  6
Continuous
 62
     8
370
    25
100
AcDbLine
 10
6046.8997698552
 20
6425.005069826
 30
0.0
 11
5990.8997755773
 21
6425.005069826
 31
0.0
  0
LINE
  5
118
330
1F
100
AcDbEntity
  8
0
  6
Continuous
 62
     8
370
    25
100
AcDbLine
 10
5930.8998327977
 20
6425.005069826
 30
0.0
 11
5637.8998499639
 21
6425.005069826
 31
0.0
  0
LINE
  5
119
330
1F
100
AcDbEntity
  8
0
  6
Continuous
 62
     8
370
    25
100
AcDbLine
 10
5637.8998499639
 20
6299.6243104366
 30
0.0
 11
5946.8998652227
 21
6299.6243104366
 31
0.0
  0
LINE
  5
11A
330
1F
100
AcDbEntity
  8
0
  6
Continuous
 62
     8
370
    25
100
AcDbLine
 10
5974.8997431523
 20
6299.6243104366
 30
0.0
 11
6546.8997698552
 21
6299.6243104366
 31
0.0
  0
LINE
  5
11B
330
1F
100
AcDbEntity
  8
0
  6
Continuous
 62
     8
370
    25
100
AcDbLine
 10
6574.8997669942
 20
6299.6243104366
 30
0.0
 11
6883.899782253
 21
6299.6243104366
 31
0.0
  0
LINE
  5
11C
330
1F
100
AcDbEntity
  8
0
  6
Continuous
 62
     8
370
    25
100
AcDbLine
 10
6883.899782253
 20
6299.3290737299
 30
0.0
 11
6574.8997669942
 21
6299.3290737299
 31
0.0
  0
LINE
  5
11D
330
1F
100
AcDbEntity
  8
0
  6
Continuous
 62
     8
370
    25
100
AcDbLine
 10
6546.8997698552
 20
6299.3290737299
 30
0.0
 11
5974.8997431523
 21
6299.3290737299
 31
0.0
  0
LINE
  5
11E
330
1F
100
AcDbEntity
  8
0
  6
Continuous
 62
     8
370
    25
100
AcDbLine
 10
5946.8998652227
 20
6299.3290737299
 30
0.0
 11
5637.8998499639
 21
6299.3290737299
 31
0.0
  0
SPLINE
  5
11F
330
1F
100
AcDbEntity
  8
0
  6
Continuous
 62
     7
370
    25
100
AcDbSpline
210
0.0
220
0.0
230
1.0
 70
     8
 71
     3
 72
     9
 73
     5
 74
     0
 42
0.000000001
 43
0.00000001
 40
0.0
 40
0.0
 40
0.0
 40
0.0
 40
0.5599783645914567
 40
1.0
 40
1.0
 40
1.0
 40
1.0
 10
5700.214121890748
 20
6867.001564855198
 30
0.0
 10
5701.022469325218
 20
6867.277557040947
 30
0.0
 10
5702.466002657191
 20
6867.770419271346
 30
0.0
 10
5703.808896236505
 20
6868.492111541491
 30
0.0
 10
5704.399798465455
 20
6868.809671754459
 30
0.0
  0
SPLINE
  5
120
330
1F
100
AcDbEntity
  8
0
  6
Continuous
 62
     7
370
    25
100
AcDbSpline
210
0.0
220
0.0
230
1.0
 70
     8
 71
     3
 72
     9
 73
     5
 74
     0
 42
0.000000001
 43
0.00000001
 40
0.0
 40
0.0
 40
0.0
 40
0.0
 40
0.5600391695311184
 40
1.0
 40
1.0
 40
1.0
 40
1.0
 10
5694.699738574707
 20
6868.809671754459
 30
0.0
 10
5695.454944030695
 20
6868.410319553729
 30
0.0
 10
5696.80343088139
 20
6867.697240500589
 30
0.0
 10
5698.249458191679
 20
6867.214119272101
 30
0.0
 10
5698.885653567994
 20
6867.001564855198
 30
0.0
  0
SPLINE
  5
121
330
1F
100
AcDbEntity
  8
0
  6
Continuous
 62
     7
370
    25
100
AcDbSpline
210
0.0
220
0.0
230
1.0
 70
     8
 71
     3
 72
     9
 73
     5
 74
     0
 42
0.000000001
 43
0.00000001
 40
0.0
 40
0.0
 40
0.0
 40
0.0
 40
0.5599653250142396
 40
1.0
 40
1.0
 40
1.0
 40
1.0
 10
6820.21400744983
 20
6867.001564855198
 30
0.0
 10
6821.022351745714
 20
6867.277563307141
 30
0.0
 10
6822.465913087417
 20
6867.770448204851
 30
0.0
 10
6823.808860017795
 20
6868.492113847812
 30
0.0
 10
6824.399803233827
 20
6868.809671754459
 30
0.0
  0
SPLINE
  5
122
330
1F
100
AcDbEntity
  8
0
  6
Continuous
 62
     7
370
    25
100
AcDbSpline
210
0.0
220
0.0
230
1.0
 70
     8
 71
     3
 72
     9
 73
     5
 74
     0
 42
0.000000001
 43
0.00000001
 40
0.0
 40
0.0
 40
0.0
 40
0.0
 40
0.560028857021997
 40
1.0
 40
1.0
 40
1.0
 40
1.0
 10
6814.69974334308
 20
6868.809671754459
 30
0.0
 10
6815.454907520431
 20
6868.410316604231
 30
0.0
 10
6816.803345494443
 20
6867.697219153589
 30
0.0
 10
6818.249342272077
 20
6867.21411620963
 30
0.0
 10
6818.885539127076
 20
6867.001564855198
 30
0.0
  0
SPLINE
  5
123
330
1F
100
AcDbEntity
  8
0
  6
Continuous
 62
     7
370
    25
100
AcDbSpline
210
0.0
220
0.0
230
1.0
 70
     8
 71
     3
 72
     9
 73
     5
 74
     0
 42
0.000000001
 43
0.00000001
 40
0.0
 40
0.0
 40
0.0
 40
0.0
 40
0.5599998693014226
 40
1.0
 40
1.0
 40
1.0
 40
1.0
 10
5930.213902545655
 20
6867.001564855198
 30
0.0
 10
5931.02233353011
 20
6867.277546705498
 30
0.0
 10
5932.465960624993
 20
6867.770371553197
 30
0.0
 10
5933.808916693344
 20
6868.492107738567
 30
0.0
 10
5934.399817538942
 20
6868.809671754459
 30
0.0
  0
SPLINE
  5
124
330
1F
100
AcDbEntity
  8
0
  6
Continuous
 62
     7
370
    25
100
AcDbSpline
210
0.0
220
0.0
230
1.0
 70
     8
 71
     3
 72
     9
 73
     5
 74
     0
 42
0.000000001
 43
0.00000001
 40
0.0
 40
0.0
 40
0.0
 40
0.0
 40
0.5599910421504068
 40
1.0
 40
1.0
 40
1.0
 40
1.0
 10
5924.699757648194
 20
6868.809671754459
 30
0.0
 10
5925.454877782947
 20
6868.410305791166
 30
0.0
 10
5926.803328165032
 20
6867.697140877386
 30
0.0
 10
5928.249391722552
 20
6867.214104977925
 30
0.0
 10
5928.885672641481
 20
6867.001564855198
 30
0.0
  0
SPLINE
  5
125
330
1F
100
AcDbEntity
  8
0
  6
Continuous
 62
     7
370
    25
100
AcDbSpline
210
0.0
220
0.0
230
1.0
 70
     8
 71
     3
 72
     9
 73
     5
 74
     0
 42
0.000000001
 43
0.00000001
 40
0.0
 40
0.0
 40
0.0
 40
0.0
 40
0.5599653250142396
 40
1.0
 40
1.0
 40
1.0
 40
1.0
 10
6590.213988376344
 20
6867.001564855198
 30
0.0
 10
6591.022332672228
 20
6867.277563307141
 30
0.0
 10
6592.465894013931
 20
6867.770448204851
 30
0.0
 10
6593.808840944309
 20
6868.492113847812
 30
0.0
 10
6594.39978416034
 20
6868.809671754459
 30
0.0
  0
SPLINE
  5
126
330
1F
100
AcDbEntity
  8
0
  6
Continuous
 62
     7
370
    25
100
AcDbSpline
210
0.0
220
0.0
230
1.0
 70
     8
 71
     3
 72
     9
 73
     5
 74
     0
 42
0.000000001
 43
0.00000001
 40
0.0
 40
0.0
 40
0.0
 40
0.0
 40
0.5600185441332168
 40
1.0
 40
1.0
 40
1.0
 40
1.0
 10
6584.699843478883
 20
6868.809671754459
 30
0.0
 10
6585.454966377574
 20
6868.410313654909
 30
0.0
 10
6586.803355473973
 20
6867.697197805917
 30
0.0
 10
6588.249321719672
 20
6867.214113146817
 30
0.0
 10
6588.88552005359
 20
6867.001564855198
 30
0.0
  0
LINE
  5
127
330
1F
100
AcDbEntity
  8
0
  6
Continuous
 62
     7
370
    25
100
AcDbLine
 10
6551.6419153936
 20
7672.0611095973
 30
0.0
 11
6551.6413193471
 21
7671.4601606675
 31
0.0
  0
LINE
  5
128
330
1F
100
AcDbEntity
  8
0
  6
Continuous
 62
     7
370
    25
100
AcDbLine
 10
6570.1412897832
 20
7671.4423090764
 30
0.0
 11
6570.1418858297
 21
7672.0432580062
 31
0.0
  0
LINE
  5
129
330
1F
100
AcDbEntity
  8
0
  6
Continuous
 62
     7
370
    25
100
AcDbLine
 10
6568.3922510869
 20
7672.4099234291
 30
0.0
 11
6568.3927279241
 21
7672.8365287729
 31
0.0
  0
LINE
  5
12A
330
1F
100
AcDbEntity
  8
0
  6
Continuous
 62
     7
370
    25
100
AcDbLine
 10
6553.3926230199
 20
7672.8501558848
 30
0.0
 11
6553.392265392
 21
7672.4243999072
 31
0.0
  0
LINE
  5
12B
330
1F
100
AcDbEntity
  8
0
  6
Continuous
 62
     7
370
    25
100
AcDbLine
 10
5951.632950855
 20
7672.0714137503
 30
0.0
 11
5951.6312819249
 21
7671.3196725198
 31
0.0
  0
LINE
  5
12C
330
1F
100
AcDbEntity
  8
0
  6
Continuous
 62
     7
370
    25
100
AcDbLine
 10
5970.1311331517
 20
7671.2812275239
 30
0.0
 11
5970.1328020818
 21
7672.032976205
 31
0.0
  0
LINE
  5
12D
330
1F
100
AcDbEntity
  8
0
  6
Continuous
 62
     7
370
    25
100
AcDbLine
 10
5968.3832865483
 20
7672.2507939287
 30
0.0
 11
5968.3842402227
 21
7672.6783529469
 31
0.0
  0
LINE
  5
12E
330
1F
100
AcDbEntity
  8
0
  6
Continuous
 62
     7
370
    25
100
AcDbLine
 10
5953.3841353185
 20
7672.7067545601
 30
0.0
 11
5953.3831816442
 21
7672.2819597074
 31
0.0
  0
LINE
  5
12F
330
1F
100
AcDbEntity
  8
0
  6
Continuous
 62
     7
370
    25
100
AcDbLine
 10
6562.5363331563
 20
7666.3049027868
 30
0.0
 11
6562.5363331563
 21
7666.3073465773
 31
0.0
  0
LINE
  5
130
330
1F
100
AcDbEntity
  8
0
  6
Continuous
 62
     7
370
    25
100
AcDbLine
 10
5962.5208121068
 20
7666.3030922957
 30
0.0
 11
5962.5208121068
 21
7666.3055286356
 31
0.0
  0
LINE
  5
131
330
1F
100
AcDbEntity
  8
0
  6
Continuous
 62
     7
370
    25
100
AcDbLine
 10
5637.8998499639
 20
7790.3666288205
 30
0.0
 11
5635.8997565038
 21
7790.3666288205
 31
0.0
  0
LINE
  5
132
330
1F
100
AcDbEntity
  8
0
  6
Continuous
 62
     7
370
    25
100
AcDbLine
 10
6885.8997565038
 20
7790.3666288205
 30
0.0
 11
6883.899782253
 21
7790.3666288205
 31
0.0
  0
LINE
  5
133
330
1F
100
AcDbEntity
  8
0
  6
Continuous
 62
     7
370
    25
100
AcDbLine
 10
6883.899782253
 20
7790.7313347407
 30
0.0
 11
5637.8998499639
 21
7790.7313347407
 31
0.0
  0
SPLINE
  5
134
330
1F
100
AcDbEntity
  8
0
  6
Continuous
 62
     7
370
    25
100
AcDbSpline
210
0.0
220
0.0
230
1.0
 70
     8
 71
     3
 72
    10
 73
     6
 74
     0
 42
0.000000001
 43
0.00000001
 40
0.0
 40
0.0
 40
0.0
 40
0.0
 40
0.4947933803419613
 40
0.9997465919980816
 40
1.0
 40
1.0
 40
1.0
 40
1.0
 10
5700.299714160646
 20
6868.009717816929
 30
0.0
 10
5700.299714160711
 20
6867.814163907931
 30
0.0
 10
5700.299714160844
 20
6867.419040687126
 30
0.0
 10
5700.299714160172
 20
6866.909552860806
 30
0.0
 10
5700.299714160647
 20
6867.028446518435
 30
0.0
 10
5700.299714160646
 20
6867.028506154636
 30
0.0
  0
LINE
  5
135
330
1F
100
AcDbEntity
  8
0
  6
Continuous
 62
     7
370
    25
100
AcDbLine
 10
5700.2997141606
 20
6868.0097178169
 30
0.0
 11
5698.7998228795
 21
6868.0097178169
 31
0.0
  0
SPLINE
  5
136
330
1F
100
AcDbEntity
  8
0
  6
Continuous
 62
     7
370
    25
100
AcDbSpline
210
0.0
220
0.0
230
1.0
 70
    24
 71
     3
 72
    10
 73
     6
 74
     0
 42
0.000000001
 43
0.00000001
 40
0.0
 40
0.0
 40
0.0
 40
0.0
 40
0.0326242797055913
 40
0.5073429460858581
 40
1.0
 40
1.0
 40
1.0
 40
1.0
 10
5698.799822879518
 20
6867.047281617741
 30
0.0
 10
5698.799822879518
 20
6867.04136023206
 30
0.0
 10
5698.799822879515
 20
6866.949276260122
 30
0.0
 10
5698.79982287952
 20
6867.422187351188
 30
0.0
 10
5698.799822879518
 20
6867.811468138258
 30
0.0
 10
5698.799822879518
 20
6868.009717816929
 30
0.0
  0
SPLINE
  5
137
330
1F
100
AcDbEntity
  8
0
  6
Continuous
 62
     7
370
    25
100
AcDbSpline
210
0.0
220
0.0
230
1.0
 70
    24
 71
     3
 72
    10
 73
     6
 74
     0
 42
0.000000001
 43
0.00000001
 40
0.0
 40
0.0
 40
0.0
 40
0.0
 40
0.4947933803419613
 40
0.9997465919980816
 40
1.0
 40
1.0
 40
1.0
 40
1.0
 10
6820.299838138307
 20
6868.009717816929
 30
0.0
 10
6820.299838138319
 20
6867.814163907931
 30
0.0
 10
6820.299838138342
 20
6867.419040687126
 30
0.0
 10
6820.299838138221
 20
6866.909552860806
 30
0.0
 10
6820.299838138307
 20
6867.028446518435
 30
0.0
 10
6820.299838138307
 20
6867.028506154636
 30
0.0
  0
LINE
  5
138
330
1F
100
AcDbEntity
  8
0
  6
Continuous
 62
     7
370
    25
100
AcDbLine
 10
6820.2998381383
 20
6868.0097178169
 30
0.0
 11
6818.7998276479
 21
6868.0097178169
 31
0.0
  0
SPLINE
  5
139
330
1F
100
AcDbEntity
  8
0
  6
Continuous
 62
     7
370
    25
100
AcDbSpline
210
0.0
220
0.0
230
1.0
 70
    24
 71
     3
 72
    10
 73
     6
 74
     0
 42
0.000000001
 43
0.00000001
 40
0.0
 40
0.0
 40
0.0
 40
0.0
 40
0.0326242797055913
 40
0.5073429460858581
 40
1.0
 40
1.0
 40
1.0
 40
1.0
 10
6818.799827647889
 20
6867.047281617741
 30
0.0
 10
6818.799827647889
 20
6867.04136023206
 30
0.0
 10
6818.799827647888
 20
6866.949276260122
 30
0.0
 10
6818.79982764789
 20
6867.422187351188
 30
0.0
 10
6818.799827647889
 20
6867.811468138258
 30
0.0
 10
6818.799827647889
 20
6868.009717816929
 30
0.0
  0
SPLINE
  5
13A
330
1F
100
AcDbEntity
  8
0
  6
Continuous
 62
     7
370
    25
100
AcDbSpline
210
0.0
220
0.0
230
1.0
 70
     8
 71
     3
 72
    10
 73
     6
 74
     0
 42
0.000000001
 43
0.00000001
 40
0.0
 40
0.0
 40
0.0
 40
0.0
 40
0.4947933803419613
 40
0.9997465919980816
 40
1.0
 40
1.0
 40
1.0
 40
1.0
 10
5930.299733234132
 20
6868.009717816929
 30
0.0
 10
5930.299733234186
 20
6867.814163907931
 30
0.0
 10
5930.299733234296
 20
6867.419040687126
 30
0.0
 10
5930.299733233743
 20
6866.909552860806
 30
0.0
 10
5930.299733234133
 20
6867.028446518435
 30
0.0
 10
5930.299733234132
 20
6867.028506154636
 30
0.0
  0
LINE
  5
13B
330
1F
100
AcDbEntity
  8
0
  6
Continuous
 62
     7
370
    25
100
AcDbLine
 10
5930.2997332341
 20
6868.0097178169
 30
0.0
 11
5928.799841953
 21
6868.0097178169
 31
0.0
  0
SPLINE
  5
13C
330
1F
100
AcDbEntity
  8
0
  6
Continuous
 62
     7
370
    25
100
AcDbSpline
210
0.0
220
0.0
230
1.0
 70
    24
 71
     3
 72
    10
 73
     6
 74
     0
 42
0.000000001
 43
0.00000001
 40
0.0
 40
0.0
 40
0.0
 40
0.0
 40
0.0326242797055913
 40
0.5073429460858581
 40
1.0
 40
1.0
 40
1.0
 40
1.0
 10
5928.799841953004
 20
6867.047281617741
 30
0.0
 10
5928.799841953005
 20
6867.04136023206
 30
0.0
 10
5928.799841953004
 20
6866.949276260122
 30
0.0
 10
5928.799841953005
 20
6867.422187351188
 30
0.0
 10
5928.799841953003
 20
6867.811468138258
 30
0.0
 10
5928.799841953004
 20
6868.009717816929
 30
0.0
  0
SPLINE
  5
13D
330
1F
100
AcDbEntity
  8
0
  6
Continuous
 62
     7
370
    25
100
AcDbSpline
210
0.0
220
0.0
230
1.0
 70
     8
 71
     3
 72
    10
 73
     6
 74
     0
 42
0.000000001
 43
0.00000001
 40
0.0
 40
0.0
 40
0.0
 40
0.0
 40
0.4947933803419613
 40
0.9997465919980816
 40
1.0
 40
1.0
 40
1.0
 40
1.0
 10
6590.29981906482
 20
6868.009717816929
 30
0.0
 10
6590.299819064844
 20
6867.814163907931
 30
0.0
 10
6590.299819064892
 20
6867.419040687126
 30
0.0
 10
6590.29981906465
 20
6866.909552860806
 30
0.0
 10
6590.29981906482
 20
6867.028446518435
 30
0.0
 10
6590.29981906482
 20
6867.028506154636
 30
0.0
  0
LINE
  5
13E
330
1F
100
AcDbEntity
  8
0
  6
Continuous
 62
     7
370
    25
100
AcDbLine
 10
6590.2998190648
 20
6868.0097178169
 30
0.0
 11
6588.7998085744
 21
6868.0097178169
 31
0.0
  0
SPLINE
  5
13F
330
1F
100
AcDbEntity
  8
0
  6
Continuous
 62
     7
370
    25
100
AcDbSpline
210
0.0
220
0.0
230
1.0
 70
    24
 71
     3
 72
    10
 73
     6
 74
     0
 42
0.000000001
 43
0.00000001
 40
0.0
 40
0.0
 40
0.0
 40
0.0
 40
0.0326242797055913
 40
0.5073429460858581
 40
1.0
 40
1.0
 40
1.0
 40
1.0
 10
6588.799808574403
 20
6867.047281617741
 30
0.0
 10
6588.799808574403
 20
6867.04136023206
 30
0.0
 10
6588.799808574402
 20
6866.949276260122
 30
0.0
 10
6588.799808574404
 20
6867.422187351188
 30
0.0
 10
6588.799808574403
 20
6867.811468138258
 30
0.0
 10
6588.799808574403
 20
6868.009717816929
 30
0.0
  0
LINE
  5
140
330
1F
100
AcDbEntity
  8
0
  6
Continuous
 62
     7
370
    25
100
AcDbLine
 10
6562.3925667531
 20
7673.973256404
 30
0.0
 11
6562.3924475438
 21
7673.8122270056
 31
0.0
  0
ARC
  5
141
330
1F
100
AcDbEntity
  8
0
  6
Continuous
 62
     7
370
    25
100
AcDbCircle
 10
6560.85942605
 20
7638.3680810676
 30
0.0
 40
35.47728338207554
100
AcDbArc
 50
87.5234005852
 51
92.3698784862
  0
LINE
  5
142
330
1F
100
AcDbEntity
  8
0
  6
Continuous
 62
     7
370
    25
100
AcDbLine
 10
6559.3926649816
 20
7673.9760578223
 30
0.0
 11
6559.392426563
 21
7673.8150209733
 31
0.0
  0
LINE
  5
143
330
1F
100
AcDbEntity
  8
0
  6
Continuous
 62
     7
370
    25
100
AcDbLine
 10
6555.498931957
 20
7673.5944688865
 30
0.0
 11
6555.4986935384
 21
7673.4012455293
 31
0.0
  0
ARC
  5
144
330
1F
100
AcDbEntity
  8
0
  6
Continuous
 62
     7
370
    25
100
AcDbCircle
 10
6557.8705023335
 20
7659.8156612769
 30
0.0
 40
13.79106872000838
100
AcDbArc
 50
99.9030481427
 51
109.0151322496
  0
LINE
  5
145
330
1F
100
AcDbEntity
  8
0
  6
Continuous
 62
     7
370
    25
100
AcDbLine
 10
6553.3773642308
 20
7673.1136382171
 30
0.0
 11
6553.3771258123
 21
7672.8541866489
 31
0.0
  0
LINE
  5
146
330
1F
100
AcDbEntity
  8
0
  6
Continuous
 62
     7
370
    25
100
AcDbLine
 10
6551.7644625432
 20
7672.4325806447
 30
0.0
 11
6551.7639857061
 21
7671.8479708382
 31
0.0
  0
ARC
  5
147
330
1F
100
AcDbEntity
  8
0
  6
Continuous
 62
     7
370
    25
100
AcDbCircle
 10
6552.3274610704
 20
7671.4594838211
 30
0.0
 40
0.6844170136785411
100
AcDbArc
 50
145.4157524901
 51
214.5314677066
  0
ARC
  5
148
330
1F
100
AcDbEntity
  8
0
  6
Continuous
 62
     7
370
    25
100
AcDbCircle
 10
6554.9852239348
 20
7675.8098822469
 30
0.0
 40
5.044932677628378
100
AcDbArc
 50
237.4531051522
 51
251.4080582703
  0
LINE
  5
149
330
1F
100
AcDbEntity
  8
0
  6
Continuous
 62
     7
370
    25
100
AcDbLine
 10
6553.3767681844
 20
7671.0282281586
 30
0.0
 11
6553.3758145101
 21
7670.0622976371
 31
0.0
  0
ARC
  5
14A
330
1F
100
AcDbEntity
  8
0
  6
Continuous
 62
     7
370
    25
100
AcDbCircle
 10
6557.8930048638
 20
7683.0928818781
 30
0.0
 40
13.79134273205802
100
AcDbArc
 50
250.880583179
 51
259.9946932913
  0
ARC
  5
14B
330
1F
100
AcDbEntity
  8
0
  6
Continuous
 62
     7
370
    25
100
AcDbCircle
 10
6560.5156603964
 20
7698.8408551666
 30
0.0
 40
28.80664010670737
100
AcDbArc
 50
260.6917850993
 51
267.7627357385
  0
ARC
  5
14C
330
1F
100
AcDbEntity
  8
0
  6
Continuous
 62
     7
370
    25
100
AcDbCircle
 10
6560.923275974
 20
7704.5396015937
 30
0.0
 40
35.4824880010559
100
AcDbArc
 50
267.5236139411
 51
272.3693805414
  0
LINE
  5
14D
330
1F
100
AcDbEntity
  8
0
  6
Continuous
 62
     7
370
    25
100
AcDbLine
 10
6562.3911362416
 20
7670.0533792921
 30
0.0
 11
6562.3901825673
 21
7669.0874487706
 31
0.0
  0
ARC
  5
14E
330
1F
100
AcDbEntity
  8
0
  6
Continuous
 62
     7
370
    25
100
AcDbCircle
 10
6561.3134184236
 20
7698.9317332037
 30
0.0
 40
28.898456712033
100
AcDbArc
 50
272.1372423198
 51
279.0517038098
  0
ARC
  5
14F
330
1F
100
AcDbEntity
  8
0
  6
Continuous
 62
     7
370
    25
100
AcDbCircle
 10
6563.9154684937
 20
7683.0737788061
 30
0.0
 40
13.77764775091292
100
AcDbArc
 50
279.8986006567
 51
289.0195797355
  0
LINE
  5
150
330
1F
100
AcDbEntity
  8
0
  6
Continuous
 62
     7
370
    25
100
AcDbLine
 10
6568.4064369924
 20
7671.0142136165
 30
0.0
 11
6568.4054833181
 21
7670.0482905456
 31
0.0
  0
ARC
  5
151
330
1F
100
AcDbEntity
  8
0
  6
Continuous
 62
     7
370
    25
100
AcDbCircle
 10
6566.8096368788
 20
7675.7905345062
 30
0.0
 40
5.036170354986464
100
AcDbArc
 50
288.4856021519
 51
302.4532566899
  0
ARC
  5
152
330
1F
100
AcDbEntity
  8
0
  6
Continuous
 62
     7
370
    25
100
AcDbCircle
 10
6569.4547419696
 20
7671.4429898875
 30
0.0
 40
0.6848518028619175
100
AcDbArc
 50
325.4404247138
 51
34.5067959892
  0
LINE
  5
153
330
1F
100
AcDbEntity
  8
0
  6
Continuous
 62
     7
370
    25
100
AcDbLine
 10
6570.0196963079
 20
7672.4151984402
 30
0.0
 11
6570.0191002614
 21
7671.8309611627
 31
0.0
  0
LINE
  5
154
330
1F
100
AcDbEntity
  8
0
  6
Continuous
 62
     7
370
    25
100
AcDbLine
 10
6568.4070330388
 20
7673.0995566197
 30
0.0
 11
6568.4067946202
 21
7672.8401721068
 31
0.0
  0
ARC
  5
155
330
1F
100
AcDbEntity
  8
0
  6
Continuous
 62
     7
370
    25
100
AcDbCircle
 10
6563.8903077324
 20
7659.8122958043
 30
0.0
 40
13.7885537588733
100
AcDbArc
 50
70.8796594868
 51
79.9956169836
  0
LINE
  5
156
330
1F
100
AcDbEntity
  8
0
  6
Continuous
 62
     7
370
    25
100
AcDbLine
 10
6566.2859421498
 20
7673.5843808003
 30
0.0
 11
6566.2857037313
 21
7673.3911872455
 31
0.0
  0
LINE
  5
157
330
1F
100
AcDbEntity
  8
0
  6
Continuous
 62
     7
370
    25
100
AcDbLine
 10
6559.392426563
 20
7673.8150209733
 30
0.0
 11
6559.392426563
 21
7673.6837789961
 31
0.0
  0
LINE
  5
158
330
1F
100
AcDbEntity
  8
0
  6
Continuous
 62
     7
370
    25
100
AcDbLine
 10
6562.3924475438
 20
7673.8122270056
 30
0.0
 11
6562.3924475438
 21
7673.6809775778
 31
0.0
  0
ARC
  5
159
330
1F
100
AcDbEntity
  8
0
  6
Continuous
 62
     7
370
    25
100
AcDbCircle
 10
6560.8611562723
 20
7640.1839894592
 30
0.0
 40
33.53197080360481
100
AcDbArc
 50
87.3825859777
 51
92.5104085048
  0
LINE
  5
15A
330
1F
100
AcDbEntity
  8
0
  6
Continuous
 62
     7
370
    25
100
AcDbLine
 10
6562.3926859624
 20
7673.973256404
 30
0.0
 11
6562.3924475438
 21
7673.6809775778
 31
0.0
  0
ARC
  5
15B
330
1F
100
AcDbEntity
  8
0
  6
Continuous
 62
     7
370
    25
100
AcDbCircle
 10
6567.585615577
 20
7672.9171850084
 30
0.0
 40
1.637401614450477
100
AcDbArc
 50
286.0239839119
 51
341.9365695029
  0
LWPOLYLINE
  5
15C
330
1F
100
AcDbEntity
  8
0
  6
Continuous
 62
     7
370
    25
100
AcDbPolyline
 90
        7
 70
   128
 43
0.0
 10
6555.0456982381
 20
7670.9159255572
 10
6554.217312885
 20
7671.168313975
 10
6553.3550720937
 20
7671.5556994625
 10
6552.8223257787
 20
7671.9807401844
 10
6552.6423197515
 20
7672.4248543926
 10
6552.8228026158
 20
7672.8686258741
 10
6552.9049378163
 20
7672.9589120098
  0
LWPOLYLINE
  5
15D
330
1F
100
AcDbEntity
  8
0
  6
Continuous
 62
     7
370
    25
100
AcDbPolyline
 90
        3
 70
   128
 43
0.0
 10
6568.8805323369
 20
7672.9434967586
 10
6568.9621907003
 20
7672.8535831519
 10
6569.1423159368
 20
7672.4094763943
  0
LINE
  5
15E
330
1F
100
AcDbEntity
  8
0
  6
Continuous
 62
     7
370
    25
100
AcDbLine
 10
6568.0478554494
 20
7671.1073533245
 30
0.0
 11
6568.4064369924
 21
7671.0142136165
 31
0.0
  0
ARC
  5
15F
330
1F
100
AcDbEntity
  8
0
  6
Continuous
 62
     7
370
    25
100
AcDbCircle
 10
6563.7477752574
 20
7683.3962496012
 30
0.0
 40
13.01951079560307
100
AcDbArc
 50
279.6324270388
 51
289.2857533535
  0
LINE
  5
160
330
1F
100
AcDbEntity
  8
0
  6
Continuous
 62
     7
370
    25
100
AcDbLine
 10
6562.3911362416
 20
7670.0533792921
 30
0.0
 11
6562.3912554509
 21
7670.1846212693
 31
0.0
  0
ARC
  5
161
330
1F
100
AcDbEntity
  8
0
  6
Continuous
 62
     7
370
    25
100
AcDbCircle
 10
6560.922526807
 20
7703.685551716
 30
0.0
 40
33.53311057186143
100
AcDbArc
 50
267.3826731815
 51
272.5103213009
  0
ARC
  5
162
330
1F
100
AcDbEntity
  8
0
  6
Continuous
 62
     7
370
    25
100
AcDbCircle
 10
6558.0610972072
 20
7683.4143367654
 30
0.0
 40
13.03248488250162
100
AcDbArc
 50
250.6146230673
 51
260.2606534031
  0
LINE
  5
163
330
1F
100
AcDbEntity
  8
0
  6
Continuous
 62
     7
370
    25
100
AcDbLine
 10
6553.7353497274
 20
7671.1206973144
 30
0.0
 11
6553.3767681844
 21
7671.0282281586
 31
0.0
  0
LWPOLYLINE
  5
164
330
1F
100
AcDbEntity
  8
0
  6
Continuous
 62
     7
370
    25
100
AcDbPolyline
 90
        3
 70
   128
 43
0.0
 10
6568.9512234456
 20
7672.917926366
 10
6568.4295635945
 20
7672.507578189
 10
6568.3923702962
 20
7672.4863067814
  0
LWPOLYLINE
  5
165
330
1F
100
AcDbEntity
  8
0
  6
Continuous
 62
     7
370
    25
100
AcDbPolyline
 90
        3
 70
   128
 43
0.0
 10
6553.3923846013
 20
7672.5007832595
 10
6553.356025768
 20
7672.5216225334
 10
6552.8342467076
 20
7672.9334757277
  0
LINE
  5
166
330
1F
100
AcDbEntity
  8
0
  6
Continuous
 62
     7
370
    25
100
AcDbLine
 10
6568.0482130773
 20
7672.7477029511
 30
0.0
 11
6568.4067946202
 21
7672.8401721068
 31
0.0
  0
ARC
  5
167
330
1F
100
AcDbEntity
  8
0
  6
Continuous
 62
     7
370
    25
100
AcDbCircle
 10
6563.7233517404
 20
7660.4574746398
 30
0.0
 40
13.02897300346282
100
AcDbArc
 50
70.6133199728
 51
80.2619564975
  0
LINE
  5
168
330
1F
100
AcDbEntity
  8
0
  6
Continuous
 62
     7
370
    25
100
AcDbLine
 10
6565.9271221883
 20
7673.2987180897
 30
0.0
 11
6566.2857037313
 21
7673.3911872455
 31
0.0
  0
LINE
  5
169
330
1F
100
AcDbEntity
  8
0
  6
Continuous
 62
     7
370
    25
100
AcDbLine
 10
6565.9274798162
 20
7673.6424282738
 30
0.0
 11
6565.9271221883
 21
7673.2987180897
 31
0.0
  0
LINE
  5
16A
330
1F
100
AcDbEntity
  8
0
  6
Continuous
 62
     7
370
    25
100
AcDbLine
 10
6555.8576327092
 20
7673.6518681594
 30
0.0
 11
6555.8572750814
 21
7673.3081058212
 31
0.0
  0
LINE
  5
16B
330
1F
100
AcDbEntity
  8
0
  6
Continuous
 62
     7
370
    25
100
AcDbLine
 10
6555.8572750814
 20
7673.3081058212
 30
0.0
 11
6555.4986935384
 21
7673.4012455293
 31
0.0
  0
ARC
  5
16C
330
1F
100
AcDbEntity
  8
0
  6
Continuous
 62
     7
370
    25
100
AcDbCircle
 10
6558.0366595314
 20
7660.4687689925
 30
0.0
 40
13.02299070035695
100
AcDbArc
 50
99.6337198415
 51
109.2844605508
  0
LINE
  5
16D
330
1F
100
AcDbEntity
  8
0
  6
Continuous
 62
     7
370
    25
100
AcDbLine
 10
6553.7357073552
 20
7672.7610469409
 30
0.0
 11
6553.3771258123
 21
7672.8541866489
 31
0.0
  0
LWPOLYLINE
  5
16E
330
1F
100
AcDbEntity
  8
0
  6
Continuous
 62
     7
370
    25
100
AcDbPolyline
 90
       18
 70
   128
 43
0.0
 10
6568.2416897542
 20
7672.7975920387
 10
6568.3922510869
 20
7672.4101692983
 10
6568.2167750127
 20
7671.9930485436
 10
6567.6986914403
 20
7671.5957537838
 10
6566.8624382741
 20
7671.236866767
 10
6565.7469969518
 20
7670.9331736513
 10
6564.4044619329
 20
7670.6988677927
 10
6562.8978949315
 20
7670.5449015447
 10
6561.29739101
 20
7670.4784870692
 10
6559.6779328115
 20
7670.5027238079
 10
6558.115337444
 20
7670.6164718219
 10
6556.6825609929
 20
7670.8144262978
 10
6555.4467182881
 20
7671.0873112627
 10
6554.4653874166
 20
7671.4223862239
 10
6553.7845831639
 20
7671.8039751597
 10
6553.4361344106
 20
7672.2142413803
 10
6553.4363728292
 20
7672.6339847394
 10
6553.5430651433
 20
7672.8110850402
  0
LINE
  5
16F
330
1F
100
AcDbEntity
  8
0
  6
Continuous
 62
     7
370
    25
100
AcDbLine
 10
6570.0187426335
 20
7671.0544989058
 30
0.0
 11
6569.5116263158
 21
7671.0549757429
 31
0.0
  0
ARC
  5
170
330
1F
100
AcDbEntity
  8
0
  6
Continuous
 62
     7
370
    25
100
AcDbCircle
 10
6568.9847052252
 20
7671.4434459234
 30
0.0
 40
0.654641059507018
100
AcDbArc
 50
323.600672886
 51
36.3465473103
  0
LINE
  5
171
330
1F
100
AcDbEntity
  8
0
  6
Continuous
 62
     7
370
    25
100
AcDbLine
 10
6570.0191002614
 20
7671.8309611627
 30
0.0
 11
6569.5119839437
 21
7671.8314305492
 31
0.0
  0
LINE
  5
172
330
1F
100
AcDbEntity
  8
0
  6
Continuous
 62
     7
370
    25
100
AcDbLine
 10
6569.5128184087
 20
7672.686965818
 30
0.0
 11
6569.5119839437
 21
7671.8314305492
 31
0.0
  0
LINE
  5
173
330
1F
100
AcDbEntity
  8
0
  6
Continuous
 62
     7
370
    25
100
AcDbLine
 10
6569.5123415715
 20
7671.8308643051
 30
0.0
 11
6569.5116263158
 21
7671.0549757429
 31
0.0
  0
LINE
  5
174
330
1F
100
AcDbEntity
  8
0
  6
Continuous
 62
     7
370
    25
100
AcDbLine
 10
6552.2718172795
 20
7672.7034316011
 30
0.0
 11
6552.2711020238
 21
7671.8475014516
 31
0.0
  0
LINE
  5
175
330
1F
100
AcDbEntity
  8
0
  6
Continuous
 62
     7
370
    25
100
AcDbLine
 10
6551.7639857061
 20
7671.8479708382
 30
0.0
 11
6552.2711020238
 21
7671.8475014516
 31
0.0
  0
LINE
  5
176
330
1F
100
AcDbEntity
  8
0
  6
Continuous
 62
     7
370
    25
100
AcDbLine
 10
6551.7636280782
 20
7671.0715160318
 30
0.0
 11
6552.2706251866
 21
7671.0710466453
 31
0.0
  0
ARC
  5
177
330
1F
100
AcDbEntity
  8
0
  6
Continuous
 62
     7
370
    25
100
AcDbCircle
 10
6552.7978646257
 20
7671.4589504061
 30
0.0
 40
0.6545614972589567
100
AcDbArc
 50
143.5867431331
 51
216.3428837995
  0
LINE
  5
178
330
1F
100
AcDbEntity
  8
0
  6
Continuous
 62
     7
370
    25
100
AcDbLine
 10
6552.271578861
 20
7672.0369697162
 30
0.0
 11
6552.2706251866
 21
7671.0710466453
 31
0.0
  0
LINE
  5
179
330
1F
100
AcDbEntity
  8
0
  6
Continuous
 62
     7
370
    25
100
AcDbLine
 10
6568.0478554494
 20
7671.1073533245
 30
0.0
 11
6568.0470209844
 21
7670.1414302536
 31
0.0
  0
LINE
  5
17A
330
1F
100
AcDbEntity
  8
0
  6
Continuous
 62
     7
370
    25
100
AcDbLine
 10
6568.0470209844
 20
7670.1414302536
 30
0.0
 11
6568.4054833181
 21
7670.0482905456
 31
0.0
  0
ARC
  5
17B
330
1F
100
AcDbEntity
  8
0
  6
Continuous
 62
     7
370
    25
100
AcDbCircle
 10
6563.7467265723
 20
7682.4316320566
 30
0.0
 40
13.02081381435266
100
AcDbArc
 50
279.6318779745
 51
289.2847457231
  0
LINE
  5
17C
330
1F
100
AcDbEntity
  8
0
  6
Continuous
 62
     7
370
    25
100
AcDbLine
 10
6565.925334049
 20
7669.5943713733
 30
0.0
 11
6566.2839155919
 21
7669.5012316652
 31
0.0
  0
LINE
  5
17D
330
1F
100
AcDbEntity
  8
0
  6
Continuous
 62
     7
370
    25
100
AcDbLine
 10
6565.9262877233
 20
7670.5602944442
 30
0.0
 11
6565.925334049
 21
7669.5943713733
 31
0.0
  0
LINE
  5
17E
330
1F
100
AcDbEntity
  8
0
  6
Continuous
 62
     7
370
    25
100
AcDbLine
 10
6553.7353497274
 20
7671.1206973144
 30
0.0
 11
6553.7345152623
 21
7670.1547742435
 31
0.0
  0
LINE
  5
17F
330
1F
100
AcDbEntity
  8
0
  6
Continuous
 62
     7
370
    25
100
AcDbLine
 10
6555.8564406163
 20
7670.5696821757
 30
0.0
 11
6555.855486942
 21
7669.6037591048
 31
0.0
  0
ARC
  5
180
330
1F
100
AcDbEntity
  8
0
  6
Continuous
 62
     7
370
    25
100
AcDbCircle
 10
6558.0591334634
 20
7682.4435898871
 30
0.0
 40
13.0275597295944
100
AcDbArc
 50
250.6122663181
 51
260.2614427924
  0
LINE
  5
181
330
1F
100
AcDbEntity
  8
0
  6
Continuous
 62
     7
370
    25
100
AcDbLine
 10
6553.7345152623
 20
7670.1547742435
 30
0.0
 11
6553.3758145101
 21
7670.0622976371
 31
0.0
  0
LINE
  5
182
330
1F
100
AcDbEntity
  8
0
  6
Continuous
 62
     7
370
    25
100
AcDbLine
 10
6555.855486942
 20
7669.6037591048
 30
0.0
 11
6555.496905399
 21
7669.5112824985
 31
0.0
  0
LINE
  5
183
330
1F
100
AcDbEntity
  8
0
  6
Continuous
 62
     7
370
    25
100
AcDbLine
 10
6559.3901615865
 20
7669.0902501889
 30
0.0
 11
6559.3902807958
 21
7669.2214921661
 31
0.0
  0
ARC
  5
184
330
1F
100
AcDbEntity
  8
0
  6
Continuous
 62
     7
370
    25
100
AcDbCircle
 10
6560.9214931155
 20
7702.72303862
 30
0.0
 40
33.53652077909811
100
AcDbArc
 50
267.3830763621
 51
272.5102027094
  0
LINE
  5
185
330
1F
100
AcDbEntity
  8
0
  6
Continuous
 62
     7
370
    25
100
AcDbLine
 10
6562.3901825673
 20
7669.0874487706
 30
0.0
 11
6562.3903017766
 21
7669.2186981984
 31
0.0
  0
LINE
  5
186
330
1F
100
AcDbEntity
  8
0
  6
Continuous
 62
     7
370
    25
100
AcDbLine
 10
6559.3912344701
 20
7670.1874226876
 30
0.0
 11
6559.3902807958
 21
7669.2214921661
 31
0.0
  0
LINE
  5
187
330
1F
100
AcDbEntity
  8
0
  6
Continuous
 62
     7
370
    25
100
AcDbLine
 10
6562.3912554509
 20
7670.1846212693
 30
0.0
 11
6562.3903017766
 21
7669.2186981984
 31
0.0
  0
LINE
  5
188
330
1F
100
AcDbEntity
  8
0
  6
Continuous
 62
     7
370
    25
100
AcDbLine
 10
5962.3830061681
 20
7673.9717066833
 30
0.0
 11
5962.3822909124
 21
7673.6598849841
 31
0.0
  0
ARC
  5
189
330
1F
100
AcDbEntity
  8
0
  6
Continuous
 62
     7
370
    25
100
AcDbCircle
 10
5960.8124995274
 20
7638.2176798895
 30
0.0
 40
35.47695233469729
100
AcDbArc
 50
87.4639367024
 51
92.3100817865
  0
LINE
  5
18A
330
1F
100
AcDbEntity
  8
0
  6
Continuous
 62
     7
370
    25
100
AcDbLine
 10
5959.3829851873
 20
7673.977644796
 30
0.0
 11
5959.3825083501
 21
7673.6658007451
 31
0.0
  0
LINE
  5
18B
330
1F
100
AcDbEntity
  8
0
  6
Continuous
 62
     7
370
    25
100
AcDbLine
 10
5955.4893713719
 20
7673.6001238771
 30
0.0
 11
5955.4886561162
 21
7673.2560635158
 31
0.0
  0
ARC
  5
18C
330
1F
100
AcDbEntity
  8
0
  6
Continuous
 62
     7
370
    25
100
AcDbCircle
 10
5957.8429004958
 20
7659.6872497448
 30
0.0
 40
13.7715349089977
100
AcDbArc
 50
99.8430607024
 51
108.9653288543
  0
LINE
  5
18D
330
1F
100
AcDbEntity
  8
0
  6
Continuous
 62
     7
370
    25
100
AcDbLine
 10
5953.3679228551
 20
7673.1215507337
 30
0.0
 11
5953.3672075994
 21
7672.7112025567
 31
0.0
  0
LINE
  5
18E
330
1F
100
AcDbEntity
  8
0
  6
Continuous
 62
     7
370
    25
100
AcDbLine
 10
5951.7554980046
 20
7672.4424824663
 30
0.0
 11
5951.7538290746
 21
7671.7066705771
 31
0.0
  0
ARC
  5
18F
330
1F
100
AcDbEntity
  8
0
  6
Continuous
 62
     7
370
    25
100
AcDbCircle
 10
5952.317487866
 20
7671.3182663364
 30
0.0
 40
0.6845210642015522
100
AcDbArc
 50
145.4301714572
 51
214.5346423434
  0
ARC
  5
190
330
1F
100
AcDbEntity
  8
0
  6
Continuous
 62
     7
370
    25
100
AcDbCircle
 10
5954.9803110883
 20
7675.6653613254
 30
0.0
 40
5.044807798908102
100
AcDbArc
 50
237.3911641429
 51
251.3575949795
  0
LINE
  5
191
330
1F
100
AcDbEntity
  8
0
  6
Continuous
 62
     7
370
    25
100
AcDbLine
 10
5953.3676844365
 20
7670.8852440663
 30
0.0
 11
5953.3657770879
 21
7669.9193135448
 31
0.0
  0
ARC
  5
192
330
1F
100
AcDbEntity
  8
0
  6
Continuous
 62
     7
370
    25
100
AcDbCircle
 10
5957.9014674025
 20
7682.966344518
 30
0.0
 40
13.81294696455987
100
AcDbArc
 50
250.8304236263
 51
259.9320725513
  0
ARC
  5
193
330
1F
100
AcDbEntity
  8
0
  6
Continuous
 62
     7
370
    25
100
AcDbCircle
 10
5960.5368694168
 20
7698.6974257941
 30
0.0
 40
28.81363010588143
100
AcDbArc
 50
260.6330175477
 51
267.7034690172
  0
ARC
  5
194
330
1F
100
AcDbEntity
  8
0
  6
Continuous
 62
     7
370
    25
100
AcDbCircle
 10
5960.9499468916
 20
7704.3861265653
 30
0.0
 40
35.47985728619777
100
AcDbArc
 50
267.4640938172
 51
272.3102272191
  0
LINE
  5
195
330
1F
100
AcDbEntity
  8
0
  6
Continuous
 62
     7
370
    25
100
AcDbLine
 10
5962.3820524938
 20
7669.9010298201
 30
0.0
 11
5962.3801451451
 21
7668.9351067492
 31
0.0
  0
ARC
  5
196
330
1F
100
AcDbEntity
  8
0
  6
Continuous
 62
     7
370
    25
100
AcDbCircle
 10
5961.3412604107
 20
7698.6805989999
 30
0.0
 40
28.79838277299002
100
AcDbArc
 50
272.0711573765
 51
279.1425731138
  0
ARC
  5
197
330
1F
100
AcDbEntity
  8
0
  6
Continuous
 62
     7
370
    25
100
AcDbCircle
 10
5963.9220402298
 20
7682.9059593801
 30
0.0
 40
13.76351815206185
100
AcDbArc
 50
279.8381800079
 51
288.9667294461
  0
LINE
  5
198
330
1F
100
AcDbEntity
  8
0
  6
Continuous
 62
     7
370
    25
100
AcDbLine
 10
5968.3973532445
 20
7670.8556205579
 30
0.0
 11
5968.3954458959
 21
7669.889697487
 31
0.0
  0
ARC
  5
199
330
1F
100
AcDbEntity
  8
0
  6
Continuous
 62
     7
370
    25
100
AcDbCircle
 10
5966.807733307
 20
7675.6271096499
 30
0.0
 40
5.029314038803785
100
AcDbArc
 50
288.4254766281
 51
302.4011772277
  0
ARC
  5
19A
330
1F
100
AcDbEntity
  8
0
  6
Continuous
 62
     7
370
    25
100
AcDbCircle
 10
5969.4448348835
 20
7671.2828106781
 30
0.0
 40
0.6846932827419718
100
AcDbArc
 50
325.4228743514
 51
34.5067525811
  0
LINE
  5
19B
330
1F
100
AcDbEntity
  8
0
  6
Continuous
 62
     7
370
    25
100
AcDbLine
 10
5970.0104933507
 20
7672.4053264209
 30
0.0
 11
5970.0090628392
 21
7671.6706917234
 31
0.0
  0
LINE
  5
19C
330
1F
100
AcDbEntity
  8
0
  6
Continuous
 62
     7
370
    25
100
AcDbLine
 10
5968.3975916631
 20
7673.0916739055
 30
0.0
 11
5968.3966379888
 21
7672.6815864988
 31
0.0
  0
ARC
  5
19D
330
1F
100
AcDbEntity
  8
0
  6
Continuous
 62
     7
370
    25
100
AcDbCircle
 10
5963.8652005329
 20
7659.6510435671
 30
0.0
 40
13.79597675093684
100
AcDbArc
 50
70.8246215396
 51
79.9374977406
  0
LINE
  5
19E
330
1F
100
AcDbEntity
  8
0
  6
Continuous
 62
     7
370
    25
100
AcDbLine
 10
5966.2763815648
 20
7673.5787630626
 30
0.0
 11
5966.2756663091
 21
7673.2348070093
 31
0.0
  0
LINE
  5
19F
330
1F
100
AcDbEntity
  8
0
  6
Continuous
 62
     7
370
    25
100
AcDbLine
 10
5959.3825083501
 20
7673.6658007451
 30
0.0
 11
5959.3822699315
 21
7673.5345513173
 31
0.0
  0
LINE
  5
1A0
330
1F
100
AcDbEntity
  8
0
  6
Continuous
 62
     7
370
    25
100
AcDbLine
 10
5962.3822909124
 20
7673.6598849841
 30
0.0
 11
5962.3822909124
 21
7673.5286430069
 31
0.0
  0
ARC
  5
1A1
330
1F
100
AcDbEntity
  8
0
  6
Continuous
 62
     7
370
    25
100
AcDbCircle
 10
5960.8162989091
 20
7640.0286311855
 30
0.0
 40
33.53659378926122
100
AcDbArc
 50
87.3235990668
 51
92.4507219695
  0
LINE
  5
1A2
330
1F
100
AcDbEntity
  8
0
  6
Continuous
 62
     7
370
    25
100
AcDbLine
 10
5962.3832445867
 20
7673.9716992327
 30
0.0
 11
5962.3822909124
 21
7673.5286430069
 31
0.0
  0
ARC
  5
1A3
330
1F
100
AcDbEntity
  8
0
  6
Continuous
 62
     7
370
    25
100
AcDbCircle
 10
5967.5771520443
 20
7672.7583322893
 30
0.0
 40
1.637082863257791
100
AcDbArc
 50
285.9004619202
 51
341.9142378421
  0
LWPOLYLINE
  5
1A4
330
1F
100
AcDbEntity
  8
0
  6
Continuous
 62
     7
370
    25
100
AcDbPolyline
 90
        7
 70
   128
 43
0.0
 10
5955.0366144902
 20
7670.7712576338
 10
5954.2083483464
 20
7671.0244507142
 10
5953.3462267644
 20
7671.412737722
 10
5952.8133612401
 20
7671.8383297869
 10
5952.6333552129
 20
7672.2826302596
 10
5952.8138380773
 20
7672.7262229272
 10
5953.2315474279
 20
7673.0794847556
  0
LWPOLYLINE
  5
1A5
330
1F
100
AcDbEntity
  8
0
  6
Continuous
 62
     7
370
    25
100
AcDbPolyline
 90
        3
 70
   128
 43
0.0
 10
5968.5382586248
 20
7673.047678227
 10
5968.9531069524
 20
7672.6944163986
 10
5969.1333513982
 20
7672.2501159259
  0
LINE
  5
1A6
330
1F
100
AcDbEntity
  8
0
  6
Continuous
 62
     7
370
    25
100
AcDbLine
 10
5952.1758299596
 20
7672.6717666336
 30
0.0
 11
5952.2630911595
 21
7672.6715952703
 31
0.0
  0
LINE
  5
1A7
330
1F
100
AcDbEntity
  8
0
  6
Continuous
 62
     7
370
    25
100
AcDbLine
 10
5969.5884924657
 20
7672.6374492594
 30
0.0
 11
5969.5038538701
 21
7672.6376206227
 31
0.0
  0
LINE
  5
1A8
330
1F
100
AcDbEntity
  8
0
  6
Continuous
 62
     7
370
    25
100
AcDbLine
 10
5968.0390101201
 20
7670.949132795
 30
0.0
 11
5968.3973532445
 21
7670.8556205579
 31
0.0
  0
ARC
  5
1A9
330
1F
100
AcDbEntity
  8
0
  6
Continuous
 62
     7
370
    25
100
AcDbCircle
 10
5963.7506305459
 20
7683.2448937908
 30
0.0
 40
13.02213261485625
100
AcDbArc
 50
279.5777241598
 51
289.2271852942
  0
LINE
  5
1AA
330
1F
100
AcDbEntity
  8
0
  6
Continuous
 62
     7
370
    25
100
AcDbLine
 10
5962.3820524938
 20
7669.9010298201
 30
0.0
 11
5962.3822909124
 21
7670.0322792479
 31
0.0
  0
ARC
  5
1AB
330
1F
100
AcDbEntity
  8
0
  6
Continuous
 62
     7
370
    25
100
AcDbCircle
 10
5960.9482619347
 20
7703.5381993796
 30
0.0
 40
33.53659378926305
100
AcDbArc
 50
267.3235990668
 51
272.4507219695
  0
ARC
  5
1AC
330
1F
100
AcDbEntity
  8
0
  6
Continuous
 62
     7
370
    25
100
AcDbCircle
 10
5958.0639109222
 20
7683.2639956028
 30
0.0
 40
13.02977299205311
100
AcDbArc
 50
250.5560670059
 51
260.2060522744
  0
LINE
  5
1AD
330
1F
100
AcDbEntity
  8
0
  6
Continuous
 62
     7
370
    25
100
AcDbLine
 10
5953.7265043981
 20
7670.9773406931
 30
0.0
 11
5953.3676844365
 21
7670.8852440663
 31
0.0
  0
LWPOLYLINE
  5
1AE
330
1F
100
AcDbEntity
  8
0
  6
Continuous
 62
     7
370
    25
100
AcDbPolyline
 90
        3
 70
   128
 43
0.0
 10
5968.9204436071
 20
7672.7326378771
 10
5968.4216719396
 20
7672.3489627787
 10
5968.3835249669
 20
7672.3271698304
  0
LWPOLYLINE
  5
1AF
330
1F
100
AcDbEntity
  8
0
  6
Continuous
 62
     7
370
    25
100
AcDbPolyline
 90
        3
 70
   128
 43
0.0
 10
5953.3834200627
 20
7672.3583430596
 10
5953.348134113
 20
7672.3786607929
 10
5952.8481703527
 20
7672.7660388299
  0
LINE
  5
1B0
330
1F
100
AcDbEntity
  8
0
  6
Continuous
 62
     7
370
    25
100
AcDbLine
 10
5968.0380564458
 20
7672.5894898721
 30
0.0
 11
5968.3966379888
 21
7672.6815864988
 31
0.0
  0
ARC
  5
1B1
330
1F
100
AcDbEntity
  8
0
  6
Continuous
 62
     7
370
    25
100
AcDbCircle
 10
5963.6979040772
 20
7660.2923077706
 30
0.0
 40
13.04061387435438
100
AcDbArc
 50
70.5600876005
 51
80.2020316797
  0
LINE
  5
1B2
330
1F
100
AcDbEntity
  8
0
  6
Continuous
 62
     7
370
    25
100
AcDbLine
 10
5965.9170847661
 20
7673.1427103826
 30
0.0
 11
5966.2756663091
 21
7673.2348070093
 31
0.0
  0
LINE
  5
1B3
330
1F
100
AcDbEntity
  8
0
  6
Continuous
 62
     7
370
    25
100
AcDbLine
 10
5965.9180384404
 20
7673.6371532627
 30
0.0
 11
5965.9170847661
 21
7673.1427103826
 31
0.0
  0
LINE
  5
1B4
330
1F
100
AcDbEntity
  8
0
  6
Continuous
 62
     7
370
    25
100
AcDbLine
 10
5955.8481913335
 20
7673.6571655222
 30
0.0
 11
5955.8472376592
 21
7673.1625512787
 31
0.0
  0
LINE
  5
1B5
330
1F
100
AcDbEntity
  8
0
  6
Continuous
 62
     7
370
    25
100
AcDbLine
 10
5955.8472376592
 20
7673.1625512787
 30
0.0
 11
5955.4886561162
 21
7673.2560635158
 31
0.0
  0
ARC
  5
1B6
330
1F
100
AcDbEntity
  8
0
  6
Continuous
 62
     7
370
    25
100
AcDbCircle
 10
5958.0139028081
 20
7660.3222119556
 30
0.0
 40
13.02185669550541
100
AcDbArc
 50
99.5778063487
 51
109.2274806127
  0
LINE
  5
1B7
330
1F
100
AcDbEntity
  8
0
  6
Continuous
 62
     7
370
    25
100
AcDbLine
 10
5953.7255507238
 20
7672.6176903196
 30
0.0
 11
5953.3672075994
 21
7672.7112025567
 31
0.0
  0
LWPOLYLINE
  5
1B8
330
1F
100
AcDbEntity
  8
0
  6
Continuous
 62
     7
370
    25
100
AcDbPolyline
 90
       18
 70
   128
 43
0.0
 10
5968.2323675878
 20
7672.6394013115
 10
5968.3832865483
 20
7672.2515985914
 10
5968.2078104741
 20
7671.8346566506
 10
5967.6897269017
 20
7671.4378983327
 10
5966.8533545262
 20
7671.0798830339
 10
5965.7380324132
 20
7670.7773373076
 10
5964.3954973943
 20
7670.5444247075
 10
5962.8889303929
 20
7670.392030532
 10
5961.2884264714
 20
7670.327277536
 10
5959.6690874822
 20
7670.3531906553
 10
5958.1064921147
 20
7670.4685703465
 10
5956.6735964543
 20
7670.6680074879
 10
5955.4376345403
 20
7670.9421814033
 10
5954.4563036687
 20
7671.278277094
 10
5953.7756186254
 20
7671.660573835
 10
5953.4270506627
 20
7672.0711902329
 10
5953.4272890813
 20
7672.4909410425
 10
5953.5338621862
 20
7672.6676986166
  0
LINE
  5
1B9
330
1F
100
AcDbEntity
  8
0
  6
Continuous
 62
     7
370
    25
100
AcDbLine
 10
5970.0085860021
 20
7670.8942369171
 30
0.0
 11
5969.5014696843
 21
7670.8952352949
 31
0.0
  0
ARC
  5
1BA
330
1F
100
AcDbEntity
  8
0
  6
Continuous
 62
     7
370
    25
100
AcDbCircle
 10
5968.9747531603
 20
7671.2837900343
 30
0.0
 40
0.6545266092348079
100
AcDbArc
 50
323.5840885757
 51
36.345539032
  0
LINE
  5
1BB
330
1F
100
AcDbEntity
  8
0
  6
Continuous
 62
     7
370
    25
100
AcDbLine
 10
5970.0090628392
 20
7671.6706917234
 30
0.0
 11
5969.5019465215
 21
7671.6716975518
 31
0.0
  0
LINE
  5
1BC
330
1F
100
AcDbEntity
  8
0
  6
Continuous
 62
     7
370
    25
100
AcDbLine
 10
5969.5038538701
 20
7672.6376206227
 30
0.0
 11
5969.5019465215
 21
7671.6716975518
 31
0.0
  0
LINE
  5
1BD
330
1F
100
AcDbEntity
  8
0
  6
Continuous
 62
     7
370
    25
100
AcDbLine
 10
5969.5031386144
 20
7671.6698423573
 30
0.0
 11
5969.5014696843
 21
7670.8952352949
 31
0.0
  0
LINE
  5
1BE
330
1F
100
AcDbEntity
  8
0
  6
Continuous
 62
     7
370
    25
100
AcDbLine
 10
5952.2630911595
 20
7672.6715952703
 30
0.0
 11
5952.2609453923
 21
7671.7056647488
 31
0.0
  0
LINE
  5
1BF
330
1F
100
AcDbEntity
  8
0
  6
Continuous
 62
     7
370
    25
100
AcDbLine
 10
5951.7538290746
 20
7671.7066705771
 30
0.0
 11
5952.2609453923
 21
7671.7056647488
 31
0.0
  0
LINE
  5
1C0
330
1F
100
AcDbEntity
  8
0
  6
Continuous
 62
     7
370
    25
100
AcDbLine
 10
5951.753590656
 20
7670.9302083202
 30
0.0
 11
5952.2607069738
 21
7670.9292099424
 31
0.0
  0
ARC
  5
1C1
330
1F
100
AcDbEntity
  8
0
  6
Continuous
 62
     7
370
    25
100
AcDbCircle
 10
5952.7880792609
 20
7671.317275447
 30
0.0
 40
0.6547643584356172
100
AcDbArc
 50
143.6174183606
 51
216.3473951023
  0
LINE
  5
1C2
330
1F
100
AcDbEntity
  8
0
  6
Continuous
 62
     7
370
    25
100
AcDbLine
 10
5952.2626143224
 20
7671.8951330133
 30
0.0
 11
5952.2607069738
 21
7670.9292099424
 31
0.0
  0
LINE
  5
1C3
330
1F
100
AcDbEntity
  8
0
  6
Continuous
 62
     7
370
    25
100
AcDbLine
 10
5968.0390101201
 20
7670.949132795
 30
0.0
 11
5968.0368643529
 21
7669.983209724
 31
0.0
  0
LINE
  5
1C4
330
1F
100
AcDbEntity
  8
0
  6
Continuous
 62
     7
370
    25
100
AcDbLine
 10
5968.0368643529
 20
7669.983209724
 30
0.0
 11
5968.3954458959
 21
7669.889697487
 31
0.0
  0
ARC
  5
1C5
330
1F
100
AcDbEntity
  8
0
  6
Continuous
 62
     7
370
    25
100
AcDbCircle
 10
5963.7517953467
 20
7682.2651324905
 30
0.0
 40
13.0079761388579
100
AcDbArc
 50
279.5745226425
 51
289.2334893697
  0
LINE
  5
1C6
330
1F
100
AcDbEntity
  8
0
  6
Continuous
 62
     7
370
    25
100
AcDbLine
 10
5965.9154158361
 20
7669.4383562156
 30
0.0
 11
5966.2737589605
 21
7669.3448439785
 31
0.0
  0
LINE
  5
1C7
330
1F
100
AcDbEntity
  8
0
  6
Continuous
 62
     7
370
    25
100
AcDbLine
 10
5965.9173231847
 20
7670.4042792865
 30
0.0
 11
5965.9154158361
 21
7669.4383562156
 31
0.0
  0
LINE
  5
1C8
330
1F
100
AcDbEntity
  8
0
  6
Continuous
 62
     7
370
    25
100
AcDbLine
 10
5953.7243586309
 20
7670.0114176222
 30
0.0
 11
5953.3657770879
 21
7669.9193135448
 31
0.0
  0
ARC
  5
1C9
330
1F
100
AcDbEntity
  8
0
  6
Continuous
 62
     7
370
    25
100
AcDbCircle
 10
5958.0636918084
 20
7682.3064150417
 30
0.0
 40
13.03828109729875
100
AcDbArc
 50
250.5602870554
 51
260.2049777302
  0
LINE
  5
1CA
330
1F
100
AcDbEntity
  8
0
  6
Continuous
 62
     7
370
    25
100
AcDbLine
 10
5955.8455687291
 20
7669.4581971117
 30
0.0
 11
5955.4867487676
 21
7669.3661004849
 31
0.0
  0
LINE
  5
1CB
330
1F
100
AcDbEntity
  8
0
  6
Continuous
 62
     7
370
    25
100
AcDbLine
 10
5953.7265043981
 20
7670.9773406931
 30
0.0
 11
5953.7243586309
 21
7670.0114176222
 31
0.0
  0
LINE
  5
1CC
330
1F
100
AcDbEntity
  8
0
  6
Continuous
 62
     7
370
    25
100
AcDbLine
 10
5955.8474760778
 20
7670.4241201826
 30
0.0
 11
5955.8455687291
 21
7669.4581971117
 31
0.0
  0
LINE
  5
1CD
330
1F
100
AcDbEntity
  8
0
  6
Continuous
 62
     7
370
    25
100
AcDbLine
 10
5959.3801241643
 20
7668.9410150596
 30
0.0
 11
5959.3801241643
 21
7669.0722644874
 31
0.0
  0
ARC
  5
1CE
330
1F
100
AcDbEntity
  8
0
  6
Continuous
 62
     7
370
    25
100
AcDbCircle
 10
5960.9462021351
 20
7702.5736735732
 30
0.0
 40
33.53799354385445
100
AcDbArc
 50
267.3235638254
 51
272.4504726227
  0
LINE
  5
1CF
330
1F
100
AcDbEntity
  8
0
  6
Continuous
 62
     7
370
    25
100
AcDbLine
 10
5962.3801451451
 20
7668.9351067492
 30
0.0
 11
5962.3801451451
 21
7669.0663487264
 31
0.0
  0
LINE
  5
1D0
330
1F
100
AcDbEntity
  8
0
  6
Continuous
 62
     7
370
    25
100
AcDbLine
 10
5959.3822699315
 20
7670.0381875583
 30
0.0
 11
5959.3801241643
 21
7669.0722644874
 31
0.0
  0
LINE
  5
1D1
330
1F
100
AcDbEntity
  8
0
  6
Continuous
 62
     7
370
    25
100
AcDbLine
 10
5962.3822909124
 20
7670.0322792479
 30
0.0
 11
5962.3801451451
 21
7669.0663487264
 31
0.0
  0
CIRCLE
  5
1D2
330
1F
100
AcDbEntity
  8
0
  6
Continuous
 62
     7
370
    25
100
AcDbCircle
 10
6060.899784275
 20
7680.2113564882
 30
0.0
 40
12.49999999999885
  0
CIRCLE
  5
1D3
330
1F
100
AcDbEntity
  8
0
  6
Continuous
 62
     7
370
    25
100
AcDbCircle
 10
6060.899784275
 20
7680.2113564882
 30
0.0
 40
13.99999999999954
  0
LINE
  5
1D4
330
1F
100
AcDbEntity
  8
0
  6
Continuous
 62
     7
370
    25
100
AcDbLine
 10
6060.3534918553
 20
7685.393647904
 30
0.0
 11
6060.2466803319
 21
7688.9377624341
 31
0.0
  0
ARC
  5
1D5
330
1F
100
AcDbEntity
  8
0
  6
Continuous
 62
     7
370
    25
100
AcDbCircle
 10
6058.6304562478
 20
7688.8890648896
 30
0.0
 40
1.617042895244538
100
AcDbArc
 50
1.7257261507
 51
181.7257261507
  0
LINE
  5
1D6
330
1F
100
AcDbEntity
  8
0
  6
Continuous
 62
     7
370
    25
100
AcDbLine
 10
6057.0142012365
 20
7688.8403684445
 30
0.0
 11
6057.2411757238
 21
7681.3053355166
 31
0.0
  0
ARC
  5
1D7
330
1F
100
AcDbEntity
  8
0
  6
Continuous
 62
     7
370
    25
100
AcDbCircle
 10
6055.4507887321
 20
7679.4629533411
 30
0.0
 40
2.56901288587198
100
AcDbArc
 50
45.8201318653
 51
107.2198735931
  0
LINE
  5
1D8
330
1F
100
AcDbEntity
  8
0
  6
Continuous
 62
     7
370
    25
100
AcDbLine
 10
6054.6903353459
 20
7681.9168121167
 30
0.0
 11
6054.8534136541
 21
7676.4981538602
 31
0.0
  0
ARC
  5
1D9
330
1F
100
AcDbEntity
  8
0
  6
Continuous
 62
     7
370
    25
100
AcDbCircle
 10
6061.173179559
 20
7676.688559668
 30
0.0
 40
6.322530327732848
100
AcDbArc
 50
181.7257261507
 51
271.7257261507
  0
LINE
  5
1DA
330
1F
100
AcDbEntity
  8
0
  6
Continuous
 62
     7
370
    25
100
AcDbLine
 10
6061.363671375
 20
7670.3688964792
 30
0.0
 11
6063.729737354
 21
7670.4401836344
 31
0.0
  0
ARC
  5
1DB
330
1F
100
AcDbEntity
  8
0
  6
Continuous
 62
     7
370
    25
100
AcDbCircle
 10
6063.5925414631
 20
7674.9937203814
 30
0.0
 40
4.5556005506383
100
AcDbArc
 50
271.7257261507
 51
1.7257261507
  0
LINE
  5
1DC
330
1F
100
AcDbEntity
  8
0
  6
Continuous
 62
     7
370
    25
100
AcDbLine
 10
6068.1459646947
 20
7675.130912716
 30
0.0
 11
6067.91016872
 21
7682.9641253301
 31
0.0
  0
ARC
  5
1DD
330
1F
100
AcDbEntity
  8
0
  6
Continuous
 62
     7
370
    25
100
AcDbCircle
 10
6066.5570737379
 20
7682.9233645229
 30
0.0
 40
1.353611246209322
100
AcDbArc
 50
1.7257261507
 51
91.7257261507
  0
LINE
  5
1DE
330
1F
100
AcDbEntity
  8
0
  6
Continuous
 62
     7
370
    25
100
AcDbLine
 10
6066.5163737065
 20
7684.2763588377
 30
0.0
 11
6066.0223704106
 21
7684.2614800283
 31
0.0
  0
ARC
  5
1DF
330
1F
100
AcDbEntity
  8
0
  6
Continuous
 62
     7
370
    25
100
AcDbCircle
 10
6066.0630724346
 20
7682.9084808985
 30
0.0
 40
1.353611246209721
100
AcDbArc
 50
91.7257261507
 51
120.4622838864
  0
ARC
  5
1E0
330
1F
100
AcDbEntity
  8
0
  6
Continuous
 62
     7
370
    25
100
AcDbCircle
 10
6064.0521455628
 20
7683.7969046141
 30
0.0
 40
1.353611246208716
100
AcDbArc
 50
11.8662129155
 51
91.7257261507
  0
LINE
  5
1E1
330
1F
100
AcDbEntity
  8
0
  6
Continuous
 62
     7
370
    25
100
AcDbLine
 10
6064.0113096959
 20
7685.1499021598
 30
0.0
 11
6063.4324293859
 21
7685.1324529
 31
0.0
  0
ARC
  5
1E2
330
1F
100
AcDbEntity
  8
0
  6
Continuous
 62
     7
370
    25
100
AcDbCircle
 10
6063.4730910364
 20
7683.7794584455
 30
0.0
 40
1.353611246208413
100
AcDbArc
 50
91.7257261507
 51
126.4697283777
  0
ARC
  5
1E3
330
1F
100
AcDbEntity
  8
0
  6
Continuous
 62
     7
370
    25
100
AcDbCircle
 10
6061.4753974909
 20
7684.228655779
 30
0.0
 40
1.353611246207956
100
AcDbArc
 50
28.1849953099
 51
91.7257261507
  0
LINE
  5
1E4
330
1F
100
AcDbEntity
  8
0
  6
Continuous
 62
     7
370
    25
100
AcDbLine
 10
6061.4347201116
 20
7685.5816558548
 30
0.0
 11
6060.9781485326
 21
7685.567902083
 31
0.0
  0
ARC
  5
1E5
330
1F
100
AcDbEntity
  8
0
  6
Continuous
 62
     7
370
    25
100
AcDbCircle
 10
6061.0189936728
 20
7684.2149049186
 30
0.0
 40
1.353611246209322
100
AcDbArc
 50
91.7257261507
 51
119.4464382768
  0
ARC
  5
1E6
330
1F
100
AcDbEntity
  8
0
  6
Continuous
 62
     7
370
    25
100
AcDbCircle
 10
6060.1159563193
 20
7681.2595000509
 30
0.0
 40
0.6676186886560628
100
AcDbArc
 50
181.7257261507
 51
1.7257261507
  0
LINE
  5
1E7
330
1F
100
AcDbEntity
  8
0
  6
Continuous
 62
     7
370
    25
100
AcDbLine
 10
6060.694668842
 20
7684.2193022915
 30
0.0
 11
6060.7833605535
 21
7681.2796086618
 31
0.0
  0
ARC
  5
1E8
330
1F
100
AcDbEntity
  8
0
  6
Continuous
 62
     7
370
    25
100
AcDbCircle
 10
6060.9347041036
 20
7684.2265339463
 30
0.0
 40
0.2401101162875145
100
AcDbArc
 50
91.7257261506
 51
181.7257261506
  0
LINE
  5
1E9
330
1F
100
AcDbEntity
  8
0
  6
Continuous
 62
     7
370
    25
100
AcDbLine
 10
6061.5515452153
 20
7684.4853401729
 30
0.0
 11
6060.9273653752
 21
7684.4665349074
 31
0.0
  0
ARC
  5
1EA
330
1F
100
AcDbEntity
  8
0
  6
Continuous
 62
     7
370
    25
100
AcDbCircle
 10
6061.5588340731
 20
7684.2453381801
 30
0.0
 40
0.2401101162875419
100
AcDbArc
 50
1.7257261508
 51
91.7257261508
  0
LINE
  5
1EB
330
1F
100
AcDbEntity
  8
0
  6
Continuous
 62
     7
370
    25
100
AcDbLine
 10
6061.8874769933
 20
7681.3128680535
 30
0.0
 11
6061.7987852819
 21
7684.2525691339
 31
0.0
  0
ARC
  5
1EC
330
1F
100
AcDbEntity
  8
0
  6
Continuous
 62
     7
370
    25
100
AcDbCircle
 10
6062.5547204779
 20
7681.3329768805
 30
0.0
 40
0.6676186886560628
100
AcDbArc
 50
181.7257261507
 51
1.7257261507
  0
LINE
  5
1ED
330
1F
100
AcDbEntity
  8
0
  6
Continuous
 62
     7
370
    25
100
AcDbLine
 10
6063.1487112767
 20
7683.7838531085
 30
0.0
 11
6063.2221441991
 21
7681.353078837
 31
0.0
  0
ARC
  5
1EE
330
1F
100
AcDbEntity
  8
0
  6
Continuous
 62
     7
370
    25
100
AcDbCircle
 10
6063.3888014673
 20
7683.7910874731
 30
0.0
 40
0.2401101162884236
100
AcDbArc
 50
91.7257261506
 51
181.7257261506
  0
LINE
  5
1EF
330
1F
100
AcDbEntity
  8
0
  6
Continuous
 62
     7
370
    25
100
AcDbLine
 10
6064.1283732183
 20
7684.0535864779
 30
0.0
 11
6063.3816462285
 21
7684.0310857245
 31
0.0
  0
ARC
  5
1F0
330
1F
100
AcDbEntity
  8
0
  6
Continuous
 62
     7
370
    25
100
AcDbCircle
 10
6064.1355821449
 20
7683.8135870151
 30
0.0
 40
0.2401101162875419
100
AcDbArc
 50
1.7257261506
 51
91.7257261508
  0
LINE
  5
1F1
330
1F
100
AcDbEntity
  8
0
  6
Continuous
 62
     7
370
    25
100
AcDbLine
 10
6064.4488077886
 20
7681.3900411674
 30
0.0
 11
6064.3756132848
 21
7683.8208154388
 31
0.0
  0
ARC
  5
1F2
330
1F
100
AcDbEntity
  8
0
  6
Continuous
 62
     7
370
    25
100
AcDbCircle
 10
6065.1161353447
 20
7681.4101490182
 30
0.0
 40
0.6676186886569992
100
AcDbArc
 50
181.7257261507
 51
1.7257261507
  0
LINE
  5
1F3
330
1F
100
AcDbEntity
  8
0
  6
Continuous
 62
     7
370
    25
100
AcDbLine
 10
6065.7376986272
 20
7682.9450965472
 30
0.0
 11
6065.7834749944
 21
7681.4302519508
 31
0.0
  0
ARC
  5
1F4
330
1F
100
AcDbEntity
  8
0
  6
Continuous
 62
     7
370
    25
100
AcDbCircle
 10
6065.977812269
 20
7682.952324923
 30
0.0
 40
0.2401101162875145
100
AcDbArc
 50
91.7257261506
 51
181.7257261506
  0
LINE
  5
1F5
330
1F
100
AcDbEntity
  8
0
  6
Continuous
 62
     7
370
    25
100
AcDbLine
 10
6066.632245136
 20
7683.2122594663
 30
0.0
 11
6065.970633579
 21
7683.1923291632
 31
0.0
  0
ARC
  5
1F6
330
1F
100
AcDbEntity
  8
0
  6
Continuous
 62
     7
370
    25
100
AcDbCircle
 10
6066.6395397236
 20
7682.9722619206
 30
0.0
 40
0.2401101162875419
100
AcDbArc
 50
1.7257261508
 51
91.7257261508
  0
LINE
  5
1F7
330
1F
100
AcDbEntity
  8
0
  6
Continuous
 62
     7
370
    25
100
AcDbLine
 10
6067.1169501073
 20
7675.0999033996
 30
0.0
 11
6066.8794852025
 21
7682.9794958778
 31
0.0
  0
ARC
  5
1F8
330
1F
100
AcDbEntity
  8
0
  6
Continuous
 62
     7
370
    25
100
AcDbCircle
 10
6063.5925414631
 20
7674.9937203814
 30
0.0
 40
3.526000550638898
100
AcDbArc
 50
271.7257261507
 51
1.7257261507
  0
LINE
  5
1F9
330
1F
100
AcDbEntity
  8
0
  6
Continuous
 62
     7
370
    25
100
AcDbLine
 10
6061.3326769597
 20
7671.3980302759
 30
0.0
 11
6063.6987429387
 21
7671.4693174311
 31
0.0
  0
LINE
  5
1FA
330
1F
100
AcDbEntity
  8
0
  6
Continuous
 62
     7
370
    25
100
AcDbLine
 10
6055.7486754186
 20
7680.9732556888
 30
0.0
 11
6055.88266666
 21
7676.5291631766
 31
0.0
  0
ARC
  5
1FB
330
1F
100
AcDbEntity
  8
0
  6
Continuous
 62
     7
370
    25
100
AcDbCircle
 10
6055.4507887321
 20
7679.4629533411
 30
0.0
 40
1.539412885871998
100
AcDbArc
 50
1.7257261507
 51
78.8394739976
  0
LINE
  5
1FC
330
1F
100
AcDbEntity
  8
0
  6
Continuous
 62
     7
370
    25
100
AcDbLine
 10
6057.0482950933
 20
7677.5557786771
 30
0.0
 11
6056.9894057042
 21
7679.509313459
 31
0.0
  0
ARC
  5
1FD
330
1F
100
AcDbEntity
  8
0
  6
Continuous
 62
     7
370
    25
100
AcDbCircle
 10
6057.7156767649
 20
7677.5758837731
 30
0.0
 40
0.6676186886560901
100
AcDbArc
 50
181.7257261507
 51
1.7257261507
  0
LINE
  5
1FE
330
1F
100
AcDbEntity
  8
0
  6
Continuous
 62
     7
370
    25
100
AcDbLine
 10
6058.0432158239
 20
7688.8713740357
 30
0.0
 11
6058.3829622991
 21
7677.5959894606
 31
0.0
  0
ARC
  5
1FF
330
1F
100
AcDbEntity
  8
0
  6
Continuous
 62
     7
370
    25
100
AcDbCircle
 10
6058.6304562478
 20
7688.8890648896
 30
0.0
 40
0.5874428952451349
100
AcDbArc
 50
1.7257261507
 51
181.7257261508
  0
LINE
  5
200
330
1F
100
AcDbEntity
  8
0
  6
Continuous
 62
     7
370
    25
100
AcDbLine
 10
6059.4486933477
 20
7681.2393978783
 30
0.0
 11
6059.2176657445
 21
7688.906756843
 31
0.0
  0
ARC
  5
201
330
1F
100
AcDbEntity
  8
0
  6
Continuous
 62
     7
370
    25
100
AcDbCircle
 10
6061.173179559
 20
7676.688559668
 30
0.0
 40
5.292930327734327
100
AcDbArc
 50
181.7257261507
 51
271.7257261507
  0
CIRCLE
  5
202
330
1F
100
AcDbEntity
  8
0
  6
Continuous
 62
     7
370
    25
100
AcDbCircle
 10
6660.899784275
 20
7680.2113564882
 30
0.0
 40
12.50000000000019
  0
CIRCLE
  5
203
330
1F
100
AcDbEntity
  8
0
  6
Continuous
 62
     7
370
    25
100
AcDbCircle
 10
6660.899784275
 20
7680.2113564882
 30
0.0
 40
13.9999999999996
  0
LINE
  5
204
330
1F
100
AcDbEntity
  8
0
  6
Continuous
 62
     7
370
    25
100
AcDbLine
 10
6660.5291109807
 20
7685.4091600128
 30
0.0
 11
6660.5422240026
 21
7688.954854066
 31
0.0
  0
ARC
  5
205
330
1F
100
AcDbEntity
  8
0
  6
Continuous
 62
     7
370
    25
100
AcDbCircle
 10
6658.9252010546
 20
7688.9608418388
 30
0.0
 40
1.61704289524486
100
AcDbArc
 50
359.787832562
 51
179.787832562
  0
LINE
  5
206
330
1F
100
AcDbEntity
  8
0
  6
Continuous
 62
     7
370
    25
100
AcDbLine
 10
6657.3081951863
 20
7688.9668308743
 30
0.0
 11
6657.2803002126
 21
7681.4284265586
 31
0.0
  0
ARC
  5
207
330
1F
100
AcDbEntity
  8
0
  6
Continuous
 62
     7
370
    25
100
AcDbCircle
 10
6655.4285970463
 20
7679.6476455645
 30
0.0
 40
2.569012885871637
100
AcDbArc
 50
43.8822382765
 51
105.2819800044
  0
LINE
  5
208
330
1F
100
AcDbEntity
  8
0
  6
Continuous
 62
     7
370
    25
100
AcDbLine
 10
6654.7515135533
 20
7682.1258158036
 30
0.0
 11
6654.7313671834
 21
7676.704743559
 31
0.0
  0
ARC
  5
209
330
1F
100
AcDbEntity
  8
0
  6
Continuous
 62
     7
370
    25
100
AcDbCircle
 10
6661.0538956809
 20
7676.6813292798
 30
0.0
 40
6.322530327734237
100
AcDbArc
 50
179.787832562
 51
269.787832562
  0
LINE
  5
20A
330
1F
100
AcDbEntity
  8
0
  6
Continuous
 62
     7
370
    25
100
AcDbLine
 10
6661.0305052526
 20
7670.358845646
 30
0.0
 11
6663.3976441152
 21
7670.3500763126
 31
0.0
  0
ARC
  5
20B
330
1F
100
AcDbEntity
  8
0
  6
Continuous
 62
     7
370
    25
100
AcDbCircle
 10
6663.4145608958
 20
7674.9056457569
 30
0.0
 40
4.555600550638249
100
AcDbArc
 50
269.787832562
 51
359.787832562
  0
LINE
  5
20C
330
1F
100
AcDbEntity
  8
0
  6
Continuous
 62
     7
370
    25
100
AcDbLine
 10
6667.9701548345
 20
7674.8887762972
 30
0.0
 11
6667.9991226918
 21
7682.7254906841
 31
0.0
  0
ARC
  5
20D
330
1F
100
AcDbEntity
  8
0
  6
Continuous
 62
     7
370
    25
100
AcDbCircle
 10
6666.6455479013
 20
7682.7305055504
 30
0.0
 40
1.353611246209201
100
AcDbArc
 50
359.787832562
 51
89.787832562
  0
LINE
  5
20E
330
1F
100
AcDbEntity
  8
0
  6
Continuous
 62
     7
370
    25
100
AcDbLine
 10
6666.6505079991
 20
7684.084104056
 30
0.0
 11
6666.156385494
 21
7684.0859368988
 31
0.0
  0
ARC
  5
20F
330
1F
100
AcDbEntity
  8
0
  6
Continuous
 62
     7
370
    25
100
AcDbCircle
 10
6666.1513258251
 20
7682.7323356732
 30
0.0
 40
1.353611246208877
100
AcDbArc
 50
89.787832562
 51
118.5243902978
  0
ARC
  5
210
330
1F
100
AcDbEntity
  8
0
  6
Continuous
 62
     7
370
    25
100
AcDbCircle
 10
6664.1715921557
 20
7683.6882531279
 30
0.0
 40
1.353611246208494
100
AcDbArc
 50
9.9283193268
 51
89.787832562
  0
LINE
  5
211
330
1F
100
AcDbEntity
  8
0
  6
Continuous
 62
     7
370
    25
100
AcDbLine
 10
6664.1765576131
 20
7685.04185384
 30
0.0
 11
6663.5973196752
 21
7685.0439996072
 31
0.0
  0
ARC
  5
212
330
1F
100
AcDbEntity
  8
0
  6
Continuous
 62
     7
370
    25
100
AcDbCircle
 10
6663.5922788455
 20
7683.6903983467
 30
0.0
 40
1.353611246208288
100
AcDbArc
 50
89.787832562
 51
124.531834789
  0
ARC
  5
213
330
1F
100
AcDbEntity
  8
0
  6
Continuous
 62
     7
370
    25
100
AcDbCircle
 10
6661.6109179776
 20
7684.206893126
 30
0.0
 40
1.353611246207875
100
AcDbArc
 50
26.2471017212
 51
89.787832562
  0
LINE
  5
214
330
1F
100
AcDbEntity
  8
0
  6
Continuous
 62
     7
370
    25
100
AcDbLine
 10
6661.6159420735
 20
7685.5604962059
 30
0.0
 11
6661.1593704946
 21
7685.5621874877
 31
0.0
  0
ARC
  5
215
330
1F
100
AcDbEntity
  8
0
  6
Continuous
 62
     7
370
    25
100
AcDbCircle
 10
6661.1543101891
 20
7684.2085839616
 30
0.0
 40
1.353611246208318
100
AcDbArc
 50
89.787832562
 51
117.5085446881
  0
ARC
  5
216
330
1F
100
AcDbEntity
  8
0
  6
Continuous
 62
     7
370
    25
100
AcDbCircle
 10
6660.1518488208
 20
7681.2854066493
 30
0.0
 40
0.6676186886570811
100
AcDbArc
 50
179.7878325621
 51
359.787832562
  0
LINE
  5
217
330
1F
100
AcDbEntity
  8
0
  6
Continuous
 62
     7
370
    25
100
AcDbLine
 10
6660.8303528554
 20
7684.2239440032
 30
0.0
 11
6660.8195048101
 21
7681.2829316207
 31
0.0
  0
ARC
  5
218
330
1F
100
AcDbEntity
  8
0
  6
Continuous
 62
     7
370
    25
100
AcDbCircle
 10
6661.070462077
 20
7684.2230566891
 30
0.0
 40
0.2401101162876548
100
AcDbArc
 50
89.7878325618
 51
179.7878325618
  0
LINE
  5
219
330
1F
100
AcDbEntity
  8
0
  6
Continuous
 62
     7
370
    25
100
AcDbLine
 10
6661.6958122975
 20
7684.4608501144
 30
0.0
 11
6661.0713940389
 21
7684.463167245
 31
0.0
  0
ARC
  5
21A
330
1F
100
AcDbEntity
  8
0
  6
Continuous
 62
     7
370
    25
100
AcDbCircle
 10
6661.6948709748
 20
7684.2207444797
 30
0.0
 40
0.2401101162876514
100
AcDbArc
 50
359.787832562
 51
89.787832562
  0
LINE
  5
21B
330
1F
100
AcDbEntity
  8
0
  6
Continuous
 62
     7
370
    25
100
AcDbLine
 10
6661.924098087
 20
7681.2788412519
 30
0.0
 11
6661.9349461324
 21
7684.2198536345
 31
0.0
  0
ARC
  5
21C
330
1F
100
AcDbEntity
  8
0
  6
Continuous
 62
     7
370
    25
100
AcDbCircle
 10
6662.5917028814
 20
7681.2763717788
 30
0.0
 40
0.6676186886570811
100
AcDbArc
 50
179.787832562
 51
359.787832562
  0
LINE
  5
21D
330
1F
100
AcDbEntity
  8
0
  6
Continuous
 62
     7
370
    25
100
AcDbLine
 10
6663.268302036
 20
7683.7057635733
 30
0.0
 11
6663.2593613393
 21
7681.273901517
 31
0.0
  0
ARC
  5
21E
330
1F
100
AcDbEntity
  8
0
  6
Continuous
 62
     7
370
    25
100
AcDbCircle
 10
6663.5084307334
 20
7683.7048710742
 30
0.0
 40
0.2401101162885609
100
AcDbArc
 50
89.7878325622
 51
179.787832562
  0
LINE
  5
21F
330
1F
100
AcDbEntity
  8
0
  6
Continuous
 62
     7
370
    25
100
AcDbLine
 10
6664.2564278371
 20
7683.9422151991
 30
0.0
 11
6663.5093432195
 21
7683.9449793645
 31
0.0
  0
ARC
  5
220
330
1F
100
AcDbEntity
  8
0
  6
Continuous
 62
     7
370
    25
100
AcDbCircle
 10
6664.2555451529
 20
7683.7021044817
 30
0.0
 40
0.2401101162876514
100
AcDbArc
 50
359.787832562
 51
89.787832562
  0
LINE
  5
221
330
1F
100
AcDbEntity
  8
0
  6
Continuous
 62
     7
370
    25
100
AcDbLine
 10
6664.4866209752
 20
7681.2693566628
 30
0.0
 11
6664.4956808812
 21
7683.7012187191
 31
0.0
  0
ARC
  5
222
330
1F
100
AcDbEntity
  8
0
  6
Continuous
 62
     7
370
    25
100
AcDbCircle
 10
6665.1542624638
 20
7681.2668825251
 30
0.0
 40
0.6676186886561716
100
AcDbArc
 50
179.787832562
 51
359.787832562
  0
LINE
  5
223
330
1F
100
AcDbEntity
  8
0
  6
Continuous
 62
     7
370
    25
100
AcDbLine
 10
6665.8274870641
 20
7682.779924626
 30
0.0
 11
6665.8218842275
 21
7681.2644094773
 31
0.0
  0
ARC
  5
224
330
1F
100
AcDbEntity
  8
0
  6
Continuous
 62
     7
370
    25
100
AcDbCircle
 10
6666.0675970596
 20
7682.7790377946
 30
0.0
 40
0.2401101162876548
100
AcDbArc
 50
89.787832562
 51
179.7878325618
  0
LINE
  5
225
330
1F
100
AcDbEntity
  8
0
  6
Continuous
 62
     7
370
    25
100
AcDbLine
 10
6666.7304974324
 20
7683.0166966268
 30
0.0
 11
6666.0685282476
 21
7683.0191478678
 31
0.0
  0
ARC
  5
226
330
1F
100
AcDbEntity
  8
0
  6
Continuous
 62
     7
370
    25
100
AcDbCircle
 10
6666.7296202452
 20
7682.776586298
 30
0.0
 40
0.2401101162876548
100
AcDbArc
 50
359.7878325622
 51
89.7878325618
  0
LINE
  5
227
330
1F
100
AcDbEntity
  8
0
  6
Continuous
 62
     7
370
    25
100
AcDbLine
 10
6666.9405442006
 20
7674.8925909945
 30
0.0
 11
6666.9697504766
 21
7682.7757001468
 31
0.0
  0
ARC
  5
228
330
1F
100
AcDbEntity
  8
0
  6
Continuous
 62
     7
370
    25
100
AcDbCircle
 10
6663.4145608958
 20
7674.9056457569
 30
0.0
 40
3.526000550638629
100
AcDbArc
 50
269.787832562
 51
359.787832562
  0
LINE
  5
229
330
1F
100
AcDbEntity
  8
0
  6
Continuous
 62
     7
370
    25
100
AcDbLine
 10
6661.0343199498
 20
7671.3884339281
 30
0.0
 11
6663.4014588124
 21
7671.3796720453
 31
0.0
  0
LINE
  5
22A
330
1F
100
AcDbEntity
  8
0
  6
Continuous
 62
     7
370
    25
100
AcDbLine
 10
6655.7774286992
 20
7681.1470032283
 30
0.0
 11
6655.7609778173
 21
7676.7009288617
 31
0.0
  0
ARC
  5
22B
330
1F
100
AcDbEntity
  8
0
  6
Continuous
 62
     7
370
    25
100
AcDbCircle
 10
6655.4285970463
 20
7679.6476455645
 30
0.0
 40
1.539412885870971
100
AcDbArc
 50
359.787832562
 51
76.9015804089
  0
LINE
  5
22C
330
1F
100
AcDbEntity
  8
0
  6
Continuous
 62
     7
370
    25
100
AcDbLine
 10
6656.9608193166
 20
7677.6875347444
 30
0.0
 11
6656.967971874
 21
7679.6419486948
 31
0.0
  0
ARC
  5
22D
330
1F
100
AcDbEntity
  8
0
  6
Continuous
 62
     7
370
    25
100
AcDbCircle
 10
6657.6283762453
 20
7677.6850654181
 30
0.0
 40
0.6676186886570845
100
AcDbArc
 50
179.787832562
 51
359.7878325619
  0
LINE
  5
22E
330
1F
100
AcDbEntity
  8
0
  6
Continuous
 62
     7
370
    25
100
AcDbLine
 10
6658.3378058202
 20
7688.963016177
 30
0.0
 11
6658.2959633596
 21
7677.6825950094
 31
0.0
  0
ARC
  5
22F
330
1F
100
AcDbEntity
  8
0
  6
Continuous
 62
     7
370
    25
100
AcDbCircle
 10
6658.9252010546
 20
7688.9608418388
 30
0.0
 40
0.5874428952443347
100
AcDbArc
 50
359.787832562
 51
179.787832562
  0
LINE
  5
230
330
1F
100
AcDbEntity
  8
0
  6
Continuous
 62
     7
370
    25
100
AcDbLine
 10
6659.4842415578
 20
7681.2878788062
 30
0.0
 11
6659.5126133687
 21
7688.958665038
 31
0.0
  0
ARC
  5
231
330
1F
100
AcDbEntity
  8
0
  6
Continuous
 62
     7
370
    25
100
AcDbCircle
 10
6661.0538956809
 20
7676.6813292798
 30
0.0
 40
5.29293032773462
100
AcDbArc
 50
179.787832562
 51
269.787832562
  0
CIRCLE
  5
232
330
1F
100
AcDbEntity
  8
0
  6
Continuous
 62
     7
370
    25
100
AcDbCircle
 10
6560.899784275
 20
7680.2113564882
 30
0.0
 40
29.49999999999974
  0
CIRCLE
  5
233
330
1F
100
AcDbEntity
  8
0
  6
Continuous
 62
     7
370
    25
100
AcDbCircle
 10
6560.899784275
 20
7680.2113564882
 30
0.0
 40
29.99999999999967
  0
CIRCLE
  5
234
330
1F
100
AcDbEntity
  8
0
  6
Continuous
 62
     7
370
    25
100
AcDbCircle
 10
5960.899784275
 20
7680.2113564882
 30
0.0
 40
29.49999999999926
  0
CIRCLE
  5
235
330
1F
100
AcDbEntity
  8
0
  6
Continuous
 62
     7
370
    25
100
AcDbCircle
 10
5960.899784275
 20
7680.2113564882
 30
0.0
 40
29.99999999999911
  0
LINE
  5
236
330
1F
100
AcDbEntity
  8
0
  6
Continuous
 62
     7
370
    25
100
AcDbLine
 10
6548.7446528203
 20
7675.601305122
 30
0.0
 11
6573.0460625417
 21
7675.5778581449
 31
0.0
  0
LINE
  5
237
330
1F
100
AcDbEntity
  8
0
  6
Continuous
 62
     7
370
    25
100
AcDbLine
 10
6574.0134459264
 20
7675.3089741417
 30
0.0
 11
6573.0460625417
 21
7675.5778581449
 31
0.0
  0
ARC
  5
238
330
1F
100
AcDbEntity
  8
0
  6
Continuous
 62
     7
370
    25
100
AcDbCircle
 10
6560.899784275
 20
7680.2113564882
 30
0.0
 40
13.99999999999947
100
AcDbArc
 50
200.3871559696
 51
339.5022718206
  0
LINE
  5
239
330
1F
100
AcDbEntity
  8
0
  6
Continuous
 62
     7
370
    25
100
AcDbLine
 10
6548.7446528203
 20
7675.601305122
 30
0.0
 11
6547.7767925985
 21
7675.3342912146
 31
0.0
  0
LWPOLYLINE
  5
23A
330
1F
100
AcDbEntity
  8
0
  6
Continuous
 62
     7
370
    25
100
AcDbPolyline
 90
       34
 70
   128
 43
0.0
 10
6560.8937483556
 20
7674.0043178745
 10
6562.7625923879
 20
7673.9563212343
 10
6564.5637255437
 20
7673.8176957317
 10
6566.2321787603
 20
7673.5934332558
 10
6567.707632137
 20
7673.2916474887
 10
6568.9366799123
 20
7672.9232460805
 10
6569.8749762303
 20
7672.5015432187
 10
6570.4885464437
 20
7672.0417753407
 10
6570.7552176244
 20
7671.5605721422
 10
6570.6654530294
 20
7671.0753158279
 10
6570.2223521001
 20
7670.603537614
 10
6569.4421273
 20
7670.1623067804
 10
6568.3527928121
 20
7669.7675601193
 10
6566.9936877019
 20
7669.4335654923
 10
6565.4141646154
 20
7669.17239284
 10
6563.6710863835
 20
7668.9934820481
 10
6561.8275147206
 20
7668.9033076712
 10
6559.9502068288
 20
7668.9051181623
 10
6558.1068735845
 20
7668.9988539167
 10
6556.3641529805
 20
7669.1811249205
 10
6554.7851067311
 20
7669.4453448602
 10
6553.4267168767
 20
7669.7819620915
 10
6552.3380976445
 20
7670.1788098165
 10
6551.5585881002
 20
7670.6215531179
 10
6551.1164408452
 20
7671.0941732474
 10
6551.0276299245
 20
7671.5796083756
 10
6551.2952547795
 20
7672.060297484
 10
6551.9097786672
 20
7672.5188807198
 10
6552.848790241
 20
7672.9387730905
 10
6554.078553272
 20
7673.3047977634
 10
6555.5546026952
 20
7673.6037374087
 10
6557.2234135396
 20
7673.8247737833
 10
6559.0249043233
 20
7673.9599273153
 10
6560.8937483556
 20
7674.0043178745
  0
ARC
  5
23B
330
1F
100
AcDbEntity
  8
0
  6
Continuous
 62
     7
370
    25
100
AcDbCircle
 10
6560.899784275
 20
7680.2113564882
 30
0.0
 40
13.00000000000062
100
AcDbArc
 50
339.1193104298
 51
200.7701173603
  0
ARC
  5
23C
330
1F
100
AcDbEntity
  8
0
  6
Continuous
 62
     7
370
    25
100
AcDbCircle
 10
6560.899784275
 20
7680.2113564882
 30
0.0
 40
13.99999999999947
100
AcDbArc
 50
339.5022718206
 51
200.3871559696
  0
LWPOLYLINE
  5
23D
330
1F
100
AcDbEntity
  8
0
  6
Continuous
 62
     7
370
    25
100
AcDbPolyline
 90
        3
 70
   128
 43
0.0
 10
6570.1216202504
 20
7672.3485529967
 10
6570.2668171651
 20
7671.9223946878
 10
6570.1414089925
 20
7671.5276033231
  0
ARC
  5
23E
330
1F
100
AcDbEntity
  8
0
  6
Continuous
 62
     7
370
    25
100
AcDbCircle
 10
6566.7673923223
 20
7675.5804795517
 30
0.0
 40
5.36322097758691
100
AcDbArc
 50
287.7894124823
 51
302.4535283742
  0
ARC
  5
23F
330
1F
100
AcDbEntity
  8
0
  6
Continuous
 62
     7
370
    25
100
AcDbCircle
 10
6561.2180568327
 20
7699.8281112788
 30
0.0
 40
30.31592652651848
100
AcDbArc
 50
272.2167207141
 51
278.9333757992
  0
ARC
  5
240
330
1F
100
AcDbEntity
  8
0
  6
Continuous
 62
     7
370
    25
100
AcDbCircle
 10
6560.6194479152
 20
7699.8293168254
 30
0.0
 40
30.31655804062374
100
AcDbArc
 50
260.9597213876
 51
267.6770156424
  0
ARC
  5
241
330
1F
100
AcDbEntity
  8
0
  6
Continuous
 62
     7
370
    25
100
AcDbCircle
 10
6555.0229748671
 20
7675.5916529395
 30
0.0
 40
5.362987877126235
100
AcDbArc
 50
237.4481199798
 51
252.118706521
  0
LWPOLYLINE
  5
242
330
1F
100
AcDbEntity
  8
0
  6
Continuous
 62
     7
370
    25
100
AcDbPolyline
 90
        3
 70
   128
 43
0.0
 10
6551.6414385564
 20
7671.5454549142
 10
6551.5167456395
 20
7671.9404846974
 10
6551.6628962285
 20
7672.3663598844
  0
LINE
  5
243
330
1F
100
AcDbEntity
  8
0
  6
Continuous
 62
     7
370
    25
100
AcDbLine
 10
5948.739502979
 20
7675.6148353764
 30
0.0
 11
5973.0407934911
 21
7675.5643427917
 31
0.0
  0
LINE
  5
244
330
1F
100
AcDbEntity
  8
0
  6
Continuous
 62
     7
370
    25
100
AcDbLine
 10
5974.0078192479
 20
7675.2943784543
 30
0.0
 11
5973.0407934911
 21
7675.5643427917
 31
0.0
  0
ARC
  5
245
330
1F
100
AcDbEntity
  8
0
  6
Continuous
 62
     7
370
    25
100
AcDbCircle
 10
5960.899784275
 20
7680.2113564882
 30
0.0
 40
13.99999999999951
100
AcDbArc
 50
200.3233814281
 51
339.438497279
  0
LINE
  5
246
330
1F
100
AcDbEntity
  8
0
  6
Continuous
 62
     7
370
    25
100
AcDbLine
 10
5948.739502979
 20
7675.6148353764
 30
0.0
 11
5947.7712851293
 21
7675.3489018031
 31
0.0
  0
LWPOLYLINE
  5
247
330
1F
100
AcDbEntity
  8
0
  6
Continuous
 62
     7
370
    25
100
AcDbPolyline
 90
       34
 70
   128
 43
0.0
 10
5960.8869295842
 20
7674.0043253251
 10
5962.7556544072
 20
7673.9542574235
 10
5964.5566683538
 20
7673.8136202642
 10
5966.2248831517
 20
7673.5875025936
 10
5967.6999789006
 20
7673.2840776988
 10
5968.9285498387
 20
7672.9143053838
 10
5969.8664885289
 20
7672.4915594407
 10
5970.4794626958
 20
7672.0311135598
 10
5970.7455378301
 20
7671.5496048876
 10
5970.6551771886
 20
7671.0644454309
 10
5970.2117186315
 20
7670.5931664058
 10
5969.4308977849
 20
7670.1528072902
 10
5968.3410864598
 20
7669.759267623
 10
5966.9816237218
 20
7669.4267854639
 10
5965.4018622167
 20
7669.1673785993
 10
5963.6585455663
 20
7668.9904049583
 10
5961.8148546941
 20
7668.902279491
 10
5959.9375468022
 20
7668.9061835953
 10
5958.0943327672
 20
7669.0019682594
 10
5956.3519697911
 20
7669.1861838647
 10
5954.7731619603
 20
7669.4521546908
 10
5953.4151297338
 20
7669.7902843901
 10
5952.3269873387
 20
7670.1883465596
 10
5951.5480738408
 20
7670.6319541284
 10
5951.1062842137
 20
7671.1050734468
 10
5951.0180693395
 20
7671.590597982
 10
5951.286290241
 20
7672.0709965178
 10
5951.9011717565
 20
7672.5288868495
 10
5952.8407793767
 20
7672.9477361389
 10
5954.0710192449
 20
7673.3123973557
 10
5955.5473070867
 20
7673.6096904226
 10
5957.2162371404
 20
7673.8288716026
 10
5959.0179663427
 20
7673.9620209285
 10
5960.8869295842
 20
7674.0043253251
  0
ARC
  5
248
330
1F
100
AcDbEntity
  8
0
  6
Continuous
 62
     7
370
    25
100
AcDbCircle
 10
5960.899784275
 20
7680.2113564882
 30
0.0
 40
13.99999999999951
100
AcDbArc
 50
339.438497279
 51
200.3233814281
  0
ARC
  5
249
330
1F
100
AcDbEntity
  8
0
  6
Continuous
 62
     7
370
    25
100
AcDbCircle
 10
5960.899784275
 20
7680.2113564882
 30
0.0
 40
13.00000000000111
100
AcDbArc
 50
339.0555358883
 51
200.7063428188
  0
LWPOLYLINE
  5
24A
330
1F
100
AcDbEntity
  8
0
  6
Continuous
 62
     7
370
    25
100
AcDbPolyline
 90
        3
 70
   128
 43
0.0
 10
5970.1127749211
 20
7672.3382860967
 10
5970.2574949987
 20
7671.9119713255
 10
5970.1318484075
 20
7671.5173215219
  0
LWPOLYLINE
  5
24B
330
1F
100
AcDbEntity
  8
0
  6
Continuous
 62
     7
370
    25
100
AcDbPolyline
 90
        3
 70
   128
 43
0.0
 10
5969.5017081029
 20
7670.9602118083
 10
5968.6748724706
 20
7670.567208583
 10
5968.3966379888
 20
7670.4658881374
  0
ARC
  5
24C
330
1F
100
AcDbEntity
  8
0
  6
Continuous
 62
     7
370
    25
100
AcDbCircle
 10
5961.2406074824
 20
7699.8181156441
 30
0.0
 40
30.30627050426022
100
AcDbArc
 50
272.1571259835
 51
278.8747964635
  0
ARC
  5
24D
330
1F
100
AcDbEntity
  8
0
  6
Continuous
 62
     7
370
    25
100
AcDbCircle
 10
5960.6435480986
 20
7699.8543870768
 30
0.0
 40
30.34141142423389
100
AcDbArc
 50
260.9028205976
 51
267.6153019091
  0
LWPOLYLINE
  5
24E
330
1F
100
AcDbEntity
  8
0
  6
Continuous
 62
     7
370
    25
100
AcDbPolyline
 90
        3
 70
   128
 43
0.0
 10
5953.3669691808
 20
7670.4955638
 10
5953.0846815831
 20
7670.5996037074
 10
5952.2607069738
 20
7670.9952816912
  0
LWPOLYLINE
  5
24F
330
1F
100
AcDbEntity
  8
0
  6
Continuous
 62
     7
370
    25
100
AcDbPolyline
 90
        3
 70
   128
 43
0.0
 10
5951.6317587621
 20
7671.5557665177
 10
5951.5075426824
 20
7671.950937862
 10
5951.6541701085
 20
7672.3766491362
  0
LINE
  5
250
330
1F
100
AcDbEntity
  8
0
  6
Continuous
 62
     7
370
    25
100
AcDbLine
 10
6823.5498409993
 20
6868.8096717545
 30
0.0
 11
6823.5498409993
 21
6870.0096920677
 31
0.0
  0
LINE
  5
251
330
1F
100
AcDbEntity
  8
0
  6
Continuous
 62
     7
370
    25
100
AcDbLine
 10
6829.5497637517
 20
6868.8096717545
 30
0.0
 11
6829.5497637517
 21
6870.0096920677
 31
0.0
  0
LINE
  5
252
330
1F
100
AcDbEntity
  8
0
  6
Continuous
 62
     7
370
    25
100
AcDbLine
 10
6829.5497637517
 20
6868.8096717545
 30
0.0
 11
6823.5498409993
 21
6868.8096717545
 31
0.0
  0
LINE
  5
253
330
1F
100
AcDbEntity
  8
0
  6
Continuous
 62
     7
370
    25
100
AcDbLine
 10
6585.5498057134
 20
6868.8096717545
 30
0.0
 11
6585.5498057134
 21
6870.0096920677
 31
0.0
  0
LINE
  5
254
330
1F
100
AcDbEntity
  8
0
  6
Continuous
 62
     7
370
    25
100
AcDbLine
 10
6823.5498409993
 20
6868.8096717545
 30
0.0
 11
6585.5498057134
 21
6868.8096717545
 31
0.0
  0
LINE
  5
255
330
1F
100
AcDbEntity
  8
0
  6
Continuous
 62
     7
370
    25
100
AcDbLine
 10
6579.5497637517
 20
6868.8096717545
 30
0.0
 11
6579.5497637517
 21
6870.0096920677
 31
0.0
  0
LINE
  5
256
330
1F
100
AcDbEntity
  8
0
  6
Continuous
 62
     7
370
    25
100
AcDbLine
 10
6585.5498057134
 20
6868.8096717545
 30
0.0
 11
6579.5497637517
 21
6868.8096717545
 31
0.0
  0
LINE
  5
257
330
1F
100
AcDbEntity
  8
0
  6
Continuous
 62
     7
370
    25
100
AcDbLine
 10
5933.5498553044
 20
6868.8096717545
 30
0.0
 11
5933.5498553044
 21
6870.0096920677
 31
0.0
  0
LINE
  5
258
330
1F
100
AcDbEntity
  8
0
  6
Continuous
 62
     7
370
    25
100
AcDbLine
 10
5933.5498553044
 20
6868.8096717545
 30
0.0
 11
5695.5497008092
 21
6868.8096717545
 31
0.0
  0
LINE
  5
259
330
1F
100
AcDbEntity
  8
0
  6
Continuous
 62
     7
370
    25
100
AcDbLine
 10
5695.5497008092
 20
6870.0095728584
 30
0.0
 11
5695.5497008092
 21
6868.8096717545
 31
0.0
  0
LINE
  5
25A
330
1F
100
AcDbEntity
  8
0
  6
Continuous
 62
     7
370
    25
100
AcDbLine
 10
5939.5498972661
 20
6870.0096920677
 30
0.0
 11
5939.5498972661
 21
6868.8096717545
 31
0.0
  0
LINE
  5
25B
330
1F
100
AcDbEntity
  8
0
  6
Continuous
 62
     7
370
    25
100
AcDbLine
 10
5933.5498553044
 20
6868.8096717545
 30
0.0
 11
5939.5498972661
 21
6868.8096717545
 31
0.0
  0
LINE
  5
25C
330
1F
100
AcDbEntity
  8
0
  6
Continuous
 62
     7
370
    25
100
AcDbLine
 10
5689.5498972661
 20
6870.0095132538
 30
0.0
 11
5689.5498972661
 21
6868.8096717545
 31
0.0
  0
LINE
  5
25D
330
1F
100
AcDbEntity
  8
0
  6
Continuous
 62
     7
370
    25
100
AcDbLine
 10
5695.5497008092
 20
6868.8096717545
 30
0.0
 11
5689.5498972661
 21
6868.8096717545
 31
0.0
  0
LINE
  5
25E
330
1F
100
AcDbEntity
  8
0
  6
Continuous
 62
     7
370
    25
100
AcDbLine
 10
5680.9017401464
 20
6885.0096777626
 30
0.0
 11
5680.8998327977
 21
6885.0096777626
 31
0.0
  0
LINE
  5
25F
330
1F
100
AcDbEntity
  8
0
  6
Continuous
 62
     7
370
    25
100
AcDbLine
 10
5637.8998499639
 20
6871.6596678444
 30
0.0
 11
5638.9996748693
 21
6871.6596678444
 31
0.0
  0
LINE
  5
260
330
1F
100
AcDbEntity
  8
0
  6
Continuous
 62
     7
370
    25
100
AcDbLine
 10
6882.7998381383
 20
6871.6596678444
 30
0.0
 11
6883.899782253
 21
6871.6596678444
 31
0.0
  0
LINE
  5
261
330
1F
100
AcDbEntity
  8
0
  6
Continuous
 62
     7
370
    25
100
AcDbLine
 10
6882.2498064763
 20
6870.0096920677
 30
0.0
 11
5716.2158232457
 21
6870.0096920677
 31
0.0
  0
LINE
  5
262
330
1F
100
AcDbEntity
  8
0
  6
Continuous
 62
     7
370
    25
100
AcDbLine
 10
5681.8020087011
 20
6870.0096920677
 30
0.0
 11
5639.5497065313
 21
6870.0096920677
 31
0.0
  0
LINE
  5
263
330
1F
100
AcDbEntity
  8
0
  6
Continuous
 62
     7
370
    25
100
AcDbLine
 10
6882.2498064763
 20
6870.0096920677
 30
0.0
 11
6882.2498064763
 21
6870.1182917305
 31
0.0
  0
LINE
  5
264
330
1F
100
AcDbEntity
  8
0
  6
Continuous
 62
     7
370
    25
100
AcDbLine
 10
5639.5497065313
 20
6870.1182917305
 30
0.0
 11
5639.5497065313
 21
6870.0096920677
 31
0.0
  0
ARC
  5
265
330
1F
100
AcDbEntity
  8
0
  6
Continuous
 62
     7
370
    25
100
AcDbCircle
 10
5639.549784275
 20
6871.6596910042
 30
0.0
 40
1.649999999999636
100
AcDbArc
 50
180.0
 51
270.0
  0
ARC
  5
266
330
1F
100
AcDbEntity
  8
0
  6
Continuous
 62
     7
370
    25
100
AcDbCircle
 10
6882.249784275
 20
6871.6596910041
 30
0.0
 40
1.650000000000546
100
AcDbArc
 50
270.0
 51
0.0
  0
LINE
  5
267
330
1F
100
AcDbEntity
  8
0
  6
Continuous
 62
     7
370
    25
100
AcDbLine
 10
5681.7018728978
 20
6870.9094837853
 30
0.0
 11
5680.9019785649
 21
6870.9094241806
 31
0.0
  0
SPLINE
  5
268
330
1F
100
AcDbEntity
  8
0
  6
Continuous
 62
     7
370
    25
100
AcDbSpline
210
0.0
220
0.0
230
1.0
 70
     8
 71
     3
 72
    11
 73
     7
 74
     0
 42
0.000000001
 43
0.00000001
 40
0.0
 40
0.0
 40
0.0
 40
0.0
 40
0.2499868846518964
 40
0.4999370196188194
 40
0.7499376541697066
 40
1.0
 40
1.0
 40
1.0
 40
1.0
 10
5680.901978564942
 20
6870.909424180607
 30
0.0
 10
5680.92076715116
 20
6870.938591052761
 30
0.0
 10
5680.958341561553
 20
6870.99692050935
 30
0.0
 10
5681.247260890456
 20
6871.08441245538
 30
0.0
 10
5681.660506701919
 20
6871.17201436042
 30
0.0
 10
5681.98816020584
 20
6871.230323894453
 30
0.0
 10
5682.152007175172
 20
6871.259482259373
 30
0.0
  0
SPLINE
  5
269
330
1F
100
AcDbEntity
  8
0
  6
Continuous
 62
     7
370
    25
100
AcDbSpline
210
0.0
220
0.0
230
1.0
 70
     8
 71
     3
 72
    11
 73
     7
 74
     0
 42
0.000000001
 43
0.00000001
 40
0.0
 40
0.0
 40
0.0
 40
0.0
 40
0.2501605126187069
 40
0.5000571147004642
 40
0.7500196109219005
 40
1.0
 40
1.0
 40
1.0
 40
1.0
 10
5682.152007175172
 20
6871.259482259373
 30
0.0
 10
5682.092976114227
 20
6871.230324487065
 30
0.0
 10
5681.97497626803
 20
6871.172039702874
 30
0.0
 10
5681.826259051597
 20
6871.084462597105
 30
0.0
 10
5681.722269890794
 20
6870.996982934947
 30
0.0
 10
5681.708672057706
 20
6870.938650864382
 30
0.0
 10
5681.701872897828
 20
6870.909483785252
 30
0.0
  0
LINE
  5
26A
330
1F
100
AcDbEntity
  8
0
  6
Continuous
 62
     7
370
    25
100
AcDbLine
 10
6840.0019150502
 20
6870.0173214623
 30
0.0
 11
6840.0019150502
 21
6870.8173350044
 31
0.0
  0
SPLINE
  5
26B
330
1F
100
AcDbEntity
  8
0
  6
Continuous
 62
     7
370
    25
100
AcDbSpline
210
0.0
220
0.0
230
1.0
 70
     8
 71
     3
 72
    11
 73
     7
 74
     0
 42
0.000000001
 43
0.00000001
 40
0.0
 40
0.0
 40
0.0
 40
0.0
 40
0.2500049905057109
 40
0.5000003389656688
 40
0.749983382018146
 40
1.0
 40
1.0
 40
1.0
 40
1.0
 10
6840.001915050233
 20
6870.017321462254
 30
0.0
 10
6839.972748639541
 20
6870.036125859968
 30
0.0
 10
6839.914416943029
 20
6870.073733930157
 30
0.0
 10
6839.82691907771
 20
6870.362783009469
 30
0.0
 10
6839.739408882532
 20
6870.775945257238
 30
0.0
 10
6839.6810819838
 20
6871.103541134725
 30
0.0
 10
6839.651916576112
 20
6871.267350072483
 30
0.0
  0
SPLINE
  5
26C
330
1F
100
AcDbEntity
  8
0
  6
Continuous
 62
     7
370
    25
100
AcDbSpline
210
0.0
220
0.0
230
1.0
 70
     8
 71
     3
 72
    11
 73
     7
 74
     0
 42
0.000000001
 43
0.00000001
 40
0.0
 40
0.0
 40
0.0
 40
0.0
 40
0.2499855453958023
 40
0.500020257295338
 40
0.7500078221582881
 40
1.0
 40
1.0
 40
1.0
 40
1.0
 10
6839.651916576112
 20
6871.267350072483
 30
0.0
 10
6839.681085054169
 20
6871.208390248114
 30
0.0
 10
6839.739427747062
 20
6871.090459003309
 30
0.0
 10
6839.826904253994
 20
6870.941662063671
 30
0.0
 10
6839.914417888072
 20
6870.837663211019
 30
0.0
 10
6839.972749150117
 20
6870.824111114971
 30
0.0
 10
6840.001915050233
 20
6870.817335004429
 30
0.0
  0
LINE
  5
26D
330
1F
100
AcDbEntity
  8
0
  6
Continuous
 62
     7
370
    25
100
AcDbLine
 10
5681.8020087011
 20
6870.8094671913
 30
0.0
 11
5681.8020087011
 21
6870.0094536491
 31
0.0
  0
SPLINE
  5
26E
330
1F
100
AcDbEntity
  8
0
  6
Continuous
 62
     7
370
    25
100
AcDbSpline
210
0.0
220
0.0
230
1.0
 70
     8
 71
     3
 72
    11
 73
     7
 74
     0
 42
0.000000001
 43
0.00000001
 40
0.0
 40
0.0
 40
0.0
 40
0.0
 40
0.2499896402195179
 40
0.4999746675070992
 40
0.7499503128843799
 40
0.9999999999999999
 40
0.9999999999999999
 40
0.9999999999999999
 40
0.9999999999999999
 10
5681.80200870105
 20
6870.809467191319
 30
0.0
 10
5681.8311753288
 20
6870.816242526936
 30
0.0
 10
5681.889508046102
 20
6870.829793073147
 30
0.0
 10
5681.977004170096
 20
6870.933795710805
 30
0.0
 10
5682.064523341203
 20
6871.082545427839
 30
0.0
 10
5682.122843018602
 20
6871.200497493573
 30
0.0
 10
5682.152007175172
 20
6871.259482259373
 30
0.0
  0
SPLINE
  5
26F
330
1F
100
AcDbEntity
  8
0
  6
Continuous
 62
     7
370
    25
100
AcDbSpline
210
0.0
220
0.0
230
1.0
 70
     8
 71
     3
 72
    11
 73
     7
 74
     0
 42
0.000000001
 43
0.00000001
 40
0.0
 40
0.0
 40
0.0
 40
0.0
 40
0.250011908742693
 40
0.5000148538384468
 40
0.7500054934598698
 40
1.0
 40
1.0
 40
1.0
 40
1.0
 10
5682.152007175172
 20
6871.259482259373
 30
0.0
 10
5682.122840805162
 20
6871.095675478987
 30
0.0
 10
5682.064509110842
 20
6870.768067791159
 30
0.0
 10
5681.977010476934
 20
6870.354863477583
 30
0.0
 10
5681.889507254283
 20
6870.065794339042
 30
0.0
 10
5681.831175035843
 20
6870.028233975941
 30
0.0
 10
5681.802008701051
 20
6870.009453649143
 30
0.0
  0
LINE
  5
270
330
1F
100
AcDbEntity
  8
0
  6
Continuous
 62
     7
370
    25
100
AcDbLine
 10
6840.9019451863
 20
6870.9173515984
 30
0.0
 11
6840.1019316442
 21
6870.9173515984
 31
0.0
  0
SPLINE
  5
271
330
1F
100
AcDbEntity
  8
0
  6
Continuous
 62
     7
370
    25
100
AcDbSpline
210
0.0
220
0.0
230
1.0
 70
     8
 71
     3
 72
    11
 73
     7
 74
     0
 42
0.000000001
 43
0.00000001
 40
0.0
 40
0.0
 40
0.0
 40
0.0
 40
0.2500188087643206
 40
0.5000197219220108
 40
0.750067784633742
 40
1.0
 40
1.0
 40
1.0
 40
1.0
 10
6840.101931644166
 20
6870.917351598362
 30
0.0
 10
6840.095130801014
 20
6870.946516944347
 30
0.0
 10
6840.081529601493
 20
6871.004845548748
 30
0.0
 10
6839.977550013008
 20
6871.092364394694
 30
0.0
 10
6839.828757214225
 20
6871.179824786834
 30
0.0
 10
6839.7108543493
 20
6871.238179484269
 30
0.0
 10
6839.651916576112
 20
6871.267350072483
 30
0.0
  0
SPLINE
  5
272
330
1F
100
AcDbEntity
  8
0
  6
Continuous
 62
     7
370
    25
100
AcDbSpline
210
0.0
220
0.0
230
1.0
 70
     8
 71
     3
 72
    11
 73
     7
 74
     0
 42
0.000000001
 43
0.00000001
 40
0.0
 40
0.0
 40
0.0
 40
0.0
 40
0.2500213262286737
 40
0.4999844665133742
 40
0.7499845228196096
 40
1.0
 40
1.0
 40
1.0
 40
1.0
 10
6839.651916576112
 20
6871.267350072483
 30
0.0
 10
6839.815727672097
 20
6871.238185627318
 30
0.0
 10
6840.143311741305
 20
6871.17986352425
 30
0.0
 10
6840.556431916638
 20
6871.092341767289
 30
0.0
 10
6840.845460943239
 20
6871.004849259039
 30
0.0
 10
6840.883116718196
 20
6870.946518084915
 30
0.0
 10
6840.901945186341
 20
6870.917351598362
 30
0.0
  0
LINE
  5
273
330
1F
100
AcDbEntity
  8
0
  6
Continuous
 62
     7
370
    25
100
AcDbLine
 10
6840.9019451863
 20
6870.9173515984
 30
0.0
 11
6840.8986073262
 21
7345.2173486897
 31
0.0
  0
LINE
  5
274
330
1F
100
AcDbEntity
  8
0
  6
Continuous
 62
     7
370
    25
100
AcDbLine
 10
6840.0019150502
 20
6870.0173214623
 30
0.0
 11
5681.8020087011
 21
6870.0094536491
 31
0.0
  0
LINE
  5
275
330
1F
100
AcDbEntity
  8
0
  6
Continuous
 62
     7
370
    25
100
AcDbLine
 10
6839.6519165761
 20
6871.2673500725
 30
0.0
 11
5682.1520071752
 21
6871.2594822594
 31
0.0
  0
LINE
  5
276
330
1F
100
AcDbEntity
  8
0
  6
Continuous
 62
     7
370
    25
100
AcDbLine
 10
5680.8986407048
 20
7345.2094510742
 30
0.0
 11
5680.9019785649
 21
6870.9094241806
 31
0.0
  0
LINE
  5
277
330
1F
100
AcDbEntity
  8
0
  6
Continuous
 62
     7
370
    25
100
AcDbLine
 10
6840.0019150502
 20
6870.8173350044
 30
0.0
 11
6840.0019150502
 21
6871.0601643272
 31
0.0
  0
LINE
  5
278
330
1F
100
AcDbEntity
  8
0
  6
Continuous
 62
     7
370
    25
100
AcDbLine
 10
5681.8020087011
 20
6871.0530117699
 30
0.0
 11
5681.8020087011
 21
6870.8094671913
 31
0.0
  0
LINE
  5
279
330
1F
100
AcDbEntity
  8
0
  6
Continuous
 62
     7
370
    25
100
AcDbLine
 10
5635.8997565038
 20
7347.1182898232
 30
0.0
 11
5637.8998499639
 21
7347.1182898232
 31
0.0
  0
LINE
  5
27A
330
1F
100
AcDbEntity
  8
0
  6
Continuous
 62
     7
370
    25
100
AcDbLine
 10
5635.8997565038
 20
7347.1182898232
 30
0.0
 11
5635.8997565038
 21
7370.1182917305
 31
0.0
  0
LINE
  5
27B
330
1F
100
AcDbEntity
  8
0
  6
Continuous
 62
     7
370
    25
100
AcDbLine
 10
5635.8997565038
 20
7370.1182917305
 30
0.0
 11
5637.8998499639
 21
7370.1182917305
 31
0.0
  0
LINE
  5
27C
330
1F
100
AcDbEntity
  8
0
  6
Continuous
 62
     7
370
    25
100
AcDbLine
 10
5637.8998499639
 20
7370.1182917305
 30
0.0
 11
5637.8998499639
 21
7347.1182898232
 31
0.0
  0
LINE
  5
27D
330
1F
100
AcDbEntity
  8
0
  6
Continuous
 62
     7
370
    25
100
AcDbLine
 10
5638.9996748693
 20
6870.1182917305
 30
0.0
 11
5677.7996760137
 21
6870.1182917305
 31
0.0
  0
LINE
  5
27E
330
1F
100
AcDbEntity
  8
0
  6
Continuous
 62
     7
370
    25
100
AcDbLine
 10
5677.7996760137
 20
6873.2182697006
 30
0.0
 11
5638.9996748693
 21
6873.2182697006
 31
0.0
  0
LINE
  5
27F
330
1F
100
AcDbEntity
  8
0
  6
Continuous
 62
     7
370
    25
100
AcDbLine
 10
5677.7996760137
 20
6870.1182917305
 30
0.0
 11
5677.7996760137
 21
6873.2182697006
 31
0.0
  0
LINE
  5
280
330
1F
100
AcDbEntity
  8
0
  6
Continuous
 62
     7
370
    25
100
AcDbLine
 10
5638.9996748693
 20
6873.2182697006
 30
0.0
 11
5638.9996748693
 21
6870.1182917305
 31
0.0
  0
LINE
  5
281
330
1F
100
AcDbEntity
  8
0
  6
Continuous
 62
     7
370
    25
100
AcDbLine
 10
5680.8998327977
 20
6873.2182697006
 30
0.0
 11
5680.8998327977
 21
7180.5168703743
 31
0.0
  0
LINE
  5
282
330
1F
100
AcDbEntity
  8
0
  6
Continuous
 62
     7
370
    25
100
AcDbLine
 10
5677.7996760137
 20
6873.2182697006
 30
0.0
 11
5680.8998327977
 21
6873.2182697006
 31
0.0
  0
LINE
  5
283
330
1F
100
AcDbEntity
  8
0
  6
Continuous
 62
     7
370
    25
100
AcDbLine
 10
5677.7996760137
 20
6873.2182697006
 30
0.0
 11
5677.7996760137
 21
7345.11828577
 31
0.0
  0
LINE
  5
284
330
1F
100
AcDbEntity
  8
0
  6
Continuous
 62
     7
370
    25
100
AcDbLine
 10
5680.8986407048
 20
7345.11828577
 30
0.0
 11
5677.7996760137
 21
7345.11828577
 31
0.0
  0
LINE
  5
285
330
1F
100
AcDbEntity
  8
0
  6
Continuous
 62
     7
370
    25
100
AcDbLine
 10
5638.9996748693
 20
7345.11828577
 30
0.0
 11
5638.9996748693
 21
6873.2182697006
 31
0.0
  0
LINE
  5
286
330
1F
100
AcDbEntity
  8
0
  6
Continuous
 62
     7
370
    25
100
AcDbLine
 10
5677.7996760137
 20
7345.11828577
 30
0.0
 11
5638.9996748693
 21
7345.11828577
 31
0.0
  0
LINE
  5
287
330
1F
100
AcDbEntity
  8
0
  6
Continuous
 62
     7
370
    25
100
AcDbLine
 10
5638.9996748693
 20
6873.2182697006
 30
0.0
 11
5635.8997565038
 21
6873.2182697006
 31
0.0
  0
LINE
  5
288
330
1F
100
AcDbEntity
  8
0
  6
Continuous
 62
     7
370
    25
100
AcDbLine
 10
5638.9996748693
 20
7345.11828577
 30
0.0
 11
5635.8997565038
 21
7345.11828577
 31
0.0
  0
LINE
  5
289
330
1F
100
AcDbEntity
  8
0
  6
Continuous
 62
     7
370
    25
100
AcDbLine
 10
5635.8997565038
 20
7345.11828577
 30
0.0
 11
5635.8997565038
 21
6873.2182697006
 31
0.0
  0
LINE
  5
28A
330
1F
100
AcDbEntity
  8
0
  6
Continuous
 62
     7
370
    25
100
AcDbLine
 10
5680.8998327977
 20
6873.2182697006
 30
0.0
 11
5680.8998327977
 21
6870.1182917305
 31
0.0
  0
LINE
  5
28B
330
1F
100
AcDbEntity
  8
0
  6
Continuous
 62
     7
370
    25
100
AcDbLine
 10
5678.8997393376
 20
6870.1182917305
 30
0.0
 11
5680.8998327977
 21
6870.1182917305
 31
0.0
  0
LINE
  5
28C
330
1F
100
AcDbEntity
  8
0
  6
Continuous
 62
     7
370
    25
100
AcDbLine
 10
5678.8997393376
 20
6873.2182697006
 30
0.0
 11
5678.8997393376
 21
6870.1182917305
 31
0.0
  0
LINE
  5
28D
330
1F
100
AcDbEntity
  8
0
  6
Continuous
 62
     7
370
    25
100
AcDbLine
 10
5635.8997565038
 20
6870.1182917305
 30
0.0
 11
5637.8998499639
 21
6870.1182917305
 31
0.0
  0
LINE
  5
28E
330
1F
100
AcDbEntity
  8
0
  6
Continuous
 62
     7
370
    25
100
AcDbLine
 10
5635.8997565038
 20
6873.2182697006
 30
0.0
 11
5635.8997565038
 21
6870.1182917305
 31
0.0
  0
LINE
  5
28F
330
1F
100
AcDbEntity
  8
0
  6
Continuous
 62
     7
370
    25
100
AcDbLine
 10
5637.8998499639
 20
6870.1182917305
 30
0.0
 11
5637.8998499639
 21
6873.2182697006
 31
0.0
  0
LINE
  5
290
330
1F
100
AcDbEntity
  8
0
  6
Continuous
 62
     7
370
    25
100
AcDbLine
 10
5635.8997565038
 20
7345.11828577
 30
0.0
 11
5635.8997565038
 21
7347.1182898232
 31
0.0
  0
LINE
  5
291
330
1F
100
AcDbEntity
  8
0
  6
Continuous
 62
     7
370
    25
100
AcDbLine
 10
5637.8998499639
 20
7345.209153051
 30
0.0
 11
5637.8998499639
 21
7345.11828577
 31
0.0
  0
LINE
  5
292
330
1F
100
AcDbEntity
  8
0
  6
Continuous
 62
     7
370
    25
100
AcDbLine
 10
5635.8997565038
 20
7777.8991625258
 30
0.0
 11
5637.8998499639
 21
7777.8991625258
 31
0.0
  0
LINE
  5
293
330
1F
100
AcDbEntity
  8
0
  6
Continuous
 62
     7
370
    25
100
AcDbLine
 10
5635.8997565038
 20
7370.1182917305
 30
0.0
 11
5635.8997565038
 21
7777.8991625258
 31
0.0
  0
LINE
  5
294
330
1F
100
AcDbEntity
  8
0
  6
Continuous
 62
     7
370
    25
100
AcDbLine
 10
5637.8998499639
 20
7777.8991625258
 30
0.0
 11
5637.8998499639
 21
7370.2091590115
 31
0.0
  0
LINE
  5
295
330
1F
100
AcDbEntity
  8
0
  6
Continuous
 62
     7
370
    25
100
AcDbLine
 10
5635.8997565038
 20
7781.0292333909
 30
0.0
 11
5637.8998499639
 21
7781.0292333909
 31
0.0
  0
LINE
  5
296
330
1F
100
AcDbEntity
  8
0
  6
Continuous
 62
     7
370
    25
100
AcDbLine
 10
5635.8997565038
 20
7777.8991625258
 30
0.0
 11
5635.8997565038
 21
7781.0292333909
 31
0.0
  0
LINE
  5
297
330
1F
100
AcDbEntity
  8
0
  6
Continuous
 62
     7
370
    25
100
AcDbLine
 10
5635.8997565038
 20
7790.2967013963
 30
0.0
 11
5637.8998499639
 21
7790.2967013963
 31
0.0
  0
LINE
  5
298
330
1F
100
AcDbEntity
  8
0
  6
Continuous
 62
     7
370
    25
100
AcDbLine
 10
5635.8997565038
 20
7781.0292333909
 30
0.0
 11
5635.8997565038
 21
7790.2967013963
 31
0.0
  0
LINE
  5
299
330
1F
100
AcDbEntity
  8
0
  6
Continuous
 62
     7
370
    25
100
AcDbLine
 10
5637.8998499639
 20
7790.2967013963
 30
0.0
 11
5637.8998499639
 21
7781.0292333909
 31
0.0
  0
LINE
  5
29A
330
1F
100
AcDbEntity
  8
0
  6
Continuous
 62
     7
370
    25
100
AcDbLine
 10
5635.8997565038
 20
7790.2967013963
 30
0.0
 11
5635.8997565038
 21
7790.3666288205
 31
0.0
  0
LINE
  5
29B
330
1F
100
AcDbEntity
  8
0
  6
Continuous
 62
     7
370
    25
100
AcDbLine
 10
5637.8998499639
 20
6870.1182917305
 30
0.0
 11
5638.9610510594
 21
6870.1182917305
 31
0.0
  0
LINE
  5
29C
330
1F
100
AcDbEntity
  8
0
  6
Continuous
 62
     7
370
    25
100
AcDbLine
 10
6885.8997565038
 20
7347.1182898232
 30
0.0
 11
6883.899782253
 21
7347.1182898232
 31
0.0
  0
LINE
  5
29D
330
1F
100
AcDbEntity
  8
0
  6
Continuous
 62
     7
370
    25
100
AcDbLine
 10
6883.899782253
 20
7370.1182917305
 30
0.0
 11
6883.899782253
 21
7347.1182898232
 31
0.0
  0
LINE
  5
29E
330
1F
100
AcDbEntity
  8
0
  6
Continuous
 62
     7
370
    25
100
AcDbLine
 10
6885.8997565038
 20
7370.1182917305
 30
0.0
 11
6883.899782253
 21
7370.1182917305
 31
0.0
  0
LINE
  5
29F
330
1F
100
AcDbEntity
  8
0
  6
Continuous
 62
     7
370
    25
100
AcDbLine
 10
6885.8997565038
 20
7370.1182917305
 30
0.0
 11
6885.8997565038
 21
7347.1182898232
 31
0.0
  0
LINE
  5
2A0
330
1F
100
AcDbEntity
  8
0
  6
Continuous
 62
     7
370
    25
100
AcDbLine
 10
6882.7998381383
 20
6873.2182697006
 30
0.0
 11
6882.7998381383
 21
7345.11828577
 31
0.0
  0
LINE
  5
2A1
330
1F
100
AcDbEntity
  8
0
  6
Continuous
 62
     7
370
    25
100
AcDbLine
 10
6885.8997565038
 20
7345.11828577
 30
0.0
 11
6882.7998381383
 21
7345.11828577
 31
0.0
  0
LINE
  5
2A2
330
1F
100
AcDbEntity
  8
0
  6
Continuous
 62
     7
370
    25
100
AcDbLine
 10
6882.7998381383
 20
6873.2182697006
 30
0.0
 11
6885.8997565038
 21
6873.2182697006
 31
0.0
  0
LINE
  5
2A3
330
1F
100
AcDbEntity
  8
0
  6
Continuous
 62
     7
370
    25
100
AcDbLine
 10
6885.8997565038
 20
6873.2182697006
 30
0.0
 11
6885.8997565038
 21
7345.11828577
 31
0.0
  0
LINE
  5
2A4
330
1F
100
AcDbEntity
  8
0
  6
Continuous
 62
     7
370
    25
100
AcDbLine
 10
6843.9998369939
 20
6870.1182917305
 30
0.0
 11
6882.7998381383
 21
6870.1182917305
 31
0.0
  0
LINE
  5
2A5
330
1F
100
AcDbEntity
  8
0
  6
Continuous
 62
     7
370
    25
100
AcDbLine
 10
6843.9998369939
 20
6873.2182697006
 30
0.0
 11
6843.9998369939
 21
6870.1182917305
 31
0.0
  0
LINE
  5
2A6
330
1F
100
AcDbEntity
  8
0
  6
Continuous
 62
     7
370
    25
100
AcDbLine
 10
6882.7998381383
 20
6873.2182697006
 30
0.0
 11
6843.9998369939
 21
6873.2182697006
 31
0.0
  0
LINE
  5
2A7
330
1F
100
AcDbEntity
  8
0
  6
Continuous
 62
     7
370
    25
100
AcDbLine
 10
6882.7998381383
 20
6870.1182917305
 30
0.0
 11
6882.7998381383
 21
6873.2182697006
 31
0.0
  0
LINE
  5
2A8
330
1F
100
AcDbEntity
  8
0
  6
Continuous
 62
     7
370
    25
100
AcDbLine
 10
6843.9998369939
 20
7345.11828577
 30
0.0
 11
6843.9998369939
 21
6873.2182697006
 31
0.0
  0
LINE
  5
2A9
330
1F
100
AcDbEntity
  8
0
  6
Continuous
 62
     7
370
    25
100
AcDbLine
 10
6882.7998381383
 20
7345.11828577
 30
0.0
 11
6843.9998369939
 21
7345.11828577
 31
0.0
  0
LINE
  5
2AA
330
1F
100
AcDbEntity
  8
0
  6
Continuous
 62
     7
370
    25
100
AcDbLine
 10
6840.8997994191
 20
7345.11828577
 30
0.0
 11
6840.8997994191
 21
7180.5208042809
 31
0.0
  0
LINE
  5
2AB
330
1F
100
AcDbEntity
  8
0
  6
Continuous
 62
     7
370
    25
100
AcDbLine
 10
6843.9998369939
 20
6873.2182697006
 30
0.0
 11
6840.9018259771
 21
6873.2182697006
 31
0.0
  0
LINE
  5
2AC
330
1F
100
AcDbEntity
  8
0
  6
Continuous
 62
     7
370
    25
100
AcDbLine
 10
6843.9998369939
 20
7345.11828577
 30
0.0
 11
6840.8997994191
 21
7345.11828577
 31
0.0
  0
LINE
  5
2AD
330
1F
100
AcDbEntity
  8
0
  6
Continuous
 62
     7
370
    25
100
AcDbLine
 10
6883.899782253
 20
6870.1182917305
 30
0.0
 11
6885.8997565038
 21
6870.1182917305
 31
0.0
  0
LINE
  5
2AE
330
1F
100
AcDbEntity
  8
0
  6
Continuous
 62
     7
370
    25
100
AcDbLine
 10
6883.899782253
 20
6873.2182697006
 30
0.0
 11
6883.899782253
 21
6870.1182917305
 31
0.0
  0
LINE
  5
2AF
330
1F
100
AcDbEntity
  8
0
  6
Continuous
 62
     7
370
    25
100
AcDbLine
 10
6885.8997565038
 20
6873.2182697006
 30
0.0
 11
6885.8997565038
 21
6870.1182917305
 31
0.0
  0
LINE
  5
2B0
330
1F
100
AcDbEntity
  8
0
  6
Continuous
 62
     7
370
    25
100
AcDbLine
 10
6842.8997736699
 20
6870.1182917305
 30
0.0
 11
6842.8997736699
 21
6873.2182697006
 31
0.0
  0
LINE
  5
2B1
330
1F
100
AcDbEntity
  8
0
  6
Continuous
 62
     7
370
    25
100
AcDbLine
 10
6840.8997994191
 20
6870.1182917305
 30
0.0
 11
6842.8997736699
 21
6870.1182917305
 31
0.0
  0
LINE
  5
2B2
330
1F
100
AcDbEntity
  8
0
  6
Continuous
 62
     7
370
    25
100
AcDbLine
 10
6840.8997994191
 20
6870.9173515984
 30
0.0
 11
6840.8997994191
 21
6870.1182917305
 31
0.0
  0
LINE
  5
2B3
330
1F
100
AcDbEntity
  8
0
  6
Continuous
 62
     7
370
    25
100
AcDbLine
 10
6883.899782253
 20
7345.2176467129
 30
0.0
 11
6883.899782253
 21
7345.11828577
 31
0.0
  0
LINE
  5
2B4
330
1F
100
AcDbEntity
  8
0
  6
Continuous
 62
     7
370
    25
100
AcDbLine
 10
6885.8997565038
 20
7347.1182898232
 30
0.0
 11
6885.8997565038
 21
7345.11828577
 31
0.0
  0
LINE
  5
2B5
330
1F
100
AcDbEntity
  8
0
  6
Continuous
 62
     7
370
    25
100
AcDbLine
 10
6885.8997565038
 20
7777.8991625258
 30
0.0
 11
6883.899782253
 21
7777.8991625258
 31
0.0
  0
LINE
  5
2B6
330
1F
100
AcDbEntity
  8
0
  6
Continuous
 62
     7
370
    25
100
AcDbLine
 10
6883.899782253
 20
7777.8991625258
 30
0.0
 11
6883.899782253
 21
7370.2176526733
 31
0.0
  0
LINE
  5
2B7
330
1F
100
AcDbEntity
  8
0
  6
Continuous
 62
     7
370
    25
100
AcDbLine
 10
6885.8997565038
 20
7777.8991625258
 30
0.0
 11
6885.8997565038
 21
7370.1182917305
 31
0.0
  0
LINE
  5
2B8
330
1F
100
AcDbEntity
  8
0
  6
Continuous
 62
     7
370
    25
100
AcDbLine
 10
6885.8997565038
 20
7781.0292333909
 30
0.0
 11
6883.899782253
 21
7781.0292333909
 31
0.0
  0
LINE
  5
2B9
330
1F
100
AcDbEntity
  8
0
  6
Continuous
 62
     7
370
    25
100
AcDbLine
 10
6885.8997565038
 20
7781.0292333909
 30
0.0
 11
6885.8997565038
 21
7777.8991625258
 31
0.0
  0
LINE
  5
2BA
330
1F
100
AcDbEntity
  8
0
  6
Continuous
 62
     7
370
    25
100
AcDbLine
 10
6885.8997565038
 20
7790.2967013963
 30
0.0
 11
6883.899782253
 21
7790.2967013963
 31
0.0
  0
LINE
  5
2BB
330
1F
100
AcDbEntity
  8
0
  6
Continuous
 62
     7
370
    25
100
AcDbLine
 10
6883.899782253
 20
7790.2967013963
 30
0.0
 11
6883.899782253
 21
7781.0292333909
 31
0.0
  0
LINE
  5
2BC
330
1F
100
AcDbEntity
  8
0
  6
Continuous
 62
     7
370
    25
100
AcDbLine
 10
6885.8997565038
 20
7790.2967013963
 30
0.0
 11
6885.8997565038
 21
7781.0292333909
 31
0.0
  0
LINE
  5
2BD
330
1F
100
AcDbEntity
  8
0
  6
Continuous
 62
     7
370
    25
100
AcDbLine
 10
6885.8997565038
 20
7790.3666288205
 30
0.0
 11
6885.8997565038
 21
7790.2967013963
 31
0.0
  0
LINE
  5
2BE
330
1F
100
AcDbEntity
  8
0
  6
Continuous
 62
     7
370
    25
100
AcDbLine
 10
6883.899782253
 20
6870.1182917305
 30
0.0
 11
6882.8384619481
 21
6870.1182917305
 31
0.0
  0
LINE
  5
2BF
330
1F
100
AcDbEntity
  8
0
  6
Continuous
 62
     7
370
    25
100
AcDbLine
 10
5637.8998499639
 20
7368.5591534325
 30
0.0
 11
6883.899782253
 21
7368.5676470943
 31
0.0
  0
LINE
  5
2C0
330
1F
100
AcDbEntity
  8
0
  6
Continuous
 62
     7
370
    25
100
AcDbLine
 10
5637.8998499639
 20
7370.2091590115
 30
0.0
 11
6883.899782253
 21
7370.2176526733
 31
0.0
  0
LINE
  5
2C1
330
1F
100
AcDbEntity
  8
0
  6
Continuous
 62
     7
370
    25
100
AcDbLine
 10
6883.899782253
 20
7370.1182917305
 30
0.0
 11
6883.899782253
 21
7370.2176526733
 31
0.0
  0
LINE
  5
2C2
330
1F
100
AcDbEntity
  8
0
  6
Continuous
 62
     7
370
    25
100
AcDbLine
 10
5637.8998499639
 20
7370.1182917305
 30
0.0
 11
5637.8998499639
 21
7370.2091590115
 31
0.0
  0
LINE
  5
2C3
330
1F
100
AcDbEntity
  8
0
  6
Continuous
 62
     7
370
    25
100
AcDbLine
 10
5637.8998499639
 20
7345.209153051
 30
0.0
 11
6883.899782253
 21
7345.2176467129
 31
0.0
  0
LINE
  5
2C4
330
1F
100
AcDbEntity
  8
0
  6
Continuous
 62
     7
370
    25
100
AcDbLine
 10
6883.899782253
 20
7345.2176467129
 30
0.0
 11
6883.899782253
 21
7347.1182898232
 31
0.0
  0
LINE
  5
2C5
330
1F
100
AcDbEntity
  8
0
  6
Continuous
 62
     7
370
    25
100
AcDbLine
 10
5637.8998499639
 20
7345.209153051
 30
0.0
 11
5637.8998499639
 21
7347.1182898232
 31
0.0
  0
LINE
  5
2C6
330
1F
100
AcDbEntity
  8
0
  6
Continuous
 62
     7
370
    25
100
AcDbLine
 10
5680.9000712163
 20
7151.4657453247
 30
0.0
 11
5680.8998327977
 21
7151.4657453247
 31
0.0
  0
LINE
  5
2C7
330
1F
100
AcDbEntity
  8
0
  6
Continuous
 62
     7
370
    25
100
AcDbLine
 10
5637.8998499639
 20
7779.1543264487
 30
0.0
 11
6883.899782253
 21
7779.1543264487
 31
0.0
  0
LINE
  5
2C8
330
1F
100
AcDbEntity
  8
0
  6
Continuous
 62
     7
370
    25
100
AcDbLine
 10
5637.8998499639
 20
7780.7682693549
 30
0.0
 11
6883.899782253
 21
7780.7682693549
 31
0.0
  0
LINE
  5
2C9
330
1F
100
AcDbEntity
  8
0
  6
Continuous
 62
     7
370
    25
100
AcDbLine
 10
6883.899782253
 20
7779.1543264487
 30
0.0
 11
6883.899782253
 21
7780.7682693549
 31
0.0
  0
LINE
  5
2CA
330
1F
100
AcDbEntity
  8
0
  6
Continuous
 62
     7
370
    25
100
AcDbLine
 10
5637.8998499639
 20
7779.1543264487
 30
0.0
 11
5637.8998499639
 21
7780.7682693549
 31
0.0
  0
LINE
  5
2CB
330
1F
100
AcDbEntity
  8
0
  6
Continuous
 62
     7
370
    25
100
AcDbLine
 10
6883.899782253
 20
7370.2176526733
 30
0.0
 11
6883.899782253
 21
7779.1543264487
 31
0.0
  0
LINE
  5
2CC
330
1F
100
AcDbEntity
  8
0
  6
Continuous
 62
     7
370
    25
100
AcDbLine
 10
5637.8998499639
 20
7370.2091590115
 30
0.0
 11
5637.8998499639
 21
7779.1543264487
 31
0.0
  0
LINE
  5
2CD
330
1F
100
AcDbEntity
  8
0
  6
Continuous
 62
     7
370
    25
100
AcDbLine
 10
5637.8998499639
 20
7790.6952813812
 30
0.0
 11
6883.899782253
 21
7790.6952813812
 31
0.0
  0
LINE
  5
2CE
330
1F
100
AcDbEntity
  8
0
  6
Continuous
 62
     7
370
    25
100
AcDbLine
 10
6883.899782253
 20
7780.7682693549
 30
0.0
 11
6883.899782253
 21
7790.6952813812
 31
0.0
  0
LINE
  5
2CF
330
1F
100
AcDbEntity
  8
0
  6
Continuous
 62
     7
370
    25
100
AcDbLine
 10
5637.8998499639
 20
7780.7682693549
 30
0.0
 11
5637.8998499639
 21
7790.6952813812
 31
0.0
  0
LINE
  5
2D0
330
1F
100
AcDbEntity
  8
0
  6
Continuous
 62
     7
370
    25
100
AcDbLine
 10
6883.899782253
 20
7790.6952813812
 30
0.0
 11
6883.899782253
 21
7790.7313347407
 31
0.0
  0
LINE
  5
2D1
330
1F
100
AcDbEntity
  8
0
  6
Continuous
 62
     7
370
    25
100
AcDbLine
 10
5637.8998499639
 20
7790.6952813812
 30
0.0
 11
5637.8998499639
 21
7790.7313347407
 31
0.0
  0
LINE
  5
2D2
330
1F
100
AcDbEntity
  8
0
  6
Continuous
 62
     8
370
    25
100
AcDbLine
 10
6843.9998369939
 20
6871.6596678444
 30
0.0
 11
6842.8997736699
 21
6871.6596678444
 31
0.0
  0
LINE
  5
2D3
330
1F
100
AcDbEntity
  8
0
  6
Continuous
 62
     8
370
    25
100
AcDbLine
 10
5680.9019785649
 20
6871.6596678444
 30
0.0
 11
5680.8998327977
 21
6871.6596678444
 31
0.0
  0
LINE
  5
2D4
330
1F
100
AcDbEntity
  8
0
  6
Continuous
 62
     8
370
    25
100
AcDbLine
 10
5678.8997393376
 20
6871.6596678444
 30
0.0
 11
5677.7996760137
 21
6871.6596678444
 31
0.0
  0
LINE
  5
2D5
330
1F
100
AcDbEntity
  8
0
  6
Continuous
 62
     8
370
    25
100
AcDbLine
 10
6839.6519165761
 20
6871.2673500725
 30
0.0
 11
6839.6486979253
 21
7345.2173486897
 31
0.0
  0
LINE
  5
2D6
330
1F
100
AcDbEntity
  8
0
  6
Continuous
 62
     8
370
    25
100
AcDbLine
 10
5682.1486693151
 20
7345.2094510742
 30
0.0
 11
5682.1520071752
 21
6871.2594822594
 31
0.0
  0
LINE
  5
2D7
330
1F
100
AcDbEntity
  8
0
  6
Continuous
 62
     8
370
    25
100
AcDbLine
 10
6840.8990841634
 20
7289.8461238094
 30
0.0
 11
6840.8997994191
 21
7289.8461238094
 31
0.0
  0
LINE
  5
2D8
330
1F
100
AcDbEntity
  8
0
  6
Continuous
 62
     8
370
    25
100
AcDbLine
 10
6840.8997994191
 20
7288.6005059429
 30
0.0
 11
6840.8990841634
 21
7288.6005059429
 31
0.0
  0
LINE
  5
2D9
330
1F
100
AcDbEntity
  8
0
  6
Continuous
 62
     8
370
    25
100
AcDbLine
 10
5680.8998327977
 20
7151.870580072
 30
0.0
 11
5680.9000712163
 21
7151.870580072
 31
0.0
  0
LINE
  5
2DA
330
1F
100
AcDbEntity
  8
0
  6
Continuous
 62
     7
370
    25
100
AcDbLine
 10
7661.1717416051
 20
6867.9934457489
 30
0.0
 11
7662.7822293046
 21
6868.8096717545
 31
0.0
  0
LINE
  5
2DB
330
1F
100
AcDbEntity
  8
0
  6
Continuous
 62
     7
370
    25
100
AcDbLine
 10
7653.0822290185
 20
6868.8096717545
 30
0.0
 11
7654.7033859494
 21
6868.0146650024
 31
0.0
  0
LINE
  5
2DC
330
1F
100
AcDbEntity
  8
0
  6
Continuous
 62
     7
370
    25
100
AcDbLine
 10
7431.1717448833
 20
6867.9934457489
 30
0.0
 11
7432.7822251323
 21
6868.8096717545
 31
0.0
  0
LINE
  5
2DD
330
1F
100
AcDbEntity
  8
0
  6
Continuous
 62
     7
370
    25
100
AcDbLine
 10
7423.0822248462
 20
6868.8096717545
 30
0.0
 11
7424.7033966783
 21
6868.0146650024
 31
0.0
  0
LINE
  5
2DE
330
1F
100
AcDbEntity
  8
0
  6
Continuous
 62
     7
370
    25
100
AcDbLine
 10
7480.7440860274
 20
7669.0611109682
 30
0.0
 11
7480.785555959
 21
7668.9063698598
 31
0.0
  0
LINE
  5
2DF
330
1F
100
AcDbEntity
  8
0
  6
Continuous
 62
     7
370
    25
100
AcDbLine
 10
7498.6551774743
 20
7673.6945301839
 30
0.0
 11
7498.6137224439
 21
7673.8492787429
 31
0.0
  0
LINE
  5
2E0
330
1F
100
AcDbEntity
  8
0
  6
Continuous
 62
     7
370
    25
100
AcDbLine
 10
7286.1355131569
 20
7067.5486639687
 30
0.0
 11
7276.258759022
 21
7067.5486639687
 31
0.0
  0
LINE
  5
2E1
330
1F
100
AcDbEntity
  8
0
  6
Continuous
 62
     7
370
    25
100
AcDbLine
 10
7276.258759022
 20
7027.548642511
 30
0.0
 11
7286.1355131569
 21
7027.548642511
 31
0.0
  0
LINE
  5
2E2
330
1F
100
AcDbEntity
  8
0
  6
Continuous
 62
     7
370
    25
100
AcDbLine
 10
7338.6355138461
 20
7710.2113567837
 30
0.0
 11
7336.135513902
 21
7710.2113567837
 31
0.0
  0
LINE
  5
2E3
330
1F
100
AcDbEntity
  8
0
  6
Continuous
 62
     7
370
    25
100
AcDbLine
 10
7336.135513902
 20
7650.2113581248
 30
0.0
 11
7338.6355138461
 21
7650.2113581248
 31
0.0
  0
LINE
  5
2E4
330
1F
100
AcDbEntity
  8
0
  6
Continuous
 62
     7
370
    25
100
AcDbLine
 10
7338.6355138461
 20
7650.2113581248
 30
0.0
 11
7339.1355139281
 21
7650.7113591381
 31
0.0
  0
LINE
  5
2E5
330
1F
100
AcDbEntity
  8
0
  6
Continuous
 62
     7
370
    25
100
AcDbLine
 10
7339.1355139281
 20
7709.7113557704
 30
0.0
 11
7338.6355138461
 21
7710.2113567837
 31
0.0
  0
LINE
  5
2E6
330
1F
100
AcDbEntity
  8
0
  6
Continuous
 62
     7
370
    25
100
AcDbLine
 10
7347.7870429012
 20
7666.2113532969
 30
0.0
 11
7347.7888058948
 21
7666.2113532969
 31
0.0
  0
LINE
  5
2E7
330
1F
100
AcDbEntity
  8
0
  6
Continuous
 62
     7
370
    25
100
AcDbLine
 10
7347.7888058948
 20
7666.2113532969
 30
0.0
 11
7470.135621548
 21
7666.2113532969
 31
0.0
  0
LINE
  5
2E8
330
1F
100
AcDbEntity
  8
0
  6
Continuous
 62
     7
370
    25
100
AcDbLine
 10
7339.1355139281
 20
7666.2113532969
 30
0.0
 11
7344.5045722726
 21
7666.2113532969
 31
0.0
  0
LINE
  5
2E9
330
1F
100
AcDbEntity
  8
0
  6
Continuous
 62
     7
370
    25
100
AcDbLine
 10
7504.135511637
 20
7694.2113578864
 30
0.0
 11
7339.1355139281
 21
7694.2113578864
 31
0.0
  0
LINE
  5
2EA
330
1F
100
AcDbEntity
  8
0
  6
Continuous
 62
     7
370
    25
100
AcDbLine
 10
7505.1355136636
 20
7693.2113558599
 30
0.0
 11
7504.135511637
 21
7694.2113578864
 31
0.0
  0
LINE
  5
2EB
330
1F
100
AcDbEntity
  8
0
  6
Continuous
 62
     7
370
    25
100
AcDbLine
 10
7661.1415816548
 20
6868.0097178169
 30
0.0
 11
7661.2280381921
 21
6868.0097178169
 31
0.0
  0
SPLINE
  5
2EC
330
1F
100
AcDbEntity
  8
0
  6
Continuous
 62
     7
370
    25
100
AcDbSpline
210
0.0
220
0.0
230
1.0
 70
     8
 71
     3
 72
    11
 73
     7
 74
     0
 42
0.000000001
 43
0.00000001
 40
0.0
 40
0.0
 40
0.0
 40
0.0
 40
0.340857060640406
 40
0.5162979083684595
 40
0.7536642253510563
 40
1.0
 40
1.0
 40
1.0
 40
1.0
 10
7654.722876668266
 20
6868.009717816929
 30
0.0
 10
7655.426091306022
 20
6867.710270596393
 30
0.0
 10
7656.491254063471
 20
6867.256696381622
 30
0.0
 10
7658.185868791362
 20
6866.915723186985
 30
0.0
 10
7659.634589745196
 20
6867.38794971175
 30
0.0
 10
7660.633079237911
 20
6867.799915373912
 30
0.0
 10
7661.141581654838
 20
6868.009717816929
 30
0.0
  0
LINE
  5
2ED
330
1F
100
AcDbEntity
  8
0
  6
Continuous
 62
     7
370
    25
100
AcDbLine
 10
7654.7228766683
 20
6868.0097178169
 30
0.0
 11
7654.636420131
 21
6868.0097178169
 31
0.0
  0
LINE
  5
2EE
330
1F
100
AcDbEntity
  8
0
  6
Continuous
 62
     7
370
    25
100
AcDbLine
 10
7431.1415700319
 20
6868.0097178169
 30
0.0
 11
7431.2280414703
 21
6868.0097178169
 31
0.0
  0
SPLINE
  5
2EF
330
1F
100
AcDbEntity
  8
0
  6
Continuous
 62
     7
370
    25
100
AcDbSpline
210
0.0
220
0.0
230
1.0
 70
     8
 71
     3
 72
    11
 73
     7
 74
     0
 42
0.000000001
 43
0.00000001
 40
0.0
 40
0.0
 40
0.0
 40
0.0
 40
0.3408573662316739
 40
0.516300558511468
 40
0.7536670883019604
 40
1.0
 40
1.0
 40
1.0
 40
1.0
 10
7424.72287249594
 20
6868.009717816929
 30
0.0
 10
7425.426087122414
 20
6867.710270179556
 30
0.0
 10
7426.491254375261
 20
6867.256693411858
 30
0.0
 10
7428.185874701655
 20
6866.915723854624
 30
0.0
 10
7429.634594549708
 20
6867.387944862277
 30
0.0
 10
7430.633075227869
 20
6867.799914591544
 30
0.0
 10
7431.141570031932
 20
6868.009717816929
 30
0.0
  0
LINE
  5
2F0
330
1F
100
AcDbEntity
  8
0
  6
Continuous
 62
     7
370
    25
100
AcDbLine
 10
7424.7228724959
 20
6868.0097178169
 30
0.0
 11
7424.6364085081
 21
6868.0097178169
 31
0.0
  0
LWPOLYLINE
  5
2F1
330
1F
100
AcDbEntity
  8
0
  6
Continuous
 62
     7
370
    25
100
AcDbPolyline
 90
        9
 70
   128
 43
0.0
 10
7498.5363258126
 20
7673.6658007451
 10
7498.5881371501
 20
7673.678913767
 10
7498.6252708438
 20
7673.6880779811
 10
7498.6476225856
 20
7673.6932859369
 10
7498.6551774743
 20
7673.6945301839
 10
7498.6479206088
 20
7673.6918032714
 10
7498.6258668902
 20
7673.68511265
 10
7498.5890461209
 20
7673.6744657703
 10
7498.5375179055
 20
7673.6598849841
  0
LINE
  5
2F2
330
1F
100
AcDbEntity
  8
0
  6
Continuous
 62
     7
370
    25
100
AcDbLine
 10
7498.4954668286
 20
7673.8182396241
 30
0.0
 11
7498.5363258126
 21
7673.6658007451
 31
0.0
  0
LINE
  5
2F3
330
1F
100
AcDbEntity
  8
0
  6
Continuous
 62
     7
370
    25
100
AcDbLine
 10
7496.9367755654
 20
7673.4060660549
 30
0.0
 11
7496.9769639972
 21
7673.2560635158
 31
0.0
  0
LWPOLYLINE
  5
2F4
330
1F
100
AcDbEntity
  8
0
  6
Continuous
 62
     7
370
    25
100
AcDbPolyline
 90
        9
 70
   128
 43
0.0
 10
7494.9270857575
 20
7672.7112025567
 10
7495.2183438542
 20
7672.7887780019
 10
7495.5004973414
 20
7672.8638873049
 10
7495.773069382
 20
7672.9364038058
 10
7496.0356129411
 20
7673.0062082954
 10
7496.2876809838
 20
7673.073189015
 10
7496.5288562778
 20
7673.1372267552
 10
7496.7587513927
 20
7673.198217208
 10
7496.9769639972
 20
7673.2560635158
  0
LINE
  5
2F5
330
1F
100
AcDbEntity
  8
0
  6
Continuous
 62
     7
370
    25
100
AcDbLine
 10
7494.8870165351
 20
7672.8607133575
 30
0.0
 11
7494.9270857575
 21
7672.7112025567
 31
0.0
  0
LINE
  5
2F6
330
1F
100
AcDbEntity
  8
0
  6
Continuous
 62
     7
370
    25
100
AcDbLine
 10
7491.1256058219
 20
7671.8559355088
 30
0.0
 11
7491.1656005385
 21
7671.7066705771
 31
0.0
  0
LWPOLYLINE
  5
2F7
330
1F
100
AcDbEntity
  8
0
  6
Continuous
 62
     7
370
    25
100
AcDbPolyline
 90
        9
 70
   128
 43
0.0
 10
7488.2678164247
 20
7670.9302083202
 10
7488.6279178861
 20
7671.0268050977
 10
7488.989822388
 20
7671.1238563605
 10
7489.352933884
 20
7671.2212056466
 10
7489.7166563275
 20
7671.3186815926
 10
7490.0803936723
 20
7671.4161277362
 10
7490.4435200694
 20
7671.5133801647
 10
7490.8054543736
 20
7671.610282416
 10
7491.1656005385
 20
7671.7066705771
  0
LINE
  5
2F8
330
1F
100
AcDbEntity
  8
0
  6
Continuous
 62
     7
370
    25
100
AcDbLine
 10
7488.227821708
 20
7671.0794732519
 30
0.0
 11
7488.2678164247
 21
7670.9302083202
 31
0.0
  0
LINE
  5
2F9
330
1F
100
AcDbEntity
  8
0
  6
Continuous
 62
     7
370
    25
100
AcDbLine
 10
7484.4675732854
 20
7670.0688243457
 30
0.0
 11
7484.5076276067
 21
7669.9193135448
 31
0.0
  0
LWPOLYLINE
  5
2FA
330
1F
100
AcDbEntity
  8
0
  6
Continuous
 62
     7
370
    25
100
AcDbPolyline
 90
        9
 70
   128
 43
0.0
 10
7482.4594480994
 20
7669.3661004849
 10
7482.6774222854
 20
7669.425131435
 10
7482.9070789817
 20
7669.4872767278
 10
7483.1480307582
 20
7669.5524246045
 10
7483.3998752835
 20
7669.6204707571
 10
7483.6622102263
 20
7669.6913034268
 10
7483.9345736506
 20
7669.7648034044
 10
7484.2165334228
 20
7669.8408514806
 10
7484.5076276067
 20
7669.9193135448
  0
LINE
  5
2FB
330
1F
100
AcDbEntity
  8
0
  6
Continuous
 62
     7
370
    25
100
AcDbLine
 10
7482.4192447665
 20
7669.5161030241
 30
0.0
 11
7482.4594480994
 21
7669.3661004849
 31
0.0
  0
LINE
  5
2FC
330
1F
100
AcDbEntity
  8
0
  6
Continuous
 62
     7
370
    25
100
AcDbLine
 10
7480.862371445
 20
7669.0934539386
 30
0.0
 11
7480.9032155278
 21
7668.9410150596
 31
0.0
  0
LWPOLYLINE
  5
2FD
330
1F
100
AcDbEntity
  8
0
  6
Continuous
 62
     7
370
    25
100
AcDbPolyline
 90
        9
 70
   128
 43
0.0
 10
7480.9044225219
 20
7668.9351067492
 10
7480.8525962832
 20
7668.9219937273
 10
7480.8154774907
 20
7668.9128220626
 10
7480.7931108478
 20
7668.9076141068
 10
7480.785555959
 20
7668.9063698598
 10
7480.7928128245
 20
7668.9090967723
 10
7480.8148665431
 20
7668.9157948442
 10
7480.8516873124
 20
7668.9264342733
 10
7480.9032155278
 20
7668.9410150596
  0
LINE
  5
2FE
330
1F
100
AcDbEntity
  8
0
  6
Continuous
 62
     7
370
    25
100
AcDbLine
 10
7482.4179781678
 20
7669.5157602974
 30
0.0
 11
7482.4637694362
 21
7669.3448439785
 31
0.0
  0
LWPOLYLINE
  5
2FF
330
1F
100
AcDbEntity
  8
0
  6
Continuous
 62
     7
370
    25
100
AcDbPolyline
 90
        9
 70
   128
 43
0.0
 10
7484.513662577
 20
7669.889697487
 10
7484.2223895791
 20
7669.8121220418
 10
7483.9402360919
 20
7669.7370127388
 10
7483.6676640513
 20
7669.6644962379
 10
7483.4051204923
 20
7669.5946917482
 10
7483.1530524495
 20
7669.5277184793
 10
7482.9118771556
 20
7669.463680739
 10
7482.6819820407
 20
7669.4026902863
 10
7482.4637694362
 20
7669.3448439785
  0
LINE
  5
300
330
1F
100
AcDbEntity
  8
0
  6
Continuous
 62
     7
370
    25
100
AcDbLine
 10
7488.2256610396
 20
7671.0788995572
 30
0.0
 11
7488.2751328948
 21
7670.8942369171
 31
0.0
  0
LWPOLYLINE
  5
301
330
1F
100
AcDbEntity
  8
0
  6
Continuous
 62
     7
370
    25
100
AcDbPolyline
 90
        9
 70
   128
 43
0.0
 10
7496.9813002351
 20
7673.2348070093
 10
7496.763311148
 20
7673.1757686087
 10
7496.5336544517
 20
7673.1136307665
 10
7496.2927026752
 20
7673.0484828898
 10
7496.0408581498
 20
7672.9804292866
 10
7495.778523207
 20
7672.9095966168
 10
7495.5061597827
 20
7672.8360966393
 10
7495.2242000106
 20
7672.7600560137
 10
7494.9331058267
 20
7672.6815864988
  0
LINE
  5
302
330
1F
100
AcDbEntity
  8
0
  6
Continuous
 62
     7
370
    25
100
AcDbLine
 10
7496.9756973985
 20
7673.2557207891
 30
0.0
 11
7496.9813002351
 21
7673.2348070093
 31
0.0
  0
LINE
  5
303
330
1F
100
AcDbEntity
  8
0
  6
Continuous
 62
     7
370
    25
100
AcDbLine
 10
7488.2678164247
 20
7670.9302083202
 30
0.0
 11
7488.2680250409
 21
7670.9292099424
 31
0.0
  0
LINE
  5
304
330
1F
100
AcDbEntity
  8
0
  6
Continuous
 62
     7
370
    25
100
AcDbLine
 10
7491.1656005385
 20
7671.7066705771
 30
0.0
 11
7491.1657942536
 21
7671.7056647488
 31
0.0
  0
LWPOLYLINE
  5
305
330
1F
100
AcDbEntity
  8
0
  6
Continuous
 62
     7
370
    25
100
AcDbPolyline
 90
        9
 70
   128
 43
0.0
 10
7488.2680250409
 20
7670.9292099424
 10
7488.6278582814
 20
7671.0257471152
 10
7488.989732981
 20
7671.1227909275
 10
7489.3529487851
 20
7671.2201700159
 10
7489.7168649438
 20
7671.3176981159
 10
7490.0807662013
 20
7671.415188963
 10
7490.4440118077
 20
7671.5124711939
 10
7490.8059163096
 20
7671.6093510934
 10
7491.1657942536
 20
7671.7056647488
  0
LINE
  5
306
330
1F
100
AcDbEntity
  8
0
  6
Continuous
 62
     7
370
    25
100
AcDbLine
 10
7488.2277621034
 20
7671.0794583508
 30
0.0
 11
7488.2680250409
 21
7670.9292099424
 31
0.0
  0
LINE
  5
307
330
1F
100
AcDbEntity
  8
0
  6
Continuous
 62
     7
370
    25
100
AcDbLine
 10
7484.8541243079
 20
7670.0114176222
 30
0.0
 11
7484.5076276067
 21
7669.9193135448
 31
0.0
  0
LWPOLYLINE
  5
308
330
1F
100
AcDbEntity
  8
0
  6
Continuous
 62
     7
370
    25
100
AcDbPolyline
 90
        9
 70
   128
 43
0.0
 10
7482.8059448007
 20
7669.4581971117
 10
7483.0216242078
 20
7669.5166245647
 10
7483.2497460845
 20
7669.578352625
 10
7483.489863396
 20
7669.6432844349
 10
7483.7415291074
 20
7669.7112784334
 10
7484.0042812827
 20
7669.7822303124
 10
7484.2776430848
 20
7669.8559910604
 10
7484.5611078742
 20
7669.9324340173
 10
7484.8541243079
 20
7670.0114176222
  0
LINE
  5
309
330
1F
100
AcDbEntity
  8
0
  6
Continuous
 62
     7
370
    25
100
AcDbLine
 10
7482.8059448007
 20
7669.4581971117
 30
0.0
 11
7482.4594480994
 21
7669.3661004849
 31
0.0
  0
LINE
  5
30A
330
1F
100
AcDbEntity
  8
0
  6
Continuous
 62
     7
370
    25
100
AcDbLine
 10
7484.8137719634
 20
7670.1620534607
 30
0.0
 11
7484.8541243079
 21
7670.0114176222
 31
0.0
  0
LWPOLYLINE
  5
30B
330
1F
100
AcDbEntity
  8
0
  6
Continuous
 62
     7
370
    25
100
AcDbPolyline
 90
        9
 70
   128
 43
0.0
 10
7494.5808721784
 20
7672.6176903196
 10
7494.874067426
 20
7672.695794756
 10
7495.1577259305
 20
7672.7713063904
 10
7495.4312814477
 20
7672.8440836617
 10
7495.6942422393
 20
7672.9140073606
 10
7495.9461314681
 20
7672.9809359261
 10
7496.186472297
 20
7673.0447426983
 10
7496.4148325923
 20
7673.1053233691
 10
7496.6307653192
 20
7673.1625512787
  0
LINE
  5
30C
330
1F
100
AcDbEntity
  8
0
  6
Continuous
 62
     7
370
    25
100
AcDbLine
 10
7494.5808721784
 20
7672.6176903196
 30
0.0
 11
7494.9270857575
 21
7672.7112025567
 31
0.0
  0
LINE
  5
30D
330
1F
100
AcDbEntity
  8
0
  6
Continuous
 62
     7
370
    25
100
AcDbLine
 10
7496.6307653192
 20
7673.1625512787
 30
0.0
 11
7496.9769639972
 21
7673.2560635158
 31
0.0
  0
LINE
  5
30E
330
1F
100
AcDbEntity
  8
0
  6
Continuous
 62
     7
370
    25
100
AcDbLine
 10
7494.5405049327
 20
7672.7683261581
 30
0.0
 11
7494.5808721784
 21
7672.6176903196
 31
0.0
  0
LINE
  5
30F
330
1F
100
AcDbEntity
  8
0
  6
Continuous
 62
     7
370
    25
100
AcDbLine
 10
7480.9032155278
 20
7668.9410150596
 30
0.0
 11
7481.3930315974
 21
7669.0722644874
 31
0.0
  0
LWPOLYLINE
  5
310
330
1F
100
AcDbEntity
  8
0
  6
Continuous
 62
     7
370
    25
100
AcDbPolyline
 90
        9
 70
   128
 43
0.0
 10
7481.3942385915
 20
7669.0663487264
 10
7481.3394172195
 20
7669.0524384924
 10
7481.3001526597
 20
7669.042693133
 10
7481.2765045169
 20
7669.0371424504
 10
7481.2685174945
 20
7669.0357864448
 10
7481.2762064937
 20
7669.038625116
 10
7481.2995566133
 20
7669.0456659146
 10
7481.3385231498
 20
7669.056886489
 10
7481.3930315974
 20
7669.0722644874
  0
LINE
  5
311
330
1F
100
AcDbEntity
  8
0
  6
Continuous
 62
     7
370
    25
100
AcDbLine
 10
7480.9044225219
 20
7668.9351067492
 30
0.0
 11
7481.3942385915
 21
7669.0663487264
 31
0.0
  0
LINE
  5
312
330
1F
100
AcDbEntity
  8
0
  6
Continuous
 62
     7
370
    25
100
AcDbLine
 10
7481.3516361716
 20
7669.2267299243
 30
0.0
 11
7481.3930315974
 21
7669.0722644874
 31
0.0
  0
LINE
  5
313
330
1F
100
AcDbEntity
  8
0
  6
Continuous
 62
     7
370
    25
100
AcDbLine
 10
7481.3512934449
 20
7669.2266405173
 30
0.0
 11
7481.3942385915
 21
7669.0663487264
 31
0.0
  0
LINE
  5
314
330
1F
100
AcDbEntity
  8
0
  6
Continuous
 62
     7
370
    25
100
AcDbLine
 10
7498.0051143172
 20
7673.6890242048
 30
0.0
 11
7498.0464948419
 21
7673.5345513173
 31
0.0
  0
LINE
  5
315
330
1F
100
AcDbEntity
  8
0
  6
Continuous
 62
     7
370
    25
100
AcDbLine
 10
7498.5363258126
 20
7673.6658007451
 30
0.0
 11
7498.0464948419
 21
7673.5345513173
 31
0.0
  0
LINE
  5
316
330
1F
100
AcDbEntity
  8
0
  6
Continuous
 62
     7
370
    25
100
AcDbLine
 10
7498.5375179055
 20
7673.6598849841
 30
0.0
 11
7498.0477018359
 21
7673.5286430069
 31
0.0
  0
LWPOLYLINE
  5
317
330
1F
100
AcDbEntity
  8
0
  6
Continuous
 62
     7
370
    25
100
AcDbPolyline
 90
        9
 70
   128
 43
0.0
 10
7498.0464948419
 20
7673.5345513173
 10
7498.1013162139
 20
7673.5484615513
 10
7498.1405807736
 20
7673.5582069107
 10
7498.1642289165
 20
7673.5637650438
 10
7498.1722159389
 20
7673.5651210495
 10
7498.1645269397
 20
7673.5622823783
 10
7498.1411768201
 20
7673.5552415796
 10
7498.1022102836
 20
7673.5440210053
 10
7498.0477018359
 20
7673.5286430069
  0
LINE
  5
318
330
1F
100
AcDbEntity
  8
0
  6
Continuous
 62
     7
370
    25
100
AcDbLine
 10
7498.0047566894
 20
7673.6889273473
 30
0.0
 11
7498.0477018359
 21
7673.5286430069
 31
0.0
  0
LINE
  5
319
330
1F
100
AcDbEntity
  8
0
  6
Continuous
 62
     7
370
    25
100
AcDbLine
 10
7482.8047527078
 20
7669.4578767367
 30
0.0
 11
7482.8099830153
 21
7669.4383562156
 31
0.0
  0
LINE
  5
31A
330
1F
100
AcDbEntity
  8
0
  6
Continuous
 62
     7
370
    25
100
AcDbLine
 10
7482.8099830153
 20
7669.4383562156
 30
0.0
 11
7482.4637694362
 21
7669.3448439785
 31
0.0
  0
LWPOLYLINE
  5
31B
330
1F
100
AcDbEntity
  8
0
  6
Continuous
 62
     7
370
    25
100
AcDbPolyline
 90
        9
 70
   128
 43
0.0
 10
7484.859861255
 20
7669.983209724
 10
7484.5666660073
 20
7669.9051127382
 10
7484.283022404
 20
7669.8296011039
 10
7484.0094519856
 20
7669.756816382
 10
7483.7464911941
 20
7669.6869001337
 10
7483.4946019652
 20
7669.6199715682
 10
7483.2542611363
 20
7669.5561573454
 10
7483.0259157422
 20
7669.4955841251
 10
7482.8099830153
 20
7669.4383562156
  0
LINE
  5
31C
330
1F
100
AcDbEntity
  8
0
  6
Continuous
 62
     7
370
    25
100
AcDbLine
 10
7484.859861255
 20
7669.983209724
 30
0.0
 11
7484.513662577
 21
7669.889697487
 31
0.0
  0
LINE
  5
31D
330
1F
100
AcDbEntity
  8
0
  6
Continuous
 62
     7
370
    25
100
AcDbLine
 10
7484.812073231
 20
7670.1615915247
 30
0.0
 11
7484.859861255
 21
7669.983209724
 31
0.0
  0
LINE
  5
31E
330
1F
100
AcDbEntity
  8
0
  6
Continuous
 62
     7
370
    25
100
AcDbLine
 10
7494.5388062003
 20
7672.7678716727
 30
0.0
 11
7494.5866091254
 21
7672.5894898721
 31
0.0
  0
LINE
  5
31F
330
1F
100
AcDbEntity
  8
0
  6
Continuous
 62
     7
370
    25
100
AcDbLine
 10
7496.6295583251
 20
7673.1622309037
 30
0.0
 11
7496.6347886327
 21
7673.1427103826
 31
0.0
  0
LWPOLYLINE
  5
320
330
1F
100
AcDbEntity
  8
0
  6
Continuous
 62
     7
370
    25
100
AcDbPolyline
 90
        9
 70
   128
 43
0.0
 10
7496.6347886327
 20
7673.1427103826
 10
7496.4191092256
 20
7673.0842829295
 10
7496.1909873488
 20
7673.0225474187
 10
7495.9508849385
 20
7672.9576230594
 10
7495.699204326
 20
7672.8896216103
 10
7495.4364521506
 20
7672.8186771818
 10
7495.1630903485
 20
7672.7449089833
 10
7494.8796404603
 20
7672.6684660264
 10
7494.5866091254
 20
7672.5894898721
  0
LINE
  5
321
330
1F
100
AcDbEntity
  8
0
  6
Continuous
 62
     7
370
    25
100
AcDbLine
 10
7494.5866091254
 20
7672.5894898721
 30
0.0
 11
7494.9331058267
 21
7672.6815864988
 31
0.0
  0
LINE
  5
322
330
1F
100
AcDbEntity
  8
0
  6
Continuous
 62
     7
370
    25
100
AcDbLine
 10
7496.6347886327
 20
7673.1427103826
 30
0.0
 11
7496.9813002351
 21
7673.2348070093
 31
0.0
  0
LWPOLYLINE
  5
323
330
1F
100
AcDbEntity
  8
0
  6
Continuous
 62
     7
370
    25
100
AcDbPolyline
 90
        9
 70
   128
 43
0.0
 10
7491.1727083924
 20
7671.6716975518
 10
7490.8128751519
 20
7671.575160379
 10
7490.4510004523
 20
7671.4781091162
 10
7490.0877846482
 20
7671.3807374784
 10
7489.7238833907
 20
7671.2832093783
 10
7489.359967232
 20
7671.1857185312
 10
7488.9967216256
 20
7671.0884363004
 10
7488.6348171237
 20
7670.9915489503
 10
7488.2749391797
 20
7670.8952352949
  0
LINE
  5
324
330
1F
100
AcDbEntity
  8
0
  6
Continuous
 62
     7
370
    25
100
AcDbLine
 10
7488.2257206443
 20
7671.0789144584
 30
0.0
 11
7488.2749391797
 21
7670.8952352949
 31
0.0
  0
LINE
  5
325
330
1F
100
AcDbEntity
  8
0
  6
Continuous
 62
     7
370
    25
100
AcDbLine
 10
7491.123489857
 20
7671.8553692647
 30
0.0
 11
7491.1727083924
 21
7671.6716975518
 31
0.0
  0
LINE
  5
326
330
1F
100
AcDbEntity
  8
0
  6
Continuous
 62
     7
370
    25
100
AcDbLine
 10
7488.2751328948
 20
7670.8942369171
 30
0.0
 11
7488.2749391797
 21
7670.8952352949
 31
0.0
  0
LINE
  5
327
330
1F
100
AcDbEntity
  8
0
  6
Continuous
 62
     7
370
    25
100
AcDbLine
 10
7491.1729170087
 20
7671.6706917234
 30
0.0
 11
7491.1727083924
 21
7671.6716975518
 31
0.0
  0
LINE
  5
328
330
1F
100
AcDbEntity
  8
0
  6
Continuous
 62
     7
370
    25
100
AcDbLine
 10
7276.258759022
 20
7047.5486830421
 30
0.0
 11
7276.258759022
 21
7027.548642511
 31
0.0
  0
LINE
  5
329
330
1F
100
AcDbEntity
  8
0
  6
Continuous
 62
     7
370
    25
100
AcDbLine
 10
7276.258759022
 20
7067.5486639687
 30
0.0
 11
7276.258759022
 21
7047.5486830421
 31
0.0
  0
LINE
  5
32A
330
1F
100
AcDbEntity
  8
0
  6
Continuous
 62
     7
370
    25
100
AcDbLine
 10
7338.6355138461
 20
7691.8408029326
 30
0.0
 11
7338.6355138461
 21
7710.2113567837
 31
0.0
  0
LINE
  5
32B
330
1F
100
AcDbEntity
  8
0
  6
Continuous
 62
     7
370
    25
100
AcDbLine
 10
7338.6355138461
 20
7650.2113581248
 30
0.0
 11
7338.6355138461
 21
7691.8408029326
 31
0.0
  0
LINE
  5
32C
330
1F
100
AcDbEntity
  8
0
  6
Continuous
 62
     7
370
    25
100
AcDbLine
 10
7339.1355139281
 20
7691.6469798037
 30
0.0
 11
7339.1355139281
 21
7650.7113591381
 31
0.0
  0
LINE
  5
32D
330
1F
100
AcDbEntity
  8
0
  6
Continuous
 62
     7
370
    25
100
AcDbLine
 10
7339.1355139281
 20
7709.7113557704
 30
0.0
 11
7339.1355139281
 21
7691.6469798037
 31
0.0
  0
LINE
  5
32E
330
1F
100
AcDbEntity
  8
0
  6
Continuous
 62
     7
370
    25
100
AcDbLine
 10
7504.135511637
 20
7675.3489018031
 30
0.0
 11
7504.135511637
 21
7694.2113578864
 31
0.0
  0
ELLIPSE
  5
32F
330
1F
100
AcDbEntity
  8
0
  6
Continuous
 62
     7
370
    25
100
AcDbEllipse
 10
7522.384225208
 20
7680.2113564882
 30
0.0
 11
52.24871080072172
 21
13.99997368761979
 31
0.0
210
0.0
220
0.0
230
1.0
 40
0.0005194998
 41
4.240112505186916
 42
4.355461859731329
  0
ELLIPSE
  5
330
330
1F
100
AcDbEntity
  8
0
  6
Continuous
 62
     7
370
    25
100
AcDbEllipse
 10
7522.384225208
 20
7680.2113564882
 30
0.0
 11
52.24871080072172
 21
13.99997368761979
 31
0.0
210
0.0
220
0.0
230
1.0
 40
0.0005194998
 41
4.203759341073285
 42
4.226995619310506
  0
ELLIPSE
  5
331
330
1F
100
AcDbEntity
  8
0
  6
Continuous
 62
     7
370
    25
100
AcDbEllipse
 10
7522.384225208
 20
7680.2113564882
 30
0.0
 11
52.24871080072172
 21
13.99997368761979
 31
0.0
210
0.0
220
0.0
230
1.0
 40
0.0005194998
 41
4.071124563922691
 42
4.150417801916678
  0
ELLIPSE
  5
332
330
1F
100
AcDbEntity
  8
0
  6
Continuous
 62
     7
370
    25
100
AcDbEllipse
 10
7522.384225208
 20
7680.2113564882
 30
0.0
 11
52.24871080072172
 21
13.99997368761979
 31
0.0
210
0.0
220
0.0
230
1.0
 40
0.0005194998
 41
3.910001201904647
 42
3.999963124134231
  0
ELLIPSE
  5
333
330
1F
100
AcDbEntity
  8
0
  6
Continuous
 62
     7
370
    25
100
AcDbEllipse
 10
7522.384225208
 20
7680.2113564882
 30
0.0
 11
52.24871080072172
 21
13.99997368761979
 31
0.0
210
0.0
220
0.0
230
1.0
 40
0.0005194998
 41
3.809223139454586
 42
3.841603609271104
  0
ELLIPSE
  5
334
330
1F
100
AcDbEntity
  8
0
  6
Continuous
 62
     7
370
    25
100
AcDbEllipse
 10
7522.384225208
 20
7680.2113564882
 30
0.0
 11
52.24871080072172
 21
13.99997368761979
 31
0.0
210
0.0
220
0.0
230
1.0
 40
0.0005194998
 41
1.927445048826115
 42
3.790200282695993
  0
SPLINE
  5
335
330
1F
100
AcDbEntity
  8
0
  6
Continuous
 62
     7
370
    25
100
AcDbSpline
210
0.0
220
0.0
230
1.0
 70
     8
 71
     3
 72
    16
 73
    12
 74
     0
 42
0.000000001
 43
0.00000001
 40
0.0
 40
0.0
 40
0.0
 40
0.0
 40
0.1108410176015754
 40
0.2216307835359192
 40
0.332923530776346
 40
0.4445502802462598
 40
0.555646701593409
 40
0.6661826577025305
 40
0.7769891591033172
 40
0.8885167094314069
 40
1.0
 40
1.0
 40
1.0
 40
1.0
 10
7347.785513669542
 20
7666.211383099178
 30
0.0
 10
7347.767410152975
 20
7666.213193882561
 30
0.0
 10
7347.731211490707
 20
7666.216814612041
 30
0.0
 10
7347.44889169233
 20
7666.246366857798
 30
0.0
 10
7347.032293395728
 20
7666.279792466967
 30
0.0
 10
7346.510060299206
 20
7666.304189778473
 30
0.0
 10
7345.947469115338
 20
7666.308005380555
 30
0.0
 10
7345.406617686614
 20
7666.289738377361
 30
0.0
 10
7344.95055543616
 20
7666.258029203302
 30
0.0
 10
7344.612963944667
 20
7666.224880771045
 30
0.0
 10
7344.534888695553
 20
7666.216438074627
 30
0.0
 10
7344.495858818582
 20
7666.212217564205
 30
0.0
  0
ARC
  5
336
330
1F
100
AcDbEntity
  8
0
  6
Continuous
 62
     7
370
    25
100
AcDbCircle
 10
7346.136500173
 20
7653.2849385516
 30
0.0
 40
13.03120156219118
100
AcDbArc
 50
82.7301018883
 51
97.1941734751
  0
LINE
  5
337
330
1F
100
AcDbEntity
  8
0
  6
Continuous
 62
     7
370
    25
100
AcDbLine
 10
7504.135511637
 20
7675.2943784543
 30
0.0
 11
7505.1355136636
 21
7675.5643427917
 31
0.0
  0
LINE
  5
338
330
1F
100
AcDbEntity
  8
0
  6
Continuous
 62
     7
370
    25
100
AcDbLine
 10
7505.1355136636
 20
7693.2113558599
 30
0.0
 11
7505.1355136636
 21
7675.6148353764
 31
0.0
  0
LINE
  5
339
330
1F
100
AcDbEntity
  8
0
  6
Continuous
 62
     7
370
    25
100
AcDbLine
 10
7505.1355136636
 20
7675.6148353764
 30
0.0
 11
7504.135511637
 21
7675.3489018031
 31
0.0
  0
LINE
  5
33A
330
1F
100
AcDbEntity
  8
0
  6
Continuous
 62
     7
370
    25
100
AcDbLine
 10
7505.1355136636
 20
7675.6148353764
 30
0.0
 11
7505.1355136636
 21
7675.5643427917
 31
0.0
  0
LWPOLYLINE
  5
33B
330
1F
100
AcDbEntity
  8
0
  6
Continuous
 62
     7
370
    25
100
AcDbPolyline
 90
        3
 70
   128
 43
0.0
 10
7499.2192162278
 20
7674.0043253251
 10
7499.0468395951
 20
7673.9542574235
 10
7498.6173136237
 20
7673.8358676978
  0
LWPOLYLINE
  5
33C
330
1F
100
AcDbEntity
  8
0
  6
Continuous
 62
     7
370
    25
100
AcDbPolyline
 90
        3
 70
   128
 43
0.0
 10
7498.0097634795
 20
7673.6702487417
 10
7497.7050049308
 20
7673.5875025936
 10
7496.9434363845
 20
7673.3812258192
  0
LWPOLYLINE
  5
33D
330
1F
100
AcDbEntity
  8
0
  6
Continuous
 62
     7
370
    25
100
AcDbPolyline
 90
        4
 70
   128
 43
0.0
 10
7494.5476425889
 20
7672.7349326559
 10
7493.6431421044
 20
7672.4915594407
 10
7491.929493666
 20
7672.0311135598
 10
7491.1336375478
 20
7671.8175277659
  0
LWPOLYLINE
  5
33E
330
1F
100
AcDbEntity
  8
0
  6
Continuous
 62
     7
370
    25
100
AcDbPolyline
 90
        4
 70
   128
 43
0.0
 10
7488.2357938293
 20
7671.0410506078
 10
7486.5609629157
 20
7670.5931664058
 10
7484.911449075
 20
7670.1528072902
 10
7484.8208947185
 20
7670.1286599585
  0
LWPOLYLINE
  5
33F
330
1F
100
AcDbEntity
  8
0
  6
Continuous
 62
     7
370
    25
100
AcDbPolyline
 90
        3
 70
   128
 43
0.0
 10
7482.4259055856
 20
7669.4912553378
 10
7482.18291235
 20
7669.4267854639
 10
7481.3562853339
 20
7669.2079619118
  0
LWPOLYLINE
  5
340
330
1F
100
AcDbEntity
  8
0
  6
Continuous
 62
     7
370
    25
100
AcDbPolyline
 90
       21
 70
   128
 43
0.0
 10
7480.7476772073
 20
7669.0477073737
 10
7480.5285556319
 20
7668.9904049583
 10
7480.1853669885
 20
7668.902279491
 10
7480.1853669885
 20
7668.9061835953
 10
7480.5285556319
 20
7669.0019682594
 10
7481.2025351527
 20
7669.1861838647
 10
7482.18291235
 20
7669.4521546908
 10
7483.4342969659
 20
7669.7902843901
 10
7484.911449075
 20
7670.1883465596
 10
7486.5609629157
 20
7670.6319541284
 10
7488.3232338431
 20
7671.1050734468
 10
7490.1345593932
 20
7671.590597982
 10
7491.929493666
 20
7672.0709965178
 10
7493.6431421044
 20
7672.5288868495
 10
7495.2135903838
 20
7672.9477361389
 10
7496.5840501788
 20
7673.3123973557
 10
7497.7050049308
 20
7673.6096904226
 10
7498.5359532836
 20
7673.8288716026
 10
7499.0468395951
 20
7673.9620209285
 10
7499.2192162278
 20
7674.0043253251
 10
7499.2192162278
 20
7674.0043253251
  0
LINE
  5
341
330
1F
100
AcDbEntity
  8
0
  6
Continuous
 62
     7
370
    25
100
AcDbLine
 10
7423.9322243336
 20
6870.0096920677
 30
0.0
 11
7423.9322243336
 21
6868.8096717545
 31
0.0
  0
LINE
  5
342
330
1F
100
AcDbEntity
  8
0
  6
Continuous
 62
     7
370
    25
100
AcDbLine
 10
7423.9322243336
 20
6868.8096717545
 30
0.0
 11
7417.9322196248
 21
6868.8096717545
 31
0.0
  0
LINE
  5
343
330
1F
100
AcDbEntity
  8
0
  6
Continuous
 62
     7
370
    25
100
AcDbLine
 10
7417.9322196248
 20
6870.0096920677
 30
0.0
 11
7417.9322196248
 21
6868.8096717545
 31
0.0
  0
LINE
  5
344
330
1F
100
AcDbEntity
  8
0
  6
Continuous
 62
     7
370
    25
100
AcDbLine
 10
7661.9322372678
 20
6870.0096920677
 30
0.0
 11
7661.9322372678
 21
6868.8096717545
 31
0.0
  0
LINE
  5
345
330
1F
100
AcDbEntity
  8
0
  6
Continuous
 62
     7
370
    25
100
AcDbLine
 10
7661.9322372678
 20
6868.8096717545
 30
0.0
 11
7423.9322243336
 21
6868.8096717545
 31
0.0
  0
LINE
  5
346
330
1F
100
AcDbEntity
  8
0
  6
Continuous
 62
     7
370
    25
100
AcDbLine
 10
7667.9322196248
 20
6870.0096920677
 30
0.0
 11
7667.9322196248
 21
6868.8096717545
 31
0.0
  0
LINE
  5
347
330
1F
100
AcDbEntity
  8
0
  6
Continuous
 62
     7
370
    25
100
AcDbLine
 10
7667.9322196248
 20
6868.8096717545
 30
0.0
 11
7661.9322372678
 21
6868.8096717545
 31
0.0
  0
LINE
  5
348
330
1F
100
AcDbEntity
  8
0
  6
Continuous
 62
     7
370
    25
100
AcDbLine
 10
7743.2822359803
 20
6870.0096920677
 30
0.0
 11
7289.8822238746
 21
6870.0096920677
 31
0.0
  0
LINE
  5
349
330
1F
100
AcDbEntity
  8
0
  6
Continuous
 62
     7
370
    25
100
AcDbLine
 10
7743.2822359803
 20
6870.0096920677
 30
0.0
 11
7743.2822359803
 21
6870.1182917305
 31
0.0
  0
LINE
  5
34A
330
1F
100
AcDbEntity
  8
0
  6
Continuous
 62
     7
370
    25
100
AcDbLine
 10
7289.8822238746
 20
6870.1182917305
 30
0.0
 11
7289.8822238746
 21
6870.0096920677
 31
0.0
  0
LWPOLYLINE
  5
34B
330
1F
100
AcDbEntity
  8
0
  6
Continuous
 62
     7
370
    25
100
AcDbPolyline
 90
        3
 70
   128
 43
0.0
 10
7289.8822238746
 20
6870.0096920677
 10
7289.5603252652
 20
6870.0414017387
 10
7289.2934864464
 20
6870.1182917305
  0
LWPOLYLINE
  5
34C
330
1F
100
AcDbEntity
  8
0
  6
Continuous
 62
     7
370
    25
100
AcDbPolyline
 90
        3
 70
   128
 43
0.0
 10
7743.8709510568
 20
6870.1182917305
 10
7743.6041308644
 20
6870.0414017387
 10
7743.2822359803
 20
6870.0096920677
  0
LINE
  5
34D
330
1F
100
AcDbEntity
  8
0
  6
Continuous
 62
     7
370
    25
100
AcDbLine
 10
7764.9322224858
 20
7345.209153051
 30
0.0
 11
7764.9322224858
 21
7345.11828577
 31
0.0
  0
LINE
  5
34E
330
1F
100
AcDbEntity
  8
0
  6
Continuous
 62
     7
370
    25
100
AcDbLine
 10
7763.6822236779
 20
6870.1864794441
 30
0.0
 11
7763.6822236779
 21
6870.0094536491
 31
0.0
  0
LINE
  5
34F
330
1F
100
AcDbEntity
  8
0
  6
Continuous
 62
     7
370
    25
100
AcDbLine
 10
7746.1822105649
 20
6870.0094536491
 30
0.0
 11
7763.6822236779
 21
6870.0094536491
 31
0.0
  0
ARC
  5
350
330
1F
100
AcDbEntity
  8
0
  6
Continuous
 62
     7
370
    25
100
AcDbCircle
 10
7746.1822232766
 20
6871.2594567611
 30
0.0
 40
1.250000000000762
100
AcDbArc
 50
245.9129452174
 51
270.0
  0
SPLINE
  5
351
330
1F
100
AcDbEntity
  8
0
  6
Continuous
 62
     7
370
    25
100
AcDbSpline
210
0.0
220
0.0
230
1.0
 70
     8
 71
     3
 72
    10
 73
     6
 74
     0
 42
0.000000001
 43
0.00000001
 40
0.0
 40
0.0
 40
0.0
 40
0.0
 40
0.3169013655156066
 40
0.65844804119244
 40
1.0
 40
1.0
 40
1.0
 40
1.0
 10
7764.817513346961
 20
6870.751829499821
 30
0.0
 10
7764.742968962372
 20
6870.619188825603
 30
0.0
 10
7764.588082902055
 20
6870.343592057569
 30
0.0
 10
7764.170718836927
 20
6870.066906276658
 30
0.0
 10
7763.845056237157
 20
6870.028604623725
 30
0.0
 10
7763.682223677924
 20
6870.009453649143
 30
0.0
  0
LINE
  5
352
330
1F
100
AcDbEntity
  8
0
  6
Continuous
 62
     7
370
    25
100
AcDbLine
 10
7333.6008312724
 20
7781.0292333909
 30
0.0
 11
7290.0008296671
 21
7790.2967013963
 31
0.0
  0
ARC
  5
353
330
1F
100
AcDbEntity
  8
0
  6
Continuous
 62
     7
370
    25
100
AcDbCircle
 10
7332.935513902
 20
7777.8991617579
 30
0.0
 40
3.200000000001637
100
AcDbArc
 50
0.0
 51
78.0
  0
LINE
  5
354
330
1F
100
AcDbEntity
  8
0
  6
Continuous
 62
     7
370
    25
100
AcDbLine
 10
7766.1355210546
 20
7370.1182917305
 30
0.0
 11
7336.135513902
 21
7370.1182917305
 31
0.0
  0
LINE
  5
355
330
1F
100
AcDbEntity
  8
0
  6
Continuous
 62
     7
370
    25
100
AcDbLine
 10
7766.1355210546
 20
7347.1182898232
 30
0.0
 11
7766.1355210546
 21
7370.1182917305
 31
0.0
  0
LINE
  5
356
330
1F
100
AcDbEntity
  8
0
  6
Continuous
 62
     7
370
    25
100
AcDbLine
 10
7763.0254997018
 20
7347.1182898232
 30
0.0
 11
7766.1355210546
 21
7347.1182898232
 31
0.0
  0
LINE
  5
357
330
1F
100
AcDbEntity
  8
0
  6
Continuous
 62
     7
370
    25
100
AcDbLine
 10
7763.0254997018
 20
7345.11828577
 30
0.0
 11
7763.0254997018
 21
7347.1182898232
 31
0.0
  0
LINE
  5
358
330
1F
100
AcDbEntity
  8
0
  6
Continuous
 62
     7
370
    25
100
AcDbLine
 10
7763.0254997018
 20
7345.11828577
 30
0.0
 11
7763.0355132821
 21
7345.11828577
 31
0.0
  0
LINE
  5
359
330
1F
100
AcDbEntity
  8
0
  6
Continuous
 62
     7
370
    25
100
AcDbLine
 10
7763.0355132821
 20
7345.11828577
 30
0.0
 11
7763.0355132821
 21
6873.2182697006
 31
0.0
  0
LINE
  5
35A
330
1F
100
AcDbEntity
  8
0
  6
Continuous
 62
     7
370
    25
100
AcDbLine
 10
7763.0355132821
 20
6873.2182697006
 30
0.0
 11
7763.0355132821
 21
6870.1182917305
 31
0.0
  0
LINE
  5
35B
330
1F
100
AcDbEntity
  8
0
  6
Continuous
 62
     7
370
    25
100
AcDbLine
 10
7289.2355134788
 20
6870.1182917305
 30
0.0
 11
7763.0355132821
 21
6870.1182917305
 31
0.0
  0
LINE
  5
35C
330
1F
100
AcDbEntity
  8
0
  6
Continuous
 62
     7
370
    25
100
AcDbLine
 10
7289.2355134788
 20
7765.6182978847
 30
0.0
 11
7289.2355134788
 21
6870.1182917305
 31
0.0
  0
LINE
  5
35D
330
1F
100
AcDbEntity
  8
0
  6
Continuous
 62
     7
370
    25
100
AcDbLine
 10
7289.2355134788
 20
7765.6182978847
 30
0.0
 11
7289.245512158
 21
7765.6182978847
 31
0.0
  0
LINE
  5
35E
330
1F
100
AcDbEntity
  8
0
  6
Continuous
 62
     7
370
    25
100
AcDbLine
 10
7289.245512158
 20
7767.6182982125
 30
0.0
 11
7289.245512158
 21
7765.6182978847
 31
0.0
  0
LINE
  5
35F
330
1F
100
AcDbEntity
  8
0
  6
Continuous
 62
     7
370
    25
100
AcDbLine
 10
7286.1355131569
 20
7767.6182982125
 30
0.0
 11
7289.245512158
 21
7767.6182982125
 31
0.0
  0
LINE
  5
360
330
1F
100
AcDbEntity
  8
0
  6
Continuous
 62
     7
370
    25
100
AcDbLine
 10
7286.1355131569
 20
7787.1666268059
 30
0.0
 11
7286.1355131569
 21
7767.6182982125
 31
0.0
  0
ARC
  5
361
330
1F
100
AcDbEntity
  8
0
  6
Continuous
 62
     7
370
    25
100
AcDbCircle
 10
7289.335513902
 20
7787.1666278467
 30
0.0
 40
3.200000000001197
100
AcDbArc
 50
78.0
 51
180.0
  0
LINE
  5
362
330
1F
100
AcDbEntity
  8
0
  6
Continuous
 62
     7
370
    25
100
AcDbLine
 10
7336.135513902
 20
7370.1182917305
 30
0.0
 11
7336.135513902
 21
7777.8991625258
 31
0.0
  0
LINE
  5
363
330
1F
100
AcDbEntity
  8
0
  6
Continuous
 62
     7
370
    25
100
AcDbLine
 10
7286.1355131569
 20
7765.6182978847
 30
0.0
 11
7286.1355131569
 21
6870.1182917305
 31
0.0
  0
LINE
  5
364
330
1F
100
AcDbEntity
  8
0
  6
Continuous
 62
     7
370
    25
100
AcDbLine
 10
7286.1355131569
 20
6870.1182917305
 30
0.0
 11
7289.2355134788
 21
6870.1182917305
 31
0.0
  0
LINE
  5
365
330
1F
100
AcDbEntity
  8
0
  6
Continuous
 62
     7
370
    25
100
AcDbLine
 10
7289.2355134788
 20
7765.6182978847
 30
0.0
 11
7286.1355131569
 21
7765.6182978847
 31
0.0
  0
LINE
  5
366
330
1F
100
AcDbEntity
  8
0
  6
Continuous
 62
     7
370
    25
100
AcDbLine
 10
7766.1355210546
 20
7345.11828577
 30
0.0
 11
7766.1355210546
 21
6873.2182697006
 31
0.0
  0
LINE
  5
367
330
1F
100
AcDbEntity
  8
0
  6
Continuous
 62
     7
370
    25
100
AcDbLine
 10
7766.1355210546
 20
6873.2182697006
 30
0.0
 11
7763.0355132821
 21
6873.2182697006
 31
0.0
  0
LINE
  5
368
330
1F
100
AcDbEntity
  8
0
  6
Continuous
 62
     7
370
    25
100
AcDbLine
 10
7766.1355210546
 20
7345.11828577
 30
0.0
 11
7763.0355132821
 21
7345.11828577
 31
0.0
  0
ARC
  5
369
330
1F
100
AcDbEntity
  8
0
  6
Continuous
 62
     7
370
    25
100
AcDbCircle
 10
7763.035513902
 20
6873.2182987477
 30
0.0
 40
3.100000000000364
100
AcDbArc
 50
270.0
 51
0.0
  0
ARC
  5
36A
330
1F
100
AcDbEntity
  8
0
  6
Continuous
 62
     7
370
    25
100
AcDbCircle
 10
7763.035513902
 20
6873.2182987477
 30
0.0
 40
1.100000000000364
100
AcDbArc
 50
270.0
 51
0.0
  0
LINE
  5
36B
330
1F
100
AcDbEntity
  8
0
  6
Continuous
 62
     7
370
    25
100
AcDbLine
 10
7334.8285682111
 20
7780.7682693549
 30
0.0
 11
7333.6008312724
 21
7781.0292333909
 31
0.0
  0
LINE
  5
36C
330
1F
100
AcDbEntity
  8
0
  6
Continuous
 62
     7
370
    25
100
AcDbLine
 10
7290.0008296671
 20
7790.2967013963
 30
0.0
 11
7288.1256638172
 21
7790.6952813812
 31
0.0
  0
ARC
  5
36D
330
1F
100
AcDbEntity
  8
0
  6
Continuous
 62
     7
370
    25
100
AcDbCircle
 10
7334.485513902
 20
7779.1543270094
 30
0.0
 40
1.650000000000548
100
AcDbArc
 50
0.0
 51
78.0
  0
LINE
  5
36E
330
1F
100
AcDbEntity
  8
0
  6
Continuous
 62
     7
370
    25
100
AcDbLine
 10
7336.135513902
 20
7777.8991625258
 30
0.0
 11
7336.135513902
 21
7779.1543264487
 31
0.0
  0
ARC
  5
36F
330
1F
100
AcDbEntity
  8
0
  6
Continuous
 62
     7
370
    25
100
AcDbCircle
 10
7722.7822232766
 20
7368.5591579486
 30
0.0
 40
1.650000000036925
100
AcDbArc
 50
90.0
 51
109.1026428797
  0
LINE
  5
370
330
1F
100
AcDbEntity
  8
0
  6
Continuous
 62
     7
370
    25
100
AcDbLine
 10
7764.4822372201
 20
7370.2091590115
 30
0.0
 11
7722.7822316888
 21
7370.2091590115
 31
0.0
  0
ARC
  5
371
330
1F
100
AcDbEntity
  8
0
  6
Continuous
 62
     7
370
    25
100
AcDbCircle
 10
7764.4822232766
 20
7368.5591579486
 30
0.0
 40
1.650000000037835
100
AcDbArc
 50
70.8973571203
 51
90.0
  0
LINE
  5
372
330
1F
100
AcDbEntity
  8
0
  6
Continuous
 62
     7
370
    25
100
AcDbLine
 10
7766.1322129968
 20
7345.209153051
 30
0.0
 11
7766.1322129968
 21
7347.1182898232
 31
0.0
  0
LINE
  5
373
330
1F
100
AcDbEntity
  8
0
  6
Continuous
 62
     7
370
    25
100
AcDbLine
 10
7766.1322129968
 20
7345.209153051
 30
0.0
 11
7764.9322224858
 21
7345.209153051
 31
0.0
  0
LINE
  5
374
330
1F
100
AcDbEntity
  8
0
  6
Continuous
 62
     7
370
    25
100
AcDbLine
 10
7764.9322224858
 20
7347.1182898232
 30
0.0
 11
7764.9322224858
 21
7345.209153051
 31
0.0
  0
ARC
  5
375
330
1F
100
AcDbEntity
  8
0
  6
Continuous
 62
     7
370
    25
100
AcDbCircle
 10
7287.7826085525
 20
7789.0813359905
 30
0.0
 40
1.650000000000737
100
AcDbArc
 50
78.0
 51
180.0
  0
LINE
  5
376
330
1F
100
AcDbEntity
  8
0
  6
Continuous
 62
     7
370
    25
100
AcDbLine
 10
7287.3326091173
 20
7765.718916113
 30
0.0
 11
7287.3326091173
 21
7767.6182982125
 31
0.0
  0
LINE
  5
377
330
1F
100
AcDbEntity
  8
0
  6
Continuous
 62
     7
370
    25
100
AcDbLine
 10
7287.3326091173
 20
7765.718916113
 30
0.0
 11
7286.1326074305
 21
7765.718916113
 31
0.0
  0
LINE
  5
378
330
1F
100
AcDbEntity
  8
0
  6
Continuous
 62
     7
370
    25
100
AcDbLine
 10
7286.1326074305
 20
7789.0813366123
 30
0.0
 11
7286.1326074305
 21
7765.718916113
 31
0.0
  0
LINE
  5
379
330
1F
100
AcDbEntity
  8
0
  6
Continuous
 62
     7
370
    25
100
AcDbLine
 10
7764.4822372201
 20
7370.2091590115
 30
0.0
 11
7764.4822372201
 21
7370.2176526733
 31
0.0
  0
LINE
  5
37A
330
1F
100
AcDbEntity
  8
0
  6
Continuous
 62
     7
370
    25
100
AcDbLine
 10
7722.7822316888
 20
7370.2091590115
 30
0.0
 11
7722.7822316888
 21
7370.2176526733
 31
0.0
  0
LINE
  5
37B
330
1F
100
AcDbEntity
  8
0
  6
Continuous
 62
     7
370
    25
100
AcDbLine
 10
7764.4822372201
 20
7370.2176526733
 30
0.0
 11
7722.7822316888
 21
7370.2176526733
 31
0.0
  0
ARC
  5
37C
330
1F
100
AcDbEntity
  8
0
  6
Continuous
 62
     7
370
    25
100
AcDbCircle
 10
7764.4822232766
 20
7368.567638995
 30
0.0
 40
1.650000000037835
100
AcDbArc
 50
70.016954837
 51
90.0
  0
ARC
  5
37D
330
1F
100
AcDbEntity
  8
0
  6
Continuous
 62
     7
370
    25
100
AcDbCircle
 10
7722.7822232766
 20
7368.567638995
 30
0.0
 40
1.650000000036925
100
AcDbArc
 50
90.0
 51
109.983045163
  0
LINE
  5
37E
330
1F
100
AcDbEntity
  8
0
  6
Continuous
 62
     8
370
    25
100
AcDbLine
 10
7763.6822236779
 20
7347.1182898232
 30
0.0
 11
7763.6822236779
 21
7345.11828577
 31
0.0
  0
LINE
  5
37F
330
1F
100
AcDbEntity
  8
0
  6
Continuous
 62
     8
370
    25
100
AcDbLine
 10
7763.6822236779
 20
6873.2182697006
 30
0.0
 11
7763.6822236779
 21
6872.3284915634
 31
0.0
  0
ENDSEC
  0
SECTION
  2
OBJECTS
  0
DICTIONARY
  5
C
330
0
100
AcDbDictionary
281
     1
  3
ACAD_GROUP
350
D
  3
ACAD_LAYOUT
350
1A
  3
ACAD_MLINESTYLE
350
17
  3
ACAD_PLOTSETTINGS
350
19
  3
ACAD_PLOTSTYLENAME
350
E
  3
ACAD_SCALELIST
350
47
  0
DICTIONARY
  5
D
102
{ACAD_REACTORS
330
C
102
}
330
C
100
AcDbDictionary
281
     1
  0
DICTIONARY
  5
1A
102
{ACAD_REACTORS
330
C
102
}
330
C
100
AcDbDictionary
281
     1
  3
Layout1
350
1E
  3
Layout2
350
26
  3
Model
350
22
  0
DICTIONARY
  5
17
102
{ACAD_REACTORS
330
C
102
}
330
C
100
AcDbDictionary
281
     1
  3
Standard
350
18
  0
DICTIONARY
  5
19
102
{ACAD_REACTORS
330
C
102
}
330
C
100
AcDbDictionary
281
     1
  0
ACDBDICTIONARYWDFLT
  5
E
102
{ACAD_REACTORS
330
C
102
}
330
C
100
AcDbDictionary
281
     1
  3
Normal
350
F
100
AcDbDictionaryWithDefault
340
F
  0
DICTIONARY
  5
47
102
{ACAD_REACTORS
330
C
102
}
330
C
100
AcDbDictionary
281
     1
  3
A0
350
48
  3
A1
350
49
  3
A2
350
4A
  3
A3
350
4B
  3
A4
350
4C
  3
A5
350
4D
  3
A6
350
4E
  3
A7
350
4F
  3
A8
350
50
  3
A9
350
51
  3
B0
350
52
  3
B1
350
53
  3
B2
350
54
  3
B3
350
55
  3
B4
350
56
  3
B5
350
57
  3
B6
350
58
  3
B7
350
59
  3
B8
350
5A
  3
B9
350
5B
  3
C0
350
5C
  3
C1
350
5D
  3
C2
350
5E
  3
C3
350
5F
  3
C4
350
60
  3
C5
350
61
  3
C6
350
62
  3
C7
350
63
  3
C8
350
64
  3
C9
350
65
  3
D0
350
66
  3
D1
350
67
  3
D2
350
68
  0
LAYOUT
  5
1E
102
{ACAD_REACTORS
330
1A
102
}
330
1A
100
AcDbPlotSettings
  1

  2
none_device
  4

  6

 40
0.0
 41
0.0
 42
0.0
 43
0.0
 44
0.0
 45
0.0
 46
0.0
 47
0.0
 48
0.0
 49
0.0
140
0.0
141
0.0
142
1.0
143
1.0
 70
   688
 72
     1
 73
     0
 74
     5
  7

 75
    16
147
1.0
148
0.0
149
0.0
100
AcDbLayout
  1
Layout1
 70
     1
 71
     1
 10
0.0
 20
0.0
 11
420.0
 21
297.0
 12
0.0
 22
0.0
 32
0.0
 14
1.0000000000E+20
 24
1.0000000000E+20
 34
1.0000000000E+20
 15
-1.0000000000E+20
 25
-1.0000000000E+20
 35
-1.0000000000E+20
146
0.0
 13
0.0
 23
0.0
 33
0.0
 16
1.0
 26
0.0
 36
0.0
 17
0.0
 27
1.0
 37
0.0
 76
     0
330
1B
  0
LAYOUT
  5
26
102
{ACAD_REACTORS
330
1A
102
}
330
1A
100
AcDbPlotSettings
  1

  2
none_device
  4

  6

 40
0.0
 41
0.0
 42
0.0
 43
0.0
 44
0.0
 45
0.0
 46
0.0
 47
0.0
 48
0.0
 49
0.0
140
0.0
141
0.0
142
1.0
143
1.0
 70
   688
 72
     1
 73
     0
 74
     5
  7

 75
    16
147
1.0
148
0.0
149
0.0
100
AcDbLayout
  1
Layout2
 70
     1
 71
     2
 10
0.0
 20
0.0
 11
0.0
 21
0.0
 12
0.0
 22
0.0
 32
0.0
 14
0.0
 24
0.0
 34
0.0
 15
0.0
 25
0.0
 35
0.0
146
0.0
 13
0.0
 23
0.0
 33
0.0
 16
1.0
 26
0.0
 36
0.0
 17
0.0
 27
1.0
 37
0.0
 76
     0
330
23
  0
LAYOUT
  5
22
102
{ACAD_REACTORS
330
1A
102
}
330
1A
100
AcDbPlotSettings
  1

  2
none_device
  4
Letter_(8.50_x_11.00_Inches)
  6

 40
6.35
 41
6.35
 42
6.35000508
 43
6.35000508
 44
215.9
 45
279.4
 46
0.0
 47
0.0
 48
0.0
 49
0.0
140
0.0
141
0.0
142
1.0
143
1.0
 70
  1712
 72
     1
 73
     0
 74
     0
  7

 75
     0
147
1.0
148
0.0
149
0.0
100
AcDbLayout
  1
Model
 70
     1
 71
     0
 10
0.0
 20
0.0
 11
20000.0
 21
10000.0
 12
0.0
 22
0.0
 32
0.0
 14
0.0
 24
0.0
 34
0.0
 15
20000.0
 25
10000.0
 35
0.0
146
0.0
 13
0.0
 23
0.0
 33
0.0
 16
1.0
 26
0.0
 36
0.0
 17
0.0
 27
1.0
 37
0.0
 76
     0
330
1F
331
29
  0
MLINESTYLE
  5
18
102
{ACAD_REACTORS
330
17
102
}
330
17
100
AcDbMlineStyle
  2
Standard
 70
     0
  3

 62
   256
 51
90.0
 52
90.0
 71
     2
 49
0.5
 62
   256
  6
BYLAYER
 49
-0.5
 62
   256
  6
BYLAYER
  0
ACDBPLACEHOLDER
  5
F
102
{ACAD_REACTORS
330
E
102
}
330
E
  0
SCALE
  5
48
102
{ACAD_REACTORS
330
47
102
}
330
47
100
AcDbScale
 70
     0
300
1:1
140
1.0
141
1.0
290
     1
  0
SCALE
  5
49
102
{ACAD_REACTORS
330
47
102
}
330
47
100
AcDbScale
 70
     0
300
1:2
140
1.0
141
2.0
290
     0
  0
SCALE
  5
4A
102
{ACAD_REACTORS
330
47
102
}
330
47
100
AcDbScale
 70
     0
300
1:4
140
1.0
141
4.0
290
     0
  0
SCALE
  5
4B
102
{ACAD_REACTORS
330
47
102
}
330
47
100
AcDbScale
 70
     0
300
1:5
140
1.0
141
5.0
290
     0
  0
SCALE
  5
4C
102
{ACAD_REACTORS
330
47
102
}
330
47
100
AcDbScale
 70
     0
300
1:8
140
1.0
141
8.0
290
     0
  0
SCALE
  5
4D
102
{ACAD_REACTORS
330
47
102
}
330
47
100
AcDbScale
 70
     0
300
1:10
140
1.0
141
10.0
290
     0
  0
SCALE
  5
4E
102
{ACAD_REACTORS
330
47
102
}
330
47
100
AcDbScale
 70
     0
300
1:16
140
1.0
141
16.0
290
     0
  0
SCALE
  5
4F
102
{ACAD_REACTORS
330
47
102
}
330
47
100
AcDbScale
 70
     0
300
1:20
140
1.0
141
20.0
290
     0
  0
SCALE
  5
50
102
{ACAD_REACTORS
330
47
102
}
330
47
100
AcDbScale
 70
     0
300
1:30
140
1.0
141
30.0
290
     0
  0
SCALE
  5
51
102
{ACAD_REACTORS
330
47
102
}
330
47
100
AcDbScale
 70
     0
300
1:40
140
1.0
141
40.0
290
     0
  0
SCALE
  5
52
102
{ACAD_REACTORS
330
47
102
}
330
47
100
AcDbScale
 70
     0
300
1:50
140
1.0
141
50.0
290
     0
  0
SCALE
  5
53
102
{ACAD_REACTORS
330
47
102
}
330
47
100
AcDbScale
 70
     0
300
1:100
140
1.0
141
100.0
290
     0
  0
SCALE
  5
54
102
{ACAD_REACTORS
330
47
102
}
330
47
100
AcDbScale
 70
     0
300
2:1
140
2.0
141
1.0
290
     0
  0
SCALE
  5
55
102
{ACAD_REACTORS
330
47
102
}
330
47
100
AcDbScale
 70
     0
300
4:1
140
4.0
141
1.0
290
     0
  0
SCALE
  5
56
102
{ACAD_REACTORS
330
47
102
}
330
47
100
AcDbScale
 70
     0
300
8:1
140
8.0
141
1.0
290
     0
  0
SCALE
  5
57
102
{ACAD_REACTORS
330
47
102
}
330
47
100
AcDbScale
 70
     0
300
10:1
140
10.0
141
1.0
290
     0
  0
SCALE
  5
58
102
{ACAD_REACTORS
330
47
102
}
330
47
100
AcDbScale
 70
     0
300
100:1
140
100.0
141
1.0
290
     0
  0
SCALE
  5
59
102
{ACAD_REACTORS
330
47
102
}
330
47
100
AcDbScale
 70
     0
300
1/128" = 1'-0"
140
0.0078125
141
12.0
290
     0
  0
SCALE
  5
5A
102
{ACAD_REACTORS
330
47
102
}
330
47
100
AcDbScale
 70
     0
300
1/64" = 1'-0"
140
0.015625
141
12.0
290
     0
  0
SCALE
  5
5B
102
{ACAD_REACTORS
330
47
102
}
330
47
100
AcDbScale
 70
     0
300
1/32" = 1'-0"
140
0.03125
141
12.0
290
     0
  0
SCALE
  5
5C
102
{ACAD_REACTORS
330
47
102
}
330
47
100
AcDbScale
 70
     0
300
1/16" = 1'-0"
140
0.0625
141
12.0
290
     0
  0
SCALE
  5
5D
102
{ACAD_REACTORS
330
47
102
}
330
47
100
AcDbScale
 70
     0
300
3/32" = 1'-0"
140
0.09375
141
12.0
290
     0
  0
SCALE
  5
5E
102
{ACAD_REACTORS
330
47
102
}
330
47
100
AcDbScale
 70
     0
300
1/8" = 1'-0"
140
0.125
141
12.0
290
     0
  0
SCALE
  5
5F
102
{ACAD_REACTORS
330
47
102
}
330
47
100
AcDbScale
 70
     0
300
3/16" = 1'-0"
140
0.1875
141
12.0
290
     0
  0
SCALE
  5
60
102
{ACAD_REACTORS
330
47
102
}
330
47
100
AcDbScale
 70
     0
300
1/4" = 1'-0"
140
0.25
141
12.0
290
     0
  0
SCALE
  5
61
102
{ACAD_REACTORS
330
47
102
}
330
47
100
AcDbScale
 70
     0
300
3/8" = 1'-0"
140
0.375
141
12.0
290
     0
  0
SCALE
  5
62
102
{ACAD_REACTORS
330
47
102
}
330
47
100
AcDbScale
 70
     0
300
1/2" = 1'-0"
140
0.5
141
12.0
290
     0
  0
SCALE
  5
63
102
{ACAD_REACTORS
330
47
102
}
330
47
100
AcDbScale
 70
     0
300
3/4" = 1'-0"
140
0.75
141
12.0
290
     0
  0
SCALE
  5
64
102
{ACAD_REACTORS
330
47
102
}
330
47
100
AcDbScale
 70
     0
300
1" = 1'-0"
140
1.0
141
12.0
290
     0
  0
SCALE
  5
65
102
{ACAD_REACTORS
330
47
102
}
330
47
100
AcDbScale
 70
     0
300
1-1/2" = 1'-0"
140
1.5
141
12.0
290
     0
  0
SCALE
  5
66
102
{ACAD_REACTORS
330
47
102
}
330
47
100
AcDbScale
 70
     0
300
3" = 1'-0"
140
3.0
141
12.0
290
     0
  0
SCALE
  5
67
102
{ACAD_REACTORS
330
47
102
}
330
47
100
AcDbScale
 70
     0
300
6" = 1'-0"
140
6.0
141
12.0
290
     0
  0
SCALE
  5
68
102
{ACAD_REACTORS
330
47
102
}
330
47
100
AcDbScale
 70
     0
300
1'-0" = 1'-0"
140
12.0
141
12.0
290
     0
  0
ENDSEC
  0
EOF
