  0
SECTION
  2
HEADER
  9
$ACADVER
  1
AC1015
  9
$ACADMAINTVER
 70
     6
  9
$DWGCODEPAGE
  3
ANSI_1250
  9
$INSBASE
 10
0.0
 20
0.0
 30
0.0
  9
$EXTMIN
 10
0.0
 20
0.0
 30
0.0
  9
$EXTMAX
 10
20000.0
 20
10000.0
 30
0.0
  9
$LIMMIN
 10
0.0
 20
0.0
  9
$LIMMAX
 10
20000.0
 20
10000.0
  9
$ORTHOMODE
 70
     0
  9
$REGENMODE
 70
     1
  9
$FILLMODE
 70
     1
  9
$QTEXTMODE
 70
     0
  9
$MIRRTEXT
 70
     1
  9
$LTSCALE
 40
1.0
  9
$ATTMODE
 70
     1
  9
$TEXTSIZE
 40
2.0
  9
$TRACEWID
 40
1.0
  9
$TEXTSTYLE
  7
Standard
  9
$CLAYER
  8
0
  9
$CELTYPE
  6
ByLayer
  9
$CECOLOR
 62
   256
  9
$CELTSCALE
 40
1.0
  9
$DISPSILH
 70
     0
  9
$DIMSCALE
 40
1.0
  9
$DIMASZ
 40
2.0
  9
$DIMEXO
 40
1.0
  9
$DIMDLI
 40
3.75
  9
$DIMRND
 40
0.0
  9
$DIMDLE
 40
0.0
  9
$DIMEXE
 40
1.0
  9
$DIMTP
 40
0.0
  9
$DIMTM
 40
0.0
  9
$DIMTXT
 40
2.0
  9
$DIMCEN
 40
2.5
  9
$DIMTSZ
 40
0.0
  9
$DIMTOL
 70
     0
  9
$DIMLIM
 70
     0
  9
$DIMTIH
 70
     1
  9
$DIMTOH
 70
     1
  9
$DIMSE1
 70
     0
  9
$DIMSE2
 70
     0
  9
$DIMTAD
 70
     1
  9
$DIMZIN
 70
     0
  9
$DIMBLK
  1

  9
$DIMASO
 70
     1
  9
$DIMSHO
 70
     1
  9
$DIMPOST
  1

  9
$DIMAPOST
  1

  9
$DIMALT
 70
     0
  9
$DIMALTD
 70
     3
  9
$DIMALTF
 40
0.0393700787
  9
$DIMLFAC
 40
1.0
  9
$DIMTOFL
 70
     1
  9
$DIMTVP
 40
0.0
  9
$DIMTIX
 70
     0
  9
$DIMSOXD
 70
     0
  9
$DIMSAH
 70
     0
  9
$DIMBLK1
  1

  9
$DIMBLK2
  1

  9
$DIMSTYLE
  2
ISO-25
  9
$DIMCLRD
 70
     0
  9
$DIMCLRE
 70
     0
  9
$DIMCLRT
 70
     0
  9
$DIMTFAC
 40
1.0
  9
$DIMGAP
 40
1.524
  9
$DIMJUST
 70
     0
  9
$DIMSD1
 70
     0
  9
$DIMSD2
 70
     0
  9
$DIMTOLJ
 70
     0
  9
$DIMTZIN
 70
     0
  9
$DIMALTZ
 70
     0
  9
$DIMALTTZ
 70
     0
  9
$DIMUPT
 70
     0
  9
$DIMDEC
 70
     2
  9
$DIMTDEC
 70
     0
  9
$DIMALTU
 70
     2
  9
$DIMALTTD
 70
     3
  9
$DIMTXSTY
  7
Standard
  9
$DIMAUNIT
 70
     0
  9
$DIMADEC
 70
     2
  9
$DIMALTRND
 40
0.0
  9
$DIMAZIN
 70
     0
  9
$DIMDSEP
 70
    44
  9
$DIMATFIT
 70
     3
  9
$DIMFRAC
 70
     0
  9
$DIMLDRBLK
  1

  9
$DIMLUNIT
 70
     2
  9
$DIMLWD
 70
    -2
  9
$DIMLWE
 70
    -2
  9
$DIMTMOVE
 70
     0
  9
$LUNITS
 70
     2
  9
$LUPREC
 70
     3
  9
$SKETCHINC
 40
1.0
  9
$FILLETRAD
 40
10.0
  9
$AUNITS
 70
     0
  9
$AUPREC
 70
     2
  9
$MENU
  1
.
  9
$ELEVATION
 40
0.0
  9
$PELEVATION
 40
0.0
  9
$THICKNESS
 40
0.0
  9
$LIMCHECK
 70
     0
  9
$CHAMFERA
 40
0.0
  9
$CHAMFERB
 40
0.0
  9
$CHAMFERC
 40
0.0
  9
$CHAMFERD
 40
0.0
  9
$SKPOLY
 70
     0
  9
$TDCREATE
 40
2458694.492955532
  9
$TDUCREATE
 40
2458694.409622199
  9
$TDUPDATE
 40
2458694.492955914
  9
$TDUUPDATE
 40
2458694.409622581
  9
$TDINDWG
 40
0.0000000116
  9
$TDUSRTIMER
 40
0.0000000116
  9
$USRTIMER
 70
     1
  9
$ANGBASE
 50
0.0
  9
$ANGDIR
 70
     0
  9
$PDMODE
 70
     0
  9
$PDSIZE
 40
-1.0
  9
$PLINEWID
 40
0.0
  9
$SPLFRAME
 70
     0
  9
$SPLINETYPE
 70
     6
  9
$SPLINESEGS
 70
     8
  9
$HANDSEED
  5
214
  9
$SURFTAB1
 70
     6
  9
$SURFTAB2
 70
     6
  9
$SURFTYPE
 70
     6
  9
$SURFU
 70
     6
  9
$SURFV
 70
     6
  9
$UCSBASE
  2

  9
$UCSNAME
  2

  9
$UCSORG
 10
0.0
 20
0.0
 30
0.0
  9
$UCSXDIR
 10
1.0
 20
0.0
 30
0.0
  9
$UCSYDIR
 10
0.0
 20
1.0
 30
0.0
  9
$UCSORTHOREF
  2

  9
$UCSORTHOVIEW
 70
     0
  9
$UCSORGTOP
 10
0.0
 20
0.0
 30
0.0
  9
$UCSORGBOTTOM
 10
0.0
 20
0.0
 30
0.0
  9
$UCSORGLEFT
 10
0.0
 20
0.0
 30
0.0
  9
$UCSORGRIGHT
 10
0.0
 20
0.0
 30
0.0
  9
$UCSORGFRONT
 10
0.0
 20
0.0
 30
0.0
  9
$UCSORGBACK
 10
0.0
 20
0.0
 30
0.0
  9
$PUCSBASE
  2

  9
$PUCSNAME
  2

  9
$PUCSORG
 10
0.0
 20
0.0
 30
0.0
  9
$PUCSXDIR
 10
1.0
 20
0.0
 30
0.0
  9
$PUCSYDIR
 10
0.0
 20
1.0
 30
0.0
  9
$PUCSORTHOREF
  2

  9
$PUCSORTHOVIEW
 70
     0
  9
$PUCSORGTOP
 10
0.0
 20
0.0
 30
0.0
  9
$PUCSORGBOTTOM
 10
0.0
 20
0.0
 30
0.0
  9
$PUCSORGLEFT
 10
0.0
 20
0.0
 30
0.0
  9
$PUCSORGRIGHT
 10
0.0
 20
0.0
 30
0.0
  9
$PUCSORGFRONT
 10
0.0
 20
0.0
 30
0.0
  9
$PUCSORGBACK
 10
0.0
 20
0.0
 30
0.0
  9
$USERI1
 70
     0
  9
$USERI2
 70
     0
  9
$USERI3
 70
     0
  9
$USERI4
 70
     0
  9
$USERI5
 70
     0
  9
$USERR1
 40
0.0
  9
$USERR2
 40
0.0
  9
$USERR3
 40
0.0
  9
$USERR4
 40
0.0
  9
$USERR5
 40
0.0
  9
$WORLDVIEW
 70
     1
  9
$SHADEDGE
 70
     3
  9
$SHADEDIF
 70
    70
  9
$TILEMODE
 70
     1
  9
$MAXACTVP
 70
    64
  9
$PINSBASE
 10
0.0
 20
0.0
 30
0.0
  9
$PLIMCHECK
 70
     0
  9
$PEXTMIN
 10
1.0000000000E+20
 20
1.0000000000E+20
 30
1.0000000000E+20
  9
$PEXTMAX
 10
-1.0000000000E+20
 20
-1.0000000000E+20
 30
-1.0000000000E+20
  9
$PLIMMIN
 10
0.0
 20
0.0
  9
$PLIMMAX
 10
420.0
 20
297.0
  9
$UNITMODE
 70
     0
  9
$VISRETAIN
 70
     1
  9
$PLINEGEN
 70
     0
  9
$PSLTSCALE
 70
     1
  9
$TREEDEPTH
 70
  3020
  9
$CMLSTYLE
  2
Standard
  9
$CMLJUST
 70
     0
  9
$CMLSCALE
 40
20.0
  9
$PROXYGRAPHICS
 70
     1
  9
$MEASUREMENT
 70
     1
  9
$CELWEIGHT
370
    -1
  9
$ENDCAPS
280
     0
  9
$JOINSTYLE
280
     0
  9
$LWDISPLAY
290
     1
  9
$INSUNITS
 70
     4
  9
$HYPERLINKBASE
  1

  9
$STYLESHEET
  1

  9
$XEDIT
290
     1
  9
$CEPSNTYPE
380
     0
  9
$PSTYLEMODE
290
     1
  9
$FINGERPRINTGUID
  2
{80084110-0043-42C8-919C-193BAD26238F}
  9
$VERSIONGUID
  2
{FAEB1C32-E019-11D5-929B-00C0DF256EC4}
  9
$EXTNAMES
290
     1
  9
$PSVPSCALE
 40
0.0
  9
$OLESTARTUP
290
     0
  0
ENDSEC
  0
SECTION
  2
CLASSES
  0
CLASS
  1
ACDBDICTIONARYWDFLT
  2
AcDbDictionaryWithDefault
  3
ObjectDBX Classes
 90
        0
280
     0
281
     0
  0
CLASS
  1
VISUALSTYLE
  2
AcDbVisualStyle
  3
ObjectDBX Classes
 90
     4095
280
     0
281
     0
  0
CLASS
  1
MATERIAL
  2
AcDbMaterial
  3
ObjectDBX Classes
 90
     1153
280
     0
281
     0
  0
CLASS
  1
SCALE
  2
AcDbScale
  3
ObjectDBX Classes
 90
     1153
280
     0
281
     0
  0
CLASS
  1
TABLESTYLE
  2
AcDbTableStyle
  3
ObjectDBX Classes
 90
     4095
280
     0
281
     0
  0
CLASS
  1
MLEADERSTYLE
  2
AcDbMLeaderStyle
  3
ACDB_MLEADERSTYLE_CLASS
 90
     4095
280
     0
281
     0
  0
CLASS
  1
SUN
  2
AcDbSun
  3
SCENEOE
 90
     1153
280
     0
281
     0
  0
CLASS
  1
ACDBPLACEHOLDER
  2
AcDbPlaceHolder
  3
ObjectDBX Classes
 90
        0
280
     0
281
     0
  0
CLASS
  1
LAYOUT
  2
AcDbLayout
  3
ObjectDBX Classes
 90
        0
280
     0
281
     0
  0
ENDSEC
  0
SECTION
  2
TABLES
  0
TABLE
  2
VPORT
  5
8
330
0
100
AcDbSymbolTable
 70
     1
  0
VPORT
  5
29
330
8
100
AcDbSymbolTableRecord
100
AcDbViewportTableRecord
  2
*Active
 70
     0
 10
0.0
 20
0.0
 11
1.0
 21
1.0
 12
10000.0
 22
5000.0
 13
0.0
 23
0.0
 14
10.0
 24
10.0
 15
10.0
 25
10.0
 16
0.0
 26
0.0
 36
1.0
 17
0.0
 27
0.0
 37
0.0
 40
10000.0
 41
2.0
 42
50.0
 43
0.0
 44
0.0
 50
0.0
 51
0.0
 71
     0
 72
  2000
 73
     1
 74
     3
 75
     0
 76
     0
 77
     0
 78
     0
281
     0
 65
     1
110
0.0
120
0.0
130
0.0
111
1.0
121
0.0
131
0.0
112
0.0
122
1.0
132
0.0
 79
     0
146
0.0
  0
ENDTAB
  0
TABLE
  2
LTYPE
  5
5
330
0
100
AcDbSymbolTable
 70
     6
  0
LTYPE
  5
14
330
5
100
AcDbSymbolTableRecord
100
AcDbLinetypeTableRecord
  2
ByBlock
 70
     0
  3

 72
    65
 73
     0
 40
0.0
  0
LTYPE
  5
15
330
5
100
AcDbSymbolTableRecord
100
AcDbLinetypeTableRecord
  2
ByLayer
 70
     0
  3

 72
    65
 73
     0
 40
0.0
  0
LTYPE
  5
16
330
5
100
AcDbSymbolTableRecord
100
AcDbLinetypeTableRecord
  2
Continuous
 70
     0
  3
Solid line
 72
    65
 73
     0
 40
0.0
  0
LTYPE
  5
6E
330
5
100
AcDbSymbolTableRecord
100
AcDbLinetypeTableRecord
  2
HIDDEN
 70
     0
  3
Hidden __ __ __ __ __ __ __ __ __ __ __ __ __ __
 72
    65
 73
     2
 40
1.905
 49
1.27
 74
     0
 49
-0.635
 74
     0
  0
LTYPE
  5
6F
330
5
100
AcDbSymbolTableRecord
100
AcDbLinetypeTableRecord
  2
PHANTOM
 70
     0
  3
Phantom ______  __  __  ______  __  __  ______
 72
    65
 73
     6
 40
12.7
 49
6.35
 74
     0
 49
-1.27
 74
     0
 49
1.27
 74
     0
 49
-1.27
 74
     0
 49
1.27
 74
     0
 49
-1.27
 74
     0
  0
LTYPE
  5
70
330
5
100
AcDbSymbolTableRecord
100
AcDbLinetypeTableRecord
  2
CENTER
 70
     0
  3
Center ____ _ ____ _ ____ _ ____ _ ____ _ ____
 72
    65
 73
     4
 40
10.16
 49
6.35
 74
     0
 49
-1.27
 74
     0
 49
1.27
 74
     0
 49
-1.27
 74
     0
  0
LTYPE
  5
71
330
5
100
AcDbSymbolTableRecord
100
AcDbLinetypeTableRecord
  2
CENTERX2
 70
     0
  3
Center (2x) ________  __  ________  __  _____
 72
    65
 73
     4
 40
20.32
 49
12.7
 74
     0
 49
-2.54
 74
     0
 49
2.54
 74
     0
 49
-2.54
 74
     0
  0
LTYPE
  5
72
330
5
100
AcDbSymbolTableRecord
100
AcDbLinetypeTableRecord
  2
DOT2
 70
     0
  3
Dot (.5x) ........................................
 72
    65
 73
     2
 40
0.635
 49
0.0
 74
     0
 49
-0.635
 74
     0
  0
ENDTAB
  0
TABLE
  2
LAYER
  5
2
330
0
100
AcDbSymbolTable
 70
    13
  0
LAYER
  5
10
330
2
100
AcDbSymbolTableRecord
100
AcDbLayerTableRecord
  2
0
 70
     0
 62
     7
  6
Continuous
370
    -3
390
F
  0
LAYER
  5
73
330
2
100
AcDbSymbolTableRecord
100
AcDbLayerTableRecord
  2
FORMAT
 70
     0
 62
     7
  6
Continuous
370
    -3
390
F
  0
LAYER
  5
74
330
2
100
AcDbSymbolTableRecord
100
AcDbLayerTableRecord
  2
OSA
 70
     0
 62
     7
  6
CENTER
370
    -3
390
F
  0
LAYER
  5
75
330
2
100
AcDbSymbolTableRecord
100
AcDbLayerTableRecord
  2
0_35
 70
     0
 62
     7
  6
Continuous
370
    35
390
F
  0
LAYER
  5
76
330
2
100
AcDbSymbolTableRecord
100
AcDbLayerTableRecord
  2
0_5
 70
     0
 62
     7
  6
Continuous
370
    50
390
F
  0
LAYER
  5
77
330
2
100
AcDbSymbolTableRecord
100
AcDbLayerTableRecord
  2
0_25
 70
     0
 62
     7
  6
Continuous
370
    25
390
F
  0
LAYER
  5
78
330
2
100
AcDbSymbolTableRecord
100
AcDbLayerTableRecord
  2
0_18
 70
     0
 62
     7
  6
Continuous
370
    -3
390
F
  0
LAYER
  5
79
330
2
100
AcDbSymbolTableRecord
100
AcDbLayerTableRecord
  2
SLD-0
 70
     0
 62
   179
  6
Continuous
370
    -3
390
F
  0
LAYER
  5
7A
330
2
100
AcDbSymbolTableRecord
100
AcDbLayerTableRecord
  2
KOTY
 70
     0
 62
     7
  6
Continuous
370
    -3
390
F
  0
LAYER
  5
7B
330
2
100
AcDbSymbolTableRecord
100
AcDbLayerTableRecord
  2
SILNA
 70
     0
 62
   179
  6
Continuous
370
    -3
390
F
  0
LAYER
  5
7C
330
2
100
AcDbSymbolTableRecord
100
AcDbLayerTableRecord
  2
0_18_1
 70
     0
 62
   179
  6
Continuous
370
    -3
390
F
  0
LAYER
  5
7D
330
2
100
AcDbSymbolTableRecord
100
AcDbLayerTableRecord
  2
0_35_1
 70
     0
 62
   179
  6
Continuous
370
    35
390
F
  0
LAYER
  5
7E
330
2
100
AcDbSymbolTableRecord
100
AcDbLayerTableRecord
  2
0_5_1
 70
     0
 62
   179
  6
Continuous
370
    50
390
F
  0
ENDTAB
  0
TABLE
  2
STYLE
  5
3
330
0
100
AcDbSymbolTable
 70
     1
  0
STYLE
  5
11
330
3
100
AcDbSymbolTableRecord
100
AcDbTextStyleTableRecord
  2
Standard
 70
     0
 40
0.0
 41
1.0
 50
0.0
 71
     0
 42
2.0
  3
txt
  4

  0
ENDTAB
  0
TABLE
  2
VIEW
  5
6
330
0
100
AcDbSymbolTable
 70
     0
  0
ENDTAB
  0
TABLE
  2
UCS
  5
7
330
0
100
AcDbSymbolTable
 70
     0
  0
ENDTAB
  0
TABLE
  2
APPID
  5
9
330
0
100
AcDbSymbolTable
 70
     1
  0
APPID
  5
12
330
9
100
AcDbSymbolTableRecord
100
AcDbRegAppTableRecord
  2
ACAD
 70
     0
  0
ENDTAB
  0
TABLE
  2
DIMSTYLE
  5
A
330
0
100
AcDbSymbolTable
 70
     1
100
AcDbDimStyleTable
  0
DIMSTYLE
105
27
330
A
100
AcDbSymbolTableRecord
100
AcDbDimStyleTableRecord
  2
ISO-25
 70
     0
 41
2.5
 42
0.625
 43
3.75
 44
1.25
 73
     0
 74
     0
 77
     1
 78
     8
140
2.5
141
2.5
143
0.0393700787
147
0.625
171
     3
172
     1
178
     0
271
     2
272
     2
274
     3
278
    44
283
     0
284
     8
340
11
  0
ENDTAB
  0
TABLE
  2
BLOCK_RECORD
  5
1
330
0
100
AcDbSymbolTable
 70
     1
  0
BLOCK_RECORD
  5
1F
330
1
100
AcDbSymbolTableRecord
100
AcDbBlockTableRecord
  2
*Model_Space
340
22
  0
BLOCK_RECORD
  5
1B
330
1
100
AcDbSymbolTableRecord
100
AcDbBlockTableRecord
  2
*Paper_Space
340
1E
  0
BLOCK_RECORD
  5
23
330
1
100
AcDbSymbolTableRecord
100
AcDbBlockTableRecord
  2
*Paper_Space0
340
26
  0
ENDTAB
  0
ENDSEC
  0
SECTION
  2
BLOCKS
  0
BLOCK
  5
20
330
1F
100
AcDbEntity
  8
0
100
AcDbBlockBegin
  2
*Model_Space
 70
     0
 10
0.0
 20
0.0
 30
0.0
  3
*Model_Space
  1

  0
ENDBLK
  5
21
330
1F
100
AcDbEntity
  8
0
100
AcDbBlockEnd
  0
BLOCK
  5
1C
330
1B
100
AcDbEntity
 67
     1
  8
0
100
AcDbBlockBegin
  2
*Paper_Space
 70
     0
 10
0.0
 20
0.0
 30
0.0
  3
*Paper_Space
  1

  0
ENDBLK
  5
1D
330
1B
100
AcDbEntity
 67
     1
  8
0
100
AcDbBlockEnd
  0
BLOCK
  5
24
330
23
100
AcDbEntity
  8
0
100
AcDbBlockBegin
  2
*Paper_Space0
 70
     0
 10
0.0
 20
0.0
 30
0.0
  3
*Paper_Space0
  1

  0
ENDBLK
  5
25
330
23
100
AcDbEntity
  8
0
100
AcDbBlockEnd
  0
ENDSEC
  0
SECTION
  2
ENTITIES
  0
LINE
  5
7F
330
1F
100
AcDbEntity
  8
0
  6
Continuous
 62
     7
370
    25
100
AcDbLine
 10
6404.0187505677
 20
5287.3209946623
 30
0.0
 11
6406.0187546208
 21
5283.3209865561
 31
0.0
  0
LINE
  5
80
330
1F
100
AcDbEntity
  8
0
  6
Continuous
 62
     7
370
    25
100
AcDbLine
 10
6462.0187488988
 20
5283.3209865561
 30
0.0
 11
6464.0187529519
 21
5287.3209946623
 31
0.0
  0
ARC
  5
81
330
1F
100
AcDbEntity
  8
0
  6
Continuous
 62
     7
370
    25
100
AcDbCircle
 10
6409.0187553361
 20
5276.3209950527
 30
0.0
 40
3.0
100
AcDbArc
 50
180.0
 51
270.0
  0
ARC
  5
82
330
1F
100
AcDbEntity
  8
0
  6
Continuous
 62
     7
370
    25
100
AcDbCircle
 10
6459.0187553361
 20
5276.3209950527
 30
0.0
 40
3.0
100
AcDbArc
 50
270.0
 51
0.0
  0
LINE
  5
83
330
1F
100
AcDbEntity
  8
0
  6
Continuous
 62
     7
370
    25
100
AcDbLine
 10
6406.0187546208
 20
5283.3209865561
 30
0.0
 11
6406.0187546208
 21
5276.3209872713
 31
0.0
  0
LINE
  5
84
330
1F
100
AcDbEntity
  8
0
  6
Continuous
 62
     7
370
    25
100
AcDbLine
 10
6462.0187488988
 20
5276.3209872713
 30
0.0
 11
6462.0187488988
 21
5283.3209865561
 31
0.0
  0
LINE
  5
85
330
1F
100
AcDbEntity
  8
0
  6
Continuous
 62
     7
370
    25
100
AcDbLine
 10
6418.0187491372
 20
5273.3209960928
 30
0.0
 11
6418.0187491372
 21
5267.2322028151
 31
0.0
  0
LINE
  5
86
330
1F
100
AcDbEntity
  8
0
  6
Continuous
 62
     7
370
    25
100
AcDbLine
 10
6418.0187491372
 20
5253.2322042456
 30
0.0
 11
6418.0187491372
 21
5250.7321768274
 31
0.0
  0
LINE
  5
87
330
1F
100
AcDbEntity
  8
0
  6
Continuous
 62
     7
370
    25
100
AcDbLine
 10
6450.0187543824
 20
5250.7321768274
 30
0.0
 11
6450.0187543824
 21
5253.2322042456
 31
0.0
  0
LINE
  5
88
330
1F
100
AcDbEntity
  8
0
  6
Continuous
 62
     7
370
    25
100
AcDbLine
 10
6450.0187543824
 20
5267.2322028151
 30
0.0
 11
6450.0187543824
 21
5273.3209960928
 31
0.0
  0
LINE
  5
89
330
1F
100
AcDbEntity
  8
0
  6
Continuous
 62
     7
370
    25
100
AcDbLine
 10
6459.7687480643
 20
5291.8661170473
 30
0.0
 11
6459.7687480643
 21
5298.6994617453
 31
0.0
  0
LINE
  5
8A
330
1F
100
AcDbEntity
  8
0
  6
Continuous
 62
     7
370
    25
100
AcDbLine
 10
6408.2687554553
 20
5298.6994617453
 30
0.0
 11
6408.2687554553
 21
5291.8661170473
 31
0.0
  0
LINE
  5
8B
330
1F
100
AcDbEntity
  8
0
  6
Continuous
 62
     7
370
    25
100
AcDbLine
 10
6408.2687554553
 20
5291.8661170473
 30
0.0
 11
6410.2687595084
 21
5290.1994519701
 31
0.0
  0
LINE
  5
8C
330
1F
100
AcDbEntity
  8
0
  6
Continuous
 62
     7
370
    25
100
AcDbLine
 10
6457.7687589124
 20
5290.1994519701
 30
0.0
 11
6459.7687480643
 21
5291.8661170473
 31
0.0
  0
SPLINE
  5
8D
330
1F
100
AcDbEntity
  8
0
  6
Continuous
 62
     7
370
    25
100
AcDbSpline
210
0.0
220
0.0
230
1.0
 70
     8
 71
     3
 72
     9
 73
     5
 74
     0
 42
0.000000001
 43
0.00000001
 40
0.0
 40
0.0
 40
0.0
 40
0.0
 40
0.5000074538809942
 40
1.0
 40
1.0
 40
1.0
 40
1.0
 10
6411.132743735606
 20
5288.519971894279
 30
0.0
 10
6410.988645613938
 20
5288.436752012743
 30
0.0
 10
6410.700453666899
 20
5288.270314730878
 30
0.0
 10
6410.41224883068
 20
5288.103899808212
 30
0.0
 10
6410.268148560816
 20
5288.020693587318
 30
0.0
  0
SPLINE
  5
8E
330
1F
100
AcDbEntity
  8
0
  6
Continuous
 62
     7
370
    25
100
AcDbSpline
210
0.0
220
0.0
230
1.0
 70
     8
 71
     3
 72
     9
 73
     5
 74
     0
 42
0.000000001
 43
0.00000001
 40
0.0
 40
0.0
 40
0.0
 40
0.0
 40
0.3804253520309767
 40
1.0
 40
1.0
 40
1.0
 40
1.0
 10
6457.605710406596
 20
5287.320994662299
 30
0.0
 10
6457.51724299789
 20
5287.372087027685
 30
0.0
 10
6457.284694330369
 20
5287.506390288793
 30
0.0
 10
6457.052129384171
 20
5287.640667623781
 30
0.0
 10
6456.9080380395
 20
5287.723862456336
 30
0.0
  0
SPLINE
  5
8F
330
1F
100
AcDbEntity
  8
0
  6
Continuous
 62
     7
370
    25
100
AcDbSpline
210
0.0
220
0.0
230
1.0
 70
     8
 71
     3
 72
     9
 73
     5
 74
     0
 42
0.000000001
 43
0.00000001
 40
0.0
 40
0.0
 40
0.0
 40
0.0
 40
0.5000023911119403
 40
1.0
 40
1.0
 40
1.0
 40
1.0
 10
6456.90392531901
 20
5288.112127112403
 30
0.0
 10
6457.047220751248
 20
5288.194868095613
 30
0.0
 10
6457.33381024519
 20
5288.360349270666
 30
0.0
 10
6457.6203889495
 20
5288.52583281984
 30
0.0
 10
6457.763677616412
 20
5288.608574198737
 30
0.0
  0
SPLINE
  5
90
330
1F
100
AcDbEntity
  8
0
  6
Continuous
 62
     7
370
    25
100
AcDbSpline
210
0.0
220
0.0
230
1.0
 70
     8
 71
     3
 72
     9
 73
     5
 74
     0
 42
0.000000001
 43
0.00000001
 40
0.0
 40
0.0
 40
0.0
 40
0.0
 40
0.503274170587497
 40
1.0
 40
1.0
 40
1.0
 40
1.0
 10
6410.273825903231
 20
5287.814848946586
 30
0.0
 10
6410.417118703737
 20
5287.732096275349
 30
0.0
 10
6410.70183985352
 20
5287.567667667501
 30
0.0
 10
6410.986581524715
 20
5287.403257490354
 30
0.0
 10
6411.128020067507
 20
5287.321590708747
 30
0.0
  0
SPLINE
  5
91
330
1F
100
AcDbEntity
  8
0
  6
Continuous
 62
     7
370
    25
100
AcDbSpline
210
0.0
220
0.0
230
1.0
 70
     8
 71
     3
 72
     9
 73
     5
 74
     0
 42
0.000000001
 43
0.00000001
 40
0.0
 40
0.0
 40
0.0
 40
0.0
 40
0.5032666670250171
 40
1.0
 40
1.0
 40
1.0
 40
1.0
 10
6410.273825903231
 20
5289.402329253211
 30
0.0
 10
6410.41711978609
 20
5289.319588390903
 30
0.0
 10
6410.701847331638
 20
5289.155180796024
 30
0.0
 10
6410.986582579047
 20
5288.99076942567
 30
0.0
 10
6411.128020067507
 20
5288.909100817695
 30
0.0
  0
LINE
  5
92
330
1F
100
AcDbEntity
  8
0
  6
Continuous
 62
     7
370
    25
100
AcDbLine
 10
6457.7687589124
 20
5288.6139386168
 30
0.0
 11
6457.7687589124
 21
5290.1994519701
 31
0.0
  0
LINE
  5
93
330
1F
100
AcDbEntity
  8
0
  6
Continuous
 62
     7
370
    25
100
AcDbLine
 10
6410.2687595084
 20
5288.0185478201
 30
0.0
 11
6410.2687595084
 21
5287.8201835623
 31
0.0
  0
LINE
  5
94
330
1F
100
AcDbEntity
  8
0
  6
Continuous
 62
     7
370
    25
100
AcDbLine
 10
6410.2687595084
 20
5290.1994519701
 30
0.0
 11
6410.2687595084
 21
5289.4076936712
 31
0.0
  0
LINE
  5
95
330
1F
100
AcDbEntity
  8
0
  6
Continuous
 62
     7
370
    25
100
AcDbLine
 10
6456.904759784
 20
5287.7262168398
 30
0.0
 11
6456.904759784
 21
5288.1126039496
 31
0.0
  0
LINE
  5
96
330
1F
100
AcDbEntity
  8
0
  6
Continuous
 62
     7
370
    25
100
AcDbLine
 10
6411.1280200675
 20
5288.9113657942
 30
0.0
 11
6411.1280200675
 21
5288.5172300806
 31
0.0
  0
LINE
  5
97
330
1F
100
AcDbEntity
  8
0
  6
Continuous
 62
     7
370
    25
100
AcDbLine
 10
6400.0187573627
 20
5190.7322042456
 30
0.0
 11
6406.9125411704
 21
5123.4265201559
 31
0.0
  0
LINE
  5
98
330
1F
100
AcDbEntity
  8
0
  6
Continuous
 62
     7
370
    25
100
AcDbLine
 10
6461.1249623492
 20
5123.4265201559
 30
0.0
 11
6468.0187610581
 21
5190.7322042456
 31
0.0
  0
LINE
  5
99
330
1F
100
AcDbEntity
  8
0
  6
Continuous
 62
     7
370
    25
100
AcDbLine
 10
6468.0187610581
 20
5190.7322042456
 30
0.0
 11
6461.3281992868
 21
5248.0798297396
 31
0.0
  0
LINE
  5
9A
330
1F
100
AcDbEntity
  8
0
  6
Continuous
 62
     7
370
    25
100
AcDbLine
 10
6406.7093191341
 20
5248.0798297396
 30
0.0
 11
6400.0187573627
 21
5190.7322042456
 31
0.0
  0
ARC
  5
9B
330
1F
100
AcDbEntity
  8
0
  6
Continuous
 62
     7
370
    25
100
AcDbCircle
 10
6409.6891029982
 20
5247.732191429
 30
0.0
 40
3.000000000000909
100
AcDbArc
 50
90.0
 51
173.345574954
  0
ARC
  5
9C
330
1F
100
AcDbEntity
  8
0
  6
Continuous
 62
     7
370
    25
100
AcDbCircle
 10
6458.348407674
 20
5247.732191429
 30
0.0
 40
3.000000000000909
100
AcDbArc
 50
6.654425046
 51
90.0
  0
ARC
  5
9D
330
1F
100
AcDbEntity
  8
0
  6
Continuous
 62
     7
370
    25
100
AcDbCircle
 10
6409.8969274699
 20
5123.732191429
 30
0.0
 40
3.000000000000517
100
AcDbArc
 50
185.8481280262
 51
270.0
  0
ARC
  5
9E
330
1F
100
AcDbEntity
  8
0
  6
Continuous
 62
     7
370
    25
100
AcDbCircle
 10
6458.1405832023
 20
5123.732191429
 30
0.0
 40
3.000000000000517
100
AcDbArc
 50
270.0
 51
354.1518719738
  0
LINE
  5
9F
330
1F
100
AcDbEntity
  8
0
  6
Continuous
 62
     7
370
    25
100
AcDbLine
 10
6459.0187577203
 20
5253.2322042456
 30
0.0
 11
6457.0187536672
 21
5257.2321825495
 31
0.0
  0
LINE
  5
A0
330
1F
100
AcDbEntity
  8
0
  6
Continuous
 62
     7
370
    25
100
AcDbLine
 10
6411.0187498525
 20
5257.2321825495
 30
0.0
 11
6409.0187607005
 21
5253.2322042456
 31
0.0
  0
LINE
  5
A1
330
1F
100
AcDbEntity
  8
0
  6
Continuous
 62
     7
370
    25
100
AcDbLine
 10
6411.0187498525
 20
5264.2321818342
 30
0.0
 11
6411.0187498525
 21
5257.2321825495
 31
0.0
  0
LINE
  5
A2
330
1F
100
AcDbEntity
  8
0
  6
Continuous
 62
     7
370
    25
100
AcDbLine
 10
6457.0187536672
 20
5257.2321825495
 30
0.0
 11
6457.0187536672
 21
5264.2321818342
 31
0.0
  0
ARC
  5
A3
330
1F
100
AcDbEntity
  8
0
  6
Continuous
 62
     7
370
    25
100
AcDbCircle
 10
6414.0187553361
 20
5264.232191429
 30
0.0
 40
3.0
100
AcDbArc
 50
90.0
 51
180.0
  0
ARC
  5
A4
330
1F
100
AcDbEntity
  8
0
  6
Continuous
 62
     7
370
    25
100
AcDbCircle
 10
6454.0187553361
 20
5264.232191429
 30
0.0
 40
3.0
100
AcDbArc
 50
0.0
 51
90.0
  0
LINE
  5
A5
330
1F
100
AcDbEntity
  8
0
  6
Continuous
 62
     7
370
    25
100
AcDbLine
 10
6418.0187491372
 20
5253.2322042456
 30
0.0
 11
6418.0187491372
 21
5250.7321768274
 31
0.0
  0
LINE
  5
A6
330
1F
100
AcDbEntity
  8
0
  6
Continuous
 62
     7
370
    25
100
AcDbLine
 10
6450.0187543824
 20
5250.7321768274
 30
0.0
 11
6450.0187543824
 21
5253.2322042456
 31
0.0
  0
LINE
  5
A7
330
1F
100
AcDbEntity
  8
0
  6
Continuous
 62
     7
370
    25
100
AcDbLine
 10
6434.0187517598
 20
5287.3209946623
 30
0.0
 11
6464.0187529519
 21
5287.3209946623
 31
0.0
  0
LINE
  5
A8
330
1F
100
AcDbEntity
  8
0
  6
Continuous
 62
     7
370
    25
100
AcDbLine
 10
6404.0187505677
 20
5287.3209946623
 30
0.0
 11
6434.0187517598
 21
5287.3209946623
 31
0.0
  0
LINE
  5
A9
330
1F
100
AcDbEntity
  8
0
  6
Continuous
 62
     7
370
    25
100
AcDbLine
 10
6434.0187517598
 20
5283.3209865561
 30
0.0
 11
6462.0187488988
 21
5283.3209865561
 31
0.0
  0
LINE
  5
AA
330
1F
100
AcDbEntity
  8
0
  6
Continuous
 62
     7
370
    25
100
AcDbLine
 10
6406.0187546208
 20
5283.3209865561
 30
0.0
 11
6434.0187517598
 21
5283.3209865561
 31
0.0
  0
LINE
  5
AB
330
1F
100
AcDbEntity
  8
0
  6
Continuous
 62
     7
370
    25
100
AcDbLine
 10
6434.0187517598
 20
5273.3209960928
 30
0.0
 11
6459.0187577203
 21
5273.3209960928
 31
0.0
  0
LINE
  5
AC
330
1F
100
AcDbEntity
  8
0
  6
Continuous
 62
     7
370
    25
100
AcDbLine
 10
6409.0187607005
 20
5273.3209960928
 30
0.0
 11
6434.0187517598
 21
5273.3209960928
 31
0.0
  0
LINE
  5
AD
330
1F
100
AcDbEntity
  8
0
  6
Continuous
 62
     7
370
    25
100
AcDbLine
 10
6422.3637191251
 20
5291.8661170473
 30
0.0
 11
6408.2687554553
 21
5291.8661170473
 31
0.0
  0
LINE
  5
AE
330
1F
100
AcDbEntity
  8
0
  6
Continuous
 62
     7
370
    25
100
AcDbLine
 10
6459.7687480643
 20
5291.8661170473
 30
0.0
 11
6422.3637191251
 21
5291.8661170473
 31
0.0
  0
LINE
  5
AF
330
1F
100
AcDbEntity
  8
0
  6
Continuous
 62
     7
370
    25
100
AcDbLine
 10
6423.2689646676
 20
5290.1994519701
 30
0.0
 11
6410.2687595084
 21
5290.1994519701
 31
0.0
  0
LINE
  5
B0
330
1F
100
AcDbEntity
  8
0
  6
Continuous
 62
     7
370
    25
100
AcDbLine
 10
6457.7687589124
 20
5290.1994519701
 30
0.0
 11
6423.2689646676
 21
5290.1994519701
 31
0.0
  0
SPLINE
  5
B1
330
1F
100
AcDbEntity
  8
0
  6
Continuous
 62
     7
370
    25
100
AcDbSpline
210
0.0
220
0.0
230
1.0
 70
     8
 71
     3
 72
    15
 73
    11
 74
     0
 42
0.000000001
 43
0.00000001
 40
0.0
 40
0.0
 40
0.0
 40
0.0
 40
0.0349107097941069
 40
0.1764992515472745
 40
0.3165016971675608
 40
0.4596657478310696
 40
0.6026279941158239
 40
0.7423997593555736
 40
0.8843751469839054
 40
1.0
 40
1.0
 40
1.0
 40
1.0
 10
6433.753511090571
 20
5287.320994662299
 30
0.0
 10
6434.17613653335
 20
5287.325802486455
 30
0.0
 10
6436.312818221445
 20
5287.350109565002
 30
0.0
 10
6440.149313570422
 20
5287.392370493332
 30
0.0
 10
6444.971529108636
 20
5287.446759923234
 30
0.0
 10
6449.25639599262
 20
5287.505838999467
 30
0.0
 10
6452.763798977364
 20
5287.564658305203
 30
0.0
 10
6455.276488210074
 20
5287.618624348476
 30
0.0
 10
6456.745759076144
 20
5287.672464329615
 30
0.0
 10
6456.793103647284
 20
5287.707939355375
 30
0.0
 10
6456.814354439074
 20
5287.723862456336
 30
0.0
  0
SPLINE
  5
B2
330
1F
100
AcDbEntity
  8
0
  6
Continuous
 62
     7
370
    25
100
AcDbSpline
210
0.0
220
0.0
230
1.0
 70
     8
 71
     3
 72
    11
 73
     7
 74
     0
 42
0.000000001
 43
0.00000001
 40
0.0
 40
0.0
 40
0.0
 40
0.0
 40
0.0171994639512412
 40
0.3659614679234702
 40
0.7100392663954952
 40
0.9999999999999999
 40
0.9999999999999999
 40
0.9999999999999999
 40
0.9999999999999999
 10
6411.160564203555
 20
5288.520031498923
 30
0.0
 10
6411.15313703113
 20
5288.52098533422
 30
0.0
 10
6410.995105424397
 20
5288.541280557748
 30
0.0
 10
6411.791732713242
 20
5288.580233184463
 30
0.0
 10
6413.381988509276
 20
5288.631036950962
 30
0.0
 10
6415.265526423384
 20
5288.666686994379
 30
0.0
 10
6416.126912613207
 20
5288.682990597739
 30
0.0
  0
SPLINE
  5
B3
330
1F
100
AcDbEntity
  8
0
  6
Continuous
 62
     7
370
    25
100
AcDbSpline
210
0.0
220
0.0
230
1.0
 70
     8
 71
     3
 72
    11
 73
     7
 74
     0
 42
0.000000001
 43
0.00000001
 40
0.0
 40
0.0
 40
0.0
 40
0.0
 40
0.0866138232166088
 40
0.4084073317996638
 40
0.7292277246170714
 40
1.0
 40
1.0
 40
1.0
 40
1.0
 10
6410.393959064776
 20
5288.023584412589
 30
0.0
 10
6410.367308575471
 20
5288.028819493022
 30
0.0
 10
6410.241644393657
 20
5288.053504296808
 30
0.0
 10
6411.239706517784
 20
5288.095236876449
 30
0.0
 10
6413.180855461341
 20
5288.147318285982
 30
0.0
 10
6415.201885912673
 20
5288.183120726011
 30
0.0
 10
6416.126912613207
 20
5288.199507521644
 30
0.0
  0
SPLINE
  5
B4
330
1F
100
AcDbEntity
  8
0
  6
Continuous
 62
     7
370
    25
100
AcDbSpline
210
0.0
220
0.0
230
1.0
 70
     8
 71
     3
 72
    23
 73
    19
 74
     0
 42
0.000000001
 43
0.00000001
 40
0.0
 40
0.0
 40
0.0
 40
0.0
 40
0.0100680359860597
 40
0.0819933964352488
 40
0.15295258079826
 40
0.225532370930237
 40
0.2981090008247889
 40
0.3690648090978463
 40
0.4409957960231276
 40
0.5016903614419342
 40
0.5619130784924037
 40
0.6208973714891741
 40
0.6671743889226289
 40
0.7140751163025072
 40
0.786778076572809
 40
0.8579596043523792
 40
0.9295834667087458
 40
1.0
 40
1.0
 40
1.0
 40
1.0
 10
6410.342624564463
 20
5287.820183562293
 30
0.0
 10
6410.318855301735
 20
5287.822918394911
 30
0.0
 10
6410.125280051859
 20
5287.845190684688
 30
0.0
 10
6410.926355861453
 20
5287.885641908831
 30
0.0
 10
6412.779675034848
 20
5287.939789347949
 30
0.0
 10
6415.836886491483
 20
5287.998756987276
 30
0.0
 10
6419.797154391932
 20
5288.057731021101
 30
0.0
 10
6424.471861095562
 20
5288.11187167158
 30
0.0
 10
6429.344888034228
 20
5288.165918265409
 30
0.0
 10
6434.140956158448
 20
5288.218437550307
 30
0.0
 10
6438.610952881621
 20
5288.266991369392
 30
0.0
 10
6442.573551718304
 20
5288.308315150703
 30
0.0
 10
6445.982199043028
 20
5288.348308095971
 30
0.0
 10
6449.394267882257
 20
5288.393107354646
 30
0.0
 10
6452.775684009985
 20
5288.445463515745
 30
0.0
 10
6455.611757934298
 20
5288.500246896769
 30
0.0
 10
6457.434897710247
 20
5288.555995405916
 30
0.0
 10
6457.64500378719
 20
5288.594733971118
 30
0.0
 10
6457.749163885409
 20
5288.613938616767
 30
0.0
  0
SPLINE
  5
B5
330
1F
100
AcDbEntity
  8
0
  6
Continuous
 62
     7
370
    25
100
AcDbSpline
210
0.0
220
0.0
230
1.0
 70
     8
 71
     3
 72
    12
 73
     8
 74
     0
 42
0.000000001
 43
0.00000001
 40
0.0
 40
0.0
 40
0.0
 40
0.0
 40
0.0440862203821253
 40
0.3590352999534604
 40
0.6697536747797064
 40
0.9875683920753576
 40
1.0
 40
1.0
 40
1.0
 40
1.0
 10
6410.342624564463
 20
5289.407693671241
 30
0.0
 10
6410.318854045527
 20
5289.410417823506
 30
0.0
 10
6410.125268491532
 20
5289.432603141668
 30
0.0
 10
6410.926792266737
 20
5289.473169108271
 30
0.0
 10
6412.778128749501
 20
5289.527194815902
 30
0.0
 10
6414.853862057754
 20
5289.567484511434
 30
0.0
 10
6416.080729115984
 20
5289.587799249188
 30
0.0
 10
6416.126912613207
 20
5289.588563965812
 30
0.0
  0
SPLINE
  5
B6
330
1F
100
AcDbEntity
  8
0
  6
Continuous
 62
     7
370
    25
100
AcDbSpline
210
0.0
220
0.0
230
1.0
 70
     8
 71
     3
 72
    22
 73
    18
 74
     0
 42
0.000000001
 43
0.00000001
 40
0.0
 40
0.0
 40
0.0
 40
0.0
 40
0.0104300832927991
 40
0.0828570006884118
 40
0.1543111511891521
 40
0.2273970580627741
 40
0.3004798613250635
 40
0.3719303971210793
 40
0.4443631877450987
 40
0.5176841083123289
 40
0.5900124065937831
 40
0.6615304724031627
 40
0.7346635948391794
 40
0.8076936286557336
 40
0.8790938549905021
 40
0.9516197628228698
 40
1.0
 40
1.0
 40
1.0
 40
1.0
 10
6411.200931449229
 20
5287.323855685248
 30
0.0
 10
6411.17728582607
 20
5287.326670210593
 30
0.0
 10
6410.989444045773
 20
5287.349028912998
 30
0.0
 10
6411.761333541411
 20
5287.389550544324
 30
0.0
 10
6413.548216505051
 20
5287.44370099486
 30
0.0
 10
6416.494671804838
 20
5287.502664760132
 30
0.0
 10
6420.311612455364
 20
5287.561651476548
 30
0.0
 10
6424.817552540631
 20
5287.61574584003
 30
0.0
 10
6429.792472437194
 20
5287.673002686001
 30
0.0
 10
6435.006689642546
 20
5287.732373500772
 30
0.0
 10
6440.146512500741
 20
5287.789277026397
 30
0.0
 10
6444.972419653914
 20
5287.843629155552
 30
0.0
 10
6449.255676892839
 20
5287.902720166213
 30
0.0
 10
6452.765751113795
 20
5287.961529727259
 30
0.0
 10
6455.269517193733
 20
5288.015522350309
 30
0.0
 10
6456.691135543923
 20
5288.06644148148
 30
0.0
 10
6456.747339801567
 20
5288.099070647783
 30
0.0
 10
6456.769829769427
 20
5288.112127112403
 30
0.0
  0
SPLINE
  5
B7
330
1F
100
AcDbEntity
  8
0
  6
Continuous
 62
     7
370
    25
100
AcDbSpline
210
0.0
220
0.0
230
1.0
 70
     8
 71
     3
 72
    11
 73
     7
 74
     0
 42
0.000000001
 43
0.00000001
 40
0.0
 40
0.0
 40
0.0
 40
0.0
 40
0.0486189808112307
 40
0.3862312899933356
 40
0.719309144683278
 40
1.0
 40
1.0
 40
1.0
 40
1.0
 10
6411.200931449229
 20
5288.911365794196
 30
0.0
 10
6411.177232333412
 20
5288.91416964759
 30
0.0
 10
6410.98896553059
 20
5288.936443580435
 30
0.0
 10
6411.778925495348
 20
5288.977067497497
 30
0.0
 10
6413.38459482244
 20
5289.027932354238
 30
0.0
 10
6415.26634433703
 20
5289.06354968174
 30
0.0
 10
6416.126912613207
 20
5289.079838322654
 30
0.0
  0
LINE
  5
B8
330
1F
100
AcDbEntity
  8
0
  6
Continuous
 62
     7
370
    25
100
AcDbLine
 10
6416.1269126132
 20
5289.5885639658
 30
0.0
 11
6416.1269126132
 21
5288.1995075216
 31
0.0
  0
LINE
  5
B9
330
1F
100
AcDbEntity
  8
0
  6
Continuous
 62
     7
370
    25
100
AcDbLine
 10
6400.0187573627
 20
5190.7322042456
 30
0.0
 11
6468.0187610581
 21
5190.7322042456
 31
0.0
  0
LINE
  5
BA
330
1F
100
AcDbEntity
  8
0
  6
Continuous
 62
     7
370
    25
100
AcDbLine
 10
6409.689104338
 20
5250.7321768274
 30
0.0
 11
6458.3484140828
 21
5250.7321768274
 31
0.0
  0
LINE
  5
BB
330
1F
100
AcDbEntity
  8
0
  6
Continuous
 62
     7
370
    25
100
AcDbLine
 10
6409.8969308332
 20
5120.7321815958
 30
0.0
 11
6458.1405875876
 21
5120.7321815958
 31
0.0
  0
LINE
  5
BC
330
1F
100
AcDbEntity
  8
0
  6
Continuous
 62
     7
370
    25
100
AcDbLine
 10
6411.0187498525
 20
5257.2321825495
 30
0.0
 11
6457.0187536672
 21
5257.2321825495
 31
0.0
  0
LINE
  5
BD
330
1F
100
AcDbEntity
  8
0
  6
Continuous
 62
     7
370
    25
100
AcDbLine
 10
6409.0187607005
 20
5253.2322042456
 30
0.0
 11
6459.0187577203
 21
5253.2322042456
 31
0.0
  0
LINE
  5
BE
330
1F
100
AcDbEntity
  8
0
  6
Continuous
 62
     7
370
    25
100
AcDbLine
 10
6414.0187559321
 20
5267.2322028151
 30
0.0
 11
6454.0187624887
 21
5267.2322028151
 31
0.0
  0
LINE
  5
BF
330
1F
100
AcDbEntity
  8
0
  6
Continuous
 62
     7
370
    25
100
AcDbLine
 10
6450.5187479451
 20
5250.7321768274
 30
0.0
 11
6450.0187543824
 21
5251.0984473696
 31
0.0
  0
LINE
  5
C0
330
1F
100
AcDbEntity
  8
0
  6
Continuous
 62
     7
370
    25
100
AcDbLine
 10
6418.0187491372
 20
5251.0984473696
 30
0.0
 11
6417.5187555745
 21
5250.7321768274
 31
0.0
  0
ARC
  5
C1
330
1F
100
AcDbEntity
  8
0
  6
Continuous
 62
     7
370
    25
100
AcDbCircle
 10
6434.0187553361
 20
5228.732191429
 30
0.0
 40
40.00000000000038
100
AcDbArc
 50
354.8638200785
 51
54.9003678046
  0
ARC
  5
C2
330
1F
100
AcDbEntity
  8
0
  6
Continuous
 62
     7
370
    25
100
AcDbCircle
 10
6434.0187553361
 20
5228.732191429
 30
0.0
 40
39.99999999999973
100
AcDbArc
 50
125.0996321954
 51
216.1070114058
  0
ARC
  5
C3
330
1F
100
AcDbEntity
  8
0
  6
Continuous
 62
     7
370
    25
100
AcDbCircle
 10
6434.0187553361
 20
5228.732191429
 30
0.0
 40
40.00000000000038
100
AcDbArc
 50
323.8929885942
 51
354.8638200785
  0
LINE
  5
C4
330
1F
100
AcDbEntity
  8
0
  6
Continuous
 62
     7
370
    25
100
AcDbLine
 10
5926.0187653497
 20
5616.6994544977
 30
0.0
 11
5924.0187612966
 21
5616.6994544977
 31
0.0
  0
ARC
  5
C5
330
1F
100
AcDbEntity
  8
0
  6
Continuous
 62
     7
370
    25
100
AcDbCircle
 10
5926.0187553361
 20
5616.6994545927
 30
0.0
 40
2.0
100
AcDbArc
 50
90.0
 51
180.0
  0
LINE
  5
C6
330
1F
100
AcDbEntity
  8
0
  6
Continuous
 62
     7
370
    25
100
AcDbLine
 10
5926.0187653497
 20
5616.6994544977
 30
0.0
 11
5926.0187653497
 21
5618.6994545927
 31
0.0
  0
LINE
  5
C7
330
1F
100
AcDbEntity
  8
0
  6
Continuous
 62
     7
370
    25
100
AcDbLine
 10
6622.0187453225
 20
5616.6994544977
 30
0.0
 11
5926.0187653497
 21
5616.6994544977
 31
0.0
  0
LINE
  5
C8
330
1F
100
AcDbEntity
  8
0
  6
Continuous
 62
     7
370
    25
100
AcDbLine
 10
5926.0187653497
 20
5618.6994545927
 30
0.0
 11
6622.0187453225
 21
5618.6994545927
 31
0.0
  0
LINE
  5
C9
330
1F
100
AcDbEntity
  8
0
  6
Continuous
 62
     7
370
    25
100
AcDbLine
 10
6622.0187453225
 20
5616.6994544977
 30
0.0
 11
6622.0187453225
 21
5618.6994545927
 31
0.0
  0
LINE
  5
CA
330
1F
100
AcDbEntity
  8
0
  6
Continuous
 62
     7
370
    25
100
AcDbLine
 10
5924.0187612966
 20
5580.6994558146
 30
0.0
 11
5926.0187653497
 21
5580.6994558146
 31
0.0
  0
LINE
  5
CB
330
1F
100
AcDbEntity
  8
0
  6
Continuous
 62
     7
370
    25
100
AcDbLine
 10
5926.0187653497
 20
5578.6994554868
 30
0.0
 11
5926.0187653497
 21
5580.6994558146
 31
0.0
  0
ARC
  5
CC
330
1F
100
AcDbEntity
  8
0
  6
Continuous
 62
     7
370
    25
100
AcDbCircle
 10
5926.0187553361
 20
5580.6994545927
 30
0.0
 40
2.0
100
AcDbArc
 50
180.0
 51
270.0
  0
LINE
  5
CD
330
1F
100
AcDbEntity
  8
0
  6
Continuous
 62
     7
370
    25
100
AcDbLine
 10
5924.0187612966
 20
5580.6994558146
 30
0.0
 11
5924.0187612966
 21
5616.6994544977
 31
0.0
  0
LINE
  5
CE
330
1F
100
AcDbEntity
  8
0
  6
Continuous
 62
     7
370
    25
100
AcDbLine
 10
5926.0187653497
 20
5616.6994544977
 30
0.0
 11
5926.0187653497
 21
5580.6994558146
 31
0.0
  0
LINE
  5
CF
330
1F
100
AcDbEntity
  8
0
  6
Continuous
 62
     7
370
    25
100
AcDbLine
 10
6622.0187453225
 20
5578.6994554868
 30
0.0
 11
5926.0187653497
 21
5578.6994554868
 31
0.0
  0
LINE
  5
D0
330
1F
100
AcDbEntity
  8
0
  6
Continuous
 62
     7
370
    25
100
AcDbLine
 10
5926.0187653497
 20
5580.6994558146
 30
0.0
 11
6622.0187453225
 21
5580.6994558146
 31
0.0
  0
LINE
  5
D1
330
1F
100
AcDbEntity
  8
0
  6
Continuous
 62
     7
370
    25
100
AcDbLine
 10
6622.0187453225
 20
5578.6994554868
 30
0.0
 11
6622.0187453225
 21
5580.6994558146
 31
0.0
  0
LINE
  5
D2
330
1F
100
AcDbEntity
  8
0
  6
Continuous
 62
     7
370
    25
100
AcDbLine
 10
6622.0187453225
 20
5580.6994558146
 30
0.0
 11
6622.0187453225
 21
5616.6994544977
 31
0.0
  0
LINE
  5
D3
330
1F
100
AcDbEntity
  8
0
  6
Continuous
 62
     7
370
    25
100
AcDbLine
 10
6624.0187493756
 20
5580.6994558146
 30
0.0
 11
6622.0187453225
 21
5580.6994558146
 31
0.0
  0
ARC
  5
D4
330
1F
100
AcDbEntity
  8
0
  6
Continuous
 62
     7
370
    25
100
AcDbCircle
 10
6622.0187553361
 20
5580.6994545927
 30
0.0
 40
2.0
100
AcDbArc
 50
270.0
 51
0.0
  0
ARC
  5
D5
330
1F
100
AcDbEntity
  8
0
  6
Continuous
 62
     7
370
    25
100
AcDbCircle
 10
6622.0187553361
 20
5616.6994545927
 30
0.0
 40
2.0
100
AcDbArc
 50
0.0
 51
90.0
  0
LINE
  5
D6
330
1F
100
AcDbEntity
  8
0
  6
Continuous
 62
     7
370
    25
100
AcDbLine
 10
6622.0187453225
 20
5616.6994544977
 30
0.0
 11
6624.0187493756
 21
5616.6994544977
 31
0.0
  0
LINE
  5
D7
330
1F
100
AcDbEntity
  8
0
  6
Continuous
 62
     7
370
    25
100
AcDbLine
 10
6624.0187493756
 20
5616.6994544977
 30
0.0
 11
6624.0187493756
 21
5580.6994558146
 31
0.0
  0
LINE
  5
D8
330
1F
100
AcDbEntity
  8
0
  6
Continuous
 62
     7
370
    25
100
AcDbLine
 10
5966.018757005
 20
5298.6994617453
 30
0.0
 11
5964.0187529519
 21
5298.6994617453
 31
0.0
  0
LINE
  5
D9
330
1F
100
AcDbEntity
  8
0
  6
Continuous
 62
     7
370
    25
100
AcDbLine
 10
5964.0187529519
 20
5578.1994544735
 30
0.0
 11
5964.0187529519
 21
5298.6994617453
 31
0.0
  0
LINE
  5
DA
330
1F
100
AcDbEntity
  8
0
  6
Continuous
 62
     7
370
    25
100
AcDbLine
 10
5966.018757005
 20
5578.1994544735
 30
0.0
 11
5964.0187529519
 21
5578.1994544735
 31
0.0
  0
LINE
  5
DB
330
1F
100
AcDbEntity
  8
0
  6
Continuous
 62
     7
370
    25
100
AcDbLine
 10
5966.018757005
 20
5578.1994544735
 30
0.0
 11
5966.018757005
 21
5298.6994617453
 31
0.0
  0
LINE
  5
DC
330
1F
100
AcDbEntity
  8
0
  6
Continuous
 62
     7
370
    25
100
AcDbLine
 10
5964.0187529519
 20
5298.6994617453
 30
0.0
 11
5964.0187529519
 21
4768.6994307509
 31
0.0
  0
LINE
  5
DD
330
1F
100
AcDbEntity
  8
0
  6
Continuous
 62
     7
370
    25
100
AcDbLine
 10
5962.0187488988
 20
4768.6994307509
 30
0.0
 11
5964.0187529519
 21
4768.6994307509
 31
0.0
  0
LINE
  5
DE
330
1F
100
AcDbEntity
  8
0
  6
Continuous
 62
     7
370
    25
100
AcDbLine
 10
5962.0187488988
 20
5578.6994554868
 30
0.0
 11
5962.0187488988
 21
4768.6994307509
 31
0.0
  0
LINE
  5
DF
330
1F
100
AcDbEntity
  8
0
  6
Continuous
 62
     7
370
    25
100
AcDbLine
 10
5964.0187529519
 20
5578.6994554868
 30
0.0
 11
5964.0187529519
 21
5578.1994544735
 31
0.0
  0
LINE
  5
E0
330
1F
100
AcDbEntity
  8
0
  6
Continuous
 62
     7
370
    25
100
AcDbLine
 10
6582.0187536672
 20
5298.6994617453
 30
0.0
 11
5966.018757005
 21
5298.6994617453
 31
0.0
  0
LINE
  5
E1
330
1F
100
AcDbEntity
  8
0
  6
Continuous
 62
     7
370
    25
100
AcDbLine
 10
6582.0187536672
 20
5578.1994544735
 30
0.0
 11
5966.018757005
 21
5578.1994544735
 31
0.0
  0
LINE
  5
E2
330
1F
100
AcDbEntity
  8
0
  6
Continuous
 62
     7
370
    25
100
AcDbLine
 10
6582.0187536672
 20
5578.1994544735
 30
0.0
 11
6582.0187536672
 21
5298.6994617453
 31
0.0
  0
LINE
  5
E3
330
1F
100
AcDbEntity
  8
0
  6
Continuous
 62
     7
370
    25
100
AcDbLine
 10
6617.0187500909
 20
4768.6994307509
 30
0.0
 11
6586.0187617734
 21
4768.6994307509
 31
0.0
  0
LINE
  5
E4
330
1F
100
AcDbEntity
  8
0
  6
Continuous
 62
     7
370
    25
100
AcDbLine
 10
6586.0187617734
 20
5578.6994554868
 30
0.0
 11
6586.0187617734
 21
4768.6994307509
 31
0.0
  0
LINE
  5
E5
330
1F
100
AcDbEntity
  8
0
  6
Continuous
 62
     7
370
    25
100
AcDbLine
 10
6617.0187500909
 20
5578.6994554868
 30
0.0
 11
6617.0187500909
 21
4768.6994307509
 31
0.0
  0
LINE
  5
E6
330
1F
100
AcDbEntity
  8
0
  6
Continuous
 62
     7
370
    25
100
AcDbLine
 10
6619.018754144
 20
5578.6994554868
 30
0.0
 11
6619.018754144
 21
4768.6994307509
 31
0.0
  0
LINE
  5
E7
330
1F
100
AcDbEntity
  8
0
  6
Continuous
 62
     7
370
    25
100
AcDbLine
 10
6619.018754144
 20
4768.6994307509
 30
0.0
 11
6617.0187500909
 21
4768.6994307509
 31
0.0
  0
LINE
  5
E8
330
1F
100
AcDbEntity
  8
0
  6
Continuous
 62
     7
370
    25
100
AcDbLine
 10
6586.0187617734
 20
4768.6994307509
 30
0.0
 11
6584.0187577203
 21
4768.6994307509
 31
0.0
  0
LINE
  5
E9
330
1F
100
AcDbEntity
  8
0
  6
Continuous
 62
     7
370
    25
100
AcDbLine
 10
6584.0187577203
 20
5298.6994617453
 30
0.0
 11
6584.0187577203
 21
4768.6994307509
 31
0.0
  0
LINE
  5
EA
330
1F
100
AcDbEntity
  8
0
  6
Continuous
 62
     7
370
    25
100
AcDbLine
 10
6584.0187577203
 20
5578.1994544735
 30
0.0
 11
6584.0187577203
 21
5298.6994617453
 31
0.0
  0
LINE
  5
EB
330
1F
100
AcDbEntity
  8
0
  6
Continuous
 62
     7
370
    25
100
AcDbLine
 10
6584.0187577203
 20
5578.6994554868
 30
0.0
 11
6584.0187577203
 21
5578.1994544735
 31
0.0
  0
LINE
  5
EC
330
1F
100
AcDbEntity
  8
0
  6
Continuous
 62
     7
370
    25
100
AcDbLine
 10
5931.0187605813
 20
5578.6994554868
 30
0.0
 11
5931.0187605813
 21
4768.6994307509
 31
0.0
  0
LINE
  5
ED
330
1F
100
AcDbEntity
  8
0
  6
Continuous
 62
     7
370
    25
100
AcDbLine
 10
5929.0187565282
 20
5578.6994554868
 30
0.0
 11
5929.0187565282
 21
4768.6994307509
 31
0.0
  0
LINE
  5
EE
330
1F
100
AcDbEntity
  8
0
  6
Continuous
 62
     7
370
    25
100
AcDbLine
 10
5929.0187565282
 20
4768.6994307509
 30
0.0
 11
5931.0187605813
 21
4768.6994307509
 31
0.0
  0
LINE
  5
EF
330
1F
100
AcDbEntity
  8
0
  6
Continuous
 62
     7
370
    25
100
AcDbLine
 10
5931.0187605813
 20
4768.6994307509
 30
0.0
 11
5962.0187488988
 21
4768.6994307509
 31
0.0
  0
LINE
  5
F0
330
1F
100
AcDbEntity
  8
0
  6
Continuous
 62
     7
370
    25
100
AcDbLine
 10
6584.0187577203
 20
5578.1994544735
 30
0.0
 11
6582.0187536672
 21
5578.1994544735
 31
0.0
  0
LINE
  5
F1
330
1F
100
AcDbEntity
  8
0
  6
Continuous
 62
     7
370
    25
100
AcDbLine
 10
6584.0187577203
 20
5298.6994617453
 30
0.0
 11
6582.0187536672
 21
5298.6994617453
 31
0.0
  0
LINE
  5
F2
330
1F
100
AcDbEntity
  8
0
  6
Continuous
 62
     7
370
    25
100
AcDbLine
 10
6022.018751283
 20
5578.6994554868
 30
0.0
 11
6022.018751283
 21
5578.1994544735
 31
0.0
  0
LINE
  5
F3
330
1F
100
AcDbEntity
  8
0
  6
Continuous
 62
     7
370
    25
100
AcDbLine
 10
6526.0187593892
 20
5578.1994544735
 30
0.0
 11
6526.0187593892
 21
5578.6994554868
 31
0.0
  0
LINE
  5
F4
330
1F
100
AcDbEntity
  8
0
  6
Continuous
 62
     7
370
    25
100
AcDbLine
 10
5924.0187612966
 20
5658.6994536986
 30
0.0
 11
6624.0187493756
 21
5658.6994536986
 31
0.0
  0
LINE
  5
F5
330
1F
100
AcDbEntity
  8
0
  6
Continuous
 62
     7
370
    25
100
AcDbLine
 10
6624.0187493756
 20
5658.6994536986
 30
0.0
 11
6624.0187493756
 21
5616.6994544977
 31
0.0
  0
LINE
  5
F6
330
1F
100
AcDbEntity
  8
0
  6
Continuous
 62
     7
370
    25
100
AcDbLine
 10
5924.0187612966
 20
5658.6994536986
 30
0.0
 11
5924.0187612966
 21
5616.6994544977
 31
0.0
  0
LINE
  5
F7
330
1F
100
AcDbEntity
  8
0
  6
Continuous
 62
     8
370
    25
100
AcDbLine
 10
6434.0187517598
 20
5276.3209872713
 30
0.0
 11
6462.0187488988
 21
5276.3209872713
 31
0.0
  0
LINE
  5
F8
330
1F
100
AcDbEntity
  8
0
  6
Continuous
 62
     8
370
    25
100
AcDbLine
 10
6406.0187546208
 20
5276.3209872713
 30
0.0
 11
6434.0187517598
 21
5276.3209872713
 31
0.0
  0
LINE
  5
F9
330
1F
100
AcDbEntity
  8
0
  6
Continuous
 62
     8
370
    25
100
AcDbLine
 10
6406.9125411704
 20
5123.4265201559
 30
0.0
 11
6461.1249623492
 21
5123.4265201559
 31
0.0
  0
LINE
  5
FA
330
1F
100
AcDbEntity
  8
0
  6
Continuous
 62
     8
370
    25
100
AcDbLine
 10
6461.3281992868
 20
5248.0798297396
 30
0.0
 11
6406.7093191341
 21
5248.0798297396
 31
0.0
  0
LINE
  5
FB
330
1F
100
AcDbEntity
  8
0
  6
Continuous
 62
     8
370
    25
100
AcDbLine
 10
6411.0187498525
 20
5264.2321818342
 30
0.0
 11
6457.0187536672
 21
5264.2321818342
 31
0.0
  0
LINE
  5
FC
330
1F
100
AcDbEntity
  8
0
  6
Continuous
 62
     8
370
    25
100
AcDbLine
 10
6114.0187589124
 20
5578.1994544735
 30
0.0
 11
6114.0187589124
 21
5578.6994554868
 31
0.0
  0
LINE
  5
FD
330
1F
100
AcDbEntity
  8
0
  6
Continuous
 62
     8
370
    25
100
AcDbLine
 10
6434.0187517598
 20
5578.6994554868
 30
0.0
 11
6434.0187517598
 21
5578.1994544735
 31
0.0
  0
LINE
  5
FE
330
1F
100
AcDbEntity
  8
0
  6
Continuous
 62
     7
370
    25
100
AcDbLine
 10
7173.954986307
 20
5287.3209946623
 30
0.0
 11
7175.9549903601
 21
5283.3209865561
 31
0.0
  0
LINE
  5
FF
330
1F
100
AcDbEntity
  8
0
  6
Continuous
 62
     7
370
    25
100
AcDbLine
 10
7231.9549846381
 20
5283.3209865561
 30
0.0
 11
7233.9549886912
 21
5287.3209946623
 31
0.0
  0
LINE
  5
100
330
1F
100
AcDbEntity
  8
0
  6
Continuous
 62
     7
370
    25
100
AcDbLine
 10
7175.9549903601
 20
5283.3209865561
 30
0.0
 11
7175.9549903601
 21
5276.3209872713
 31
0.0
  0
LINE
  5
101
330
1F
100
AcDbEntity
  8
0
  6
Continuous
 62
     7
370
    25
100
AcDbLine
 10
7231.9549846381
 20
5276.3209872713
 30
0.0
 11
7231.9549846381
 21
5283.3209865561
 31
0.0
  0
ARC
  5
102
330
1F
100
AcDbEntity
  8
0
  6
Continuous
 62
     7
370
    25
100
AcDbCircle
 10
7178.9549839228
 20
5276.3209950527
 30
0.0
 40
3.0
100
AcDbArc
 50
180.0
 51
270.0
  0
ARC
  5
103
330
1F
100
AcDbEntity
  8
0
  6
Continuous
 62
     7
370
    25
100
AcDbCircle
 10
7228.9549839228
 20
5276.3209950527
 30
0.0
 40
3.0
100
AcDbArc
 50
270.0
 51
0.0
  0
LINE
  5
104
330
1F
100
AcDbEntity
  8
0
  6
Continuous
 62
     7
370
    25
100
AcDbLine
 10
7187.9549848765
 20
5273.3209960928
 30
0.0
 11
7187.9549848765
 21
5267.2322028151
 31
0.0
  0
LINE
  5
105
330
1F
100
AcDbEntity
  8
0
  6
Continuous
 62
     7
370
    25
100
AcDbLine
 10
7187.9549848765
 20
5253.2322042456
 30
0.0
 11
7187.9549848765
 21
5250.7321768274
 31
0.0
  0
LINE
  5
106
330
1F
100
AcDbEntity
  8
0
  6
Continuous
 62
     7
370
    25
100
AcDbLine
 10
7219.9549901217
 20
5250.7321768274
 30
0.0
 11
7219.9549901217
 21
5253.2322042456
 31
0.0
  0
LINE
  5
107
330
1F
100
AcDbEntity
  8
0
  6
Continuous
 62
     7
370
    25
100
AcDbLine
 10
7219.9549901217
 20
5267.2322028151
 30
0.0
 11
7219.9549901217
 21
5273.3209960928
 31
0.0
  0
LINE
  5
108
330
1F
100
AcDbEntity
  8
0
  6
Continuous
 62
     7
370
    25
100
AcDbLine
 10
7178.2049911946
 20
5291.8661170473
 30
0.0
 11
7180.2049803466
 21
5290.1994519701
 31
0.0
  0
LINE
  5
109
330
1F
100
AcDbEntity
  8
0
  6
Continuous
 62
     7
370
    25
100
AcDbLine
 10
7227.7049797505
 20
5290.1994519701
 30
0.0
 11
7229.7049838036
 21
5291.8661170473
 31
0.0
  0
LINE
  5
10A
330
1F
100
AcDbEntity
  8
0
  6
Continuous
 62
     7
370
    25
100
AcDbLine
 10
7229.7049838036
 20
5291.8661170473
 30
0.0
 11
7229.7049838036
 21
5298.6994617453
 31
0.0
  0
LINE
  5
10B
330
1F
100
AcDbEntity
  8
0
  6
Continuous
 62
     7
370
    25
100
AcDbLine
 10
7178.2049911946
 20
5298.6994617453
 30
0.0
 11
7178.2049911946
 21
5291.8661170473
 31
0.0
  0
SPLINE
  5
10C
330
1F
100
AcDbEntity
  8
0
  6
Continuous
 62
     7
370
    25
100
AcDbSpline
210
0.0
220
0.0
230
1.0
 70
     8
 71
     3
 72
     9
 73
     5
 74
     0
 42
0.000000001
 43
0.00000001
 40
0.0
 40
0.0
 40
0.0
 40
0.0
 40
0.5000051313791453
 40
1.0
 40
1.0
 40
1.0
 40
1.0
 10
7181.065462800854
 20
5288.120501564994
 30
0.0
 10
7180.921368069725
 20
5288.037293907869
 30
0.0
 10
7180.633181565056
 20
5287.870880301481
 30
0.0
 10
7180.345001088875
 20
5287.704461571425
 30
0.0
 10
7180.200912329548
 20
5287.621253060355
 30
0.0
  0
SPLINE
  5
10D
330
1F
100
AcDbEntity
  8
0
  6
Continuous
 62
     7
370
    25
100
AcDbSpline
210
0.0
220
0.0
230
1.0
 70
     8
 71
     3
 72
     9
 73
     5
 74
     0
 42
0.000000001
 43
0.00000001
 40
0.0
 40
0.0
 40
0.0
 40
0.0
 40
0.5000160413400542
 40
1.0
 40
1.0
 40
1.0
 40
1.0
 10
7226.572446796292
 20
5287.680887507453
 30
0.0
 10
7226.71412973101
 20
5287.763590109118
 30
0.0
 10
7226.997486509601
 20
5287.928990005975
 30
0.0
 10
7227.280870562041
 20
5288.094376019258
 30
0.0
 10
7227.422558042401
 20
5288.177066372886
 30
0.0
  0
LINE
  5
10E
330
1F
100
AcDbEntity
  8
0
  6
Continuous
 62
     7
370
    25
100
AcDbLine
 10
7180.2100616425
 20
5287.4179714193
 30
0.0
 11
7180.377982828
 21
5287.3209946623
 31
0.0
  0
SPLINE
  5
10F
330
1F
100
AcDbEntity
  8
0
  6
Continuous
 62
     7
370
    25
100
AcDbSpline
210
0.0
220
0.0
230
1.0
 70
     8
 71
     3
 72
     9
 73
     5
 74
     0
 42
0.000000001
 43
0.00000001
 40
0.0
 40
0.0
 40
0.0
 40
0.0
 40
0.503253586864214
 40
1.0
 40
1.0
 40
1.0
 40
1.0
 10
7180.210061642521
 20
5289.005451725974
 30
0.0
 10
7180.35334992886
 20
5288.922709774312
 30
0.0
 10
7180.638073754139
 20
5288.758295741663
 30
0.0
 10
7180.922812737923
 20
5288.593890837101
 30
0.0
 10
7181.064255806798
 20
5288.512223290458
 30
0.0
  0
LINE
  5
110
330
1F
100
AcDbEntity
  8
0
  6
Continuous
 62
     7
370
    25
100
AcDbLine
 10
7227.7049797505
 20
5288.2170610895
 30
0.0
 11
7227.7049797505
 21
5290.1994519701
 31
0.0
  0
LINE
  5
111
330
1F
100
AcDbEntity
  8
0
  6
Continuous
 62
     7
370
    25
100
AcDbLine
 10
7180.2049803466
 20
5287.6217000952
 30
0.0
 11
7180.2049803466
 21
5287.4233060351
 31
0.0
  0
LINE
  5
112
330
1F
100
AcDbEntity
  8
0
  6
Continuous
 62
     7
370
    25
100
AcDbLine
 10
7180.2049803466
 20
5290.1994519701
 30
0.0
 11
7180.2049803466
 21
5289.010816144
 31
0.0
  0
LINE
  5
113
330
1F
100
AcDbEntity
  8
0
  6
Continuous
 62
     7
370
    25
100
AcDbLine
 10
7226.8457191914
 20
5287.3238556852
 30
0.0
 11
7226.8457191914
 21
5287.7207332125
 31
0.0
  0
LINE
  5
114
330
1F
100
AcDbEntity
  8
0
  6
Continuous
 62
     7
370
    25
100
AcDbLine
 10
7181.0642558068
 20
5288.514488267
 30
0.0
 11
7181.0642558068
 21
5288.1198161116
 31
0.0
  0
LINE
  5
115
330
1F
100
AcDbEntity
  8
0
  6
Continuous
 62
     7
370
    25
100
AcDbLine
 10
7237.9549818963
 20
5190.7322042456
 30
0.0
 11
7231.2644201249
 21
5248.0798297396
 31
0.0
  0
LINE
  5
116
330
1F
100
AcDbEntity
  8
0
  6
Continuous
 62
     7
370
    25
100
AcDbLine
 10
7171.8260872096
 20
5206.7702048292
 30
0.0
 11
7169.9549782008
 21
5190.7322042456
 31
0.0
  0
LINE
  5
117
330
1F
100
AcDbEntity
  8
0
  6
Continuous
 62
     7
370
    25
100
AcDbLine
 10
7169.9549782008
 20
5190.7322042456
 30
0.0
 11
7176.8487769097
 21
5123.4265201559
 31
0.0
  0
LINE
  5
118
330
1F
100
AcDbEntity
  8
0
  6
Continuous
 62
     7
370
    25
100
AcDbLine
 10
7231.0611980885
 20
5123.4265201559
 30
0.0
 11
7237.9549818963
 21
5190.7322042456
 31
0.0
  0
LINE
  5
119
330
1F
100
AcDbEntity
  8
0
  6
Continuous
 62
     7
370
    25
100
AcDbLine
 10
7159.9549877375
 20
5256.2321954241
 30
0.0
 11
7155.9549796313
 21
5254.7321849337
 31
0.0
  0
LINE
  5
11A
330
1F
100
AcDbEntity
  8
0
  6
Continuous
 62
     7
370
    25
100
AcDbLine
 10
7155.9549796313
 20
5202.732198762
 30
0.0
 11
7159.9549877375
 21
5201.2321882715
 31
0.0
  0
ARC
  5
11B
330
1F
100
AcDbEntity
  8
0
  6
Continuous
 62
     7
370
    25
100
AcDbCircle
 10
7228.2846362607
 20
5247.732191429
 30
0.0
 40
3.000000000000909
100
AcDbArc
 50
6.654425046
 51
90.0
  0
ARC
  5
11C
330
1F
100
AcDbEntity
  8
0
  6
Continuous
 62
     7
370
    25
100
AcDbCircle
 10
7179.8331560566
 20
5123.732191429
 30
0.0
 40
3.000000000000517
100
AcDbArc
 50
185.8481280262
 51
270.0
  0
ARC
  5
11D
330
1F
100
AcDbEntity
  8
0
  6
Continuous
 62
     7
370
    25
100
AcDbCircle
 10
7228.076811789
 20
5123.732191429
 30
0.0
 40
3.0
100
AcDbArc
 50
270.0
 51
354.1518719738
  0
ARC
  5
11E
330
1F
100
AcDbEntity
  8
0
  6
Continuous
 62
     7
370
    25
100
AcDbCircle
 10
7146.9549839228
 20
5251.732191429
 30
0.0
 40
3.0
100
AcDbArc
 50
90.0
 51
180.0
  0
ARC
  5
11F
330
1F
100
AcDbEntity
  8
0
  6
Continuous
 62
     7
370
    25
100
AcDbCircle
 10
7146.9549839228
 20
5205.732191429
 30
0.0
 40
3.0
100
AcDbArc
 50
180.0
 51
270.0
  0
LINE
  5
120
330
1F
100
AcDbEntity
  8
0
  6
Continuous
 62
     7
370
    25
100
AcDbLine
 10
7155.9549796313
 20
5254.7321849337
 30
0.0
 11
7146.9549911946
 21
5254.7321849337
 31
0.0
  0
LINE
  5
121
330
1F
100
AcDbEntity
  8
0
  6
Continuous
 62
     7
370
    25
100
AcDbLine
 10
7146.9549911946
 20
5202.732198762
 30
0.0
 11
7155.9549796313
 21
5202.732198762
 31
0.0
  0
LINE
  5
122
330
1F
100
AcDbEntity
  8
0
  6
Continuous
 62
     7
370
    25
100
AcDbLine
 10
7228.9549785584
 20
5253.2322042456
 30
0.0
 11
7226.9549894065
 21
5257.2321825495
 31
0.0
  0
LINE
  5
123
330
1F
100
AcDbEntity
  8
0
  6
Continuous
 62
     7
370
    25
100
AcDbLine
 10
7180.9549855918
 20
5257.2321825495
 30
0.0
 11
7178.9549815386
 21
5253.2322042456
 31
0.0
  0
ARC
  5
124
330
1F
100
AcDbEntity
  8
0
  6
Continuous
 62
     7
370
    25
100
AcDbCircle
 10
7183.9549839228
 20
5264.232191429
 30
0.0
 40
3.0
100
AcDbArc
 50
90.0
 51
180.0
  0
ARC
  5
125
330
1F
100
AcDbEntity
  8
0
  6
Continuous
 62
     7
370
    25
100
AcDbCircle
 10
7223.9549839228
 20
5264.232191429
 30
0.0
 40
3.0
100
AcDbArc
 50
0.0
 51
90.0
  0
LINE
  5
126
330
1F
100
AcDbEntity
  8
0
  6
Continuous
 62
     7
370
    25
100
AcDbLine
 10
7180.9549855918
 20
5264.2321818342
 30
0.0
 11
7180.9549855918
 21
5257.2321825495
 31
0.0
  0
LINE
  5
127
330
1F
100
AcDbEntity
  8
0
  6
Continuous
 62
     7
370
    25
100
AcDbLine
 10
7226.9549894065
 20
5257.2321825495
 30
0.0
 11
7226.9549894065
 21
5264.2321818342
 31
0.0
  0
LINE
  5
128
330
1F
100
AcDbEntity
  8
0
  6
Continuous
 62
     7
370
    25
100
AcDbLine
 10
7159.9549877375
 20
5206.7321770659
 30
0.0
 11
7171.8498247594
 21
5206.7321770659
 31
0.0
  0
LINE
  5
129
330
1F
100
AcDbEntity
  8
0
  6
Continuous
 62
     7
370
    25
100
AcDbLine
 10
7176.9549774855
 20
5250.7321768274
 30
0.0
 11
7159.9549877375
 21
5250.7321768274
 31
0.0
  0
LINE
  5
12A
330
1F
100
AcDbEntity
  8
0
  6
Continuous
 62
     7
370
    25
100
AcDbLine
 10
7187.9549848765
 20
5253.2322042456
 30
0.0
 11
7187.9549848765
 21
5250.7321768274
 31
0.0
  0
LINE
  5
12B
330
1F
100
AcDbEntity
  8
0
  6
Continuous
 62
     7
370
    25
100
AcDbLine
 10
7219.9549901217
 20
5250.7321768274
 30
0.0
 11
7219.9549901217
 21
5253.2322042456
 31
0.0
  0
LINE
  5
12C
330
1F
100
AcDbEntity
  8
0
  6
Continuous
 62
     7
370
    25
100
AcDbLine
 10
7043.9549910754
 20
5248.7322025767
 30
0.0
 11
7033.9549708098
 21
5248.7322025767
 31
0.0
  0
LINE
  5
12D
330
1F
100
AcDbEntity
  8
0
  6
Continuous
 62
     7
370
    25
100
AcDbLine
 10
7033.9549708098
 20
5208.732181119
 30
0.0
 11
7043.9549910754
 21
5208.732181119
 31
0.0
  0
LINE
  5
12E
330
1F
100
AcDbEntity
  8
0
  6
Continuous
 62
     7
370
    25
100
AcDbLine
 10
7143.9549851149
 20
5248.7322025767
 30
0.0
 11
7078.9549874991
 21
5248.7322025767
 31
0.0
  0
LINE
  5
12F
330
1F
100
AcDbEntity
  8
0
  6
Continuous
 62
     7
370
    25
100
AcDbLine
 10
7078.9549874991
 20
5208.732181119
 30
0.0
 11
7143.9549851149
 21
5208.732181119
 31
0.0
  0
LINE
  5
130
330
1F
100
AcDbEntity
  8
0
  6
Continuous
 62
     7
370
    25
100
AcDbLine
 10
7175.9549903601
 20
5283.3209865561
 30
0.0
 11
7231.9549846381
 21
5283.3209865561
 31
0.0
  0
LINE
  5
131
330
1F
100
AcDbEntity
  8
0
  6
Continuous
 62
     7
370
    25
100
AcDbLine
 10
7173.954986307
 20
5287.3209946623
 30
0.0
 11
7233.9549886912
 21
5287.3209946623
 31
0.0
  0
LINE
  5
132
330
1F
100
AcDbEntity
  8
0
  6
Continuous
 62
     7
370
    25
100
AcDbLine
 10
7178.9549815386
 20
5273.3209960928
 30
0.0
 11
7228.9549785584
 21
5273.3209960928
 31
0.0
  0
LINE
  5
133
330
1F
100
AcDbEntity
  8
0
  6
Continuous
 62
     7
370
    25
100
AcDbLine
 10
7226.916305992
 20
5291.8661170473
 30
0.0
 11
7178.2049911946
 21
5291.8661170473
 31
0.0
  0
LINE
  5
134
330
1F
100
AcDbEntity
  8
0
  6
Continuous
 62
     7
370
    25
100
AcDbLine
 10
7229.7049838036
 20
5291.8661170473
 30
0.0
 11
7226.916305992
 21
5291.8661170473
 31
0.0
  0
LINE
  5
135
330
1F
100
AcDbEntity
  8
0
  6
Continuous
 62
     7
370
    25
100
AcDbLine
 10
7225.132905218
 20
5290.1994519701
 30
0.0
 11
7180.2049803466
 21
5290.1994519701
 31
0.0
  0
LINE
  5
136
330
1F
100
AcDbEntity
  8
0
  6
Continuous
 62
     7
370
    25
100
AcDbLine
 10
7227.7049797505
 20
5290.1994519701
 30
0.0
 11
7225.132905218
 21
5290.1994519701
 31
0.0
  0
LINE
  5
137
330
1F
100
AcDbEntity
  8
0
  6
Continuous
 62
     7
370
    25
100
AcDbLine
 10
7226.7340945929
 20
5287.3209946623
 30
0.0
 11
7226.7519759864
 21
5287.3238556852
 31
0.0
  0
SPLINE
  5
138
330
1F
100
AcDbEntity
  8
0
  6
Continuous
 62
     7
370
    25
100
AcDbSpline
210
0.0
220
0.0
230
1.0
 70
     8
 71
     3
 72
    19
 73
    15
 74
     0
 42
0.000000001
 43
0.00000001
 40
0.0
 40
0.0
 40
0.0
 40
0.0
 40
0.0252618287400182
 40
0.1240421543279543
 40
0.2273197519601722
 40
0.3327910636855654
 40
0.416986724901416
 40
0.4993874826313354
 40
0.5984664944518613
 40
0.6988968732825513
 40
0.7981025000465666
 40
0.8959757008661082
 40
0.9960839680647523
 40
1.0
 40
1.0
 40
1.0
 40
1.0
 10
7181.178085777157
 20
5288.120471762672
 30
0.0
 10
7181.148803595085
 20
5288.12544381205
 30
0.0
 10
7181.00502045947
 20
5288.149857868633
 30
0.0
 10
7181.929482257892
 20
5288.192620065529
 30
0.0
 10
7183.999935643472
 20
5288.249615247541
 30
0.0
 10
7187.12116494137
 20
5288.307889516047
 30
0.0
 10
7190.72888853011
 20
5288.36122174196
 30
0.0
 10
7194.759758759636
 20
5288.409572934668
 30
0.0
 10
7199.457082723092
 20
5288.463623560358
 30
0.0
 10
7204.665950006809
 20
5288.522964234906
 30
0.0
 10
7209.817015391675
 20
5288.58021039335
 30
0.0
 10
7214.661954670971
 20
5288.63422496002
 30
0.0
 10
7217.594636344691
 20
5288.674518601217
 30
0.0
 10
7218.957333069993
 20
5288.694832264974
 30
0.0
 10
7219.008632275456
 20
5288.695596980109
 30
0.0
  0
LINE
  5
139
330
1F
100
AcDbEntity
  8
0
  6
Continuous
 62
     7
370
    25
100
AcDbLine
 10
7219.5736992091
 20
5288.1995075216
 30
0.0
 11
7219.0086322755
 21
5288.6955969801
 31
0.0
  0
SPLINE
  5
13A
330
1F
100
AcDbEntity
  8
0
  6
Continuous
 62
     7
370
    25
100
AcDbSpline
210
0.0
220
0.0
230
1.0
 70
     8
 71
     3
 72
    18
 73
    14
 74
     0
 42
0.000000001
 43
0.00000001
 40
0.0
 40
0.0
 40
0.0
 40
0.0
 40
0.0256378145836449
 40
0.1243808077781652
 40
0.2225313520853784
 40
0.3227744378171894
 40
0.4226017973278291
 40
0.5202785908885199
 40
0.6198172220900391
 40
0.7201647062872002
 40
0.818752995970247
 40
0.9170431509288824
 40
1.0
 40
1.0
 40
1.0
 40
1.0
 10
7180.324070426816
 20
5287.624143885627
 30
0.0
 10
7180.293095985985
 20
5287.629195915039
 30
0.0
 10
7180.142824754469
 20
5287.653705628895
 30
0.0
 10
7181.08249335225
 20
5287.695606147524
 30
0.0
 10
7183.131010398379
 20
5287.750549368455
 30
0.0
 10
7186.346757182432
 20
5287.809814834893
 30
0.0
 10
7190.435242694261
 20
5287.86830500189
 30
0.0
 10
7195.20259474755
 20
5287.922119186729
 30
0.0
 10
7200.420387486525
 20
5287.98004686634
 30
0.0
 10
7205.841318981553
 20
5288.039437105739
 30
0.0
 10
7211.126811117117
 20
5288.095311050653
 30
0.0
 10
7215.81218041771
 20
5288.147303096101
 30
0.0
 10
7218.392627309521
 20
5288.183115956571
 30
0.0
 10
7219.573699209088
 20
5288.199507521644
 30
0.0
  0
SPLINE
  5
13B
330
1F
100
AcDbEntity
  8
0
  6
Continuous
 62
     7
370
    25
100
AcDbSpline
210
0.0
220
0.0
230
1.0
 70
     8
 71
     3
 72
    22
 73
    18
 74
     0
 42
0.000000001
 43
0.00000001
 40
0.0
 40
0.0
 40
0.0
 40
0.0
 40
0.0062247153448793
 40
0.0782567372120717
 40
0.1491789437370912
 40
0.2217202840006942
 40
0.2943583071065957
 40
0.3653903308885477
 40
0.437237837277169
 40
0.5100650357777847
 40
0.58200423468261
 40
0.6529770716087595
 40
0.7255708261087918
 40
0.7981614197633686
 40
0.8691308799500039
 40
0.9410757064134568
 40
1.0
 40
1.0
 40
1.0
 40
1.0
 10
7180.253409120434
 20
5287.423306035056
 30
0.0
 10
7180.23752865792
 20
5287.424995728106
 30
0.0
 10
7180.037880463125
 20
5287.44623844486
 30
0.0
 10
7180.798377109543
 20
5287.485924151052
 30
0.0
 10
7182.582792454374
 20
5287.539886093492
 30
0.0
 10
7185.587377872776
 20
5287.598743910539
 30
0.0
 10
7189.503292067227
 20
5287.657838797745
 30
0.0
 10
7194.14659769572
 20
5287.712136958555
 30
0.0
 10
7199.28795136165
 20
5287.769092621896
 30
0.0
 10
7204.692877438933
 20
5287.82846028199
 30
0.0
 10
7210.036413555141
 20
5287.885677637474
 30
0.0
 10
7215.06620015985
 20
5287.93977966178
 30
0.0
 10
7219.547329504689
 20
5287.998759319352
 30
0.0
 10
7223.232884079634
 20
5288.057731482601
 30
0.0
 10
7225.906094812989
 20
5288.111867640913
 30
0.0
 10
7227.453203116957
 20
5288.165460015828
 30
0.0
 10
7227.618365870278
 20
5288.201040740046
 30
0.0
 10
7227.692730996007
 20
5288.21706108953
 30
0.0
  0
SPLINE
  5
13C
330
1F
100
AcDbEntity
  8
0
  6
Continuous
 62
     7
370
    25
100
AcDbSpline
210
0.0
220
0.0
230
1.0
 70
     8
 71
     3
 72
    19
 73
    15
 74
     0
 42
0.000000001
 43
0.00000001
 40
0.0
 40
0.0
 40
0.0
 40
0.0
 40
0.0085456157448956
 40
0.1074349479603515
 40
0.2048006790075663
 40
0.3043892361007732
 40
0.4041105185053054
 40
0.5016270124624168
 40
0.6002630321809204
 40
0.700244030456684
 40
0.7990059363070423
 40
0.8964411754331038
 40
0.9961016895394864
 40
1.0
 40
1.0
 40
1.0
 40
1.0
 10
7180.253409120434
 20
5289.010816144004
 30
0.0
 10
7180.23752865781
 20
5289.01250589878
 30
0.0
 10
7180.037880472527
 20
5289.033749390386
 30
0.0
 10
7180.79837715314
 20
5289.073380783085
 30
0.0
 10
7182.582792622214
 20
5289.127407240803
 30
0.0
 10
7185.587376816722
 20
5289.186264699313
 30
0.0
 10
7189.503295694522
 20
5289.245295514348
 30
0.0
 10
7194.146585399164
 20
5289.299671049577
 30
0.0
 10
7199.287996802724
 20
5289.356559440108
 30
0.0
 10
7204.692707115624
 20
5289.415939582704
 30
0.0
 10
7210.037036713371
 20
5289.473174994574
 30
0.0
 10
7215.063886917271
 20
5289.527193111913
 30
0.0
 10
7218.106581266791
 20
5289.567484523089
 30
0.0
 10
7219.520475370393
 20
5289.587799249611
 30
0.0
 10
7219.573699209088
 20
5289.588563965812
 30
0.0
  0
LINE
  5
13D
330
1F
100
AcDbEntity
  8
0
  6
Continuous
 62
     7
370
    25
100
AcDbLine
 10
7219.0086322755
 20
5289.0924745073
 30
0.0
 11
7219.5736992091
 21
5289.5885639658
 31
0.0
  0
SPLINE
  5
13E
330
1F
100
AcDbEntity
  8
0
  6
Continuous
 62
     7
370
    25
100
AcDbSpline
210
0.0
220
0.0
230
1.0
 70
     8
 71
     3
 72
    15
 73
    11
 74
     0
 42
0.000000001
 43
0.00000001
 40
0.0
 40
0.0
 40
0.0
 40
0.0
 40
0.030542794253132
 40
0.1888362188270166
 40
0.3450036023012867
 40
0.5047372883826778
 40
0.6644641913330998
 40
0.8206236746507674
 40
0.9789299355218634
 40
1.0
 40
1.0
 40
1.0
 40
1.0
 10
7203.68836102187
 20
5287.320994662299
 30
0.0
 10
7204.019173356303
 20
5287.324764958807
 30
0.0
 10
7206.064479029974
 20
5287.348075482745
 30
0.0
 10
7209.819649762507
 20
5287.389559697332
 30
0.0
 10
7214.664340822567
 20
5287.443698151075
 30
0.0
 10
7218.979249854834
 20
5287.502666847448
 30
0.0
 10
7222.55097650963
 20
5287.561646064416
 30
0.0
 10
7225.054728396072
 20
5287.615765057119
 30
0.0
 10
7226.375814751909
 20
5287.656169994473
 30
0.0
 10
7226.49019750348
 20
5287.678262638909
 30
0.0
 10
7226.503633233899
 20
5287.680857705131
 30
0.0
  0
SPLINE
  5
13F
330
1F
100
AcDbEntity
  8
0
  6
Continuous
 62
     7
370
    25
100
AcDbSpline
210
0.0
220
0.0
230
1.0
 70
     8
 71
     3
 72
    19
 73
    15
 74
     0
 42
0.000000001
 43
0.00000001
 40
0.0
 40
0.0
 40
0.0
 40
0.0
 40
0.0089407252941994
 40
0.1077906243524148
 40
0.2051172361387016
 40
0.304666432942758
 40
0.4043478270519487
 40
0.5018255667884792
 40
0.6004220488296788
 40
0.700363310153923
 40
0.7990857842170006
 40
0.8964823215360147
 40
0.9961030399810155
 40
1.0
 40
1.0
 40
1.0
 40
1.0
 10
7181.112893196934
 20
5288.514488266959
 30
0.0
 10
7181.09681867883
 20
5288.516257619283
 30
0.0
 10
7180.903022058818
 20
5288.537589176338
 30
0.0
 10
7181.63562825131
 20
5288.577284336211
 30
0.0
 10
7183.35616488919
 20
5288.631333340492
 30
0.0
 10
7186.251868310437
 20
5288.690119290676
 30
0.0
 10
7190.026154511095
 20
5288.749233863962
 30
0.0
 10
7194.501445714463
 20
5288.80352623006
 30
0.0
 10
7199.456848484566
 20
5288.860485240531
 30
0.0
 10
7204.666012289261
 20
5288.919845977417
 30
0.0
 10
7209.816998978221
 20
5288.977086809725
 30
0.0
 10
7214.661959422388
 20
5289.031102808832
 30
0.0
 10
7217.594636312188
 20
5289.071396126256
 30
0.0
 10
7218.957333068814
 20
5289.091709792131
 30
0.0
 10
7219.008632275456
 20
5289.092474507346
 30
0.0
  0
LINE
  5
140
330
1F
100
AcDbEntity
  8
0
  6
Continuous
 62
     7
370
    25
100
AcDbLine
 10
7219.5736992091
 20
5289.5885639658
 30
0.0
 11
7219.5736992091
 21
5288.1995075216
 31
0.0
  0
LINE
  5
141
330
1F
100
AcDbEntity
  8
0
  6
Continuous
 62
     7
370
    25
100
AcDbLine
 10
7219.0086322755
 20
5288.6955969801
 30
0.0
 11
7219.0086322755
 21
5289.0924745073
 31
0.0
  0
SPLINE
  5
142
330
1F
100
AcDbEntity
  8
0
  6
Continuous
 62
     7
370
    25
100
AcDbSpline
210
0.0
220
0.0
230
1.0
 70
     8
 71
     3
 72
    26
 73
    22
 74
     0
 42
0.000000001
 43
0.00000001
 40
0.0
 40
0.0
 40
0.0
 40
0.0
 40
0.0518148922093932
 40
0.1113808104639659
 40
0.1722816361554858
 40
0.2246885744240224
 40
0.2783592818875791
 40
0.3194179379299084
 40
0.3616213744538135
 40
0.4027070547097559
 40
0.444949018198131
 40
0.5015057449666751
 40
0.5596411365023858
 40
0.6344162443971499
 40
0.7113477298490044
 40
0.7733911160672443
 40
0.837063185442687
 40
0.8877154062635463
 40
0.9397479674903025
 40
0.9904522171370053
 40
1.0
 40
1.0
 40
1.0
 40
1.0
 10
7178.733237358922
 20
5248.079829739585
 30
0.0
 10
7179.060350585349
 20
5247.561810934151
 30
0.0
 10
7179.763510135035
 20
5246.448282527073
 30
0.0
 10
7181.023082202431
 20
5244.254194522628
 30
0.0
 10
7182.284977654936
 20
5241.71838541455
 30
0.0
 10
7183.384415563025
 20
5238.945732947822
 30
0.0
 10
7184.126611043093
 20
5236.24788694569
 30
0.0
 10
7184.50265730424
 20
5233.56099979649
 30
0.0
 10
7184.526377582343
 20
5231.030338462399
 30
0.0
 10
7184.206442932162
 20
5228.465149592653
 30
0.0
 10
7183.507039493551
 20
5225.676957608251
 30
0.0
 10
7182.371300213837
 20
5222.708131101536
 30
0.0
 10
7180.710392594054
 20
5219.394112438466
 30
0.0
 10
7178.697046834811
 20
5216.064568023966
 30
0.0
 10
7176.656857139729
 20
5213.083142308044
 30
0.0
 10
7174.884303619419
 20
5210.66414958027
 30
0.0
 10
7173.568078866879
 20
5208.943118545877
 30
0.0
 10
7172.601472662894
 20
5207.710288311753
 30
0.0
 10
7172.037119193638
 20
5207.000913369493
 30
0.0
 10
7171.784686323695
 20
5206.686054617702
 30
0.0
 10
7171.840953186264
 20
5206.756301591255
 30
0.0
 10
7171.849869462842
 20
5206.767433213248
 30
0.0
  0
LINE
  5
143
330
1F
100
AcDbEntity
  8
0
  6
Continuous
 62
     7
370
    25
100
AcDbLine
 10
7169.9549782008
 20
5190.7322042456
 30
0.0
 11
7237.9549818963
 21
5190.7322042456
 31
0.0
  0
LINE
  5
144
330
1F
100
AcDbEntity
  8
0
  6
Continuous
 62
     7
370
    25
100
AcDbLine
 10
7159.9549877375
 20
5256.2321954241
 30
0.0
 11
7159.9549877375
 21
5201.2321882715
 31
0.0
  0
LINE
  5
145
330
1F
100
AcDbEntity
  8
0
  6
Continuous
 62
     7
370
    25
100
AcDbLine
 10
7155.9549796313
 20
5254.7321849337
 30
0.0
 11
7155.9549796313
 21
5202.732198762
 31
0.0
  0
ARC
  5
146
330
1F
100
AcDbEntity
  8
0
  6
Continuous
 62
     7
370
    25
100
AcDbCircle
 10
7181.5862057615
 20
5247.8735431582
 30
0.0
 40
2.860416553566417
100
AcDbArc
 50
92.0230524029
 51
175.8643716255
  0
LINE
  5
147
330
1F
100
AcDbEntity
  8
0
  6
Continuous
 62
     7
370
    25
100
AcDbLine
 10
7181.4852285117
 20
5250.7321768274
 30
0.0
 11
7228.2846349209
 21
5250.7321768274
 31
0.0
  0
LINE
  5
148
330
1F
100
AcDbEntity
  8
0
  6
Continuous
 62
     7
370
    25
100
AcDbLine
 10
7179.8331516713
 20
5120.7321815958
 30
0.0
 11
7228.0768084258
 21
5120.7321815958
 31
0.0
  0
LINE
  5
149
330
1F
100
AcDbEntity
  8
0
  6
Continuous
 62
     7
370
    25
100
AcDbLine
 10
7143.9549851149
 20
5251.7321937552
 30
0.0
 11
7143.9549851149
 21
5205.7321899405
 31
0.0
  0
LINE
  5
14A
330
1F
100
AcDbEntity
  8
0
  6
Continuous
 62
     7
370
    25
100
AcDbLine
 10
7180.9549855918
 20
5257.2321825495
 30
0.0
 11
7226.9549894065
 21
5257.2321825495
 31
0.0
  0
LINE
  5
14B
330
1F
100
AcDbEntity
  8
0
  6
Continuous
 62
     7
370
    25
100
AcDbLine
 10
7178.9549815386
 20
5253.2322042456
 30
0.0
 11
7228.9549785584
 21
5253.2322042456
 31
0.0
  0
LINE
  5
14C
330
1F
100
AcDbEntity
  8
0
  6
Continuous
 62
     7
370
    25
100
AcDbLine
 10
7183.9549767703
 20
5267.2322028151
 30
0.0
 11
7223.9549833268
 21
5267.2322028151
 31
0.0
  0
SPLINE
  5
14D
330
1F
100
AcDbEntity
  8
0
  6
Continuous
 62
     7
370
    25
100
AcDbSpline
210
0.0
220
0.0
230
1.0
 70
     8
 71
     3
 72
    11
 73
     7
 74
     0
 42
0.000000001
 43
0.00000001
 40
0.0
 40
0.0
 40
0.0
 40
0.0
 40
0.1561465093929739
 40
0.4307955098410645
 40
0.7130074533059817
 40
1.0
 40
1.0
 40
1.0
 40
1.0
 10
7176.954977485531
 20
5250.732176827445
 30
0.0
 10
7176.964446811054
 20
5250.718660275991
 30
0.0
 10
7176.990571909413
 20
5250.681369210713
 30
0.0
 10
7177.274393978447
 20
5250.272591777446
 30
0.0
 10
7177.857627180597
 20
5249.42410139151
 30
0.0
 10
7178.439737633774
 20
5248.530422217985
 30
0.0
 10
7178.733237358922
 20
5248.079829739585
 30
0.0
  0
SPLINE
  5
14E
330
1F
100
AcDbEntity
  8
0
  6
Continuous
 62
     7
370
    25
100
AcDbSpline
210
0.0
220
0.0
230
1.0
 70
    24
 71
     3
 72
    12
 73
     8
 74
     0
 42
0.000000001
 43
0.00000001
 40
0.0
 40
0.0
 40
0.0
 40
0.0
 40
0.002657304681837
 40
0.0516699137086703
 40
0.3670798811017212
 40
0.7311417715958141
 40
1.0
 40
1.0
 40
1.0
 40
1.0
 10
7176.954977485531
 20
5250.732176827445
 30
0.0
 10
7176.958373554244
 20
5250.732176827445
 30
0.0
 10
7177.024408352025
 20
5250.732176827444
 30
0.0
 10
7177.504790583048
 20
5250.732176827447
 30
0.0
 10
7178.592130616044
 20
5250.732176827444
 30
0.0
 10
7180.185380292016
 20
5250.732176827445
 30
0.0
 10
7181.097688834579
 20
5250.732176827445
 30
0.0
 10
7181.485228511685
 20
5250.732176827445
 30
0.0
  0
LINE
  5
14F
330
1F
100
AcDbEntity
  8
0
  6
Continuous
 62
     7
370
    25
100
AcDbLine
 10
7033.9549708098
 20
5248.7322025767
 30
0.0
 11
7033.9549708098
 21
5208.732181119
 31
0.0
  0
LINE
  5
150
330
1F
100
AcDbEntity
  8
0
  6
Continuous
 62
     7
370
    25
100
AcDbLine
 10
7015.9549939364
 20
5618.6994545927
 30
0.0
 11
7711.9549739093
 21
5618.6994545927
 31
0.0
  0
LINE
  5
151
330
1F
100
AcDbEntity
  8
0
  6
Continuous
 62
     7
370
    25
100
AcDbLine
 10
7711.9549739093
 20
5618.6994545927
 30
0.0
 11
7711.9549739093
 21
5616.6994544977
 31
0.0
  0
LINE
  5
152
330
1F
100
AcDbEntity
  8
0
  6
Continuous
 62
     7
370
    25
100
AcDbLine
 10
7711.9549739093
 20
5616.6994544977
 30
0.0
 11
7015.9549939364
 21
5616.6994544977
 31
0.0
  0
LINE
  5
153
330
1F
100
AcDbEntity
  8
0
  6
Continuous
 62
     7
370
    25
100
AcDbLine
 10
7018.9549851149
 20
5578.9674044421
 30
0.0
 11
7013.9549898833
 21
5578.9674044421
 31
0.0
  0
LINE
  5
154
330
1F
100
AcDbEntity
  8
0
  6
Continuous
 62
     7
370
    25
100
AcDbLine
 10
7013.9549898833
 20
5580.6994558146
 30
0.0
 11
7711.9549739093
 21
5580.6994558146
 31
0.0
  0
LINE
  5
155
330
1F
100
AcDbEntity
  8
0
  6
Continuous
 62
     7
370
    25
100
AcDbLine
 10
7711.9549739093
 20
5580.6994558146
 30
0.0
 11
7711.9549739093
 21
5578.6994554868
 31
0.0
  0
LINE
  5
156
330
1F
100
AcDbEntity
  8
0
  6
Continuous
 62
     7
370
    25
100
AcDbLine
 10
7711.9549739093
 20
5578.6994554868
 30
0.0
 11
7018.9549851149
 21
5578.6994554868
 31
0.0
  0
LINE
  5
157
330
1F
100
AcDbEntity
  8
0
  6
Continuous
 62
     7
370
    25
100
AcDbLine
 10
7018.9549851149
 20
5578.6994554868
 30
0.0
 11
7018.9549851149
 21
5578.9674044421
 31
0.0
  0
LINE
  5
158
330
1F
100
AcDbEntity
  8
0
  6
Continuous
 62
     7
370
    25
100
AcDbLine
 10
7013.9549898833
 20
5578.9674044421
 30
0.0
 11
7013.9549898833
 21
5580.6994558146
 31
0.0
  0
LINE
  5
159
330
1F
100
AcDbEntity
  8
0
  6
Continuous
 62
     7
370
    25
100
AcDbLine
 10
7711.9549739093
 20
5580.6994558146
 30
0.0
 11
7711.9549739093
 21
5616.6994544977
 31
0.0
  0
LINE
  5
15A
330
1F
100
AcDbEntity
  8
0
  6
Continuous
 62
     7
370
    25
100
AcDbLine
 10
7015.9549939364
 20
5658.6994536986
 30
0.0
 11
7015.9549939364
 21
5616.6994544977
 31
0.0
  0
LINE
  5
15B
330
1F
100
AcDbEntity
  8
0
  6
Continuous
 62
     7
370
    25
100
AcDbLine
 10
7013.9549898833
 20
5580.6994558146
 30
0.0
 11
7013.9549898833
 21
5658.6994536986
 31
0.0
  0
LINE
  5
15C
330
1F
100
AcDbEntity
  8
0
  6
Continuous
 62
     7
370
    25
100
AcDbLine
 10
7013.9549898833
 20
5658.6994536986
 30
0.0
 11
7015.9549939364
 21
5658.6994536986
 31
0.0
  0
LINE
  5
15D
330
1F
100
AcDbEntity
  8
0
  6
Continuous
 62
     7
370
    25
100
AcDbLine
 10
7713.9549779624
 20
5616.6994544977
 30
0.0
 11
7711.9549739093
 21
5616.6994544977
 31
0.0
  0
ARC
  5
15E
330
1F
100
AcDbEntity
  8
0
  6
Continuous
 62
     7
370
    25
100
AcDbCircle
 10
7711.9549839228
 20
5616.6994545927
 30
0.0
 40
2.0
100
AcDbArc
 50
0.0
 51
90.0
  0
LINE
  5
15F
330
1F
100
AcDbEntity
  8
0
  6
Continuous
 62
     7
370
    25
100
AcDbLine
 10
7713.9549779624
 20
5616.6994544977
 30
0.0
 11
7713.9549779624
 21
5580.6994558146
 31
0.0
  0
LINE
  5
160
330
1F
100
AcDbEntity
  8
0
  6
Continuous
 62
     7
370
    25
100
AcDbLine
 10
7711.9549739093
 20
5580.6994558146
 30
0.0
 11
7713.9549779624
 21
5580.6994558146
 31
0.0
  0
ARC
  5
161
330
1F
100
AcDbEntity
  8
0
  6
Continuous
 62
     7
370
    25
100
AcDbCircle
 10
7711.9549839228
 20
5580.6994545927
 30
0.0
 40
2.0
100
AcDbArc
 50
270.0
 51
0.0
  0
LINE
  5
162
330
1F
100
AcDbEntity
  8
0
  6
Continuous
 62
     7
370
    25
100
AcDbLine
 10
7045.9549951285
 20
5578.6994554868
 30
0.0
 11
7045.9549951285
 21
4768.6994307509
 31
0.0
  0
LINE
  5
163
330
1F
100
AcDbEntity
  8
0
  6
Continuous
 62
     7
370
    25
100
AcDbLine
 10
7043.9549910754
 20
5578.6994554868
 30
0.0
 11
7043.9549910754
 21
4768.6994307509
 31
0.0
  0
LINE
  5
164
330
1F
100
AcDbEntity
  8
0
  6
Continuous
 62
     7
370
    25
100
AcDbLine
 10
7043.9549910754
 20
4768.6994307509
 30
0.0
 11
7045.9549951285
 21
4768.6994307509
 31
0.0
  0
LINE
  5
165
330
1F
100
AcDbEntity
  8
0
  6
Continuous
 62
     7
370
    25
100
AcDbLine
 10
7076.954983446
 20
5578.6994554868
 30
0.0
 11
7076.954983446
 21
4768.6994307509
 31
0.0
  0
LINE
  5
166
330
1F
100
AcDbEntity
  8
0
  6
Continuous
 62
     7
370
    25
100
AcDbLine
 10
7045.9549951285
 20
4768.6994307509
 30
0.0
 11
7076.954983446
 21
4768.6994307509
 31
0.0
  0
LINE
  5
167
330
1F
100
AcDbEntity
  8
0
  6
Continuous
 62
     7
370
    25
100
AcDbLine
 10
7671.9549822539
 20
5298.6994617453
 30
0.0
 11
7080.9549915522
 21
5298.6994617453
 31
0.0
  0
LINE
  5
168
330
1F
100
AcDbEntity
  8
0
  6
Continuous
 62
     7
370
    25
100
AcDbLine
 10
7080.9549915522
 20
5578.1994544735
 30
0.0
 11
7080.9549915522
 21
5298.6994617453
 31
0.0
  0
LINE
  5
169
330
1F
100
AcDbEntity
  8
0
  6
Continuous
 62
     7
370
    25
100
AcDbLine
 10
7671.9549822539
 20
5578.1994544735
 30
0.0
 11
7080.9549915522
 21
5578.1994544735
 31
0.0
  0
LINE
  5
16A
330
1F
100
AcDbEntity
  8
0
  6
Continuous
 62
     7
370
    25
100
AcDbLine
 10
7671.9549822539
 20
5578.1994544735
 30
0.0
 11
7671.9549822539
 21
5298.6994617453
 31
0.0
  0
LINE
  5
16B
330
1F
100
AcDbEntity
  8
0
  6
Continuous
 62
     7
370
    25
100
AcDbLine
 10
7078.9549874991
 20
5578.1994544735
 30
0.0
 11
7078.9549874991
 21
5298.6994617453
 31
0.0
  0
LINE
  5
16C
330
1F
100
AcDbEntity
  8
0
  6
Continuous
 62
     7
370
    25
100
AcDbLine
 10
7078.9549874991
 20
5298.6994617453
 30
0.0
 11
7078.9549874991
 21
4768.6994307509
 31
0.0
  0
LINE
  5
16D
330
1F
100
AcDbEntity
  8
0
  6
Continuous
 62
     7
370
    25
100
AcDbLine
 10
7078.9549874991
 20
5578.6994554868
 30
0.0
 11
7078.9549874991
 21
5578.1994544735
 31
0.0
  0
LINE
  5
16E
330
1F
100
AcDbEntity
  8
0
  6
Continuous
 62
     7
370
    25
100
AcDbLine
 10
7076.954983446
 20
4768.6994307509
 30
0.0
 11
7078.9549874991
 21
4768.6994307509
 31
0.0
  0
LINE
  5
16F
330
1F
100
AcDbEntity
  8
0
  6
Continuous
 62
     7
370
    25
100
AcDbLine
 10
7080.9549915522
 20
5578.1994544735
 30
0.0
 11
7078.9549874991
 21
5578.1994544735
 31
0.0
  0
LINE
  5
170
330
1F
100
AcDbEntity
  8
0
  6
Continuous
 62
     7
370
    25
100
AcDbLine
 10
7080.9549915522
 20
5298.6994617453
 30
0.0
 11
7078.9549874991
 21
5298.6994617453
 31
0.0
  0
LINE
  5
171
330
1F
100
AcDbEntity
  8
0
  6
Continuous
 62
     7
370
    25
100
AcDbLine
 10
7675.9549903601
 20
5578.6994554868
 30
0.0
 11
7675.9549903601
 21
4768.6994307509
 31
0.0
  0
LINE
  5
172
330
1F
100
AcDbEntity
  8
0
  6
Continuous
 62
     7
370
    25
100
AcDbLine
 10
7673.954986307
 20
4768.6994307509
 30
0.0
 11
7675.9549903601
 21
4768.6994307509
 31
0.0
  0
LINE
  5
173
330
1F
100
AcDbEntity
  8
0
  6
Continuous
 62
     7
370
    25
100
AcDbLine
 10
7673.954986307
 20
5298.6994617453
 30
0.0
 11
7673.954986307
 21
4768.6994307509
 31
0.0
  0
LINE
  5
174
330
1F
100
AcDbEntity
  8
0
  6
Continuous
 62
     7
370
    25
100
AcDbLine
 10
7673.954986307
 20
5578.1994544735
 30
0.0
 11
7673.954986307
 21
5298.6994617453
 31
0.0
  0
LINE
  5
175
330
1F
100
AcDbEntity
  8
0
  6
Continuous
 62
     7
370
    25
100
AcDbLine
 10
7673.954986307
 20
5578.6994554868
 30
0.0
 11
7673.954986307
 21
5578.1994544735
 31
0.0
  0
LINE
  5
176
330
1F
100
AcDbEntity
  8
0
  6
Continuous
 62
     7
370
    25
100
AcDbLine
 10
7673.954986307
 20
5578.1994544735
 30
0.0
 11
7671.9549822539
 21
5578.1994544735
 31
0.0
  0
LINE
  5
177
330
1F
100
AcDbEntity
  8
0
  6
Continuous
 62
     7
370
    25
100
AcDbLine
 10
7673.954986307
 20
5298.6994617453
 30
0.0
 11
7671.9549822539
 21
5298.6994617453
 31
0.0
  0
LINE
  5
178
330
1F
100
AcDbEntity
  8
0
  6
Continuous
 62
     7
370
    25
100
AcDbLine
 10
7706.9549786776
 20
5578.6994554868
 30
0.0
 11
7706.9549786776
 21
4768.6994307509
 31
0.0
  0
LINE
  5
179
330
1F
100
AcDbEntity
  8
0
  6
Continuous
 62
     7
370
    25
100
AcDbLine
 10
7675.9549903601
 20
4768.6994307509
 30
0.0
 11
7706.9549786776
 21
4768.6994307509
 31
0.0
  0
LINE
  5
17A
330
1F
100
AcDbEntity
  8
0
  6
Continuous
 62
     7
370
    25
100
AcDbLine
 10
7708.9549827307
 20
5578.6994554868
 30
0.0
 11
7708.9549827307
 21
4768.6994307509
 31
0.0
  0
LINE
  5
17B
330
1F
100
AcDbEntity
  8
0
  6
Continuous
 62
     7
370
    25
100
AcDbLine
 10
7706.9549786776
 20
4768.6994307509
 30
0.0
 11
7708.9549827307
 21
4768.6994307509
 31
0.0
  0
LINE
  5
17C
330
1F
100
AcDbEntity
  8
0
  6
Continuous
 62
     7
370
    25
100
AcDbLine
 10
7111.9549798697
 20
5578.6994554868
 30
0.0
 11
7111.9549798697
 21
5578.1994544735
 31
0.0
  0
LINE
  5
17D
330
1F
100
AcDbEntity
  8
0
  6
Continuous
 62
     7
370
    25
100
AcDbLine
 10
7615.9549879759
 20
5578.1994544735
 30
0.0
 11
7615.9549879759
 21
5578.6994554868
 31
0.0
  0
LINE
  5
17E
330
1F
100
AcDbEntity
  8
0
  6
Continuous
 62
     8
370
    25
100
AcDbLine
 10
7175.9549903601
 20
5276.3209872713
 30
0.0
 11
7231.9549846381
 21
5276.3209872713
 31
0.0
  0
LINE
  5
17F
330
1F
100
AcDbEntity
  8
0
  6
Continuous
 62
     8
370
    25
100
AcDbLine
 10
7231.2644201249
 20
5248.0798297396
 30
0.0
 11
7178.7332373589
 21
5248.0798297396
 31
0.0
  0
LINE
  5
180
330
1F
100
AcDbEntity
  8
0
  6
Continuous
 62
     8
370
    25
100
AcDbLine
 10
7176.8487769097
 20
5123.4265201559
 30
0.0
 11
7231.0611980885
 21
5123.4265201559
 31
0.0
  0
LINE
  5
181
330
1F
100
AcDbEntity
  8
0
  6
Continuous
 62
     8
370
    25
100
AcDbLine
 10
7146.9549911946
 20
5254.7321849337
 30
0.0
 11
7146.9549911946
 21
5202.732198762
 31
0.0
  0
LINE
  5
182
330
1F
100
AcDbEntity
  8
0
  6
Continuous
 62
     8
370
    25
100
AcDbLine
 10
7180.9549855918
 20
5264.2321818342
 30
0.0
 11
7226.9549894065
 21
5264.2321818342
 31
0.0
  0
LINE
  5
183
330
1F
100
AcDbEntity
  8
0
  6
Continuous
 62
     8
370
    25
100
AcDbLine
 10
7203.9549874991
 20
5578.1994544735
 30
0.0
 11
7203.9549874991
 21
5578.6994554868
 31
0.0
  0
LINE
  5
184
330
1F
100
AcDbEntity
  8
0
  6
Continuous
 62
     8
370
    25
100
AcDbLine
 10
7523.9549803466
 20
5578.6994554868
 30
0.0
 11
7523.9549803466
 21
5578.1994544735
 31
0.0
  0
CIRCLE
  5
185
330
1F
100
AcDbEntity
  8
0
  6
Continuous
 62
     7
370
    25
100
AcDbCircle
 10
6434.0187553361
 20
4192.9581993569
 30
0.0
 40
24.9651254443952
  0
CIRCLE
  5
186
330
1F
100
AcDbEntity
  8
0
  6
Continuous
 62
     7
370
    25
100
AcDbCircle
 10
6434.0187553361
 20
4192.9581993569
 30
0.0
 40
35.00000000000091
  0
CIRCLE
  5
187
330
1F
100
AcDbEntity
  8
0
  6
Continuous
 62
     7
370
    25
100
AcDbCircle
 10
6434.0187553361
 20
4192.9581993569
 30
0.0
 40
35.16921944985916
  0
CIRCLE
  5
188
330
1F
100
AcDbEntity
  8
0
  6
Continuous
 62
     7
370
    25
100
AcDbCircle
 10
6434.0187553361
 20
4192.9581993569
 30
0.0
 40
22.00000000000091
  0
CIRCLE
  5
189
330
1F
100
AcDbEntity
  8
0
  6
Continuous
 62
     7
370
    25
100
AcDbCircle
 10
6434.0187553361
 20
4192.9581993569
 30
0.0
 40
20.50000000000091
  0
CIRCLE
  5
18A
330
1F
100
AcDbEntity
  8
0
  6
Continuous
 62
     7
370
    25
100
AcDbCircle
 10
6434.0187553361
 20
4192.9581993569
 30
0.0
 40
19.48700763430406
  0
CIRCLE
  5
18B
330
1F
100
AcDbEntity
  8
0
  6
Continuous
 62
     7
370
    25
100
AcDbCircle
 10
6434.0187553361
 20
4192.9581993569
 30
0.0
 40
5.700000000000728
  0
CIRCLE
  5
18C
330
1F
100
AcDbEntity
  8
0
  6
Continuous
 62
     7
370
    25
100
AcDbCircle
 10
6434.0187553361
 20
4206.9581993569
 30
0.0
 40
5.0
  0
CIRCLE
  5
18D
330
1F
100
AcDbEntity
  8
0
  6
Continuous
 62
     7
370
    25
100
AcDbCircle
 10
6446.1431109891
 20
4199.9581993569
 30
0.0
 40
5.000000000000909
  0
CIRCLE
  5
18E
330
1F
100
AcDbEntity
  8
0
  6
Continuous
 62
     7
370
    25
100
AcDbCircle
 10
6446.1431109891
 20
4185.9581993569
 30
0.0
 40
5.0
  0
CIRCLE
  5
18F
330
1F
100
AcDbEntity
  8
0
  6
Continuous
 62
     7
370
    25
100
AcDbCircle
 10
6434.0187553361
 20
4178.9581993569
 30
0.0
 40
5.0
  0
CIRCLE
  5
190
330
1F
100
AcDbEntity
  8
0
  6
Continuous
 62
     7
370
    25
100
AcDbCircle
 10
6421.8943996831
 20
4185.9581993569
 30
0.0
 40
5.000000000000909
  0
CIRCLE
  5
191
330
1F
100
AcDbEntity
  8
0
  6
Continuous
 62
     7
370
    25
100
AcDbCircle
 10
6421.8943996831
 20
4199.9581993569
 30
0.0
 40
5.0
  0
ARC
  5
192
330
1F
100
AcDbEntity
  8
0
  6
Continuous
 62
     7
370
    25
100
AcDbCircle
 10
6434.0187553361
 20
4192.9581993569
 30
0.0
 40
15.00000000000014
100
AcDbArc
 50
270.0
 51
289.462950946
  0
ARC
  5
193
330
1F
100
AcDbEntity
  8
0
  6
Continuous
 62
     7
370
    25
100
AcDbCircle
 10
6434.0187553361
 20
4192.9581993569
 30
0.0
 40
15.00000000000051
100
AcDbArc
 50
310.5370490536
 51
349.4629509464
  0
ARC
  5
194
330
1F
100
AcDbEntity
  8
0
  6
Continuous
 62
     7
370
    25
100
AcDbCircle
 10
6434.0187553361
 20
4192.9581993569
 30
0.0
 40
15.00000000000019
100
AcDbArc
 50
10.5370490536
 51
49.4629509464
  0
ARC
  5
195
330
1F
100
AcDbEntity
  8
0
  6
Continuous
 62
     7
370
    25
100
AcDbCircle
 10
6434.0187553361
 20
4192.9581993569
 30
0.0
 40
15.0000000000001
100
AcDbArc
 50
70.537049054
 51
109.4629509461
  0
ARC
  5
196
330
1F
100
AcDbEntity
  8
0
  6
Continuous
 62
     7
370
    25
100
AcDbCircle
 10
6434.0187553361
 20
4192.9581993569
 30
0.0
 40
14.99999999999976
100
AcDbArc
 50
130.5370490542
 51
169.4629509459
  0
ARC
  5
197
330
1F
100
AcDbEntity
  8
0
  6
Continuous
 62
     7
370
    25
100
AcDbCircle
 10
6434.0187553361
 20
4192.9581993569
 30
0.0
 40
15.00000000000086
100
AcDbArc
 50
190.5370490537
 51
229.4629509463
  0
ARC
  5
198
330
1F
100
AcDbEntity
  8
0
  6
Continuous
 62
     7
370
    25
100
AcDbCircle
 10
6434.0187553361
 20
4192.9581993569
 30
0.0
 40
15.0000000000003
100
AcDbArc
 50
250.537049054
 51
270.0
  0
LINE
  5
199
330
1F
100
AcDbEntity
  8
0
  6
Continuous
 62
     7
370
    25
100
AcDbLine
 10
6426.6386387542
 20
4201.5368687857
 30
0.0
 11
6425.2549020246
 21
4203.6605077733
 31
0.0
  0
LINE
  5
19A
330
1F
100
AcDbEntity
  8
0
  6
Continuous
 62
     7
370
    25
100
AcDbLine
 10
6445.1381621554
 20
4195.0602280844
 30
0.0
 11
6447.6691541865
 21
4195.1967674245
 31
0.0
  0
LINE
  5
19B
330
1F
100
AcDbEntity
  8
0
  6
Continuous
 62
     7
370
    25
100
AcDbLine
 10
6430.279469271
 20
4182.2774904717
 30
0.0
 11
6429.1322139695
 21
4180.0173270453
 31
0.0
  0
ARC
  5
19C
330
1F
100
AcDbEntity
  8
0
  6
Continuous
 62
     7
370
    25
100
AcDbCircle
 10
6434.0187553361
 20
4192.9581993569
 30
0.0
 40
5.250000000000073
100
AcDbArc
 50
71.4716869737
 51
235.0452655702
  0
LWPOLYLINE
  5
19D
330
1F
100
AcDbEntity
  8
0
  6
Continuous
 62
     7
370
    25
100
AcDbPolyline
 90
        9
 70
   128
 43
0.0
 10
6435.6870708659
 20
4197.936077689
 10
6435.1597485736
 20
4196.8894946326
 10
6434.5838335946
 20
4195.7465010632
 10
6433.9747933343
 20
4194.5377486695
 10
6433.3489743665
 20
4193.2956772794
 10
6432.7231404975
 20
4192.053590988
 10
6432.1141002372
 20
4190.8448385943
 10
6431.5382001594
 20
4189.7018450249
 10
6431.010877867
 20
4188.6552768697
  0
ARC
  5
19E
330
1F
100
AcDbEntity
  8
0
  6
Continuous
 62
     7
370
    25
100
AcDbCircle
 10
6434.0187553361
 20
4192.9581993569
 30
0.0
 40
5.250000000000309
100
AcDbArc
 50
251.4716869737
 51
55.0452655702
  0
LWPOLYLINE
  5
19F
330
1F
100
AcDbEntity
  8
0
  6
Continuous
 62
     7
370
    25
100
AcDbPolyline
 90
        9
 70
   128
 43
0.0
 10
6432.3504475549
 20
4187.9803287734
 10
6432.8777698472
 20
4189.0268969287
 10
6433.453669925
 20
4190.169890498
 10
6434.0627101853
 20
4191.3786428918
 10
6434.6885440543
 20
4192.6207291831
 10
6435.3143630221
 20
4193.8628005732
 10
6435.9234032825
 20
4195.071552967
 10
6436.4993182614
 20
4196.2145465363
 10
6437.0266405538
 20
4197.2611295928
  0
ARC
  5
1A0
330
1F
100
AcDbEntity
  8
0
  6
Continuous
 62
     7
370
    25
100
AcDbCircle
 10
6434.0187553361
 20
4192.9581993569
 30
0.0
 40
5.249999999999848
100
AcDbArc
 50
55.0452655702
 51
71.4716869737
  0
ARC
  5
1A1
330
1F
100
AcDbEntity
  8
0
  6
Continuous
 62
     7
370
    25
100
AcDbCircle
 10
6434.0187553361
 20
4192.9581993569
 30
0.0
 40
5.250000000000309
100
AcDbArc
 50
235.0452655702
 51
251.4716869737
  0
LINE
  5
1A2
330
1F
100
AcDbEntity
  8
0
  6
Continuous
 62
     7
370
    25
100
AcDbLine
 10
5924.0187612966
 20
4380.9581893433
 30
0.0
 11
6624.0187493756
 21
4380.9581893433
 31
0.0
  0
LINE
  5
1A3
330
1F
100
AcDbEntity
  8
0
  6
Continuous
 62
     7
370
    25
100
AcDbLine
 10
5924.0187612966
 20
4382.9581933964
 30
0.0
 11
5924.0187612966
 21
4380.9581893433
 31
0.0
  0
LINE
  5
1A4
330
1F
100
AcDbEntity
  8
0
  6
Continuous
 62
     7
370
    25
100
AcDbLine
 10
6624.0187493756
 20
4382.9581933964
 30
0.0
 11
5924.0187612966
 21
4382.9581933964
 31
0.0
  0
LINE
  5
1A5
330
1F
100
AcDbEntity
  8
0
  6
Continuous
 62
     7
370
    25
100
AcDbLine
 10
6624.0187493756
 20
4380.9581893433
 30
0.0
 11
6624.0187493756
 21
4382.9581933964
 31
0.0
  0
LINE
  5
1A6
330
1F
100
AcDbEntity
  8
0
  6
Continuous
 62
     7
370
    25
100
AcDbLine
 10
5926.0187653497
 20
4380.9581893433
 30
0.0
 11
5926.0187653497
 21
3684.9582093705
 31
0.0
  0
LINE
  5
1A7
330
1F
100
AcDbEntity
  8
0
  6
Continuous
 62
     7
370
    25
100
AcDbLine
 10
5926.0187653497
 20
3684.9582093705
 30
0.0
 11
5924.0187612966
 21
3684.9582093705
 31
0.0
  0
LINE
  5
1A8
330
1F
100
AcDbEntity
  8
0
  6
Continuous
 62
     7
370
    25
100
AcDbLine
 10
5924.0187612966
 20
3684.9582093705
 30
0.0
 11
5924.0187612966
 21
4380.9581893433
 31
0.0
  0
LINE
  5
1A9
330
1F
100
AcDbEntity
  8
0
  6
Continuous
 62
     7
370
    25
100
AcDbLine
 10
6622.0187453225
 20
3684.9582093705
 30
0.0
 11
6622.0187453225
 21
4380.9581893433
 31
0.0
  0
LINE
  5
1AA
330
1F
100
AcDbEntity
  8
0
  6
Continuous
 62
     7
370
    25
100
AcDbLine
 10
5926.0187653497
 20
3684.9582093705
 30
0.0
 11
6622.0187453225
 21
3684.9582093705
 31
0.0
  0
ARC
  5
1AB
330
1F
100
AcDbEntity
  8
0
  6
Continuous
 62
     7
370
    25
100
AcDbCircle
 10
5994.0187553361
 20
3752.9581993569
 30
0.0
 40
51.18033988749903
100
AcDbArc
 50
180.0
 51
270.0
  0
LINE
  5
1AC
330
1F
100
AcDbEntity
  8
0
  6
Continuous
 62
     7
370
    25
100
AcDbLine
 10
6554.0187565282
 20
3701.7778652657
 30
0.0
 11
5994.018754144
 21
3701.7778652657
 31
0.0
  0
ARC
  5
1AD
330
1F
100
AcDbEntity
  8
0
  6
Continuous
 62
     7
370
    25
100
AcDbCircle
 10
6554.0187553361
 20
3752.9581993569
 30
0.0
 40
51.18033988749903
100
AcDbArc
 50
270.0
 51
0.0
  0
LINE
  5
1AE
330
1F
100
AcDbEntity
  8
0
  6
Continuous
 62
     7
370
    25
100
AcDbLine
 10
6605.1990894273
 20
4306.9581883897
 30
0.0
 11
6605.1990894273
 21
3752.9581981648
 31
0.0
  0
ARC
  5
1AF
330
1F
100
AcDbEntity
  8
0
  6
Continuous
 62
     7
370
    25
100
AcDbCircle
 10
6554.0187553361
 20
4306.9581993569
 30
0.0
 40
51.18033988749903
100
AcDbArc
 50
0.0
 51
90.0
  0
LINE
  5
1B0
330
1F
100
AcDbEntity
  8
0
  6
Continuous
 62
     7
370
    25
100
AcDbLine
 10
5994.018754144
 20
4358.1385510911
 30
0.0
 11
6554.0187565282
 21
4358.1385510911
 31
0.0
  0
ARC
  5
1B1
330
1F
100
AcDbEntity
  8
0
  6
Continuous
 62
     7
370
    25
100
AcDbCircle
 10
5994.0187553361
 20
4306.9581993569
 30
0.0
 40
51.18033988749903
100
AcDbArc
 50
90.0
 51
180.0
  0
LINE
  5
1B2
330
1F
100
AcDbEntity
  8
0
  6
Continuous
 62
     7
370
    25
100
AcDbLine
 10
5942.8384212449
 20
3752.9581981648
 30
0.0
 11
5942.8384212449
 21
4306.9581883897
 31
0.0
  0
LINE
  5
1B3
330
1F
100
AcDbEntity
  8
0
  6
Continuous
 62
     7
370
    25
100
AcDbLine
 10
6624.0187493756
 20
3684.9582093705
 30
0.0
 11
6622.0187453225
 21
3684.9582093705
 31
0.0
  0
LINE
  5
1B4
330
1F
100
AcDbEntity
  8
0
  6
Continuous
 62
     7
370
    25
100
AcDbLine
 10
6624.0187493756
 20
4380.9581893433
 30
0.0
 11
6624.0187493756
 21
3684.9582093705
 31
0.0
  0
LINE
  5
1B5
330
1F
100
AcDbEntity
  8
0
  6
Continuous
 62
     7
370
    25
100
AcDbLine
 10
5994.018754144
 20
4355.9024828423
 30
0.0
 11
5994.018754144
 21
4358.1385510911
 31
0.0
  0
ARC
  5
1B6
330
1F
100
AcDbEntity
  8
0
  6
Continuous
 62
     7
370
    25
100
AcDbCircle
 10
5994.0187553361
 20
4306.9581993569
 30
0.0
 40
48.94427191000068
100
AcDbArc
 50
90.0
 51
180.0
  0
LINE
  5
1B7
330
1F
100
AcDbEntity
  8
0
  6
Continuous
 62
     7
370
    25
100
AcDbLine
 10
5942.8384212449
 20
4306.9581883897
 30
0.0
 11
5945.0744894937
 21
4306.9581883897
 31
0.0
  0
LINE
  5
1B8
330
1F
100
AcDbEntity
  8
0
  6
Continuous
 62
     7
370
    25
100
AcDbLine
 10
6554.0187565282
 20
4355.9024828423
 30
0.0
 11
5994.018754144
 21
4355.9024828423
 31
0.0
  0
LINE
  5
1B9
330
1F
100
AcDbEntity
  8
0
  6
Continuous
 62
     7
370
    25
100
AcDbLine
 10
6554.0187565282
 20
4355.9024828423
 30
0.0
 11
6554.0187565282
 21
4358.1385510911
 31
0.0
  0
ARC
  5
1BA
330
1F
100
AcDbEntity
  8
0
  6
Continuous
 62
     7
370
    25
100
AcDbCircle
 10
6554.0187553361
 20
4306.9581993569
 30
0.0
 40
48.94427191000068
100
AcDbArc
 50
0.0
 51
90.0
  0
LINE
  5
1BB
330
1F
100
AcDbEntity
  8
0
  6
Continuous
 62
     7
370
    25
100
AcDbLine
 10
6602.9630211785
 20
4306.9581883897
 30
0.0
 11
6605.1990894273
 21
4306.9581883897
 31
0.0
  0
LINE
  5
1BC
330
1F
100
AcDbEntity
  8
0
  6
Continuous
 62
     7
370
    25
100
AcDbLine
 10
6602.9630211785
 20
3752.9581981648
 30
0.0
 11
6602.9630211785
 21
4306.9581883897
 31
0.0
  0
LINE
  5
1BD
330
1F
100
AcDbEntity
  8
0
  6
Continuous
 62
     7
370
    25
100
AcDbLine
 10
6602.9630211785
 20
3752.9581981648
 30
0.0
 11
6605.1990894273
 21
3752.9581981648
 31
0.0
  0
LINE
  5
1BE
330
1F
100
AcDbEntity
  8
0
  6
Continuous
 62
     7
370
    25
100
AcDbLine
 10
5945.0744894937
 20
4306.9581883897
 30
0.0
 11
5945.0744894937
 21
3752.9581981648
 31
0.0
  0
LINE
  5
1BF
330
1F
100
AcDbEntity
  8
0
  6
Continuous
 62
     7
370
    25
100
AcDbLine
 10
5942.8384212449
 20
3752.9581981648
 30
0.0
 11
5945.0744894937
 21
3752.9581981648
 31
0.0
  0
LINE
  5
1C0
330
1F
100
AcDbEntity
  8
0
  6
Continuous
 62
     7
370
    25
100
AcDbLine
 10
6554.0187565282
 20
3701.7778652657
 30
0.0
 11
6554.0187565282
 21
3704.0139335145
 31
0.0
  0
ARC
  5
1C1
330
1F
100
AcDbEntity
  8
0
  6
Continuous
 62
     7
370
    25
100
AcDbCircle
 10
6554.0187553361
 20
3752.9581993569
 30
0.0
 40
48.94427190999977
100
AcDbArc
 50
270.0
 51
0.0
  0
ARC
  5
1C2
330
1F
100
AcDbEntity
  8
0
  6
Continuous
 62
     7
370
    25
100
AcDbCircle
 10
5994.0187553361
 20
3752.9581993569
 30
0.0
 40
48.94427190999886
100
AcDbArc
 50
180.0
 51
270.0
  0
LINE
  5
1C3
330
1F
100
AcDbEntity
  8
0
  6
Continuous
 62
     7
370
    25
100
AcDbLine
 10
5994.018754144
 20
3701.7778652657
 30
0.0
 11
5994.018754144
 21
3704.0139335145
 31
0.0
  0
LINE
  5
1C4
330
1F
100
AcDbEntity
  8
0
  6
Continuous
 62
     7
370
    25
100
AcDbLine
 10
5994.018754144
 20
3704.0139335145
 30
0.0
 11
6554.0187565282
 21
3704.0139335145
 31
0.0
  0
LINE
  5
1C5
330
1F
100
AcDbEntity
  8
0
  6
Continuous
 62
     7
370
    25
100
AcDbLine
 10
6622.0187453225
 20
3682.9582053174
 30
0.0
 11
6622.0187453225
 21
3684.9582093705
 31
0.0
  0
ARC
  5
1C6
330
1F
100
AcDbEntity
  8
0
  6
Continuous
 62
     7
370
    25
100
AcDbCircle
 10
6622.0187553361
 20
3684.9581993569
 30
0.0
 40
2.0
100
AcDbArc
 50
270.0
 51
0.0
  0
LINE
  5
1C7
330
1F
100
AcDbEntity
  8
0
  6
Continuous
 62
     7
370
    25
100
AcDbLine
 10
6622.0187453225
 20
3682.9582053174
 30
0.0
 11
5926.0187653497
 21
3682.9582053174
 31
0.0
  0
LINE
  5
1C8
330
1F
100
AcDbEntity
  8
0
  6
Continuous
 62
     7
370
    25
100
AcDbLine
 10
5926.0187653497
 20
3682.9582053174
 30
0.0
 11
5926.0187653497
 21
3684.9582093705
 31
0.0
  0
ARC
  5
1C9
330
1F
100
AcDbEntity
  8
0
  6
Continuous
 62
     7
370
    25
100
AcDbCircle
 10
5926.0187553361
 20
3684.9581993569
 30
0.0
 40
2.0
100
AcDbArc
 50
180.0
 51
270.0
  0
LINE
  5
1CA
330
1F
100
AcDbEntity
  8
0
  6
Continuous
 62
     7
370
    25
100
AcDbLine
 10
5994.018754144
 20
4348.0139273156
 30
0.0
 11
6554.0187565282
 21
4348.0139273156
 31
0.0
  0
LINE
  5
1CB
330
1F
100
AcDbEntity
  8
0
  6
Continuous
 62
     7
370
    25
100
AcDbLine
 10
5994.018754144
 20
4348.0139273156
 30
0.0
 11
5994.018754144
 21
4355.9024828423
 31
0.0
  0
LINE
  5
1CC
330
1F
100
AcDbEntity
  8
0
  6
Continuous
 62
     7
370
    25
100
AcDbLine
 10
6554.0187565282
 20
4355.9024828423
 30
0.0
 11
6554.0187565282
 21
4348.0139273156
 31
0.0
  0
ARC
  5
1CD
330
1F
100
AcDbEntity
  8
0
  6
Continuous
 62
     7
370
    25
100
AcDbCircle
 10
6554.0187553361
 20
4306.9581993569
 30
0.0
 40
41.05572809000114
100
AcDbArc
 50
0.0
 51
90.0
  0
LINE
  5
1CE
330
1F
100
AcDbEntity
  8
0
  6
Continuous
 62
     7
370
    25
100
AcDbLine
 10
6602.9630211785
 20
4306.9581883897
 30
0.0
 11
6595.0744954541
 21
4306.9581883897
 31
0.0
  0
ARC
  5
1CF
330
1F
100
AcDbEntity
  8
0
  6
Continuous
 62
     7
370
    25
100
AcDbCircle
 10
5994.0187553361
 20
4306.9581993569
 30
0.0
 40
41.05572809000114
100
AcDbArc
 50
90.0
 51
180.0
  0
LINE
  5
1D0
330
1F
100
AcDbEntity
  8
0
  6
Continuous
 62
     7
370
    25
100
AcDbLine
 10
5952.9630152181
 20
4306.9581883897
 30
0.0
 11
5945.0744894937
 21
4306.9581883897
 31
0.0
  0
LINE
  5
1D1
330
1F
100
AcDbEntity
  8
0
  6
Continuous
 62
     7
370
    25
100
AcDbLine
 10
5952.9630152181
 20
3752.9581981648
 30
0.0
 11
5952.9630152181
 21
4306.9581883897
 31
0.0
  0
LINE
  5
1D2
330
1F
100
AcDbEntity
  8
0
  6
Continuous
 62
     7
370
    25
100
AcDbLine
 10
5952.9630152181
 20
3752.9581981648
 30
0.0
 11
5945.0744894937
 21
3752.9581981648
 31
0.0
  0
LINE
  5
1D3
330
1F
100
AcDbEntity
  8
0
  6
Continuous
 62
     7
370
    25
100
AcDbLine
 10
6595.0744954541
 20
4306.9581883897
 30
0.0
 11
6595.0744954541
 21
3752.9581981648
 31
0.0
  0
LINE
  5
1D4
330
1F
100
AcDbEntity
  8
0
  6
Continuous
 62
     7
370
    25
100
AcDbLine
 10
6602.9630211785
 20
3752.9581981648
 30
0.0
 11
6595.0744954541
 21
3752.9581981648
 31
0.0
  0
ARC
  5
1D5
330
1F
100
AcDbEntity
  8
0
  6
Continuous
 62
     7
370
    25
100
AcDbCircle
 10
5994.0187553361
 20
3752.9581993569
 30
0.0
 40
41.05572809000114
100
AcDbArc
 50
180.0
 51
270.0
  0
LINE
  5
1D6
330
1F
100
AcDbEntity
  8
0
  6
Continuous
 62
     7
370
    25
100
AcDbLine
 10
5994.018754144
 20
3711.9024592389
 30
0.0
 11
5994.018754144
 21
3704.0139335145
 31
0.0
  0
ARC
  5
1D7
330
1F
100
AcDbEntity
  8
0
  6
Continuous
 62
     7
370
    25
100
AcDbCircle
 10
6554.0187553361
 20
3752.9581993569
 30
0.0
 40
41.05572809000114
100
AcDbArc
 50
270.0
 51
0.0
  0
LINE
  5
1D8
330
1F
100
AcDbEntity
  8
0
  6
Continuous
 62
     7
370
    25
100
AcDbLine
 10
6554.0187565282
 20
3704.0139335145
 30
0.0
 11
6554.0187565282
 21
3711.9024592389
 31
0.0
  0
LINE
  5
1D9
330
1F
100
AcDbEntity
  8
0
  6
Continuous
 62
     7
370
    25
100
AcDbLine
 10
6554.0187565282
 20
3711.9024592389
 30
0.0
 11
5994.018754144
 21
3711.9024592389
 31
0.0
  0
LINE
  5
1DA
330
1F
100
AcDbEntity
  8
0
  6
Continuous
 62
     7
370
    25
100
AcDbLine
 10
5994.018754144
 20
4348.0139273156
 30
0.0
 11
5994.018754144
 21
4345.7778590668
 31
0.0
  0
ARC
  5
1DB
330
1F
100
AcDbEntity
  8
0
  6
Continuous
 62
     7
370
    25
100
AcDbCircle
 10
5994.0187553361
 20
4306.9581993569
 30
0.0
 40
38.81966011250188
100
AcDbArc
 50
90.0
 51
180.0
  0
LINE
  5
1DC
330
1F
100
AcDbEntity
  8
0
  6
Continuous
 62
     7
370
    25
100
AcDbLine
 10
5952.9630152181
 20
4306.9581883897
 30
0.0
 11
5955.1990834668
 21
4306.9581883897
 31
0.0
  0
ARC
  5
1DD
330
1F
100
AcDbEntity
  8
0
  6
Continuous
 62
     7
370
    25
100
AcDbCircle
 10
6554.0187553361
 20
4306.9581993569
 30
0.0
 40
38.81966011250188
100
AcDbArc
 50
0.0
 51
90.0
  0
LINE
  5
1DE
330
1F
100
AcDbEntity
  8
0
  6
Continuous
 62
     7
370
    25
100
AcDbLine
 10
6554.0187565282
 20
4348.0139273156
 30
0.0
 11
6554.0187565282
 21
4345.7778590668
 31
0.0
  0
LINE
  5
1DF
330
1F
100
AcDbEntity
  8
0
  6
Continuous
 62
     7
370
    25
100
AcDbLine
 10
6592.8384272054
 20
4306.9581883897
 30
0.0
 11
6595.0744954541
 21
4306.9581883897
 31
0.0
  0
LINE
  5
1E0
330
1F
100
AcDbEntity
  8
0
  6
Continuous
 62
     7
370
    25
100
AcDbLine
 10
6554.0187565282
 20
4345.7778590668
 30
0.0
 11
5994.018754144
 21
4345.7778590668
 31
0.0
  0
LINE
  5
1E1
330
1F
100
AcDbEntity
  8
0
  6
Continuous
 62
     7
370
    25
100
AcDbLine
 10
6592.8384272054
 20
3752.9581981648
 30
0.0
 11
6592.8384272054
 21
4306.9581883897
 31
0.0
  0
LINE
  5
1E2
330
1F
100
AcDbEntity
  8
0
  6
Continuous
 62
     7
370
    25
100
AcDbLine
 10
6592.8384272054
 20
3752.9581981648
 30
0.0
 11
6595.0744954541
 21
3752.9581981648
 31
0.0
  0
LINE
  5
1E3
330
1F
100
AcDbEntity
  8
0
  6
Continuous
 62
     7
370
    25
100
AcDbLine
 10
5955.1990834668
 20
4306.9581883897
 30
0.0
 11
5955.1990834668
 21
3752.9581981648
 31
0.0
  0
LINE
  5
1E4
330
1F
100
AcDbEntity
  8
0
  6
Continuous
 62
     7
370
    25
100
AcDbLine
 10
5952.9630152181
 20
3752.9581981648
 30
0.0
 11
5955.1990834668
 21
3752.9581981648
 31
0.0
  0
ARC
  5
1E5
330
1F
100
AcDbEntity
  8
0
  6
Continuous
 62
     7
370
    25
100
AcDbCircle
 10
6554.0187553361
 20
3752.9581993569
 30
0.0
 40
38.81966011250097
100
AcDbArc
 50
270.0
 51
0.0
  0
LINE
  5
1E6
330
1F
100
AcDbEntity
  8
0
  6
Continuous
 62
     7
370
    25
100
AcDbLine
 10
6554.0187565282
 20
3714.1385274876
 30
0.0
 11
6554.0187565282
 21
3711.9024592389
 31
0.0
  0
ARC
  5
1E7
330
1F
100
AcDbEntity
  8
0
  6
Continuous
 62
     7
370
    25
100
AcDbCircle
 10
5994.0187553361
 20
3752.9581993569
 30
0.0
 40
38.81966011250097
100
AcDbArc
 50
180.0
 51
270.0
  0
LINE
  5
1E8
330
1F
100
AcDbEntity
  8
0
  6
Continuous
 62
     7
370
    25
100
AcDbLine
 10
5994.018754144
 20
3714.1385274876
 30
0.0
 11
5994.018754144
 21
3711.9024592389
 31
0.0
  0
LINE
  5
1E9
330
1F
100
AcDbEntity
  8
0
  6
Continuous
 62
     7
370
    25
100
AcDbLine
 10
5994.018754144
 20
3714.1385274876
 30
0.0
 11
6554.0187565282
 21
3714.1385274876
 31
0.0
  0
ARC
  5
1EA
330
1F
100
AcDbEntity
  8
0
  6
Continuous
 62
     7
370
    25
100
AcDbCircle
 10
6114.0187553361
 20
3872.9581993569
 30
0.0
 40
95.0
100
AcDbArc
 50
180.0
 51
270.0
  0
LINE
  5
1EB
330
1F
100
AcDbEntity
  8
0
  6
Continuous
 62
     7
370
    25
100
AcDbLine
 10
6434.0187517598
 20
3777.9582041253
 30
0.0
 11
6114.0187589124
 21
3777.9582041253
 31
0.0
  0
ARC
  5
1EC
330
1F
100
AcDbEntity
  8
0
  6
Continuous
 62
     7
370
    25
100
AcDbCircle
 10
6434.0187553361
 20
3872.9581993569
 30
0.0
 40
95.0
100
AcDbArc
 50
270.0
 51
0.0
  0
LINE
  5
1ED
330
1F
100
AcDbEntity
  8
0
  6
Continuous
 62
     7
370
    25
100
AcDbLine
 10
6529.0187505677
 20
4192.9581957806
 30
0.0
 11
6529.0187505677
 21
3872.9582029332
 31
0.0
  0
ARC
  5
1EE
330
1F
100
AcDbEntity
  8
0
  6
Continuous
 62
     7
370
    25
100
AcDbCircle
 10
6434.0187553361
 20
4192.9581993569
 30
0.0
 40
95.0
100
AcDbArc
 50
0.0
 51
90.0
  0
LINE
  5
1EF
330
1F
100
AcDbEntity
  8
0
  6
Continuous
 62
     7
370
    25
100
AcDbLine
 10
6114.0187589124
 20
4287.9581945885
 30
0.0
 11
6434.0187517598
 21
4287.9581945885
 31
0.0
  0
ARC
  5
1F0
330
1F
100
AcDbEntity
  8
0
  6
Continuous
 62
     7
370
    25
100
AcDbCircle
 10
6114.0187553361
 20
4192.9581993569
 30
0.0
 40
95.0
100
AcDbArc
 50
90.0
 51
180.0
  0
LINE
  5
1F1
330
1F
100
AcDbEntity
  8
0
  6
Continuous
 62
     7
370
    25
100
AcDbLine
 10
6019.0187601045
 20
3872.9582029332
 30
0.0
 11
6019.0187601045
 21
4192.9581957806
 31
0.0
  0
LINE
  5
1F2
330
1F
100
AcDbEntity
  8
0
  6
Continuous
 62
     7
370
    25
100
AcDbLine
 10
6434.0187517598
 20
4282.9581993569
 30
0.0
 11
6114.0187589124
 21
4282.9581993569
 31
0.0
  0
LINE
  5
1F3
330
1F
100
AcDbEntity
  8
0
  6
Continuous
 62
     7
370
    25
100
AcDbLine
 10
6114.0187589124
 20
4282.9581993569
 30
0.0
 11
6114.0187589124
 21
4287.9581945885
 31
0.0
  0
LINE
  5
1F4
330
1F
100
AcDbEntity
  8
0
  6
Continuous
 62
     7
370
    25
100
AcDbLine
 10
6434.0187517598
 20
4282.9581993569
 30
0.0
 11
6434.0187517598
 21
4287.9581945885
 31
0.0
  0
ARC
  5
1F5
330
1F
100
AcDbEntity
  8
0
  6
Continuous
 62
     7
370
    25
100
AcDbCircle
 10
6114.0187553361
 20
4192.9581993569
 30
0.0
 40
90.0
100
AcDbArc
 50
90.0
 51
180.0
  0
LINE
  5
1F6
330
1F
100
AcDbEntity
  8
0
  6
Continuous
 62
     7
370
    25
100
AcDbLine
 10
6019.0187601045
 20
4192.9581957806
 30
0.0
 11
6024.0187553361
 21
4192.9581957806
 31
0.0
  0
ARC
  5
1F7
330
1F
100
AcDbEntity
  8
0
  6
Continuous
 62
     7
370
    25
100
AcDbCircle
 10
6434.0187553361
 20
4192.9581993569
 30
0.0
 40
90.0
100
AcDbArc
 50
0.0
 51
90.0
  0
LINE
  5
1F8
330
1F
100
AcDbEntity
  8
0
  6
Continuous
 62
     7
370
    25
100
AcDbLine
 10
6524.0187553361
 20
4192.9581957806
 30
0.0
 11
6529.0187505677
 21
4192.9581957806
 31
0.0
  0
LINE
  5
1F9
330
1F
100
AcDbEntity
  8
0
  6
Continuous
 62
     7
370
    25
100
AcDbLine
 10
6524.0187553361
 20
3872.9582029332
 30
0.0
 11
6524.0187553361
 21
4192.9581957806
 31
0.0
  0
LINE
  5
1FA
330
1F
100
AcDbEntity
  8
0
  6
Continuous
 62
     7
370
    25
100
AcDbLine
 10
6524.0187553361
 20
3872.9582029332
 30
0.0
 11
6529.0187505677
 21
3872.9582029332
 31
0.0
  0
LINE
  5
1FB
330
1F
100
AcDbEntity
  8
0
  6
Continuous
 62
     7
370
    25
100
AcDbLine
 10
6024.0187553361
 20
4192.9581957806
 30
0.0
 11
6024.0187553361
 21
3872.9582029332
 31
0.0
  0
LINE
  5
1FC
330
1F
100
AcDbEntity
  8
0
  6
Continuous
 62
     7
370
    25
100
AcDbLine
 10
6019.0187601045
 20
3872.9582029332
 30
0.0
 11
6024.0187553361
 21
3872.9582029332
 31
0.0
  0
LINE
  5
1FD
330
1F
100
AcDbEntity
  8
0
  6
Continuous
 62
     7
370
    25
100
AcDbLine
 10
6434.0187517598
 20
3777.9582041253
 30
0.0
 11
6434.0187517598
 21
3782.9581993569
 31
0.0
  0
ARC
  5
1FE
330
1F
100
AcDbEntity
  8
0
  6
Continuous
 62
     7
370
    25
100
AcDbCircle
 10
6434.0187553361
 20
3872.9581993569
 30
0.0
 40
90.0
100
AcDbArc
 50
270.0
 51
0.0
  0
ARC
  5
1FF
330
1F
100
AcDbEntity
  8
0
  6
Continuous
 62
     7
370
    25
100
AcDbCircle
 10
6114.0187553361
 20
3872.9581993569
 30
0.0
 40
90.0
100
AcDbArc
 50
180.0
 51
270.0
  0
LINE
  5
200
330
1F
100
AcDbEntity
  8
0
  6
Continuous
 62
     7
370
    25
100
AcDbLine
 10
6114.0187589124
 20
3777.9582041253
 30
0.0
 11
6114.0187589124
 21
3782.9581993569
 31
0.0
  0
LINE
  5
201
330
1F
100
AcDbEntity
  8
0
  6
Continuous
 62
     7
370
    25
100
AcDbLine
 10
6114.0187589124
 20
3782.9581993569
 30
0.0
 11
6434.0187517598
 21
3782.9581993569
 31
0.0
  0
LINE
  5
202
330
1F
100
AcDbEntity
  8
0
  6
Continuous
 62
     7
370
    25
100
AcDbLine
 10
6434.0187517598
 20
4282.9581993569
 30
0.0
 11
6434.0187517598
 21
4242.9581928004
 31
0.0
  0
LINE
  5
203
330
1F
100
AcDbEntity
  8
0
  6
Continuous
 62
     7
370
    25
100
AcDbLine
 10
6434.0187517598
 20
4242.9581928004
 30
0.0
 11
6114.0187589124
 21
4242.9581928004
 31
0.0
  0
LINE
  5
204
330
1F
100
AcDbEntity
  8
0
  6
Continuous
 62
     7
370
    25
100
AcDbLine
 10
6114.0187589124
 20
4282.9581993569
 30
0.0
 11
6114.0187589124
 21
4242.9581928004
 31
0.0
  0
ARC
  5
205
330
1F
100
AcDbEntity
  8
0
  6
Continuous
 62
     7
370
    25
100
AcDbCircle
 10
6114.0187553361
 20
4192.9581993569
 30
0.0
 40
50.0
100
AcDbArc
 50
90.0
 51
180.0
  0
LINE
  5
206
330
1F
100
AcDbEntity
  8
0
  6
Continuous
 62
     7
370
    25
100
AcDbLine
 10
6064.0187618926
 20
4192.9581957806
 30
0.0
 11
6024.0187553361
 21
4192.9581957806
 31
0.0
  0
LINE
  5
207
330
1F
100
AcDbEntity
  8
0
  6
Continuous
 62
     7
370
    25
100
AcDbLine
 10
6524.0187553361
 20
4192.9581957806
 30
0.0
 11
6484.0187487796
 21
4192.9581957806
 31
0.0
  0
ARC
  5
208
330
1F
100
AcDbEntity
  8
0
  6
Continuous
 62
     7
370
    25
100
AcDbCircle
 10
6434.0187553361
 20
4192.9581993569
 30
0.0
 40
50.0
100
AcDbArc
 50
0.0
 51
90.0
  0
LINE
  5
209
330
1F
100
AcDbEntity
  8
0
  6
Continuous
 62
     7
370
    25
100
AcDbLine
 10
6524.0187553361
 20
3872.9582029332
 30
0.0
 11
6484.0187487796
 21
3872.9582029332
 31
0.0
  0
LINE
  5
20A
330
1F
100
AcDbEntity
  8
0
  6
Continuous
 62
     7
370
    25
100
AcDbLine
 10
6484.0187487796
 20
3872.9582029332
 30
0.0
 11
6484.0187487796
 21
4192.9581957806
 31
0.0
  0
LINE
  5
20B
330
1F
100
AcDbEntity
  8
0
  6
Continuous
 62
     7
370
    25
100
AcDbLine
 10
6064.0187618926
 20
4192.9581957806
 30
0.0
 11
6064.0187618926
 21
3872.9582029332
 31
0.0
  0
LINE
  5
20C
330
1F
100
AcDbEntity
  8
0
  6
Continuous
 62
     7
370
    25
100
AcDbLine
 10
6064.0187618926
 20
3872.9582029332
 30
0.0
 11
6024.0187553361
 21
3872.9582029332
 31
0.0
  0
ARC
  5
20D
330
1F
100
AcDbEntity
  8
0
  6
Continuous
 62
     7
370
    25
100
AcDbCircle
 10
6434.0187553361
 20
3872.9581993569
 30
0.0
 40
50.0
100
AcDbArc
 50
270.0
 51
0.0
  0
LINE
  5
20E
330
1F
100
AcDbEntity
  8
0
  6
Continuous
 62
     7
370
    25
100
AcDbLine
 10
6434.0187517598
 20
3822.9582059134
 30
0.0
 11
6434.0187517598
 21
3782.9581993569
 31
0.0
  0
ARC
  5
20F
330
1F
100
AcDbEntity
  8
0
  6
Continuous
 62
     7
370
    25
100
AcDbCircle
 10
6114.0187553361
 20
3872.9581993569
 30
0.0
 40
50.0
100
AcDbArc
 50
180.0
 51
270.0
  0
LINE
  5
210
330
1F
100
AcDbEntity
  8
0
  6
Continuous
 62
     7
370
    25
100
AcDbLine
 10
6114.0187589124
 20
3822.9582059134
 30
0.0
 11
6114.0187589124
 21
3782.9581993569
 31
0.0
  0
LINE
  5
211
330
1F
100
AcDbEntity
  8
0
  6
Continuous
 62
     7
370
    25
100
AcDbLine
 10
6114.0187589124
 20
3822.9582059134
 30
0.0
 11
6434.0187517598
 21
3822.9582059134
 31
0.0
  0
CIRCLE
  5
212
330
1F
100
AcDbEntity
  8
0
  6
Continuous
 62
     7
370
    25
100
AcDbCircle
 10
6434.0187553361
 20
4192.9581993569
 30
0.0
 40
46.5
  0
CIRCLE
  5
213
330
1F
100
AcDbEntity
  8
0
  6
Continuous
 62
     7
370
    25
100
AcDbCircle
 10
6434.0187553361
 20
4192.9581993569
 30
0.0
 40
36.50000000000091
  0
ENDSEC
  0
SECTION
  2
OBJECTS
  0
DICTIONARY
  5
C
330
0
100
AcDbDictionary
281
     1
  3
ACAD_GROUP
350
D
  3
ACAD_LAYOUT
350
1A
  3
ACAD_MLINESTYLE
350
17
  3
ACAD_PLOTSETTINGS
350
19
  3
ACAD_PLOTSTYLENAME
350
E
  3
ACAD_SCALELIST
350
47
  0
DICTIONARY
  5
D
102
{ACAD_REACTORS
330
C
102
}
330
C
100
AcDbDictionary
281
     1
  0
DICTIONARY
  5
1A
102
{ACAD_REACTORS
330
C
102
}
330
C
100
AcDbDictionary
281
     1
  3
Layout1
350
1E
  3
Layout2
350
26
  3
Model
350
22
  0
DICTIONARY
  5
17
102
{ACAD_REACTORS
330
C
102
}
330
C
100
AcDbDictionary
281
     1
  3
Standard
350
18
  0
DICTIONARY
  5
19
102
{ACAD_REACTORS
330
C
102
}
330
C
100
AcDbDictionary
281
     1
  0
ACDBDICTIONARYWDFLT
  5
E
102
{ACAD_REACTORS
330
C
102
}
330
C
100
AcDbDictionary
281
     1
  3
Normal
350
F
100
AcDbDictionaryWithDefault
340
F
  0
DICTIONARY
  5
47
102
{ACAD_REACTORS
330
C
102
}
330
C
100
AcDbDictionary
281
     1
  3
A0
350
48
  3
A1
350
49
  3
A2
350
4A
  3
A3
350
4B
  3
A4
350
4C
  3
A5
350
4D
  3
A6
350
4E
  3
A7
350
4F
  3
A8
350
50
  3
A9
350
51
  3
B0
350
52
  3
B1
350
53
  3
B2
350
54
  3
B3
350
55
  3
B4
350
56
  3
B5
350
57
  3
B6
350
58
  3
B7
350
59
  3
B8
350
5A
  3
B9
350
5B
  3
C0
350
5C
  3
C1
350
5D
  3
C2
350
5E
  3
C3
350
5F
  3
C4
350
60
  3
C5
350
61
  3
C6
350
62
  3
C7
350
63
  3
C8
350
64
  3
C9
350
65
  3
D0
350
66
  3
D1
350
67
  3
D2
350
68
  0
LAYOUT
  5
1E
102
{ACAD_REACTORS
330
1A
102
}
330
1A
100
AcDbPlotSettings
  1

  2
none_device
  4

  6

 40
0.0
 41
0.0
 42
0.0
 43
0.0
 44
0.0
 45
0.0
 46
0.0
 47
0.0
 48
0.0
 49
0.0
140
0.0
141
0.0
142
1.0
143
1.0
 70
   688
 72
     1
 73
     0
 74
     5
  7

 75
    16
147
1.0
148
0.0
149
0.0
100
AcDbLayout
  1
Layout1
 70
     1
 71
     1
 10
0.0
 20
0.0
 11
420.0
 21
297.0
 12
0.0
 22
0.0
 32
0.0
 14
1.0000000000E+20
 24
1.0000000000E+20
 34
1.0000000000E+20
 15
-1.0000000000E+20
 25
-1.0000000000E+20
 35
-1.0000000000E+20
146
0.0
 13
0.0
 23
0.0
 33
0.0
 16
1.0
 26
0.0
 36
0.0
 17
0.0
 27
1.0
 37
0.0
 76
     0
330
1B
  0
LAYOUT
  5
26
102
{ACAD_REACTORS
330
1A
102
}
330
1A
100
AcDbPlotSettings
  1

  2
none_device
  4

  6

 40
0.0
 41
0.0
 42
0.0
 43
0.0
 44
0.0
 45
0.0
 46
0.0
 47
0.0
 48
0.0
 49
0.0
140
0.0
141
0.0
142
1.0
143
1.0
 70
   688
 72
     1
 73
     0
 74
     5
  7

 75
    16
147
1.0
148
0.0
149
0.0
100
AcDbLayout
  1
Layout2
 70
     1
 71
     2
 10
0.0
 20
0.0
 11
0.0
 21
0.0
 12
0.0
 22
0.0
 32
0.0
 14
0.0
 24
0.0
 34
0.0
 15
0.0
 25
0.0
 35
0.0
146
0.0
 13
0.0
 23
0.0
 33
0.0
 16
1.0
 26
0.0
 36
0.0
 17
0.0
 27
1.0
 37
0.0
 76
     0
330
23
  0
LAYOUT
  5
22
102
{ACAD_REACTORS
330
1A
102
}
330
1A
100
AcDbPlotSettings
  1

  2
none_device
  4
Letter_(8.50_x_11.00_Inches)
  6

 40
6.35
 41
6.35
 42
6.35000508
 43
6.35000508
 44
215.9
 45
279.4
 46
0.0
 47
0.0
 48
0.0
 49
0.0
140
0.0
141
0.0
142
1.0
143
1.0
 70
  1712
 72
     1
 73
     0
 74
     0
  7

 75
     0
147
1.0
148
0.0
149
0.0
100
AcDbLayout
  1
Model
 70
     1
 71
     0
 10
0.0
 20
0.0
 11
20000.0
 21
10000.0
 12
0.0
 22
0.0
 32
0.0
 14
0.0
 24
0.0
 34
0.0
 15
20000.0
 25
10000.0
 35
0.0
146
0.0
 13
0.0
 23
0.0
 33
0.0
 16
1.0
 26
0.0
 36
0.0
 17
0.0
 27
1.0
 37
0.0
 76
     0
330
1F
331
29
  0
MLINESTYLE
  5
18
102
{ACAD_REACTORS
330
17
102
}
330
17
100
AcDbMlineStyle
  2
Standard
 70
     0
  3

 62
   256
 51
90.0
 52
90.0
 71
     2
 49
0.5
 62
   256
  6
BYLAYER
 49
-0.5
 62
   256
  6
BYLAYER
  0
ACDBPLACEHOLDER
  5
F
102
{ACAD_REACTORS
330
E
102
}
330
E
  0
SCALE
  5
48
102
{ACAD_REACTORS
330
47
102
}
330
47
100
AcDbScale
 70
     0
300
1:1
140
1.0
141
1.0
290
     1
  0
SCALE
  5
49
102
{ACAD_REACTORS
330
47
102
}
330
47
100
AcDbScale
 70
     0
300
1:2
140
1.0
141
2.0
290
     0
  0
SCALE
  5
4A
102
{ACAD_REACTORS
330
47
102
}
330
47
100
AcDbScale
 70
     0
300
1:4
140
1.0
141
4.0
290
     0
  0
SCALE
  5
4B
102
{ACAD_REACTORS
330
47
102
}
330
47
100
AcDbScale
 70
     0
300
1:5
140
1.0
141
5.0
290
     0
  0
SCALE
  5
4C
102
{ACAD_REACTORS
330
47
102
}
330
47
100
AcDbScale
 70
     0
300
1:8
140
1.0
141
8.0
290
     0
  0
SCALE
  5
4D
102
{ACAD_REACTORS
330
47
102
}
330
47
100
AcDbScale
 70
     0
300
1:10
140
1.0
141
10.0
290
     0
  0
SCALE
  5
4E
102
{ACAD_REACTORS
330
47
102
}
330
47
100
AcDbScale
 70
     0
300
1:16
140
1.0
141
16.0
290
     0
  0
SCALE
  5
4F
102
{ACAD_REACTORS
330
47
102
}
330
47
100
AcDbScale
 70
     0
300
1:20
140
1.0
141
20.0
290
     0
  0
SCALE
  5
50
102
{ACAD_REACTORS
330
47
102
}
330
47
100
AcDbScale
 70
     0
300
1:30
140
1.0
141
30.0
290
     0
  0
SCALE
  5
51
102
{ACAD_REACTORS
330
47
102
}
330
47
100
AcDbScale
 70
     0
300
1:40
140
1.0
141
40.0
290
     0
  0
SCALE
  5
52
102
{ACAD_REACTORS
330
47
102
}
330
47
100
AcDbScale
 70
     0
300
1:50
140
1.0
141
50.0
290
     0
  0
SCALE
  5
53
102
{ACAD_REACTORS
330
47
102
}
330
47
100
AcDbScale
 70
     0
300
1:100
140
1.0
141
100.0
290
     0
  0
SCALE
  5
54
102
{ACAD_REACTORS
330
47
102
}
330
47
100
AcDbScale
 70
     0
300
2:1
140
2.0
141
1.0
290
     0
  0
SCALE
  5
55
102
{ACAD_REACTORS
330
47
102
}
330
47
100
AcDbScale
 70
     0
300
4:1
140
4.0
141
1.0
290
     0
  0
SCALE
  5
56
102
{ACAD_REACTORS
330
47
102
}
330
47
100
AcDbScale
 70
     0
300
8:1
140
8.0
141
1.0
290
     0
  0
SCALE
  5
57
102
{ACAD_REACTORS
330
47
102
}
330
47
100
AcDbScale
 70
     0
300
10:1
140
10.0
141
1.0
290
     0
  0
SCALE
  5
58
102
{ACAD_REACTORS
330
47
102
}
330
47
100
AcDbScale
 70
     0
300
100:1
140
100.0
141
1.0
290
     0
  0
SCALE
  5
59
102
{ACAD_REACTORS
330
47
102
}
330
47
100
AcDbScale
 70
     0
300
1/128" = 1'-0"
140
0.0078125
141
12.0
290
     0
  0
SCALE
  5
5A
102
{ACAD_REACTORS
330
47
102
}
330
47
100
AcDbScale
 70
     0
300
1/64" = 1'-0"
140
0.015625
141
12.0
290
     0
  0
SCALE
  5
5B
102
{ACAD_REACTORS
330
47
102
}
330
47
100
AcDbScale
 70
     0
300
1/32" = 1'-0"
140
0.03125
141
12.0
290
     0
  0
SCALE
  5
5C
102
{ACAD_REACTORS
330
47
102
}
330
47
100
AcDbScale
 70
     0
300
1/16" = 1'-0"
140
0.0625
141
12.0
290
     0
  0
SCALE
  5
5D
102
{ACAD_REACTORS
330
47
102
}
330
47
100
AcDbScale
 70
     0
300
3/32" = 1'-0"
140
0.09375
141
12.0
290
     0
  0
SCALE
  5
5E
102
{ACAD_REACTORS
330
47
102
}
330
47
100
AcDbScale
 70
     0
300
1/8" = 1'-0"
140
0.125
141
12.0
290
     0
  0
SCALE
  5
5F
102
{ACAD_REACTORS
330
47
102
}
330
47
100
AcDbScale
 70
     0
300
3/16" = 1'-0"
140
0.1875
141
12.0
290
     0
  0
SCALE
  5
60
102
{ACAD_REACTORS
330
47
102
}
330
47
100
AcDbScale
 70
     0
300
1/4" = 1'-0"
140
0.25
141
12.0
290
     0
  0
SCALE
  5
61
102
{ACAD_REACTORS
330
47
102
}
330
47
100
AcDbScale
 70
     0
300
3/8" = 1'-0"
140
0.375
141
12.0
290
     0
  0
SCALE
  5
62
102
{ACAD_REACTORS
330
47
102
}
330
47
100
AcDbScale
 70
     0
300
1/2" = 1'-0"
140
0.5
141
12.0
290
     0
  0
SCALE
  5
63
102
{ACAD_REACTORS
330
47
102
}
330
47
100
AcDbScale
 70
     0
300
3/4" = 1'-0"
140
0.75
141
12.0
290
     0
  0
SCALE
  5
64
102
{ACAD_REACTORS
330
47
102
}
330
47
100
AcDbScale
 70
     0
300
1" = 1'-0"
140
1.0
141
12.0
290
     0
  0
SCALE
  5
65
102
{ACAD_REACTORS
330
47
102
}
330
47
100
AcDbScale
 70
     0
300
1-1/2" = 1'-0"
140
1.5
141
12.0
290
     0
  0
SCALE
  5
66
102
{ACAD_REACTORS
330
47
102
}
330
47
100
AcDbScale
 70
     0
300
3" = 1'-0"
140
3.0
141
12.0
290
     0
  0
SCALE
  5
67
102
{ACAD_REACTORS
330
47
102
}
330
47
100
AcDbScale
 70
     0
300
6" = 1'-0"
140
6.0
141
12.0
290
     0
  0
SCALE
  5
68
102
{ACAD_REACTORS
330
47
102
}
330
47
100
AcDbScale
 70
     0
300
1'-0" = 1'-0"
140
12.0
141
12.0
290
     0
  0
ENDSEC
  0
EOF
