  0
SECTION
  2
HEADER
  9
$ACADVER
  1
AC1015
  9
$ACADMAINTVER
 70
     6
  9
$DWGCODEPAGE
  3
ANSI_1250
  9
$INSBASE
 10
0.0
 20
0.0
 30
0.0
  9
$EXTMIN
 10
5024.0187553361
 20
3692.7474361994
 30
0.0
  9
$EXTMAX
 10
8400.4943813931
 20
5848.4410560817
 30
0.0
  9
$LIMMIN
 10
0.0
 20
0.0
  9
$LIMMAX
 10
420.0
 20
297.0
  9
$ORTHOMODE
 70
     0
  9
$REGENMODE
 70
     1
  9
$FILLMODE
 70
     1
  9
$QTEXTMODE
 70
     0
  9
$MIRRTEXT
 70
     1
  9
$LTSCALE
 40
1.0
  9
$ATTMODE
 70
     1
  9
$TEXTSIZE
 40
3.5
  9
$TRACEWID
 40
1.0
  9
$TEXTSTYLE
  7
Standard
  9
$CLAYER
  8
0
  9
$CELTYPE
  6
ByLayer
  9
$CECOLOR
 62
   256
  9
$CELTSCALE
 40
1.0
  9
$DISPSILH
 70
     0
  9
$DIMSCALE
 40
1.0
  9
$DIMASZ
 40
3.302
  9
$DIMEXO
 40
0.0
  9
$DIMDLI
 40
3.75
  9
$DIMRND
 40
0.0
  9
$DIMDLE
 40
0.0
  9
$DIMEXE
 40
1.0
  9
$DIMTP
 40
0.0
  9
$DIMTM
 40
0.0
  9
$DIMTXT
 40
3.5
  9
$DIMCEN
 40
2.5
  9
$DIMTSZ
 40
0.0
  9
$DIMTOL
 70
     0
  9
$DIMLIM
 70
     0
  9
$DIMTIH
 70
     1
  9
$DIMTOH
 70
     1
  9
$DIMSE1
 70
     0
  9
$DIMSE2
 70
     0
  9
$DIMTAD
 70
     1
  9
$DIMZIN
 70
     0
  9
$DIMBLK
  1

  9
$DIMASO
 70
     1
  9
$DIMSHO
 70
     1
  9
$DIMPOST
  1

  9
$DIMAPOST
  1

  9
$DIMALT
 70
     0
  9
$DIMALTD
 70
     3
  9
$DIMALTF
 40
0.0393700787
  9
$DIMLFAC
 40
1.0
  9
$DIMTOFL
 70
     1
  9
$DIMTVP
 40
0.0
  9
$DIMTIX
 70
     0
  9
$DIMSOXD
 70
     0
  9
$DIMSAH
 70
     0
  9
$DIMBLK1
  1

  9
$DIMBLK2
  1

  9
$DIMSTYLE
  2
ISO-25
  9
$DIMCLRD
 70
     0
  9
$DIMCLRE
 70
     0
  9
$DIMCLRT
 70
     0
  9
$DIMTFAC
 40
1.0
  9
$DIMGAP
 40
1.524
  9
$DIMJUST
 70
     0
  9
$DIMSD1
 70
     0
  9
$DIMSD2
 70
     0
  9
$DIMTOLJ
 70
     0
  9
$DIMTZIN
 70
     0
  9
$DIMALTZ
 70
     0
  9
$DIMALTTZ
 70
     0
  9
$DIMUPT
 70
     0
  9
$DIMDEC
 70
     2
  9
$DIMTDEC
 70
     2
  9
$DIMALTU
 70
     2
  9
$DIMALTTD
 70
     3
  9
$DIMTXSTY
  7
Standard
  9
$DIMAUNIT
 70
     0
  9
$DIMADEC
 70
     2
  9
$DIMALTRND
 40
0.0
  9
$DIMAZIN
 70
     0
  9
$DIMDSEP
 70
    44
  9
$DIMATFIT
 70
     3
  9
$DIMFRAC
 70
     0
  9
$DIMLDRBLK
  1

  9
$DIMLUNIT
 70
     2
  9
$DIMLWD
 70
    -2
  9
$DIMLWE
 70
    -2
  9
$DIMTMOVE
 70
     0
  9
$LUNITS
 70
     2
  9
$LUPREC
 70
     2
  9
$SKETCHINC
 40
1.0
  9
$FILLETRAD
 40
10.0
  9
$AUNITS
 70
     0
  9
$AUPREC
 70
     2
  9
$MENU
  1
.
  9
$ELEVATION
 40
0.0
  9
$PELEVATION
 40
0.0
  9
$THICKNESS
 40
0.0
  9
$LIMCHECK
 70
     0
  9
$CHAMFERA
 40
0.0
  9
$CHAMFERB
 40
0.0
  9
$CHAMFERC
 40
0.0
  9
$CHAMFERD
 40
0.0
  9
$SKPOLY
 70
     0
  9
$TDCREATE
 40
2459096.466389815
  9
$TDUCREATE
 40
2459096.383056481
  9
$TDUPDATE
 40
2459096.46642081
  9
$TDUUPDATE
 40
2459096.383087477
  9
$TDINDWG
 40
0.0000000116
  9
$TDUSRTIMER
 40
0.0000000116
  9
$USRTIMER
 70
     1
  9
$ANGBASE
 50
0.0
  9
$ANGDIR
 70
     0
  9
$PDMODE
 70
     0
  9
$PDSIZE
 40
-1.0
  9
$PLINEWID
 40
0.0
  9
$SPLFRAME
 70
     0
  9
$SPLINETYPE
 70
     6
  9
$SPLINESEGS
 70
     8
  9
$HANDSEED
  5
5C9
  9
$SURFTAB1
 70
     6
  9
$SURFTAB2
 70
     6
  9
$SURFTYPE
 70
     6
  9
$SURFU
 70
     6
  9
$SURFV
 70
     6
  9
$UCSBASE
  2

  9
$UCSNAME
  2

  9
$UCSORG
 10
0.0
 20
0.0
 30
0.0
  9
$UCSXDIR
 10
1.0
 20
0.0
 30
0.0
  9
$UCSYDIR
 10
0.0
 20
1.0
 30
0.0
  9
$UCSORTHOREF
  2

  9
$UCSORTHOVIEW
 70
     0
  9
$UCSORGTOP
 10
0.0
 20
0.0
 30
0.0
  9
$UCSORGBOTTOM
 10
0.0
 20
0.0
 30
0.0
  9
$UCSORGLEFT
 10
0.0
 20
0.0
 30
0.0
  9
$UCSORGRIGHT
 10
0.0
 20
0.0
 30
0.0
  9
$UCSORGFRONT
 10
0.0
 20
0.0
 30
0.0
  9
$UCSORGBACK
 10
0.0
 20
0.0
 30
0.0
  9
$PUCSBASE
  2

  9
$PUCSNAME
  2

  9
$PUCSORG
 10
0.0
 20
0.0
 30
0.0
  9
$PUCSXDIR
 10
1.0
 20
0.0
 30
0.0
  9
$PUCSYDIR
 10
0.0
 20
1.0
 30
0.0
  9
$PUCSORTHOREF
  2

  9
$PUCSORTHOVIEW
 70
     0
  9
$PUCSORGTOP
 10
0.0
 20
0.0
 30
0.0
  9
$PUCSORGBOTTOM
 10
0.0
 20
0.0
 30
0.0
  9
$PUCSORGLEFT
 10
0.0
 20
0.0
 30
0.0
  9
$PUCSORGRIGHT
 10
0.0
 20
0.0
 30
0.0
  9
$PUCSORGFRONT
 10
0.0
 20
0.0
 30
0.0
  9
$PUCSORGBACK
 10
0.0
 20
0.0
 30
0.0
  9
$USERI1
 70
     0
  9
$USERI2
 70
     0
  9
$USERI3
 70
     0
  9
$USERI4
 70
     0
  9
$USERI5
 70
     0
  9
$USERR1
 40
0.0
  9
$USERR2
 40
0.0
  9
$USERR3
 40
0.0
  9
$USERR4
 40
0.0
  9
$USERR5
 40
0.0
  9
$WORLDVIEW
 70
     1
  9
$SHADEDGE
 70
     3
  9
$SHADEDIF
 70
    70
  9
$TILEMODE
 70
     1
  9
$MAXACTVP
 70
    64
  9
$PINSBASE
 10
0.0
 20
0.0
 30
0.0
  9
$PLIMCHECK
 70
     0
  9
$PEXTMIN
 10
1.0000000000E+20
 20
1.0000000000E+20
 30
1.0000000000E+20
  9
$PEXTMAX
 10
-1.0000000000E+20
 20
-1.0000000000E+20
 30
-1.0000000000E+20
  9
$PLIMMIN
 10
0.0
 20
0.0
  9
$PLIMMAX
 10
420.0
 20
297.0
  9
$UNITMODE
 70
     0
  9
$VISRETAIN
 70
     1
  9
$PLINEGEN
 70
     0
  9
$PSLTSCALE
 70
     1
  9
$TREEDEPTH
 70
  3020
  9
$CMLSTYLE
  2
Standard
  9
$CMLJUST
 70
     0
  9
$CMLSCALE
 40
20.0
  9
$PROXYGRAPHICS
 70
     1
  9
$MEASUREMENT
 70
     1
  9
$CELWEIGHT
370
    -1
  9
$ENDCAPS
280
     0
  9
$JOINSTYLE
280
     0
  9
$LWDISPLAY
290
     1
  9
$INSUNITS
 70
     4
  9
$HYPERLINKBASE
  1

  9
$STYLESHEET
  1

  9
$XEDIT
290
     1
  9
$CEPSNTYPE
380
     0
  9
$PSTYLEMODE
290
     1
  9
$FINGERPRINTGUID
  2
{0aa2b2a1-fda9-4208-a6f7-f8d5b7c52099}
  9
$VERSIONGUID
  2
{FAEB1C32-E019-11D5-929B-00C0DF256EC4}
  9
$EXTNAMES
290
     1
  9
$PSVPSCALE
 40
0.0
  9
$OLESTARTUP
290
     0
  0
ENDSEC
  0
SECTION
  2
CLASSES
  0
CLASS
  1
ACDBDICTIONARYWDFLT
  2
AcDbDictionaryWithDefault
  3
ObjectDBX Classes
 90
        0
280
     0
281
     0
  0
CLASS
  1
VISUALSTYLE
  2
AcDbVisualStyle
  3
ObjectDBX Classes
 90
     4095
280
     0
281
     0
  0
CLASS
  1
MATERIAL
  2
AcDbMaterial
  3
ObjectDBX Classes
 90
     1153
280
     0
281
     0
  0
CLASS
  1
SCALE
  2
AcDbScale
  3
ObjectDBX Classes
 90
     1153
280
     0
281
     0
  0
CLASS
  1
TABLESTYLE
  2
AcDbTableStyle
  3
ObjectDBX Classes
 90
     4095
280
     0
281
     0
  0
CLASS
  1
MLEADERSTYLE
  2
AcDbMLeaderStyle
  3
ACDB_MLEADERSTYLE_CLASS
 90
     4095
280
     0
281
     0
  0
CLASS
  1
SUN
  2
AcDbSun
  3
SCENEOE
 90
     1153
280
     0
281
     0
  0
CLASS
  1
ACDBPLACEHOLDER
  2
AcDbPlaceHolder
  3
ObjectDBX Classes
 90
        0
280
     0
281
     0
  0
CLASS
  1
LAYOUT
  2
AcDbLayout
  3
ObjectDBX Classes
 90
        0
280
     0
281
     0
  0
ENDSEC
  0
SECTION
  2
TABLES
  0
TABLE
  2
VPORT
  5
8
330
0
100
AcDbSymbolTable
 70
     1
  0
VPORT
  5
29
330
8
100
AcDbSymbolTableRecord
100
AcDbViewportTableRecord
  2
*Active
 70
     0
 10
0.0
 20
0.0
 11
1.0
 21
1.0
 12
6712.2565683646
 22
4770.5942461406
 13
0.0
 23
0.0
 14
10.0
 24
10.0
 15
10.0
 25
10.0
 16
0.0
 26
0.0
 36
1.0
 17
0.0
 27
0.0
 37
0.0
 40
2198.8074922799
 41
1.5663058957
 42
50.0
 43
0.0
 44
0.0
 50
0.0
 51
0.0
 71
     0
 72
   100
 73
     1
 74
     3
 75
     0
 76
     0
 77
     0
 78
     0
281
     0
 65
     1
110
0.0
120
0.0
130
0.0
111
1.0
121
0.0
131
0.0
112
0.0
122
1.0
132
0.0
 79
     0
146
0.0
  0
ENDTAB
  0
TABLE
  2
LTYPE
  5
5
330
0
100
AcDbSymbolTable
 70
     6
  0
LTYPE
  5
14
330
5
100
AcDbSymbolTableRecord
100
AcDbLinetypeTableRecord
  2
ByBlock
 70
     0
  3

 72
    65
 73
     0
 40
0.0
  0
LTYPE
  5
15
330
5
100
AcDbSymbolTableRecord
100
AcDbLinetypeTableRecord
  2
ByLayer
 70
     0
  3

 72
    65
 73
     0
 40
0.0
  0
LTYPE
  5
16
330
5
100
AcDbSymbolTableRecord
100
AcDbLinetypeTableRecord
  2
Continuous
 70
     0
  3
Solid line
 72
    65
 73
     0
 40
0.0
  0
LTYPE
  5
6E
330
5
100
AcDbSymbolTableRecord
100
AcDbLinetypeTableRecord
  2
HIDDEN
 70
     0
  3
Hidden __ __ __ __ __ __ __ __ __ __ __ __ __ __
 72
    65
 73
     2
 40
1.905
 49
1.27
 74
     0
 49
-0.635
 74
     0
  0
LTYPE
  5
6F
330
5
100
AcDbSymbolTableRecord
100
AcDbLinetypeTableRecord
  2
PHANTOM
 70
     0
  3
Phantom ______  __  __  ______  __  __  ______
 72
    65
 73
     6
 40
12.7
 49
6.35
 74
     0
 49
-1.27
 74
     0
 49
1.27
 74
     0
 49
-1.27
 74
     0
 49
1.27
 74
     0
 49
-1.27
 74
     0
  0
LTYPE
  5
70
330
5
100
AcDbSymbolTableRecord
100
AcDbLinetypeTableRecord
  2
CENTER
 70
     0
  3
Center ____ _ ____ _ ____ _ ____ _ ____ _ ____
 72
    65
 73
     4
 40
10.16
 49
6.35
 74
     0
 49
-1.27
 74
     0
 49
1.27
 74
     0
 49
-1.27
 74
     0
  0
LTYPE
  5
71
330
5
100
AcDbSymbolTableRecord
100
AcDbLinetypeTableRecord
  2
CENTERX2
 70
     0
  3
Center (2x) ________  __  ________  __  _____
 72
    65
 73
     4
 40
20.32
 49
12.7
 74
     0
 49
-2.54
 74
     0
 49
2.54
 74
     0
 49
-2.54
 74
     0
  0
LTYPE
  5
72
330
5
100
AcDbSymbolTableRecord
100
AcDbLinetypeTableRecord
  2
DOT2
 70
     0
  3
Dot (.5x) ........................................
 72
    65
 73
     2
 40
0.635
 49
0.0
 74
     0
 49
-0.635
 74
     0
  0
ENDTAB
  0
TABLE
  2
LAYER
  5
2
330
0
100
AcDbSymbolTable
 70
     1
  0
LAYER
  5
10
330
2
100
AcDbSymbolTableRecord
100
AcDbLayerTableRecord
  2
0
 70
     0
 62
     7
  6
Continuous
370
    -3
390
F
  0
ENDTAB
  0
TABLE
  2
STYLE
  5
3
330
0
100
AcDbSymbolTable
 70
     1
  0
STYLE
  5
11
330
3
100
AcDbSymbolTableRecord
100
AcDbTextStyleTableRecord
  2
Standard
 70
     0
 40
0.0
 41
1.0
 50
0.0
 71
     0
 42
3.5
  3
txt
  4

  0
ENDTAB
  0
TABLE
  2
VIEW
  5
6
330
0
100
AcDbSymbolTable
 70
     0
  0
ENDTAB
  0
TABLE
  2
UCS
  5
7
330
0
100
AcDbSymbolTable
 70
     0
  0
ENDTAB
  0
TABLE
  2
APPID
  5
9
330
0
100
AcDbSymbolTable
 70
     1
  0
APPID
  5
12
330
9
100
AcDbSymbolTableRecord
100
AcDbRegAppTableRecord
  2
ACAD
 70
     0
  0
ENDTAB
  0
TABLE
  2
DIMSTYLE
  5
A
330
0
100
AcDbSymbolTable
 70
     1
100
AcDbDimStyleTable
  0
DIMSTYLE
105
27
330
A
100
AcDbSymbolTableRecord
100
AcDbDimStyleTableRecord
  2
ISO-25
 70
     0
 41
2.5
 42
0.625
 43
3.75
 44
1.25
 73
     0
 74
     0
 77
     1
 78
     8
140
2.5
141
2.5
143
0.0393700787
147
0.625
171
     3
172
     1
178
     0
271
     2
272
     2
274
     3
278
    44
283
     0
284
     8
340
11
  0
ENDTAB
  0
TABLE
  2
BLOCK_RECORD
  5
1
330
0
100
AcDbSymbolTable
 70
     1
  0
BLOCK_RECORD
  5
1F
330
1
100
AcDbSymbolTableRecord
100
AcDbBlockTableRecord
  2
*Model_Space
340
22
  0
BLOCK_RECORD
  5
1B
330
1
100
AcDbSymbolTableRecord
100
AcDbBlockTableRecord
  2
*Paper_Space
340
1E
  0
BLOCK_RECORD
  5
23
330
1
100
AcDbSymbolTableRecord
100
AcDbBlockTableRecord
  2
*Paper_Space0
340
26
  0
ENDTAB
  0
ENDSEC
  0
SECTION
  2
BLOCKS
  0
BLOCK
  5
20
330
1F
100
AcDbEntity
  8
0
100
AcDbBlockBegin
  2
*Model_Space
 70
     0
 10
0.0
 20
0.0
 30
0.0
  3
*Model_Space
  1

  0
ENDBLK
  5
21
330
1F
100
AcDbEntity
  8
0
100
AcDbBlockEnd
  0
BLOCK
  5
1C
330
1B
100
AcDbEntity
 67
     1
  8
0
100
AcDbBlockBegin
  2
*Paper_Space
 70
     0
 10
0.0
 20
0.0
 30
0.0
  3
*Paper_Space
  1

  0
ENDBLK
  5
1D
330
1B
100
AcDbEntity
 67
     1
  8
0
100
AcDbBlockEnd
  0
BLOCK
  5
24
330
23
100
AcDbEntity
  8
0
100
AcDbBlockBegin
  2
*Paper_Space0
 70
     0
 10
0.0
 20
0.0
 30
0.0
  3
*Paper_Space0
  1

  0
ENDBLK
  5
25
330
23
100
AcDbEntity
  8
0
100
AcDbBlockEnd
  0
ENDSEC
  0
SECTION
  2
ENTITIES
  0
ARC
  5
73
330
1F
100
AcDbEntity
  8
0
  6
Continuous
 62
     7
100
AcDbCircle
 10
5152.1891591458
 20
5157.9419203492
 30
0.0
 40
3.00000000000055
100
AcDbArc
 50
90.000625557
 51
173.3453670336
  0
ARC
  5
74
330
1F
100
AcDbEntity
  8
0
  6
Continuous
 62
     7
100
AcDbCircle
 10
5200.8484182836
 20
5157.9419203492
 30
0.0
 40
2.999999999998725
100
AcDbArc
 50
6.6546329664
 51
89.9993744431
  0
ARC
  5
75
330
1F
100
AcDbEntity
  8
0
  6
Continuous
 62
     7
100
AcDbCircle
 10
5152.3968915105
 20
5033.9419251174
 30
0.0
 40
3.000000000000856
100
AcDbArc
 50
185.8478511548
 51
270.0003184282
  0
ARC
  5
76
330
1F
100
AcDbEntity
  8
0
  6
Continuous
 62
     7
100
AcDbCircle
 10
5200.6405667096
 20
5033.9419251174
 30
0.0
 40
2.999999999999946
100
AcDbArc
 50
269.9996815718
 51
354.1521488452
  0
ARC
  5
77
330
1F
100
AcDbEntity
  8
0
  6
Continuous
 62
     7
100
AcDbCircle
 10
5156.5187868074
 20
5174.4419165344
 30
0.0
 40
2.999999999999697
100
AcDbArc
 50
89.999599296
 51
179.9998315232
  0
ARC
  5
78
330
1F
100
AcDbEntity
  8
0
  6
Continuous
 62
     7
100
AcDbCircle
 10
5196.518790622
 20
5174.4419165344
 30
0.0
 40
3.000000000000606
100
AcDbArc
 50
0.0001684769
 51
90.000400704
  0
ARC
  5
79
330
1F
100
AcDbEntity
  8
0
  6
Continuous
 62
     7
100
AcDbCircle
 10
6288.518755053
 20
4596.9578414649
 30
0.0
 40
6.000000283112968
100
AcDbArc
 50
270.0
 51
359.9998360758
  0
ARC
  5
7A
330
1F
100
AcDbEntity
  8
0
  6
Continuous
 62
     7
100
AcDbCircle
 10
6259.518755053
 20
4596.9578414649
 30
0.0
 40
6.000000283112968
100
AcDbArc
 50
180.0001639242
 51
270.0
  0
ARC
  5
7B
330
1F
100
AcDbEntity
  8
0
  6
Continuous
 62
     7
100
AcDbCircle
 10
5060.5187744096
 20
4596.9578419416
 30
0.0
 40
6.000000000000304
100
AcDbArc
 50
269.999599295
 51
359.9998315241
  0
ARC
  5
7C
330
1F
100
AcDbEntity
  8
0
  6
Continuous
 62
     7
100
AcDbCircle
 10
5031.5187658265
 20
4596.9578419416
 30
0.0
 40
6.000000000001213
100
AcDbArc
 50
180.0001684759
 51
270.000400705
  0
ARC
  5
7D
330
1F
100
AcDbEntity
  8
0
  6
Continuous
 62
     7
100
AcDbCircle
 10
7487.5187362626
 20
4596.9578419416
 30
0.0
 40
6.000000000000473
100
AcDbArc
 50
180.0001684759
 51
270.000400705
  0
ARC
  5
7E
330
1F
100
AcDbEntity
  8
0
  6
Continuous
 62
     7
100
AcDbCircle
 10
7516.5187448457
 20
4596.9578419416
 30
0.0
 40
6.000000000000473
100
AcDbArc
 50
269.999599295
 51
359.9998315241
  0
ARC
  5
7F
330
1F
100
AcDbEntity
  8
0
  6
Continuous
 62
     7
100
AcDbCircle
 10
5176.518755336
 20
5138.941930865
 30
0.0
 40
40.00000000000179
100
AcDbArc
 50
22.5226735859
 51
54.9003678044
  0
ARC
  5
80
330
1F
100
AcDbEntity
  8
0
  6
Continuous
 62
     7
100
AcDbCircle
 10
5176.518755336
 20
5138.941930865
 30
0.0
 40
39.9999999999997
100
AcDbArc
 50
125.0996321952
 51
216.1070114061
  0
ARC
  5
81
330
1F
100
AcDbEntity
  8
0
  6
Continuous
 62
     7
100
AcDbCircle
 10
5176.518755336
 20
5138.941930865
 30
0.0
 40
40.00000000000169
100
AcDbArc
 50
323.8929885945
 51
22.5226735859
  0
ARC
  5
82
330
1F
100
AcDbEntity
  8
0
  6
Continuous
 62
     7
100
AcDbCircle
 10
5374.0187493756
 20
5538.9578091089
 30
0.0
 40
20.00000000000015
100
AcDbArc
 50
24.7217543182
 51
155.2782456818
  0
ARC
  5
83
330
1F
100
AcDbEntity
  8
0
  6
Continuous
 62
     7
100
AcDbCircle
 10
5374.0187493756
 20
5538.9578726288
 30
0.0
 40
20.00000000000092
100
AcDbArc
 50
204.7217543182
 51
335.2782456818
  0
ARC
  5
84
330
1F
100
AcDbEntity
  8
0
  6
Continuous
 62
     7
100
AcDbCircle
 10
7174.0187612966
 20
5538.9578091089
 30
0.0
 40
20.00000000000015
100
AcDbArc
 50
24.7217543182
 51
155.2782456818
  0
ARC
  5
85
330
1F
100
AcDbEntity
  8
0
  6
Continuous
 62
     7
100
AcDbCircle
 10
7174.0187612966
 20
5538.9578726288
 30
0.0
 40
20.00000000000168
100
AcDbArc
 50
204.7217543182
 51
335.2782456818
  0
ARC
  5
86
330
1F
100
AcDbEntity
  8
0
  6
Continuous
 62
     7
100
AcDbCircle
 10
5974.0187583163
 20
5538.9578414741
 30
0.0
 40
20.00000000000003
100
AcDbArc
 50
24.7216522437
 51
155.2783477563
  0
ARC
  5
87
330
1F
100
AcDbEntity
  8
0
  6
Continuous
 62
     7
100
AcDbCircle
 10
5974.0187583163
 20
5538.9578414741
 30
0.0
 40
20.00000050622895
100
AcDbArc
 50
204.7216553936
 51
335.2783446064
  0
ARC
  5
88
330
1F
100
AcDbEntity
  8
0
  6
Continuous
 62
     7
100
AcDbCircle
 10
6574.0187523559
 20
5538.9578414741
 30
0.0
 40
20.00000000000117
100
AcDbArc
 50
24.7216522437
 51
155.2783477563
  0
ARC
  5
89
330
1F
100
AcDbEntity
  8
0
  6
Continuous
 62
     7
100
AcDbCircle
 10
6574.0187523559
 20
5538.9578414741
 30
0.0
 40
20.00000050622781
100
AcDbArc
 50
204.7216553936
 51
335.2783446064
  0
ARC
  5
8A
330
1F
100
AcDbEntity
  8
0
  6
Continuous
 62
     7
100
AcDbCircle
 10
5374.1295424462
 20
5761.0676475045
 30
0.0
 40
32.30016155891684
100
AcDbArc
 50
270.3177942276
 51
277.0592179239
  0
ARC
  5
8B
330
1F
100
AcDbEntity
  8
0
  6
Continuous
 62
     7
100
AcDbCircle
 10
5375.9284765909
 20
5746.6830220646
 30
0.0
 40
18.76020545071008
100
AcDbArc
 50
277.5088603204
 51
284.9283680882
  0
ARC
  5
8C
330
1F
100
AcDbEntity
  8
0
  6
Continuous
 62
     7
100
AcDbCircle
 10
5378.8866069658
 20
5736.8976976192
 30
0.0
 40
7.610295760080091
100
AcDbArc
 50
284.2609517606
 51
297.2233789925
  0
ARC
  5
8D
330
1F
100
AcDbEntity
  8
0
  6
Continuous
 62
     7
100
AcDbCircle
 10
5382.3616176992
 20
5730.2459792546
 30
0.0
 40
0.9029360463596874
100
AcDbArc
 50
304.3214255591
 51
1.5237830211
  0
ARC
  5
8E
330
1F
100
AcDbEntity
  8
0
  6
Continuous
 62
     7
100
AcDbCircle
 10
5378.2880386293
 20
5722.8216583841
 30
0.0
 40
9.348898174092572
100
AcDbArc
 50
65.4254284304
 51
77.2505041481
  0
ARC
  5
8F
330
1F
100
AcDbEntity
  8
0
  6
Continuous
 62
     7
100
AcDbCircle
 10
5374.0310990737
 20
5697.9361464425
 30
0.0
 40
34.65303778707653
100
AcDbArc
 50
85.57802871
 51
90.4998272585
  0
ARC
  5
90
330
1F
100
AcDbEntity
  8
0
  6
Continuous
 62
     7
100
AcDbCircle
 10
5372.1093708263
 20
5713.7057553591
 30
0.0
 40
18.7613891261419
100
AcDbArc
 50
97.5094578557
 51
104.9283179396
  0
ARC
  5
91
330
1F
100
AcDbEntity
  8
0
  6
Continuous
 62
     7
100
AcDbCircle
 10
5365.6758027338
 20
5730.1440551141
 30
0.0
 40
0.9028018742017021
100
AcDbArc
 50
124.3212205885
 51
181.5328210467
  0
ARC
  5
92
330
1F
100
AcDbEntity
  8
0
  6
Continuous
 62
     7
100
AcDbCircle
 10
5367.3896287651
 20
5733.2816738815
 30
0.0
 40
3.590982214241566
100
AcDbArc
 50
234.2907613375
 51
244.8141662083
  0
ARC
  5
93
330
1F
100
AcDbEntity
  8
0
  6
Continuous
 62
     7
100
AcDbCircle
 10
5369.7503788215
 20
5737.5713983872
 30
0.0
 40
9.352155108946214
100
AcDbArc
 50
245.4283641438
 51
257.2492483122
  0
ARC
  5
94
330
1F
100
AcDbEntity
  8
0
  6
Continuous
 62
     7
100
AcDbCircle
 10
5373.1061060427
 20
5753.4306131071
 30
0.0
 40
24.62459972690379
100
AcDbArc
 50
258.5587891225
 51
265.8745566682
  0
ARC
  5
95
330
1F
100
AcDbEntity
  8
0
  6
Continuous
 62
     7
100
AcDbCircle
 10
5374.0050487421
 20
5762.4143246628
 30
0.0
 40
34.6135968414233
100
AcDbArc
 50
265.5752228754
 51
270.5026330929
  0
ARC
  5
96
330
1F
100
AcDbEntity
  8
0
  6
Continuous
 62
     7
100
AcDbCircle
 10
5381.7780001059
 20
5731.3049065429
 30
0.0
 40
1.011452879789719
100
AcDbArc
 50
305.6856637875
 51
346.4909766869
  0
ARC
  5
97
330
1F
100
AcDbEntity
  8
0
  6
Continuous
 62
     7
100
AcDbCircle
 10
5375.8195394482
 20
5746.7480115703
 30
0.0
 40
17.73776152261583
100
AcDbArc
 50
277.2943838809
 51
285.1420120128
  0
ARC
  5
98
330
1F
100
AcDbEntity
  8
0
  6
Continuous
 62
     7
100
AcDbCircle
 10
5374.0067616832
 20
5761.6177002742
 30
0.0
 40
32.72167504303922
100
AcDbArc
 50
265.4326792326
 51
270.6451767357
  0
ARC
  5
99
330
1F
100
AcDbEntity
  8
0
  6
Continuous
 62
     7
100
AcDbCircle
 10
5369.9866025003
 20
5738.124374493
 30
0.0
 40
8.83500963681201
100
AcDbArc
 50
245.08018978
 51
257.5957427986
  0
ARC
  5
9A
330
1F
100
AcDbEntity
  8
0
  6
Continuous
 62
     7
100
AcDbCircle
 10
5374.0307577605
 20
5699.7385368451
 30
0.0
 40
32.72128595973017
100
AcDbArc
 50
85.4326611563
 51
90.6451162671
  0
ARC
  5
9B
330
1F
100
AcDbEntity
  8
0
  6
Continuous
 62
     7
100
AcDbCircle
 10
5372.2175255218
 20
5714.6097398154
 30
0.0
 40
17.73581134488451
100
AcDbArc
 50
97.2935834173
 51
105.1422651216
  0
ARC
  5
9C
330
1F
100
AcDbEntity
  8
0
  6
Continuous
 62
     7
100
AcDbCircle
 10
5378.0519137881
 20
5723.2342530418
 30
0.0
 40
8.832060553744627
100
AcDbArc
 50
65.0785798839
 51
77.5978978602
  0
ARC
  5
9D
330
1F
100
AcDbEntity
  8
0
  6
Continuous
 62
     7
100
AcDbCircle
 10
5366.1340477962
 20
5730.1495563274
 30
0.0
 40
0.8592962439799002
100
AcDbArc
 50
122.7270686587
 51
183.1251749863
  0
ARC
  5
9E
330
1F
100
AcDbEntity
  8
0
  6
Continuous
 62
     7
100
AcDbCircle
 10
5381.9033467898
 20
5730.2403943052
 30
0.0
 40
0.8593988780299938
100
AcDbArc
 50
302.7309264352
 51
3.1231152177
  0
ARC
  5
9F
330
1F
100
AcDbEntity
  8
0
  6
Continuous
 62
     7
100
AcDbCircle
 10
5369.9866025003
 20
5737.1584514221
 30
0.0
 40
8.835009636811797
100
AcDbArc
 50
245.08018978
 51
257.5957427985
  0
ARC
  5
A0
330
1F
100
AcDbEntity
  8
0
  6
Continuous
 62
     7
100
AcDbCircle
 10
5375.8195394482
 20
5745.7820884994
 30
0.0
 40
17.73776152261664
100
AcDbArc
 50
277.2943838809
 51
285.1420120129
  0
ARC
  5
A1
330
1F
100
AcDbEntity
  8
0
  6
Continuous
 62
     7
100
AcDbCircle
 10
5374.0067616832
 20
5760.6517772033
 30
0.0
 40
32.72167504303842
100
AcDbArc
 50
265.4326792326
 51
270.6451767357
  0
ARC
  5
A2
330
1F
100
AcDbEntity
  8
0
  6
Continuous
 62
     7
100
AcDbCircle
 10
7174.1295543672
 20
5761.0676475045
 30
0.0
 40
32.30016155891684
100
AcDbArc
 50
270.3177942276
 51
277.0592179239
  0
ARC
  5
A3
330
1F
100
AcDbEntity
  8
0
  6
Continuous
 62
     7
100
AcDbCircle
 10
7175.9292730622
 20
5746.6784567448
 30
0.0
 40
18.75557675627508
100
AcDbArc
 50
277.5083066905
 51
284.9294691048
  0
ARC
  5
A4
330
1F
100
AcDbEntity
  8
0
  6
Continuous
 62
     7
100
AcDbCircle
 10
7178.8866358447
 20
5736.8978364792
 30
0.0
 40
7.610411481460511
100
AcDbArc
 50
284.2601355857
 51
297.2227872244
  0
ARC
  5
A5
330
1F
100
AcDbEntity
  8
0
  6
Continuous
 62
     7
100
AcDbCircle
 10
7182.3617138972
 20
5730.2458662842
 30
0.0
 40
0.9027952271405204
100
AcDbArc
 50
304.3210506856
 51
1.5311929592
  0
ARC
  5
A6
330
1F
100
AcDbEntity
  8
0
  6
Continuous
 62
     7
100
AcDbCircle
 10
7178.2880505503
 20
5722.8216583841
 30
0.0
 40
9.348898174092572
100
AcDbArc
 50
65.4254284304
 51
77.2505041481
  0
ARC
  5
A7
330
1F
100
AcDbEntity
  8
0
  6
Continuous
 62
     7
100
AcDbCircle
 10
7174.0311109946
 20
5697.9361464425
 30
0.0
 40
34.65303778707663
100
AcDbArc
 50
85.57802871
 51
90.4998272583
  0
ARC
  5
A8
330
1F
100
AcDbEntity
  8
0
  6
Continuous
 62
     7
100
AcDbCircle
 10
7172.1101680854
 20
5713.7011859241
 30
0.0
 40
18.76602200705401
100
AcDbArc
 50
97.5100117729
 51
104.9272166357
  0
ARC
  5
A9
330
1F
100
AcDbEntity
  8
0
  6
Continuous
 62
     7
100
AcDbCircle
 10
7165.6758989095
 20
5730.143942159
 30
0.0
 40
0.9029426681981428
100
AcDbArc
 50
124.3215948111
 51
181.5254119189
  0
ARC
  5
AA
330
1F
100
AcDbEntity
  8
0
  6
Continuous
 62
     7
100
AcDbCircle
 10
7167.3896406858
 20
5733.2816738817
 30
0.0
 40
3.590982214241138
100
AcDbArc
 50
234.2907613412
 51
244.8141662134
  0
ARC
  5
AB
330
1F
100
AcDbEntity
  8
0
  6
Continuous
 62
     7
100
AcDbCircle
 10
7169.7503907425
 20
5737.5713983872
 30
0.0
 40
9.352155108946214
100
AcDbArc
 50
245.4283641438
 51
257.2492483122
  0
ARC
  5
AC
330
1F
100
AcDbEntity
  8
0
  6
Continuous
 62
     7
100
AcDbCircle
 10
7173.0786281598
 20
5753.1857908822
 30
0.0
 40
24.37843619794597
100
AcDbArc
 50
258.1889330269
 51
265.8976033047
  0
ARC
  5
AD
330
1F
100
AcDbEntity
  8
0
  6
Continuous
 62
     7
100
AcDbCircle
 10
7174.005060663
 20
5762.4143246628
 30
0.0
 40
34.61359684142317
100
AcDbArc
 50
265.5752228754
 51
270.502633093
  0
ARC
  5
AE
330
1F
100
AcDbEntity
  8
0
  6
Continuous
 62
     7
100
AcDbCircle
 10
7181.7780120268
 20
5731.3049065429
 30
0.0
 40
1.011452879789506
100
AcDbArc
 50
305.6856637876
 51
346.490976687
  0
ARC
  5
AF
330
1F
100
AcDbEntity
  8
0
  6
Continuous
 62
     7
100
AcDbCircle
 10
7175.8199851505
 20
5746.7461086341
 30
0.0
 40
17.73581134488613
100
AcDbArc
 50
277.2935834173
 51
285.1422651216
  0
ARC
  5
B0
330
1F
100
AcDbEntity
  8
0
  6
Continuous
 62
     7
100
AcDbCircle
 10
7174.0067529117
 20
5761.6173116044
 30
0.0
 40
32.72128595972926
100
AcDbArc
 50
265.4326611563
 51
270.6451162671
  0
ARC
  5
B1
330
1F
100
AcDbEntity
  8
0
  6
Continuous
 62
     7
100
AcDbCircle
 10
7169.9866446387
 20
5738.1242804138
 30
0.0
 40
8.834937048911314
100
AcDbArc
 50
245.0797549876
 51
257.5950428298
  0
ARC
  5
B2
330
1F
100
AcDbEntity
  8
0
  6
Continuous
 62
     7
100
AcDbCircle
 10
7174.030748989
 20
5699.7381481753
 30
0.0
 40
32.72167504303922
100
AcDbArc
 50
85.4326792326
 51
90.6451767357
  0
ARC
  5
B3
330
1F
100
AcDbEntity
  8
0
  6
Continuous
 62
     7
100
AcDbCircle
 10
7172.2179712241
 20
5714.6078368792
 30
0.0
 40
17.73776152261706
100
AcDbArc
 50
97.2943838809
 51
105.1420120129
  0
ARC
  5
B4
330
1F
100
AcDbEntity
  8
0
  6
Continuous
 62
     7
100
AcDbCircle
 10
7178.051955979
 20
5723.2341592148
 30
0.0
 40
8.832132889405578
100
AcDbArc
 50
65.0790144469
 51
77.5985980147
  0
ARC
  5
B5
330
1F
100
AcDbEntity
  8
0
  6
Continuous
 62
     7
100
AcDbCircle
 10
7166.1340597172
 20
5730.1495563274
 30
0.0
 40
0.8592962439796394
100
AcDbArc
 50
122.7270686664
 51
183.1251749904
  0
ARC
  5
B6
330
1F
100
AcDbEntity
  8
0
  6
Continuous
 62
     7
100
AcDbCircle
 10
7181.9033587108
 20
5730.2403943053
 30
0.0
 40
0.8593988780303066
100
AcDbArc
 50
302.7309264277
 51
3.1231152136
  0
ARC
  5
B7
330
1F
100
AcDbEntity
  8
0
  6
Continuous
 62
     7
100
AcDbCircle
 10
7169.9866446387
 20
5737.1583573429
 30
0.0
 40
8.834937048911101
100
AcDbArc
 50
245.0797549876
 51
257.5950428298
  0
ARC
  5
B8
330
1F
100
AcDbEntity
  8
0
  6
Continuous
 62
     7
100
AcDbCircle
 10
7175.8199851505
 20
5745.7801855632
 30
0.0
 40
17.73581134488604
100
AcDbArc
 50
277.2935834173
 51
285.1422651216
  0
ARC
  5
B9
330
1F
100
AcDbEntity
  8
0
  6
Continuous
 62
     7
100
AcDbCircle
 10
7174.0067529117
 20
5760.6513885335
 30
0.0
 40
32.72128595972852
100
AcDbArc
 50
265.4326611563
 51
270.6451162671
  0
ARC
  5
BA
330
1F
100
AcDbEntity
  8
0
  6
Continuous
 62
     7
100
AcDbCircle
 10
5974.1295450762
 20
5761.0679983972
 30
0.0
 40
32.30051239858916
100
AcDbArc
 50
270.3177755375
 51
277.0591787719
  0
ARC
  5
BB
330
1F
100
AcDbEntity
  8
0
  6
Continuous
 62
     7
100
AcDbCircle
 10
5975.9288326099
 20
5746.6807374501
 30
0.0
 40
18.75789701874843
100
AcDbArc
 50
277.5087663144
 51
284.929009481
  0
ARC
  5
BC
330
1F
100
AcDbEntity
  8
0
  6
Continuous
 62
     7
100
AcDbCircle
 10
5978.8867533455
 20
5736.8975576802
 30
0.0
 40
7.610115266077544
100
AcDbArc
 50
284.2598822263
 51
297.2230405855
  0
ARC
  5
BD
330
1F
100
AcDbEntity
  8
0
  6
Continuous
 62
     7
100
AcDbCircle
 10
5982.3617258181
 20
5730.2458662842
 30
0.0
 40
0.9027952271414097
100
AcDbArc
 50
304.3210506932
 51
1.5311929635
  0
ARC
  5
BE
330
1F
100
AcDbEntity
  8
0
  6
Continuous
 62
     7
100
AcDbCircle
 10
5978.2875385414
 20
5722.8201071162
 30
0.0
 40
9.350526821303047
100
AcDbArc
 50
65.426461929
 51
77.2494706495
  0
ARC
  5
BF
330
1F
100
AcDbEntity
  8
0
  6
Continuous
 62
     7
100
AcDbCircle
 10
5974.0311163452
 20
5697.9359545559
 30
0.0
 40
34.65322960903376
100
AcDbArc
 50
85.5780423406
 51
90.4998136277
  0
ARC
  5
C0
330
1F
100
AcDbEntity
  8
0
  6
Continuous
 62
     7
100
AcDbCircle
 10
5972.1102104668
 20
5713.7011871164
 30
0.0
 40
18.76602870141335
100
AcDbArc
 50
97.5101946627
 51
104.9273074359
  0
ARC
  5
C1
330
1F
100
AcDbEntity
  8
0
  6
Continuous
 62
     7
100
AcDbCircle
 10
5965.6758388658
 20
5730.1439986566
 30
0.0
 40
0.9028722350077903
100
AcDbArc
 50
124.3214066042
 51
181.5291175232
  0
ARC
  5
C2
330
1F
100
AcDbEntity
  8
0
  6
Continuous
 62
     7
100
AcDbCircle
 10
5967.3881575379
 20
5733.2789941121
 30
0.0
 40
3.587933656712841
100
AcDbArc
 50
234.2851701595
 51
244.8171296817
  0
ARC
  5
C3
330
1F
100
AcDbEntity
  8
0
  6
Continuous
 62
     7
100
AcDbCircle
 10
5969.750618728
 20
5737.5721263929
 30
0.0
 40
9.352919427316841
100
AcDbArc
 50
245.4288488641
 51
257.2487635919
  0
ARC
  5
C4
330
1F
100
AcDbEntity
  8
0
  6
Continuous
 62
     7
100
AcDbCircle
 10
5973.0786305402
 20
5753.1856080619
 30
0.0
 40
24.37825529559
100
AcDbArc
 50
258.1888670262
 51
265.8975250669
  0
ARC
  5
C5
330
1F
100
AcDbEntity
  8
0
  6
Continuous
 62
     7
100
AcDbCircle
 10
5974.0050493226
 20
5762.4145156934
 30
0.0
 40
34.61378780726275
100
AcDbArc
 50
265.5752364762
 51
270.5026194922
  0
ARC
  5
C6
330
1F
100
AcDbEntity
  8
0
  6
Continuous
 62
     7
100
AcDbCircle
 10
5981.7780239477
 20
5731.3049065429
 30
0.0
 40
1.011452879788409
100
AcDbArc
 50
305.6856637876
 51
346.490976687
  0
ARC
  5
C7
330
1F
100
AcDbEntity
  8
0
  6
Continuous
 62
     7
100
AcDbCircle
 10
5975.8199148092
 20
5746.7462310522
 30
0.0
 40
17.73594321602337
100
AcDbArc
 50
277.2937968078
 51
285.1423254052
  0
ARC
  5
C8
330
1F
100
AcDbEntity
  8
0
  6
Continuous
 62
     7
100
AcDbCircle
 10
5974.0067724716
 20
5761.6181894272
 30
0.0
 40
32.7221639764993
100
AcDbArc
 50
265.432718202
 51
270.6451377665
  0
ARC
  5
C9
330
1F
100
AcDbEntity
  8
0
  6
Continuous
 62
     7
100
AcDbCircle
 10
5969.9870389408
 20
5738.1255925746
 30
0.0
 40
8.836300719146932
100
AcDbArc
 50
245.0809161667
 51
257.5944490396
  0
ARC
  5
CA
330
1F
100
AcDbEntity
  8
0
  6
Continuous
 62
     7
100
AcDbCircle
 10
5974.0307441611
 20
5699.7376590223
 30
0.0
 40
32.72216397650021
100
AcDbArc
 50
85.4327182019
 51
90.6451377665
  0
ARC
  5
CB
330
1F
100
AcDbEntity
  8
0
  6
Continuous
 62
     7
100
AcDbCircle
 10
5972.217576424
 20
5714.6098875514
 30
0.0
 40
17.73567580704241
100
AcDbArc
 50
97.2939217175
 51
105.1424741763
  0
ARC
  5
CC
330
1F
100
AcDbEntity
  8
0
  6
Continuous
 62
     7
100
AcDbCircle
 10
5978.0517598208
 20
5723.2335430979
 30
0.0
 40
8.832779317694959
100
AcDbArc
 50
65.079474402
 51
77.5981380595
  0
ARC
  5
CD
330
1F
100
AcDbEntity
  8
0
  6
Continuous
 62
     7
100
AcDbCircle
 10
5966.1341199992
 20
5730.1495163741
 30
0.0
 40
0.8593721141667814
100
AcDbArc
 50
122.7300125652
 51
183.1222310915
  0
ARC
  5
CE
330
1F
100
AcDbEntity
  8
0
  6
Continuous
 62
     7
100
AcDbCircle
 10
5981.9032924599
 20
5730.2404342613
 30
0.0
 40
0.8594747580310476
100
AcDbArc
 50
302.733870006
 51
3.1201716353
  0
ARC
  5
CF
330
1F
100
AcDbEntity
  8
0
  6
Continuous
 62
     7
100
AcDbCircle
 10
5969.9870389408
 20
5737.1596695037
 30
0.0
 40
8.836300719146523
100
AcDbArc
 50
245.0809161666
 51
257.5944490396
  0
ARC
  5
D0
330
1F
100
AcDbEntity
  8
0
  6
Continuous
 62
     7
100
AcDbCircle
 10
5975.8199148092
 20
5745.7803079813
 30
0.0
 40
17.73594321602418
100
AcDbArc
 50
277.2937968078
 51
285.1423254052
  0
ARC
  5
D1
330
1F
100
AcDbEntity
  8
0
  6
Continuous
 62
     7
100
AcDbCircle
 10
5974.0067724715
 20
5760.6522663563
 30
0.0
 40
32.72216397650032
100
AcDbArc
 50
265.432718202
 51
270.6451377665
  0
ARC
  5
D2
330
1F
100
AcDbEntity
  8
0
  6
Continuous
 62
     7
100
AcDbCircle
 10
6574.1295391158
 20
5761.0679983972
 30
0.0
 40
32.30051239858916
100
AcDbArc
 50
270.3177755375
 51
277.0591787719
  0
ARC
  5
D3
330
1F
100
AcDbEntity
  8
0
  6
Continuous
 62
     7
100
AcDbCircle
 10
6575.9284343075
 20
5746.6830204499
 30
0.0
 40
18.7602117122003
100
AcDbArc
 50
277.5090431393
 51
284.9284589594
  0
ARC
  5
D4
330
1F
100
AcDbEntity
  8
0
  6
Continuous
 62
     7
100
AcDbCircle
 10
6578.8866333412
 20
5736.8977670098
 30
0.0
 40
7.610353578725992
100
AcDbArc
 50
284.2605436333
 51
297.2230831408
  0
ARC
  5
D5
330
1F
100
AcDbEntity
  8
0
  6
Continuous
 62
     7
100
AcDbCircle
 10
6582.361677754
 20
5730.2459227494
 30
0.0
 40
0.9028656005490425
100
AcDbArc
 50
304.3212370265
 51
1.5274890308
  0
ARC
  5
D6
330
1F
100
AcDbEntity
  8
0
  6
Continuous
 62
     7
100
AcDbCircle
 10
6578.2878107326
 20
5722.8209306766
 30
0.0
 40
9.34966218021134
100
AcDbArc
 50
65.4259132946
 51
77.2500192839
  0
ARC
  5
D7
330
1F
100
AcDbEntity
  8
0
  6
Continuous
 62
     7
100
AcDbCircle
 10
6574.0311103848
 20
5697.9359545559
 30
0.0
 40
34.65322960903364
100
AcDbArc
 50
85.5780423406
 51
90.4998136279
  0
ARC
  5
D8
330
1F
100
AcDbEntity
  8
0
  6
Continuous
 62
     7
100
AcDbCircle
 10
6572.1098117703
 20
5713.7034721745
 30
0.0
 40
18.76371191399237
100
AcDbArc
 50
97.5099176941
 51
104.9278581012
  0
ARC
  5
D9
330
1F
100
AcDbEntity
  8
0
  6
Continuous
 62
     7
100
AcDbCircle
 10
6565.6757908129
 20
5730.1440551141
 30
0.0
 40
0.9028018742015002
100
AcDbArc
 50
124.321220596
 51
181.532821051
  0
ARC
  5
DA
330
1F
100
AcDbEntity
  8
0
  6
Continuous
 62
     7
100
AcDbCircle
 10
6567.3723883021
 20
5733.2494233413
 30
0.0
 40
3.55446644681542
100
AcDbArc
 50
233.8582525007
 51
244.8442492749
  0
ARC
  5
DB
330
1F
100
AcDbEntity
  8
0
  6
Continuous
 62
     7
100
AcDbCircle
 10
6569.750891198
 20
5737.5729508184
 30
0.0
 40
9.353784975635081
100
AcDbArc
 50
245.4293976869
 51
257.2482147691
  0
ARC
  5
DC
330
1F
100
AcDbEntity
  8
0
  6
Continuous
 62
     7
100
AcDbCircle
 10
6573.0783241511
 20
5753.1831308766
 30
0.0
 40
24.37576296501482
100
AcDbArc
 50
258.1884349845
 51
265.8978128643
  0
ARC
  5
DD
330
1F
100
AcDbEntity
  8
0
  6
Continuous
 62
     7
100
AcDbCircle
 10
6574.0050433622
 20
5762.4145156934
 30
0.0
 40
34.61378780726287
100
AcDbArc
 50
265.5752364762
 51
270.5026194921
  0
ARC
  5
DE
330
1F
100
AcDbEntity
  8
0
  6
Continuous
 62
     7
100
AcDbCircle
 10
6581.7780179873
 20
5731.3049065429
 30
0.0
 40
1.011452879789506
100
AcDbArc
 50
305.6856637876
 51
346.490976687
  0
ARC
  5
DF
330
1F
100
AcDbEntity
  8
0
  6
Continuous
 62
     7
100
AcDbCircle
 10
6575.8199342482
 20
5746.7459608981
 30
0.0
 40
17.73567580704502
100
AcDbArc
 50
277.2939217174
 51
285.1424741763
  0
ARC
  5
E0
330
1F
100
AcDbEntity
  8
0
  6
Continuous
 62
     7
100
AcDbCircle
 10
6574.0067665111
 20
5761.6181894272
 30
0.0
 40
32.7221639764993
100
AcDbArc
 50
265.432718202
 51
270.6451377665
  0
ARC
  5
E1
330
1F
100
AcDbEntity
  8
0
  6
Continuous
 62
     7
100
AcDbCircle
 10
6569.9867985853
 20
5738.1249903635
 30
0.0
 40
8.835655812179647
100
AcDbArc
 50
245.0806492563
 51
257.5952833222
  0
ARC
  5
E2
330
1F
100
AcDbEntity
  8
0
  6
Continuous
 62
     7
100
AcDbCircle
 10
6574.0307382006
 20
5699.7376590223
 30
0.0
 40
32.72216397650021
100
AcDbArc
 50
85.4327182019
 51
90.6451377665
  0
ARC
  5
E3
330
1F
100
AcDbEntity
  8
0
  6
Continuous
 62
     7
100
AcDbCircle
 10
6572.217595863
 20
5714.6096173973
 30
0.0
 40
17.73594321602429
100
AcDbArc
 50
97.2937968078
 51
105.1423254052
  0
ARC
  5
E4
330
1F
100
AcDbEntity
  8
0
  6
Continuous
 62
     7
100
AcDbCircle
 10
6578.0515197063
 20
5723.2329415205
 30
0.0
 40
8.833423547520102
100
AcDbArc
 50
65.0797411706
 51
77.5973039406
  0
ARC
  5
E5
330
1F
100
AcDbEntity
  8
0
  6
Continuous
 62
     7
100
AcDbCircle
 10
6566.1341140388
 20
5730.1495163741
 30
0.0
 40
0.8593721141668677
100
AcDbArc
 50
122.7300125575
 51
183.1222310874
  0
ARC
  5
E6
330
1F
100
AcDbEntity
  8
0
  6
Continuous
 62
     7
100
AcDbCircle
 10
6581.9032864994
 20
5730.2404342613
 30
0.0
 40
0.8594747580305636
100
AcDbArc
 50
302.7338700136
 51
3.1201716393
  0
ARC
  5
E7
330
1F
100
AcDbEntity
  8
0
  6
Continuous
 62
     7
100
AcDbCircle
 10
6569.9867985853
 20
5737.1590672926
 30
0.0
 40
8.835655812180516
100
AcDbArc
 50
245.0806492563
 51
257.5952833222
  0
ARC
  5
E8
330
1F
100
AcDbEntity
  8
0
  6
Continuous
 62
     7
100
AcDbCircle
 10
6575.8199342482
 20
5745.7800378272
 30
0.0
 40
17.73567580704492
100
AcDbArc
 50
277.2939217175
 51
285.1424741763
  0
ARC
  5
E9
330
1F
100
AcDbEntity
  8
0
  6
Continuous
 62
     7
100
AcDbCircle
 10
6574.006766511
 20
5760.6522663563
 30
0.0
 40
32.72216397650032
100
AcDbArc
 50
265.432718202
 51
270.6451377665
  0
CIRCLE
  5
EA
330
1F
100
AcDbEntity
  8
0
  6
Continuous
 62
     7
100
AcDbCircle
 10
7174.0187553361
 20
5738.9578414649
 30
0.0
 40
29.50000000000091
  0
CIRCLE
  5
EB
330
1F
100
AcDbEntity
  8
0
  6
Continuous
 62
     7
100
AcDbCircle
 10
7174.0187553361
 20
5738.9578414649
 30
0.0
 40
30.0
  0
CIRCLE
  5
EC
330
1F
100
AcDbEntity
  8
0
  6
Continuous
 62
     7
100
AcDbCircle
 10
5374.0187553361
 20
5738.9578414649
 30
0.0
 40
29.5
  0
CIRCLE
  5
ED
330
1F
100
AcDbEntity
  8
0
  6
Continuous
 62
     7
100
AcDbCircle
 10
5374.0187553361
 20
5738.9578414649
 30
0.0
 40
30.0
  0
CIRCLE
  5
EE
330
1F
100
AcDbEntity
  8
0
  6
Continuous
 62
     7
100
AcDbCircle
 10
5974.0187583164
 20
5738.9578414649
 30
0.0
 40
29.49999999999925
  0
CIRCLE
  5
EF
330
1F
100
AcDbEntity
  8
0
  6
Continuous
 62
     7
100
AcDbCircle
 10
5974.0187583164
 20
5738.9578414649
 30
0.0
 40
29.99999999999957
  0
CIRCLE
  5
F0
330
1F
100
AcDbEntity
  8
0
  6
Continuous
 62
     7
100
AcDbCircle
 10
6574.0187523558
 20
5738.9578414649
 30
0.0
 40
29.50000000000012
  0
CIRCLE
  5
F1
330
1F
100
AcDbEntity
  8
0
  6
Continuous
 62
     7
100
AcDbCircle
 10
6574.0187523558
 20
5738.9578414649
 30
0.0
 40
30.00000000000071
  0
ARC
  5
F2
330
1F
100
AcDbEntity
  8
0
  6
Continuous
 62
     7
100
AcDbCircle
 10
6574.0187523558
 20
5738.9578414649
 30
0.0
 40
13.0000014990523
100
AcDbArc
 50
339.1746305984
 51
200.8253694016
  0
ARC
  5
F3
330
1F
100
AcDbEntity
  8
0
  6
Continuous
 62
     7
100
AcDbCircle
 10
6574.0187523558
 20
5738.9578414649
 30
0.0
 40
13.99999720743586
100
AcDbArc
 50
200.4424463344
 51
339.5575579255
  0
ARC
  5
F4
330
1F
100
AcDbEntity
  8
0
  6
Continuous
 62
     7
100
AcDbCircle
 10
6574.0187523558
 20
5738.9578414649
 30
0.0
 40
13.99999720743586
100
AcDbArc
 50
339.5575579255
 51
200.4424463344
  0
ARC
  5
F5
330
1F
100
AcDbEntity
  8
0
  6
Continuous
 62
     7
100
AcDbCircle
 10
6574.1490338723
 20
5760.7637333109
 30
0.0
 40
32.51128293106472
100
AcDbArc
 50
270.3985890961
 51
276.9298384689
  0
ARC
  5
F6
330
1F
100
AcDbEntity
  8
0
  6
Continuous
 62
     7
100
AcDbCircle
 10
6573.1483361634
 20
5753.615523693
 30
0.0
 40
25.32747503465366
100
AcDbArc
 50
258.476708076
 51
265.8934337911
  0
ARC
  5
F7
330
1F
100
AcDbEntity
  8
0
  6
Continuous
 62
     7
100
AcDbCircle
 10
7174.0187553361
 20
5738.9578414649
 30
0.0
 40
13.99999999999869
100
AcDbArc
 50
200.4424420745
 51
339.5575579255
  0
ARC
  5
F8
330
1F
100
AcDbEntity
  8
0
  6
Continuous
 62
     7
100
AcDbCircle
 10
7174.0187553361
 20
5738.9578414649
 30
0.0
 40
13.99999999999869
100
AcDbArc
 50
339.5575579255
 51
200.4424420745
  0
ARC
  5
F9
330
1F
100
AcDbEntity
  8
0
  6
Continuous
 62
     7
100
AcDbCircle
 10
7174.0187612965
 20
5738.9578764237
 30
0.0
 40
13.00000000000084
100
AcDbArc
 50
339.1744632394
 51
200.8255367606
  0
ARC
  5
FA
330
1F
100
AcDbEntity
  8
0
  6
Continuous
 62
     7
100
AcDbCircle
 10
7174.1491336339
 20
5760.7616170619
 30
0.0
 40
32.50916579064504
100
AcDbArc
 50
270.3983761936
 51
276.9300513714
  0
ARC
  5
FB
330
1F
100
AcDbEntity
  8
0
  6
Continuous
 62
     7
100
AcDbCircle
 10
7173.1488107279
 20
5753.6194847058
 30
0.0
 40
25.33145815539682
100
AcDbArc
 50
258.4773668058
 51
265.8930585278
  0
ARC
  5
FC
330
1F
100
AcDbEntity
  8
0
  6
Continuous
 62
     7
100
AcDbCircle
 10
5374.0187553361
 20
5738.9578414649
 30
0.0
 40
14.00000000000071
100
AcDbArc
 50
339.5575579255
 51
200.4424420745
  0
ARC
  5
FD
330
1F
100
AcDbEntity
  8
0
  6
Continuous
 62
     7
100
AcDbCircle
 10
5374.0187493757
 20
5738.9578764237
 30
0.0
 40
13.00000000000064
100
AcDbArc
 50
339.1744632394
 51
200.8255367606
  0
ARC
  5
FE
330
1F
100
AcDbEntity
  8
0
  6
Continuous
 62
     7
100
AcDbCircle
 10
5374.0187553361
 20
5738.9578414649
 30
0.0
 40
14.00000000000071
100
AcDbArc
 50
200.4424420745
 51
339.5575579255
  0
ARC
  5
FF
330
1F
100
AcDbEntity
  8
0
  6
Continuous
 62
     7
100
AcDbCircle
 10
5374.1489102484
 20
5760.7658498785
 30
0.0
 40
32.51340039057686
100
AcDbArc
 50
270.398802003
 51
276.9296255621
  0
ARC
  5
100
330
1F
100
AcDbEntity
  8
0
  6
Continuous
 62
     7
100
AcDbCircle
 10
5373.1483480844
 20
5753.615523693
 30
0.0
 40
25.32747503465366
100
AcDbArc
 50
258.476708076
 51
265.8934337911
  0
ARC
  5
101
330
1F
100
AcDbEntity
  8
0
  6
Continuous
 62
     7
100
AcDbCircle
 10
5974.0187583164
 20
5738.9578414649
 30
0.0
 40
14.00000279256466
100
AcDbArc
 50
339.5575579255
 51
200.4424378146
  0
ARC
  5
102
330
1F
100
AcDbEntity
  8
0
  6
Continuous
 62
     7
100
AcDbCircle
 10
5974.0187583164
 20
5738.9578414649
 30
0.0
 40
13.0000014990523
100
AcDbArc
 50
339.1746305984
 51
200.8253694016
  0
ARC
  5
103
330
1F
100
AcDbEntity
  8
0
  6
Continuous
 62
     7
100
AcDbCircle
 10
5974.0187583164
 20
5738.9578414649
 30
0.0
 40
14.00000279256466
100
AcDbArc
 50
200.4424378146
 51
339.5575579255
  0
ARC
  5
104
330
1F
100
AcDbEntity
  8
0
  6
Continuous
 62
     7
100
AcDbCircle
 10
5974.1491734482
 20
5760.7611530442
 30
0.0
 40
32.50870179752761
100
AcDbArc
 50
270.3983852442
 51
276.9301012452
  0
ARC
  5
105
330
1F
100
AcDbEntity
  8
0
  6
Continuous
 62
     7
100
AcDbCircle
 10
5973.1485674709
 20
5753.6175040789
 30
0.0
 40
25.32946647368333
100
AcDbArc
 50
258.4770374441
 51
265.8932461575
  0
ARC
  5
106
330
1F
100
AcDbEntity
  8
0
  6
Continuous
 62
     7
100
AcDbCircle
 10
7922.0796716226
 20
5833.9717777134
 30
0.0
 40
4.324969328314572
100
AcDbArc
 50
206.0594629037
 51
241.4760001529
  0
ARC
  5
107
330
1F
100
AcDbEntity
  8
0
  6
Continuous
 62
     7
100
AcDbCircle
 10
7922.0796716226
 20
5833.9718025744
 30
0.0
 40
4.324969328313773
100
AcDbArc
 50
118.5239998471
 51
153.9405370963
  0
ARC
  5
108
330
1F
100
AcDbEntity
  8
0
  6
Continuous
 62
     7
100
AcDbCircle
 10
7922.0796716226
 20
5743.9717741371
 30
0.0
 40
4.32496932831459
100
AcDbArc
 50
206.0594629037
 51
241.4760001529
  0
ARC
  5
109
330
1F
100
AcDbEntity
  8
0
  6
Continuous
 62
     7
100
AcDbCircle
 10
7922.0796517728
 20
5743.9717882099
 30
0.0
 40
4.324969328315127
100
AcDbArc
 50
118.5237005553
 51
153.9399385117
  0
ARC
  5
10A
330
1F
100
AcDbEntity
  8
0
  6
Continuous
 62
     7
100
AcDbCircle
 10
8187.2240288459
 20
5157.941920349
 30
0.0
 40
3.000000000000326
100
AcDbArc
 50
6.6546329698
 51
89.9999436254
  0
ARC
  5
10B
330
1F
100
AcDbEntity
  8
0
  6
Continuous
 62
     7
100
AcDbCircle
 10
8138.7725616774
 20
5033.9419251174
 30
0.0
 40
3.000000000000536
100
AcDbArc
 50
185.8478511552
 51
269.9997492462
  0
ARC
  5
10C
330
1F
100
AcDbEntity
  8
0
  6
Continuous
 62
     7
100
AcDbCircle
 10
8187.0162070742
 20
5033.9419251174
 30
0.0
 40
3.000000000001526
100
AcDbArc
 50
269.9999661637
 51
354.1521488443
  0
ARC
  5
10D
330
1F
100
AcDbEntity
  8
0
  6
Continuous
 62
     7
100
AcDbCircle
 10
8105.8943670905
 20
5161.9419284554
 30
0.0
 40
3.000000000001146
100
AcDbArc
 50
89.999599296
 51
179.9998315231
  0
ARC
  5
10E
330
1F
100
AcDbEntity
  8
0
  6
Continuous
 62
     7
100
AcDbCircle
 10
8105.8943670905
 20
5115.9419422834
 30
0.0
 40
3.000000000001516
100
AcDbArc
 50
180.000168475
 51
270.000400704
  0
ARC
  5
10F
330
1F
100
AcDbEntity
  8
0
  6
Continuous
 62
     7
100
AcDbCircle
 10
8142.8943675673
 20
5174.4419165344
 30
0.0
 40
3.000000000001146
100
AcDbArc
 50
89.9995992941
 51
179.9998315232
  0
ARC
  5
110
330
1F
100
AcDbEntity
  8
0
  6
Continuous
 62
     7
100
AcDbCircle
 10
8182.8943862832
 20
5174.4419165343
 30
0.0
 40
2.999999999999794
100
AcDbArc
 50
0.0001684781
 51
90.000116114
  0
ARC
  5
111
330
1F
100
AcDbEntity
  8
0
  6
Continuous
 62
     7
100
AcDbCircle
 10
7952.7984664155
 20
5538.9578307574
 30
0.0
 40
28.00000000000214
100
AcDbArc
 50
15.4636342609
 51
45.584708768
  0
ARC
  5
112
330
1F
100
AcDbEntity
  8
0
  6
Continuous
 62
     7
100
AcDbCircle
 10
7952.7984659635
 20
5538.9578505374
 30
0.0
 40
28.00000000000129
100
AcDbArc
 50
314.415292527
 51
344.5348076015
  0
ARC
  5
113
330
1F
100
AcDbEntity
  8
0
  6
Continuous
 62
     7
100
AcDbCircle
 10
8363.9943820184
 20
4596.9578414649
 30
0.0
 40
5.999999377161657
100
AcDbArc
 50
180.0001639242
 51
270.0
  0
ARC
  5
114
330
1F
100
AcDbEntity
  8
0
  6
Continuous
 62
     7
100
AcDbCircle
 10
8392.9943820184
 20
4596.9578421127
 30
0.0
 40
6.00000002496297
100
AcDbArc
 50
270.0
 51
359.9998298898
  0
ARC
  5
115
330
1F
100
AcDbEntity
  8
0
  6
Continuous
 62
     7
100
AcDbCircle
 10
7931.9022787726
 20
4596.9578419417
 30
0.0
 40
6.000000238402682
100
AcDbArc
 50
180.0001684772
 51
270.0001389635
  0
ARC
  5
116
330
1F
100
AcDbEntity
  8
0
  6
Continuous
 62
     7
100
AcDbCircle
 10
7960.9022933248
 20
4596.9578389572
 30
0.0
 40
5.999996777068633
100
AcDbArc
 50
270.0001114766
 51
359.9998600229
  0
ARC
  5
117
330
1F
100
AcDbEntity
  8
0
  6
Continuous
 62
     7
100
AcDbCircle
 10
7968.1943742431
 20
5836.548479194
 30
0.0
 40
2.19999999999928
100
AcDbArc
 50
0.0005141914
 51
78.0001894258
  0
ARC
  5
118
330
1F
100
AcDbEntity
  8
0
  6
Continuous
 62
     7
100
AcDbCircle
 10
8398.1943813956
 20
5426.7578414649
 30
0.0
 40
2.199999999998909
100
AcDbArc
 50
0.0000003099
 51
89.9999996901
  0
ARC
  5
119
330
1F
100
AcDbEntity
  8
0
  6
Continuous
 62
     7
100
AcDbCircle
 10
7922.5943921243
 20
5846.2410555296
 30
0.0
 40
2.200000000000022
100
AcDbArc
 50
78.0005868032
 51
179.9994031944
  0
ARC
  5
11A
330
1F
100
AcDbEntity
  8
0
  6
Continuous
 62
     7
100
AcDbCircle
 10
8140.5256010313
 20
5158.0832889144
 30
0.0
 40
2.860414789648654
100
AcDbArc
 50
92.0233201079
 51
175.8644139482
  0
ARC
  5
11B
330
1F
100
AcDbEntity
  8
0
  6
Continuous
 62
     7
100
AcDbCircle
 10
7980.3944525318
 20
5711.0097639942
 30
0.0
 40
14.04532662979654
100
AcDbArc
 50
83.2538341642
 51
96.6618116331
  0
ARC
  5
11C
330
1F
100
AcDbEntity
  8
0
  6
Continuous
 62
     7
100
AcDbCircle
 10
5037.5186667319
 20
4171.1621062722
 30
0.0
 40
4.324969328314951
100
AcDbArc
 50
116.0582657528
 51
151.4754015953
  0
ARC
  5
11D
330
1F
100
AcDbEntity
  8
0
  6
Continuous
 62
     7
100
AcDbCircle
 10
5037.5187511967
 20
4171.1621856701
 30
0.0
 40
4.32496932831507
100
AcDbArc
 50
28.523401255
 51
63.939339921
  0
ARC
  5
11E
330
1F
100
AcDbEntity
  8
0
  6
Continuous
 62
     7
100
AcDbCircle
 10
5177.5188147886
 20
4171.1621856701
 30
0.0
 40
4.32496932831467
100
AcDbArc
 50
116.060660079
 51
151.476598745
  0
ARC
  5
11F
330
1F
100
AcDbEntity
  8
0
  6
Continuous
 62
     7
100
AcDbCircle
 10
5177.5187368916
 20
4171.1621856701
 30
0.0
 40
4.324969328315869
100
AcDbArc
 50
28.523401255
 51
63.939339921
  0
ARC
  5
120
330
1F
100
AcDbEntity
  8
0
  6
Continuous
 62
     7
100
AcDbCircle
 10
5176.5187553361
 20
3930.3474361969
 30
0.0
 40
5.250000000000303
100
AcDbArc
 50
278.2132107017
 51
81.7867892983
  0
ARC
  5
121
330
1F
100
AcDbEntity
  8
0
  6
Continuous
 62
     7
100
AcDbCircle
 10
5176.5187553361
 20
3930.3474361969
 30
0.0
 40
5.249999999999783
100
AcDbArc
 50
98.2132107017
 51
261.7867892983
  0
ARC
  5
122
330
1F
100
AcDbEntity
  8
0
  6
Continuous
 62
     7
100
AcDbCircle
 10
5176.5187553361
 20
3930.3474361969
 30
0.0
 40
5.250000000000303
100
AcDbArc
 50
81.7867892983
 51
98.2132107017
  0
ARC
  5
123
330
1F
100
AcDbEntity
  8
0
  6
Continuous
 62
     7
100
AcDbCircle
 10
5176.5187553361
 20
3930.3474361969
 30
0.0
 40
5.249999999999853
100
AcDbArc
 50
261.7867892983
 51
278.2132107017
  0
CIRCLE
  5
124
330
1F
100
AcDbEntity
  8
0
  6
Continuous
 62
     7
100
AcDbCircle
 10
5176.5187553361
 20
3930.3474361969
 30
0.0
 40
35.00000000000182
  0
CIRCLE
  5
125
330
1F
100
AcDbEntity
  8
0
  6
Continuous
 62
     7
100
AcDbCircle
 10
5176.5187553361
 20
3930.3474361969
 30
0.0
 40
35.16921944986098
  0
CIRCLE
  5
126
330
1F
100
AcDbEntity
  8
0
  6
Continuous
 62
     7
100
AcDbCircle
 10
5176.5187553361
 20
3930.3474361969
 30
0.0
 40
24.96512544439611
  0
CIRCLE
  5
127
330
1F
100
AcDbEntity
  8
0
  6
Continuous
 62
     7
100
AcDbCircle
 10
5176.5187553361
 20
3930.3474361969
 30
0.0
 40
22.00000000000091
  0
CIRCLE
  5
128
330
1F
100
AcDbEntity
  8
0
  6
Continuous
 62
     7
100
AcDbCircle
 10
5176.5187553361
 20
3930.3474361969
 30
0.0
 40
20.50000000000182
  0
CIRCLE
  5
129
330
1F
100
AcDbEntity
  8
0
  6
Continuous
 62
     7
100
AcDbCircle
 10
5176.5187553361
 20
3930.3474361969
 30
0.0
 40
19.48700763430497
  0
CIRCLE
  5
12A
330
1F
100
AcDbEntity
  8
0
  6
Continuous
 62
     7
100
AcDbCircle
 10
5176.5187553361
 20
3930.3474361969
 30
0.0
 40
5.700000000001637
  0
CIRCLE
  5
12B
330
1F
100
AcDbEntity
  8
0
  6
Continuous
 62
     7
100
AcDbCircle
 10
5176.5187553361
 20
3944.3474361969
 30
0.0
 40
5.000000000000909
  0
CIRCLE
  5
12C
330
1F
100
AcDbEntity
  8
0
  6
Continuous
 62
     7
100
AcDbCircle
 10
5188.6431109891
 20
3937.3474361969
 30
0.0
 40
5.000000000000909
  0
CIRCLE
  5
12D
330
1F
100
AcDbEntity
  8
0
  6
Continuous
 62
     7
100
AcDbCircle
 10
5188.6431109891
 20
3923.3474361969
 30
0.0
 40
5.0
  0
CIRCLE
  5
12E
330
1F
100
AcDbEntity
  8
0
  6
Continuous
 62
     7
100
AcDbCircle
 10
5176.5187553361
 20
3916.3474361969
 30
0.0
 40
5.000000000000909
  0
CIRCLE
  5
12F
330
1F
100
AcDbEntity
  8
0
  6
Continuous
 62
     7
100
AcDbCircle
 10
5164.3943996831
 20
3923.3474361969
 30
0.0
 40
5.000000000000909
  0
CIRCLE
  5
130
330
1F
100
AcDbEntity
  8
0
  6
Continuous
 62
     7
100
AcDbCircle
 10
5164.3943996831
 20
3937.3474361969
 30
0.0
 40
5.0
  0
ARC
  5
131
330
1F
100
AcDbEntity
  8
0
  6
Continuous
 62
     7
100
AcDbCircle
 10
5176.5187553361
 20
3930.3474361969
 30
0.0
 40
14.50000000000059
100
AcDbArc
 50
249.8908583685
 51
290.109141631
  0
ARC
  5
132
330
1F
100
AcDbEntity
  8
0
  6
Continuous
 62
     7
100
AcDbCircle
 10
5176.5188263632
 20
3930.3474710155
 30
0.0
 40
16.33403069561463
100
AcDbArc
 50
326.6129257665
 51
333.3868042575
  0
ARC
  5
133
330
1F
100
AcDbEntity
  8
0
  6
Continuous
 62
     7
100
AcDbCircle
 10
5176.5187553361
 20
3930.3474361969
 30
0.0
 40
14.50000000000218
100
AcDbArc
 50
9.8908583969
 51
50.109141603
  0
ARC
  5
134
330
1F
100
AcDbEntity
  8
0
  6
Continuous
 62
     7
100
AcDbCircle
 10
5176.5187887147
 20
3930.3474361495
 30
0.0
 40
16.33403069561444
100
AcDbArc
 50
86.6130469173
 51
93.3869530827
  0
ARC
  5
135
330
1F
100
AcDbEntity
  8
0
  6
Continuous
 62
     7
100
AcDbCircle
 10
5176.5187553361
 20
3930.3474361969
 30
0.0
 40
14.49999999999878
100
AcDbArc
 50
129.8908583977
 51
170.1091416024
  0
ARC
  5
136
330
1F
100
AcDbEntity
  8
0
  6
Continuous
 62
     7
100
AcDbCircle
 10
5176.5187510662
 20
3930.3474710155
 30
0.0
 40
16.33403069561387
100
AcDbArc
 50
206.6131957425
 51
213.3870742335
  0
ELLIPSE
  5
137
330
1F
100
AcDbEntity
  8
0
  6
Continuous
 62
     7
100
AcDbEllipse
 10
6288.518755053
 20
4596.9578414649
 30
0.0
 11
0.0
 21
6.000000283112058
 31
0.0
210
0.0
220
0.0
230
1.0
 40
0.5833333333
 41
3.141592653589793
 42
4.712388980384698
  0
ELLIPSE
  5
138
330
1F
100
AcDbEntity
  8
0
  6
Continuous
 62
     7
100
AcDbEllipse
 10
6259.518755053
 20
4596.9578414649
 30
0.0
 11
0.0
 21
6.000000283112058
 31
0.0
210
0.0
220
0.0
230
1.0
 40
0.5833333333
 41
1.570796326794897
 42
3.141592653589793
  0
ELLIPSE
  5
139
330
1F
100
AcDbEntity
  8
0
  6
Continuous
 62
     7
100
AcDbEllipse
 10
5060.5187553361
 20
4596.9578414649
 30
0.0
 11
0.0
 21
5.999999999999091
 31
0.0
210
0.0
220
0.0
230
1.0
 40
0.5833333333
 41
3.141592653589793
 42
4.712388980384698
  0
ELLIPSE
  5
13A
330
1F
100
AcDbEntity
  8
0
  6
Continuous
 62
     7
100
AcDbEllipse
 10
5031.5187553361
 20
4596.9578414649
 30
0.0
 11
0.0
 21
5.999999999999091
 31
0.0
210
0.0
220
0.0
230
1.0
 40
0.5833333333
 41
1.570796326794897
 42
3.141592653589793
  0
ELLIPSE
  5
13B
330
1F
100
AcDbEntity
  8
0
  6
Continuous
 62
     7
100
AcDbEllipse
 10
7487.5187553361
 20
4596.9578414649
 30
0.0
 11
0.0
 21
5.999999999999091
 31
0.0
210
0.0
220
0.0
230
1.0
 40
0.5833333333
 41
1.570796326794897
 42
3.141592653589793
  0
ELLIPSE
  5
13C
330
1F
100
AcDbEntity
  8
0
  6
Continuous
 62
     7
100
AcDbEllipse
 10
7516.5187553361
 20
4596.9578414649
 30
0.0
 11
0.0
 21
5.999999999999091
 31
0.0
210
0.0
220
0.0
230
1.0
 40
0.5833333333
 41
3.141592653589793
 42
4.712388980384698
  0
ELLIPSE
  5
13D
330
1F
100
AcDbEntity
  8
0
  6
Continuous
 62
     7
100
AcDbEllipse
 10
8392.9943820184
 20
4596.9578421127
 30
0.0
 11
0.0
 21
6.000000024962901
 31
0.0
210
0.0
220
0.0
230
1.0
 40
0.5833333333
 41
3.141592653589793
 42
4.712388980384698
  0
ELLIPSE
  5
13E
330
1F
100
AcDbEntity
  8
0
  6
Continuous
 62
     7
100
AcDbEllipse
 10
8363.9943820184
 20
4596.9578414649
 30
0.0
 11
0.0
 21
5.999999377161657
 31
0.0
210
0.0
220
0.0
230
1.0
 40
0.5833333333
 41
1.570796326794897
 42
3.141592653589793
  0
ELLIPSE
  5
13F
330
1F
100
AcDbEntity
  8
0
  6
Continuous
 62
     7
100
AcDbEllipse
 10
7931.9022933248
 20
4596.9578417033
 30
0.0
 11
0.0
 21
6.0
 31
0.0
210
0.0
220
0.0
230
1.0
 40
0.5833333333
 41
1.570796326794897
 42
3.141592653589793
  0
ELLIPSE
  5
140
330
1F
100
AcDbEntity
  8
0
  6
Continuous
 62
     7
100
AcDbEllipse
 10
7960.9022933248
 20
4596.9578389572
 30
0.0
 11
0.0
 21
6.0
 31
0.0
210
0.0
220
0.0
230
1.0
 40
0.5833333333
 41
3.141592653589793
 42
4.712388980384698
  0
LINE
  5
141
330
1F
100
AcDbEntity
  8
0
  6
Continuous
 62
     7
100
AcDbLine
 10
6269.0187554479
 20
4590.9578419417
 30
0.0
 11
6269.0187554479
 21
4586.9578338355
 31
0.0
  0
LINE
  5
142
330
1F
100
AcDbEntity
  8
0
  6
Continuous
 62
     7
100
AcDbLine
 10
6279.0187552243
 20
4586.9578338355
 30
0.0
 11
6279.0187552243
 21
4590.9578419417
 31
0.0
  0
LINE
  5
143
330
1F
100
AcDbEntity
  8
0
  6
Continuous
 62
     7
100
AcDbLine
 10
5041.0187152818
 20
4590.9578419417
 30
0.0
 11
5041.0187152818
 21
4586.9578338355
 31
0.0
  0
LINE
  5
144
330
1F
100
AcDbEntity
  8
0
  6
Continuous
 62
     7
100
AcDbLine
 10
5051.018705745
 20
4586.9578338355
 30
0.0
 11
5051.018705745
 21
4590.9578419417
 31
0.0
  0
LINE
  5
145
330
1F
100
AcDbEntity
  8
0
  6
Continuous
 62
     7
100
AcDbLine
 10
7497.0188049272
 20
4590.9578419417
 30
0.0
 11
7497.0188049272
 21
4586.9578338355
 31
0.0
  0
LINE
  5
146
330
1F
100
AcDbEntity
  8
0
  6
Continuous
 62
     7
100
AcDbLine
 10
7507.0187953904
 20
4586.9578338355
 30
0.0
 11
7507.0187953904
 21
4590.9578419417
 31
0.0
  0
LINE
  5
147
330
1F
100
AcDbEntity
  8
0
  6
Continuous
 62
     7
100
AcDbLine
 10
5041.0187152818
 20
4590.9578419417
 30
0.0
 11
5041.0187152818
 21
4586.9578338355
 31
0.0
  0
LINE
  5
148
330
1F
100
AcDbEntity
  8
0
  6
Continuous
 62
     7
100
AcDbLine
 10
5051.018705745
 20
4586.9578338355
 30
0.0
 11
5051.018705745
 21
4590.9578419417
 31
0.0
  0
LINE
  5
149
330
1F
100
AcDbEntity
  8
0
  6
Continuous
 62
     7
100
AcDbLine
 10
7524.0187553361
 20
5848.4410560817
 30
0.0
 11
7522.0187810853
 21
5848.4410560817
 31
0.0
  0
LINE
  5
14A
330
1F
100
AcDbEntity
  8
0
  6
Continuous
 62
     7
100
AcDbLine
 10
5026.0187295869
 20
5848.4410560817
 30
0.0
 11
5024.0187553361
 21
5848.4410560817
 31
0.0
  0
LINE
  5
14B
330
1F
100
AcDbEntity
  8
0
  6
Continuous
 62
     7
100
AcDbLine
 10
7522.0187810853
 20
5848.4410560817
 30
0.0
 11
5026.0187295869
 21
5848.4410560817
 31
0.0
  0
LINE
  5
14C
330
1F
100
AcDbEntity
  8
0
  6
Continuous
 62
     7
100
AcDbLine
 10
5160.5187562898
 20
5178.9578414649
 30
0.0
 11
5160.5187562898
 21
5177.4419165343
 31
0.0
  0
LINE
  5
14D
330
1F
100
AcDbEntity
  8
0
  6
Continuous
 62
     7
100
AcDbLine
 10
5160.5187562898
 20
5163.4419179648
 30
0.0
 11
5160.5187562898
 21
5160.941920349
 31
0.0
  0
LINE
  5
14E
330
1F
100
AcDbEntity
  8
0
  6
Continuous
 62
     7
100
AcDbLine
 10
5192.5187019303
 20
5160.941920349
 30
0.0
 11
5192.5187019303
 21
5163.4419179648
 31
0.0
  0
LINE
  5
14F
330
1F
100
AcDbEntity
  8
0
  6
Continuous
 62
     7
100
AcDbLine
 10
5192.5187019303
 20
5177.4419165343
 30
0.0
 11
5192.5187019303
 21
5178.9578414649
 31
0.0
  0
LINE
  5
150
330
1F
100
AcDbEntity
  8
0
  6
Continuous
 62
     7
100
AcDbLine
 10
5210.5187086061
 20
5100.9419179648
 30
0.0
 11
5203.8282064393
 21
5158.2895732612
 31
0.0
  0
LINE
  5
151
330
1F
100
AcDbEntity
  8
0
  6
Continuous
 62
     7
100
AcDbLine
 10
5149.2093709901
 20
5158.2895732612
 30
0.0
 11
5142.5187496141
 21
5100.9419179648
 31
0.0
  0
LINE
  5
152
330
1F
100
AcDbEntity
  8
0
  6
Continuous
 62
     7
100
AcDbLine
 10
5142.5187496141
 20
5100.9419179648
 30
0.0
 11
5149.4125036195
 21
5033.6362636775
 31
0.0
  0
LINE
  5
153
330
1F
100
AcDbEntity
  8
0
  6
Continuous
 62
     7
100
AcDbLine
 10
5203.6249546006
 20
5033.6362636775
 30
0.0
 11
5210.5187086061
 21
5100.9419179648
 31
0.0
  0
LINE
  5
154
330
1F
100
AcDbEntity
  8
0
  6
Continuous
 62
     7
100
AcDbLine
 10
5201.5187648728
 20
5163.4419179648
 30
0.0
 11
5199.518790622
 21
5167.4419260711
 31
0.0
  0
LINE
  5
155
330
1F
100
AcDbEntity
  8
0
  6
Continuous
 62
     7
100
AcDbLine
 10
5153.5187868074
 20
5167.4419260711
 30
0.0
 11
5151.5188125566
 21
5163.4419179648
 31
0.0
  0
LINE
  5
156
330
1F
100
AcDbEntity
  8
0
  6
Continuous
 62
     7
100
AcDbLine
 10
5153.5187868074
 20
5174.4419253558
 30
0.0
 11
5153.5187868074
 21
5167.4419260711
 31
0.0
  0
LINE
  5
157
330
1F
100
AcDbEntity
  8
0
  6
Continuous
 62
     7
100
AcDbLine
 10
5199.518790622
 20
5167.4419260711
 30
0.0
 11
5199.518790622
 21
5174.4419253558
 31
0.0
  0
LINE
  5
158
330
1F
100
AcDbEntity
  8
0
  6
Continuous
 62
     7
100
AcDbLine
 10
5160.5187562898
 20
5163.4419179648
 30
0.0
 11
5160.5187562898
 21
5160.941920349
 31
0.0
  0
LINE
  5
159
330
1F
100
AcDbEntity
  8
0
  6
Continuous
 62
     7
100
AcDbLine
 10
5192.5187019303
 20
5160.941920349
 30
0.0
 11
5192.5187019303
 21
5163.4419179648
 31
0.0
  0
LINE
  5
15A
330
1F
100
AcDbEntity
  8
0
  6
Continuous
 62
     7
100
AcDbLine
 10
5372.4281100228
 20
5725.0485039443
 30
0.0
 11
5372.5187686875
 21
5724.9578452796
 31
0.0
  0
LINE
  5
15B
330
1F
100
AcDbEntity
  8
0
  6
Continuous
 62
     7
100
AcDbLine
 10
5375.5187300637
 20
5724.9578452796
 30
0.0
 11
5375.6093887284
 21
5725.0485039443
 31
0.0
  0
LINE
  5
15C
330
1F
100
AcDbEntity
  8
0
  6
Continuous
 62
     7
100
AcDbLine
 10
6572.4280981019
 20
5725.0485039443
 30
0.0
 11
6572.5187567666
 21
5724.9578452796
 31
0.0
  0
LINE
  5
15D
330
1F
100
AcDbEntity
  8
0
  6
Continuous
 62
     7
100
AcDbLine
 10
6575.5187479451
 20
5724.9578452796
 30
0.0
 11
6575.6094066098
 21
5725.0485039443
 31
0.0
  0
LINE
  5
15E
330
1F
100
AcDbEntity
  8
0
  6
Continuous
 62
     7
100
AcDbLine
 10
5972.4281040624
 20
5725.0485039443
 30
0.0
 11
5972.5187627271
 21
5724.9578452796
 31
0.0
  0
LINE
  5
15F
330
1F
100
AcDbEntity
  8
0
  6
Continuous
 62
     7
100
AcDbLine
 10
5975.5187539056
 20
5724.9578452796
 30
0.0
 11
5975.6094125703
 21
5725.0485039443
 31
0.0
  0
LINE
  5
160
330
1F
100
AcDbEntity
  8
0
  6
Continuous
 62
     7
100
AcDbLine
 10
7172.4281219438
 20
5725.0485039443
 30
0.0
 11
7172.5187806085
 21
5724.9578452796
 31
0.0
  0
LINE
  5
161
330
1F
100
AcDbEntity
  8
0
  6
Continuous
 62
     7
100
AcDbLine
 10
7175.5187419847
 20
5724.9578452796
 30
0.0
 11
7175.6094006494
 21
5725.0485039443
 31
0.0
  0
LINE
  5
162
330
1F
100
AcDbEntity
  8
0
  6
Continuous
 62
     7
100
AcDbLine
 10
5364.7687343553
 20
5730.7986534328
 30
0.0
 11
5364.7687343553
 21
5730.1949477881
 31
0.0
  0
LINE
  5
163
330
1F
100
AcDbEntity
  8
0
  6
Continuous
 62
     7
100
AcDbLine
 10
5383.268764396
 20
5730.1949477881
 30
0.0
 11
5383.268764396
 21
5730.7986534328
 31
0.0
  0
LINE
  5
164
330
1F
100
AcDbEntity
  8
0
  6
Continuous
 62
     7
100
AcDbLine
 10
5381.5187720254
 20
5731.1608708591
 30
0.0
 11
5381.5187720254
 21
5731.3614404887
 31
0.0
  0
LINE
  5
165
330
1F
100
AcDbEntity
  8
0
  6
Continuous
 62
     7
100
AcDbLine
 10
5366.5187267259
 20
5731.8575597495
 30
0.0
 11
5366.5187267259
 21
5731.1608708591
 31
0.0
  0
LINE
  5
166
330
1F
100
AcDbEntity
  8
0
  6
Continuous
 62
     7
100
AcDbLine
 10
7164.7687462762
 20
5730.7986534328
 30
0.0
 11
7164.7687462762
 21
5730.1949477881
 31
0.0
  0
LINE
  5
167
330
1F
100
AcDbEntity
  8
0
  6
Continuous
 62
     7
100
AcDbLine
 10
7183.2687763169
 20
5730.1949477881
 30
0.0
 11
7183.2687763169
 21
5730.7986534328
 31
0.0
  0
LINE
  5
168
330
1F
100
AcDbEntity
  8
0
  6
Continuous
 62
     7
100
AcDbLine
 10
7181.5187839463
 20
5731.1608708591
 30
0.0
 11
7181.5187839463
 21
5731.3614404887
 31
0.0
  0
LINE
  5
169
330
1F
100
AcDbEntity
  8
0
  6
Continuous
 62
     7
100
AcDbLine
 10
7166.5187386468
 20
5731.8575597495
 30
0.0
 11
7166.5187386468
 21
5731.1608708591
 31
0.0
  0
LINE
  5
16A
330
1F
100
AcDbEntity
  8
0
  6
Continuous
 62
     7
100
AcDbLine
 10
5964.7687581971
 20
5730.7986534328
 30
0.0
 11
5964.7687581971
 21
5730.1949477881
 31
0.0
  0
LINE
  5
16B
330
1F
100
AcDbEntity
  8
0
  6
Continuous
 62
     7
100
AcDbLine
 10
5983.2687584355
 20
5730.1949477881
 30
0.0
 11
5983.2687584355
 21
5730.7986534328
 31
0.0
  0
LINE
  5
16C
330
1F
100
AcDbEntity
  8
0
  6
Continuous
 62
     7
100
AcDbLine
 10
5981.5187660649
 20
5731.1608708591
 30
0.0
 11
5981.5187660649
 21
5731.3614404887
 31
0.0
  0
LINE
  5
16D
330
1F
100
AcDbEntity
  8
0
  6
Continuous
 62
     7
100
AcDbLine
 10
5966.5187505677
 20
5731.8575597495
 30
0.0
 11
5966.5187505677
 21
5731.1608708591
 31
0.0
  0
LINE
  5
16E
330
1F
100
AcDbEntity
  8
0
  6
Continuous
 62
     7
100
AcDbLine
 10
6564.7687522367
 20
5730.7986534328
 30
0.0
 11
6564.7687522367
 21
5730.1949477881
 31
0.0
  0
LINE
  5
16F
330
1F
100
AcDbEntity
  8
0
  6
Continuous
 62
     7
100
AcDbLine
 10
6583.2687524751
 20
5730.1949477881
 30
0.0
 11
6583.2687524751
 21
5730.7986534328
 31
0.0
  0
LINE
  5
170
330
1F
100
AcDbEntity
  8
0
  6
Continuous
 62
     7
100
AcDbLine
 10
6581.5187601045
 20
5731.1608708591
 30
0.0
 11
6581.5187601045
 21
5731.3614404887
 31
0.0
  0
LINE
  5
171
330
1F
100
AcDbEntity
  8
0
  6
Continuous
 62
     7
100
AcDbLine
 10
6566.5187446073
 20
5731.8575597495
 30
0.0
 11
6566.5187446073
 21
5731.1608708591
 31
0.0
  0
LINE
  5
172
330
1F
100
AcDbEntity
  8
0
  6
Continuous
 62
     7
100
AcDbLine
 10
6575.6687430337
 20
5725.0529742927
 30
0.0
 11
6575.6687430337
 21
5725.0554180831
 31
0.0
  0
LINE
  5
173
330
1F
100
AcDbEntity
  8
0
  6
Continuous
 62
     7
100
AcDbLine
 10
7175.6687668756
 20
5725.0529742927
 30
0.0
 11
7175.6687668756
 21
5725.0554180831
 31
0.0
  0
LINE
  5
174
330
1F
100
AcDbEntity
  8
0
  6
Continuous
 62
     7
100
AcDbLine
 10
5375.6687549546
 20
5725.0529742927
 30
0.0
 11
5375.6687549546
 21
5725.0554180831
 31
0.0
  0
LINE
  5
175
330
1F
100
AcDbEntity
  8
0
  6
Continuous
 62
     7
100
AcDbLine
 10
5975.6687489942
 20
5725.0529742927
 30
0.0
 11
5975.6687489942
 21
5725.0554180831
 31
0.0
  0
LINE
  5
176
330
1F
100
AcDbEntity
  8
0
  6
Continuous
 62
     7
100
AcDbLine
 10
6292.0187545612
 20
4598.9578581542
 30
0.0
 11
6256.018756111
 21
4598.9578581542
 31
0.0
  0
LINE
  5
177
330
1F
100
AcDbEntity
  8
0
  6
Continuous
 62
     7
100
AcDbLine
 10
6292.0187545612
 20
4596.9578242988
 30
0.0
 11
6292.0187545612
 21
4598.9578581542
 31
0.0
  0
LINE
  5
178
330
1F
100
AcDbEntity
  8
0
  6
Continuous
 62
     7
100
AcDbLine
 10
6256.018756111
 20
4596.9578242988
 30
0.0
 11
6292.0187545612
 21
4596.9578242988
 31
0.0
  0
LINE
  5
179
330
1F
100
AcDbEntity
  8
0
  6
Continuous
 62
     7
100
AcDbLine
 10
6256.018756111
 20
4596.9578242988
 30
0.0
 11
6256.018756111
 21
4598.9578581542
 31
0.0
  0
LINE
  5
17A
330
1F
100
AcDbEntity
  8
0
  6
Continuous
 62
     7
100
AcDbLine
 10
6294.5187553361
 20
4598.9578581542
 30
0.0
 11
6292.0187545612
 21
4598.9578581542
 31
0.0
  0
LINE
  5
17B
330
1F
100
AcDbEntity
  8
0
  6
Continuous
 62
     7
100
AcDbLine
 10
6294.5187553361
 20
4596.9578242988
 30
0.0
 11
6294.5187553361
 21
4598.9578581542
 31
0.0
  0
LINE
  5
17C
330
1F
100
AcDbEntity
  8
0
  6
Continuous
 62
     7
100
AcDbLine
 10
6292.0187545612
 20
4596.9578242988
 30
0.0
 11
6294.5187553361
 21
4596.9578242988
 31
0.0
  0
LINE
  5
17D
330
1F
100
AcDbEntity
  8
0
  6
Continuous
 62
     7
100
AcDbLine
 10
6288.518755053
 20
4590.9578411818
 30
0.0
 11
6259.518755053
 21
4590.9578411818
 31
0.0
  0
LINE
  5
17E
330
1F
100
AcDbEntity
  8
0
  6
Continuous
 62
     7
100
AcDbLine
 10
6253.5187547699
 20
4596.9578242988
 30
0.0
 11
6256.018756111
 21
4596.9578242988
 31
0.0
  0
LINE
  5
17F
330
1F
100
AcDbEntity
  8
0
  6
Continuous
 62
     7
100
AcDbLine
 10
6253.5187547699
 20
4596.9578242988
 30
0.0
 11
6253.5187547699
 21
4598.9578581542
 31
0.0
  0
LINE
  5
180
330
1F
100
AcDbEntity
  8
0
  6
Continuous
 62
     7
100
AcDbLine
 10
6256.018756111
 20
4598.9578581542
 30
0.0
 11
6253.5187547699
 21
4598.9578581542
 31
0.0
  0
LINE
  5
181
330
1F
100
AcDbEntity
  8
0
  6
Continuous
 62
     7
100
AcDbLine
 10
6265.3585012674
 20
4578.957817623
 30
0.0
 11
6265.3585012674
 21
4586.9578338355
 31
0.0
  0
LINE
  5
182
330
1F
100
AcDbEntity
  8
0
  6
Continuous
 62
     7
100
AcDbLine
 10
6256.6982471988
 20
4578.957817623
 30
0.0
 11
6256.6982471988
 21
4586.9578338355
 31
0.0
  0
LINE
  5
183
330
1F
100
AcDbEntity
  8
0
  6
Continuous
 62
     7
100
AcDbLine
 10
6265.3585012674
 20
4586.9578338355
 30
0.0
 11
6256.6982471988
 21
4586.9578338355
 31
0.0
  0
LINE
  5
184
330
1F
100
AcDbEntity
  8
0
  6
Continuous
 62
     7
100
AcDbLine
 10
6265.3585012674
 20
4578.957817623
 30
0.0
 11
6256.6982471988
 21
4578.957817623
 31
0.0
  0
LINE
  5
185
330
1F
100
AcDbEntity
  8
0
  6
Continuous
 62
     7
100
AcDbLine
 10
6282.6790094048
 20
4578.957817623
 30
0.0
 11
6282.6790094048
 21
4586.9578338355
 31
0.0
  0
LINE
  5
186
330
1F
100
AcDbEntity
  8
0
  6
Continuous
 62
     7
100
AcDbLine
 10
6282.6790094048
 20
4586.9578338355
 30
0.0
 11
6265.3585012674
 21
4586.9578338355
 31
0.0
  0
LINE
  5
187
330
1F
100
AcDbEntity
  8
0
  6
Continuous
 62
     7
100
AcDbLine
 10
6282.6790094048
 20
4578.957817623
 30
0.0
 11
6265.3585012674
 21
4578.957817623
 31
0.0
  0
LINE
  5
188
330
1F
100
AcDbEntity
  8
0
  6
Continuous
 62
     7
100
AcDbLine
 10
6291.3392634734
 20
4578.957817623
 30
0.0
 11
6291.3392634734
 21
4586.9578338355
 31
0.0
  0
LINE
  5
189
330
1F
100
AcDbEntity
  8
0
  6
Continuous
 62
     7
100
AcDbLine
 10
6291.3392634734
 20
4586.9578338355
 30
0.0
 11
6282.6790094048
 21
4586.9578338355
 31
0.0
  0
LINE
  5
18A
330
1F
100
AcDbEntity
  8
0
  6
Continuous
 62
     7
100
AcDbLine
 10
6291.3392634734
 20
4578.957817623
 30
0.0
 11
6282.6790094048
 21
4578.957817623
 31
0.0
  0
LINE
  5
18B
330
1F
100
AcDbEntity
  8
0
  6
Continuous
 62
     7
100
AcDbLine
 10
5028.0187038377
 20
4596.9578242988
 30
0.0
 11
5064.0187171891
 21
4596.9578242988
 31
0.0
  0
LINE
  5
18C
330
1F
100
AcDbEntity
  8
0
  6
Continuous
 62
     7
100
AcDbLine
 10
5060.5187324479
 20
4590.9578419417
 30
0.0
 11
5031.5188077882
 21
4590.9578419417
 31
0.0
  0
LINE
  5
18D
330
1F
100
AcDbEntity
  8
0
  6
Continuous
 62
     7
100
AcDbLine
 10
5064.0187171891
 20
4596.9578242988
 30
0.0
 11
5066.5187744096
 21
4596.9578242988
 31
0.0
  0
LINE
  5
18E
330
1F
100
AcDbEntity
  8
0
  6
Continuous
 62
     7
100
AcDbLine
 10
5066.5187744096
 20
4598.9578581542
 30
0.0
 11
5064.0187171891
 21
4598.9578581542
 31
0.0
  0
LINE
  5
18F
330
1F
100
AcDbEntity
  8
0
  6
Continuous
 62
     7
100
AcDbLine
 10
5066.5187744096
 20
4596.9578242988
 30
0.0
 11
5066.5187744096
 21
4598.9578581542
 31
0.0
  0
LINE
  5
190
330
1F
100
AcDbEntity
  8
0
  6
Continuous
 62
     7
100
AcDbLine
 10
5064.0187171891
 20
4596.9578242988
 30
0.0
 11
5064.0187171891
 21
4598.9578581542
 31
0.0
  0
LINE
  5
191
330
1F
100
AcDbEntity
  8
0
  6
Continuous
 62
     7
100
AcDbLine
 10
5064.0187171891
 20
4598.9578581542
 30
0.0
 11
5028.0187038377
 21
4598.9578581542
 31
0.0
  0
LINE
  5
192
330
1F
100
AcDbEntity
  8
0
  6
Continuous
 62
     7
100
AcDbLine
 10
5028.0187038377
 20
4596.9578242988
 30
0.0
 11
5028.0187038377
 21
4598.9578581542
 31
0.0
  0
LINE
  5
193
330
1F
100
AcDbEntity
  8
0
  6
Continuous
 62
     7
100
AcDbLine
 10
5025.5187658265
 20
4596.9578242988
 30
0.0
 11
5028.0187038377
 21
4596.9578242988
 31
0.0
  0
LINE
  5
194
330
1F
100
AcDbEntity
  8
0
  6
Continuous
 62
     7
100
AcDbLine
 10
5025.5187658265
 20
4596.9578242988
 30
0.0
 11
5025.5187658265
 21
4598.9578581542
 31
0.0
  0
LINE
  5
195
330
1F
100
AcDbEntity
  8
0
  6
Continuous
 62
     7
100
AcDbLine
 10
5028.0187038377
 20
4598.9578581542
 30
0.0
 11
5025.5187658265
 21
4598.9578581542
 31
0.0
  0
LINE
  5
196
330
1F
100
AcDbEntity
  8
0
  6
Continuous
 62
     7
100
AcDbLine
 10
5037.3585132554
 20
4578.957817623
 30
0.0
 11
5037.3585132554
 21
4586.9578338355
 31
0.0
  0
LINE
  5
197
330
1F
100
AcDbEntity
  8
0
  6
Continuous
 62
     7
100
AcDbLine
 10
5028.6981967881
 20
4578.957817623
 30
0.0
 11
5028.6981967881
 21
4586.9578338355
 31
0.0
  0
LINE
  5
198
330
1F
100
AcDbEntity
  8
0
  6
Continuous
 62
     7
100
AcDbLine
 10
5037.3585132554
 20
4586.9578338355
 30
0.0
 11
5028.6981967881
 21
4586.9578338355
 31
0.0
  0
LINE
  5
199
330
1F
100
AcDbEntity
  8
0
  6
Continuous
 62
     7
100
AcDbLine
 10
5037.3585132554
 20
4578.957817623
 30
0.0
 11
5028.6981967881
 21
4578.957817623
 31
0.0
  0
LINE
  5
19A
330
1F
100
AcDbEntity
  8
0
  6
Continuous
 62
     7
100
AcDbLine
 10
5054.6790269807
 20
4578.957817623
 30
0.0
 11
5054.6790269807
 21
4586.9578338355
 31
0.0
  0
LINE
  5
19B
330
1F
100
AcDbEntity
  8
0
  6
Continuous
 62
     7
100
AcDbLine
 10
5054.6790269807
 20
4586.9578338355
 30
0.0
 11
5037.3585132554
 21
4586.9578338355
 31
0.0
  0
LINE
  5
19C
330
1F
100
AcDbEntity
  8
0
  6
Continuous
 62
     7
100
AcDbLine
 10
5054.6790269807
 20
4578.957817623
 30
0.0
 11
5037.3585132554
 21
4578.957817623
 31
0.0
  0
LINE
  5
19D
330
1F
100
AcDbEntity
  8
0
  6
Continuous
 62
     7
100
AcDbLine
 10
5063.3392242387
 20
4578.957817623
 30
0.0
 11
5063.3392242387
 21
4586.9578338355
 31
0.0
  0
LINE
  5
19E
330
1F
100
AcDbEntity
  8
0
  6
Continuous
 62
     7
100
AcDbLine
 10
5063.3392242387
 20
4586.9578338355
 30
0.0
 11
5054.6790269807
 21
4586.9578338355
 31
0.0
  0
LINE
  5
19F
330
1F
100
AcDbEntity
  8
0
  6
Continuous
 62
     7
100
AcDbLine
 10
5063.3392242387
 20
4578.957817623
 30
0.0
 11
5054.6790269807
 21
4578.957817623
 31
0.0
  0
LINE
  5
1A0
330
1F
100
AcDbEntity
  8
0
  6
Continuous
 62
     7
100
AcDbLine
 10
6294.0187548891
 20
4598.9578581542
 30
0.0
 11
6294.0187548891
 21
5178.9578414649
 31
0.0
  0
LINE
  5
1A1
330
1F
100
AcDbEntity
  8
0
  6
Continuous
 62
     7
100
AcDbLine
 10
6254.0187557831
 20
4598.9578581542
 30
0.0
 11
6254.0187557831
 21
5178.9578414649
 31
0.0
  0
LINE
  5
1A2
330
1F
100
AcDbEntity
  8
0
  6
Continuous
 62
     7
100
AcDbLine
 10
5066.0188106492
 20
4598.9578581542
 30
0.0
 11
5066.0188106492
 21
5178.9578414649
 31
0.0
  0
LINE
  5
1A3
330
1F
100
AcDbEntity
  8
0
  6
Continuous
 62
     7
100
AcDbLine
 10
5026.0187295869
 20
4598.9578581542
 30
0.0
 11
5026.0187295869
 21
5178.9578414649
 31
0.0
  0
LINE
  5
1A4
330
1F
100
AcDbEntity
  8
0
  6
Continuous
 62
     7
100
AcDbLine
 10
5066.0188106492
 20
4733.9578486175
 30
0.0
 11
6254.0187557831
 21
4733.9578486175
 31
0.0
  0
LINE
  5
1A5
330
1F
100
AcDbEntity
  8
0
  6
Continuous
 62
     7
100
AcDbLine
 10
6294.0187548891
 20
4733.9578486175
 30
0.0
 11
7482.018700023
 21
4733.9578486175
 31
0.0
  0
LINE
  5
1A6
330
1F
100
AcDbEntity
  8
0
  6
Continuous
 62
     7
100
AcDbLine
 10
5066.0188106492
 20
4773.9578700751
 30
0.0
 11
6254.0187557831
 21
4773.9578700751
 31
0.0
  0
LINE
  5
1A7
330
1F
100
AcDbEntity
  8
0
  6
Continuous
 62
     7
100
AcDbLine
 10
6294.0187548891
 20
4773.9578700751
 30
0.0
 11
7482.018700023
 21
4773.9578700751
 31
0.0
  0
LINE
  5
1A8
330
1F
100
AcDbEntity
  8
0
  6
Continuous
 62
     7
100
AcDbLine
 10
7484.0187934831
 20
4596.9578242988
 30
0.0
 11
7481.5187362626
 21
4596.9578242988
 31
0.0
  0
LINE
  5
1A9
330
1F
100
AcDbEntity
  8
0
  6
Continuous
 62
     7
100
AcDbLine
 10
7487.5187782243
 20
4590.9578419417
 30
0.0
 11
7516.518702884
 21
4590.9578419417
 31
0.0
  0
LINE
  5
1AA
330
1F
100
AcDbEntity
  8
0
  6
Continuous
 62
     7
100
AcDbLine
 10
7520.0188068345
 20
4596.9578242988
 30
0.0
 11
7484.0187934831
 21
4596.9578242988
 31
0.0
  0
LINE
  5
1AB
330
1F
100
AcDbEntity
  8
0
  6
Continuous
 62
     7
100
AcDbLine
 10
7481.5187362626
 20
4596.9578242988
 30
0.0
 11
7481.5187362626
 21
4598.9578581542
 31
0.0
  0
LINE
  5
1AC
330
1F
100
AcDbEntity
  8
0
  6
Continuous
 62
     7
100
AcDbLine
 10
7481.5187362626
 20
4598.9578581542
 30
0.0
 11
7484.0187934831
 21
4598.9578581542
 31
0.0
  0
LINE
  5
1AD
330
1F
100
AcDbEntity
  8
0
  6
Continuous
 62
     7
100
AcDbLine
 10
7484.0187934831
 20
4596.9578242988
 30
0.0
 11
7484.0187934831
 21
4598.9578581542
 31
0.0
  0
LINE
  5
1AE
330
1F
100
AcDbEntity
  8
0
  6
Continuous
 62
     7
100
AcDbLine
 10
7484.0187934831
 20
4598.9578581542
 30
0.0
 11
7520.0188068345
 21
4598.9578581542
 31
0.0
  0
LINE
  5
1AF
330
1F
100
AcDbEntity
  8
0
  6
Continuous
 62
     7
100
AcDbLine
 10
7520.0188068345
 20
4596.9578242988
 30
0.0
 11
7520.0188068345
 21
4598.9578581542
 31
0.0
  0
LINE
  5
1B0
330
1F
100
AcDbEntity
  8
0
  6
Continuous
 62
     7
100
AcDbLine
 10
7522.5187448457
 20
4596.9578242988
 30
0.0
 11
7520.0188068345
 21
4596.9578242988
 31
0.0
  0
LINE
  5
1B1
330
1F
100
AcDbEntity
  8
0
  6
Continuous
 62
     7
100
AcDbLine
 10
7522.5187448457
 20
4596.9578242988
 30
0.0
 11
7522.5187448457
 21
4598.9578581542
 31
0.0
  0
LINE
  5
1B2
330
1F
100
AcDbEntity
  8
0
  6
Continuous
 62
     7
100
AcDbLine
 10
7520.0188068345
 20
4598.9578581542
 30
0.0
 11
7522.5187448457
 21
4598.9578581542
 31
0.0
  0
LINE
  5
1B3
330
1F
100
AcDbEntity
  8
0
  6
Continuous
 62
     7
100
AcDbLine
 10
7519.3393138841
 20
4578.957817623
 30
0.0
 11
7519.3393138841
 21
4586.9578338355
 31
0.0
  0
LINE
  5
1B4
330
1F
100
AcDbEntity
  8
0
  6
Continuous
 62
     7
100
AcDbLine
 10
7510.6789974168
 20
4578.957817623
 30
0.0
 11
7519.3393138841
 21
4578.957817623
 31
0.0
  0
LINE
  5
1B5
330
1F
100
AcDbEntity
  8
0
  6
Continuous
 62
     7
100
AcDbLine
 10
7510.6789974168
 20
4578.957817623
 30
0.0
 11
7510.6789974168
 21
4586.9578338355
 31
0.0
  0
LINE
  5
1B6
330
1F
100
AcDbEntity
  8
0
  6
Continuous
 62
     7
100
AcDbLine
 10
7510.6789974168
 20
4586.9578338355
 30
0.0
 11
7519.3393138841
 21
4586.9578338355
 31
0.0
  0
LINE
  5
1B7
330
1F
100
AcDbEntity
  8
0
  6
Continuous
 62
     7
100
AcDbLine
 10
7493.3584836915
 20
4578.957817623
 30
0.0
 11
7510.6789974168
 21
4578.957817623
 31
0.0
  0
LINE
  5
1B8
330
1F
100
AcDbEntity
  8
0
  6
Continuous
 62
     7
100
AcDbLine
 10
7493.3584836915
 20
4578.957817623
 30
0.0
 11
7493.3584836915
 21
4586.9578338355
 31
0.0
  0
LINE
  5
1B9
330
1F
100
AcDbEntity
  8
0
  6
Continuous
 62
     7
100
AcDbLine
 10
7493.3584836915
 20
4586.9578338355
 30
0.0
 11
7510.6789974168
 21
4586.9578338355
 31
0.0
  0
LINE
  5
1BA
330
1F
100
AcDbEntity
  8
0
  6
Continuous
 62
     7
100
AcDbLine
 10
7484.6982864335
 20
4578.957817623
 30
0.0
 11
7484.6982864335
 21
4586.9578338355
 31
0.0
  0
LINE
  5
1BB
330
1F
100
AcDbEntity
  8
0
  6
Continuous
 62
     7
100
AcDbLine
 10
7484.6982864335
 20
4586.9578338355
 30
0.0
 11
7493.3584836915
 21
4586.9578338355
 31
0.0
  0
LINE
  5
1BC
330
1F
100
AcDbEntity
  8
0
  6
Continuous
 62
     7
100
AcDbLine
 10
7484.6982864335
 20
4578.957817623
 30
0.0
 11
7493.3584836915
 21
4578.957817623
 31
0.0
  0
LINE
  5
1BD
330
1F
100
AcDbEntity
  8
0
  6
Continuous
 62
     7
100
AcDbLine
 10
7482.018700023
 20
4598.9578581542
 30
0.0
 11
7482.018700023
 21
5178.9578414649
 31
0.0
  0
LINE
  5
1BE
330
1F
100
AcDbEntity
  8
0
  6
Continuous
 62
     7
100
AcDbLine
 10
7522.0187810853
 20
4598.9578581542
 30
0.0
 11
7522.0187810853
 21
5178.9578414649
 31
0.0
  0
LINE
  5
1BF
330
1F
100
AcDbEntity
  8
0
  6
Continuous
 62
     7
100
AcDbLine
 10
7477.3687032655
 20
5402.2978405595
 30
0.0
 11
7479.0187982514
 21
5402.2978405595
 31
0.0
  0
LINE
  5
1C0
330
1F
100
AcDbEntity
  8
0
  6
Continuous
 62
     7
100
AcDbLine
 10
7479.0187982514
 20
5180.6078470439
 30
0.0
 11
7479.0187982514
 21
5402.2978405595
 31
0.0
  0
LINE
  5
1C1
330
1F
100
AcDbEntity
  8
0
  6
Continuous
 62
     7
100
AcDbLine
 10
7479.0187982514
 20
5180.6078470439
 30
0.0
 11
7477.3687032655
 21
5180.6078470439
 31
0.0
  0
LINE
  5
1C2
330
1F
100
AcDbEntity
  8
0
  6
Continuous
 62
     7
100
AcDbLine
 10
7477.3687032655
 20
5180.6078470439
 30
0.0
 11
7477.3687032655
 21
5402.2978405595
 31
0.0
  0
LINE
  5
1C3
330
1F
100
AcDbEntity
  8
0
  6
Continuous
 62
     7
100
AcDbLine
 10
5070.6688074067
 20
5180.6078470439
 30
0.0
 11
5069.0187124208
 21
5180.6078470439
 31
0.0
  0
LINE
  5
1C4
330
1F
100
AcDbEntity
  8
0
  6
Continuous
 62
     7
100
AcDbLine
 10
5069.0187124208
 20
5180.6078470439
 30
0.0
 11
5069.0187124208
 21
5402.2978405595
 31
0.0
  0
LINE
  5
1C5
330
1F
100
AcDbEntity
  8
0
  6
Continuous
 62
     7
100
AcDbLine
 10
5070.6688074067
 20
5180.6078470439
 30
0.0
 11
5070.6688074067
 21
5402.2978405595
 31
0.0
  0
LINE
  5
1C6
330
1F
100
AcDbEntity
  8
0
  6
Continuous
 62
     7
100
AcDbLine
 10
5069.0187124208
 20
5402.2978405595
 30
0.0
 11
5070.6688074067
 21
5402.2978405595
 31
0.0
  0
LINE
  5
1C7
330
1F
100
AcDbEntity
  8
0
  6
Continuous
 62
     7
100
AcDbLine
 10
7477.3687032655
 20
5402.2978405595
 30
0.0
 11
5070.6688074067
 21
5402.2978405595
 31
0.0
  0
LINE
  5
1C8
330
1F
100
AcDbEntity
  8
0
  6
Continuous
 62
     7
100
AcDbLine
 10
7477.3687032655
 20
5403.9478405506
 30
0.0
 11
5070.6688074067
 21
5403.9478405506
 31
0.0
  0
LINE
  5
1C9
330
1F
100
AcDbEntity
  8
0
  6
Continuous
 62
     7
100
AcDbLine
 10
7477.3687032655
 20
5402.2978405595
 30
0.0
 11
7477.3687032655
 21
5403.9478405506
 31
0.0
  0
LINE
  5
1CA
330
1F
100
AcDbEntity
  8
0
  6
Continuous
 62
     7
100
AcDbLine
 10
5070.6688074067
 20
5402.2978405595
 30
0.0
 11
5070.6688074067
 21
5403.9478405506
 31
0.0
  0
LINE
  5
1CB
330
1F
100
AcDbEntity
  8
0
  6
Continuous
 62
     7
100
AcDbLine
 10
7477.3687032655
 20
5178.9578414649
 30
0.0
 11
5070.6688074067
 21
5178.9578414649
 31
0.0
  0
LINE
  5
1CC
330
1F
100
AcDbEntity
  8
0
  6
Continuous
 62
     7
100
AcDbLine
 10
5070.6688074067
 20
5178.9578414649
 30
0.0
 11
5070.6688074067
 21
5180.6078470439
 31
0.0
  0
LINE
  5
1CD
330
1F
100
AcDbEntity
  8
0
  6
Continuous
 62
     7
100
AcDbLine
 10
7477.3687032655
 20
5180.6078470439
 30
0.0
 11
5070.6688074067
 21
5180.6078470439
 31
0.0
  0
LINE
  5
1CE
330
1F
100
AcDbEntity
  8
0
  6
Continuous
 62
     7
100
AcDbLine
 10
7477.3687032655
 20
5178.9578414649
 30
0.0
 11
7477.3687032655
 21
5180.6078470439
 31
0.0
  0
LINE
  5
1CF
330
1F
100
AcDbEntity
  8
0
  6
Continuous
 62
     7
100
AcDbLine
 10
7524.0187553361
 20
5178.9578414649
 30
0.0
 11
7524.0187553361
 21
5403.9478405506
 31
0.0
  0
LINE
  5
1D0
330
1F
100
AcDbEntity
  8
0
  6
Continuous
 62
     7
100
AcDbLine
 10
7520.9187177613
 20
5178.9578414649
 30
0.0
 11
7524.0187553361
 21
5178.9578414649
 31
0.0
  0
LINE
  5
1D1
330
1F
100
AcDbEntity
  8
0
  6
Continuous
 62
     7
100
AcDbLine
 10
7520.9187177613
 20
5178.9578414649
 30
0.0
 11
7520.9187177613
 21
5403.9478405506
 31
0.0
  0
LINE
  5
1D2
330
1F
100
AcDbEntity
  8
0
  6
Continuous
 62
     7
100
AcDbLine
 10
7524.0187553361
 20
5403.9478405506
 30
0.0
 11
7520.9187177613
 21
5403.9478405506
 31
0.0
  0
LINE
  5
1D3
330
1F
100
AcDbEntity
  8
0
  6
Continuous
 62
     7
100
AcDbLine
 10
7482.1187166169
 20
5178.9578414649
 30
0.0
 11
7520.9187177613
 21
5178.9578414649
 31
0.0
  0
LINE
  5
1D4
330
1F
100
AcDbEntity
  8
0
  6
Continuous
 62
     7
100
AcDbLine
 10
7482.1187166169
 20
5178.9578414649
 30
0.0
 11
7482.1187166169
 21
5403.9478405506
 31
0.0
  0
LINE
  5
1D5
330
1F
100
AcDbEntity
  8
0
  6
Continuous
 62
     7
100
AcDbLine
 10
7520.9187177613
 20
5403.9478405506
 30
0.0
 11
7482.1187166169
 21
5403.9478405506
 31
0.0
  0
LINE
  5
1D6
330
1F
100
AcDbEntity
  8
0
  6
Continuous
 62
     7
100
AcDbLine
 10
7482.1187166169
 20
5178.9578414649
 30
0.0
 11
7479.0187982514
 21
5178.9578414649
 31
0.0
  0
LINE
  5
1D7
330
1F
100
AcDbEntity
  8
0
  6
Continuous
 62
     7
100
AcDbLine
 10
7479.0187982514
 20
5178.9578414649
 30
0.0
 11
7479.0187982514
 21
5180.6078470439
 31
0.0
  0
LINE
  5
1D8
330
1F
100
AcDbEntity
  8
0
  6
Continuous
 62
     7
100
AcDbLine
 10
7479.0187982514
 20
5402.2978405595
 30
0.0
 11
7479.0187982514
 21
5403.9478405506
 31
0.0
  0
LINE
  5
1D9
330
1F
100
AcDbEntity
  8
0
  6
Continuous
 62
     7
100
AcDbLine
 10
7479.0187982514
 20
5403.9478405506
 30
0.0
 11
7482.1187166169
 21
5403.9478405506
 31
0.0
  0
LINE
  5
1DA
330
1F
100
AcDbEntity
  8
0
  6
Continuous
 62
     7
100
AcDbLine
 10
7524.0187553361
 20
5426.7578414768
 30
0.0
 11
7522.0187810853
 21
5426.7578414768
 31
0.0
  0
LINE
  5
1DB
330
1F
100
AcDbEntity
  8
0
  6
Continuous
 62
     7
100
AcDbLine
 10
7524.0187553361
 20
5426.7578414768
 30
0.0
 11
7524.0187553361
 21
5403.9578410924
 31
0.0
  0
LINE
  5
1DC
330
1F
100
AcDbEntity
  8
0
  6
Continuous
 62
     7
100
AcDbLine
 10
7524.0187553361
 20
5403.9578410924
 30
0.0
 11
7522.0187810853
 21
5403.9578410924
 31
0.0
  0
LINE
  5
1DD
330
1F
100
AcDbEntity
  8
0
  6
Continuous
 62
     7
100
AcDbLine
 10
7522.0187810853
 20
5426.7578414768
 30
0.0
 11
7522.0187810853
 21
5403.9578410924
 31
0.0
  0
LINE
  5
1DE
330
1F
100
AcDbEntity
  8
0
  6
Continuous
 62
     7
100
AcDbLine
 10
7524.0187553361
 20
5428.9578414649
 30
0.0
 11
7522.0187810853
 21
5428.9578414649
 31
0.0
  0
LINE
  5
1DF
330
1F
100
AcDbEntity
  8
0
  6
Continuous
 62
     7
100
AcDbLine
 10
7524.0187553361
 20
5428.9578414649
 30
0.0
 11
7524.0187553361
 21
5426.7578414768
 31
0.0
  0
LINE
  5
1E0
330
1F
100
AcDbEntity
  8
0
  6
Continuous
 62
     7
100
AcDbLine
 10
7522.0187810853
 20
5428.9578414649
 30
0.0
 11
7522.0187810853
 21
5426.7578414768
 31
0.0
  0
LINE
  5
1E1
330
1F
100
AcDbEntity
  8
0
  6
Continuous
 62
     7
100
AcDbLine
 10
7524.0187553361
 20
5403.9578410924
 30
0.0
 11
7524.0187553361
 21
5403.9478405506
 31
0.0
  0
LINE
  5
1E2
330
1F
100
AcDbEntity
  8
0
  6
Continuous
 62
     7
100
AcDbLine
 10
7522.0187810853
 20
5403.9578410924
 30
0.0
 11
7522.0187810853
 21
5403.9478405506
 31
0.0
  0
LINE
  5
1E3
330
1F
100
AcDbEntity
  8
0
  6
Continuous
 62
     7
100
AcDbLine
 10
7524.0187553361
 20
5838.7004054278
 30
0.0
 11
7522.0187810853
 21
5838.7004054278
 31
0.0
  0
LINE
  5
1E4
330
1F
100
AcDbEntity
  8
0
  6
Continuous
 62
     7
100
AcDbLine
 10
7524.0187553361
 20
5836.5484989375
 30
0.0
 11
7522.0187810853
 21
5836.5484989375
 31
0.0
  0
LINE
  5
1E5
330
1F
100
AcDbEntity
  8
0
  6
Continuous
 62
     7
100
AcDbLine
 10
7524.0187553361
 20
5838.7004054278
 30
0.0
 11
7524.0187553361
 21
5836.5484989375
 31
0.0
  0
LINE
  5
1E6
330
1F
100
AcDbEntity
  8
0
  6
Continuous
 62
     7
100
AcDbLine
 10
7522.0187810853
 20
5838.7004054278
 30
0.0
 11
7522.0187810853
 21
5836.5484989375
 31
0.0
  0
LINE
  5
1E7
330
1F
100
AcDbEntity
  8
0
  6
Continuous
 62
     7
100
AcDbLine
 10
7524.0187553361
 20
5836.5484989375
 30
0.0
 11
7524.0187553361
 21
5428.9578414649
 31
0.0
  0
LINE
  5
1E8
330
1F
100
AcDbEntity
  8
0
  6
Continuous
 62
     7
100
AcDbLine
 10
7522.0187810853
 20
5836.5484989375
 30
0.0
 11
7522.0187810853
 21
5428.9578414649
 31
0.0
  0
LINE
  5
1E9
330
1F
100
AcDbEntity
  8
0
  6
Continuous
 62
     7
100
AcDbLine
 10
7524.0187553361
 20
5848.3929849357
 30
0.0
 11
7522.0187810853
 21
5848.3929849357
 31
0.0
  0
LINE
  5
1EA
330
1F
100
AcDbEntity
  8
0
  6
Continuous
 62
     7
100
AcDbLine
 10
7524.0187553361
 20
5848.3929849357
 30
0.0
 11
7524.0187553361
 21
5838.7004054278
 31
0.0
  0
LINE
  5
1EB
330
1F
100
AcDbEntity
  8
0
  6
Continuous
 62
     7
100
AcDbLine
 10
7522.0187810853
 20
5848.3929849357
 30
0.0
 11
7522.0187810853
 21
5838.7004054278
 31
0.0
  0
LINE
  5
1EC
330
1F
100
AcDbEntity
  8
0
  6
Continuous
 62
     7
100
AcDbLine
 10
7524.0187553361
 20
5848.4410560817
 30
0.0
 11
7524.0187553361
 21
5848.3929849357
 31
0.0
  0
LINE
  5
1ED
330
1F
100
AcDbEntity
  8
0
  6
Continuous
 62
     7
100
AcDbLine
 10
7522.0187810853
 20
5848.4410560817
 30
0.0
 11
7522.0187810853
 21
5848.3929849357
 31
0.0
  0
LINE
  5
1EE
330
1F
100
AcDbEntity
  8
0
  6
Continuous
 62
     7
100
AcDbLine
 10
5027.1187929109
 20
5178.9578414649
 30
0.0
 11
5027.1187929109
 21
5403.9478405506
 31
0.0
  0
LINE
  5
1EF
330
1F
100
AcDbEntity
  8
0
  6
Continuous
 62
     7
100
AcDbLine
 10
5027.1187929109
 20
5178.9578414649
 30
0.0
 11
5024.0187553361
 21
5178.9578414649
 31
0.0
  0
LINE
  5
1F0
330
1F
100
AcDbEntity
  8
0
  6
Continuous
 62
     7
100
AcDbLine
 10
5024.0187553361
 20
5178.9578414649
 30
0.0
 11
5024.0187553361
 21
5403.9478405506
 31
0.0
  0
LINE
  5
1F1
330
1F
100
AcDbEntity
  8
0
  6
Continuous
 62
     7
100
AcDbLine
 10
5024.0187553361
 20
5403.9478405506
 30
0.0
 11
5027.1187929109
 21
5403.9478405506
 31
0.0
  0
LINE
  5
1F2
330
1F
100
AcDbEntity
  8
0
  6
Continuous
 62
     7
100
AcDbLine
 10
5065.9187940553
 20
5178.9578414649
 30
0.0
 11
5065.9187940553
 21
5403.9478405506
 31
0.0
  0
LINE
  5
1F3
330
1F
100
AcDbEntity
  8
0
  6
Continuous
 62
     7
100
AcDbLine
 10
5065.9187940553
 20
5178.9578414649
 30
0.0
 11
5027.1187929109
 21
5178.9578414649
 31
0.0
  0
LINE
  5
1F4
330
1F
100
AcDbEntity
  8
0
  6
Continuous
 62
     7
100
AcDbLine
 10
5027.1187929109
 20
5403.9478405506
 30
0.0
 11
5065.9187940553
 21
5403.9478405506
 31
0.0
  0
LINE
  5
1F5
330
1F
100
AcDbEntity
  8
0
  6
Continuous
 62
     7
100
AcDbLine
 10
5065.9187940553
 20
5178.9578414649
 30
0.0
 11
5069.0187124208
 21
5178.9578414649
 31
0.0
  0
LINE
  5
1F6
330
1F
100
AcDbEntity
  8
0
  6
Continuous
 62
     7
100
AcDbLine
 10
5069.0187124208
 20
5403.9478405506
 30
0.0
 11
5065.9187940553
 21
5403.9478405506
 31
0.0
  0
LINE
  5
1F7
330
1F
100
AcDbEntity
  8
0
  6
Continuous
 62
     7
100
AcDbLine
 10
5069.0187124208
 20
5178.9578414649
 30
0.0
 11
5069.0187124208
 21
5180.6078470439
 31
0.0
  0
LINE
  5
1F8
330
1F
100
AcDbEntity
  8
0
  6
Continuous
 62
     7
100
AcDbLine
 10
5069.0187124208
 20
5402.2978405595
 30
0.0
 11
5069.0187124208
 21
5403.9478405506
 31
0.0
  0
LINE
  5
1F9
330
1F
100
AcDbEntity
  8
0
  6
Continuous
 62
     7
100
AcDbLine
 10
5024.0187553361
 20
5426.7578414768
 30
0.0
 11
5026.0187295869
 21
5426.7578414768
 31
0.0
  0
LINE
  5
1FA
330
1F
100
AcDbEntity
  8
0
  6
Continuous
 62
     7
100
AcDbLine
 10
5024.0187553361
 20
5428.9578414649
 30
0.0
 11
5024.0187553361
 21
5426.7578414768
 31
0.0
  0
LINE
  5
1FB
330
1F
100
AcDbEntity
  8
0
  6
Continuous
 62
     7
100
AcDbLine
 10
5024.0187553361
 20
5428.9578414649
 30
0.0
 11
5026.0187295869
 21
5428.9578414649
 31
0.0
  0
LINE
  5
1FC
330
1F
100
AcDbEntity
  8
0
  6
Continuous
 62
     7
100
AcDbLine
 10
5026.0187295869
 20
5428.9578414649
 30
0.0
 11
5026.0187295869
 21
5426.7578414768
 31
0.0
  0
LINE
  5
1FD
330
1F
100
AcDbEntity
  8
0
  6
Continuous
 62
     7
100
AcDbLine
 10
5024.0187553361
 20
5403.9578410924
 30
0.0
 11
5026.0187295869
 21
5403.9578410924
 31
0.0
  0
LINE
  5
1FE
330
1F
100
AcDbEntity
  8
0
  6
Continuous
 62
     7
100
AcDbLine
 10
5024.0187553361
 20
5426.7578414768
 30
0.0
 11
5024.0187553361
 21
5403.9578410924
 31
0.0
  0
LINE
  5
1FF
330
1F
100
AcDbEntity
  8
0
  6
Continuous
 62
     7
100
AcDbLine
 10
5026.0187295869
 20
5426.7578414768
 30
0.0
 11
5026.0187295869
 21
5403.9578410924
 31
0.0
  0
LINE
  5
200
330
1F
100
AcDbEntity
  8
0
  6
Continuous
 62
     7
100
AcDbLine
 10
5024.0187553361
 20
5403.9578410924
 30
0.0
 11
5024.0187553361
 21
5403.9478405506
 31
0.0
  0
LINE
  5
201
330
1F
100
AcDbEntity
  8
0
  6
Continuous
 62
     7
100
AcDbLine
 10
5026.0187295869
 20
5403.9578410924
 30
0.0
 11
5026.0187295869
 21
5403.9478405506
 31
0.0
  0
LINE
  5
202
330
1F
100
AcDbEntity
  8
0
  6
Continuous
 62
     7
100
AcDbLine
 10
5024.0187553361
 20
5836.5484989375
 30
0.0
 11
5026.0187295869
 21
5836.5484989375
 31
0.0
  0
LINE
  5
203
330
1F
100
AcDbEntity
  8
0
  6
Continuous
 62
     7
100
AcDbLine
 10
5024.0187553361
 20
5836.5484989375
 30
0.0
 11
5024.0187553361
 21
5428.9578414649
 31
0.0
  0
LINE
  5
204
330
1F
100
AcDbEntity
  8
0
  6
Continuous
 62
     7
100
AcDbLine
 10
5026.0187295869
 20
5836.5484989375
 30
0.0
 11
5026.0187295869
 21
5428.9578414649
 31
0.0
  0
LINE
  5
205
330
1F
100
AcDbEntity
  8
0
  6
Continuous
 62
     7
100
AcDbLine
 10
5024.0187553361
 20
5838.7004054278
 30
0.0
 11
5026.0187295869
 21
5838.7004054278
 31
0.0
  0
LINE
  5
206
330
1F
100
AcDbEntity
  8
0
  6
Continuous
 62
     7
100
AcDbLine
 10
5024.0187553361
 20
5838.7004054278
 30
0.0
 11
5024.0187553361
 21
5836.5484989375
 31
0.0
  0
LINE
  5
207
330
1F
100
AcDbEntity
  8
0
  6
Continuous
 62
     7
100
AcDbLine
 10
5026.0187295869
 20
5838.7004054278
 30
0.0
 11
5026.0187295869
 21
5836.5484989375
 31
0.0
  0
LINE
  5
208
330
1F
100
AcDbEntity
  8
0
  6
Continuous
 62
     7
100
AcDbLine
 10
5024.0187553361
 20
5848.3929849357
 30
0.0
 11
5026.0187295869
 21
5848.3929849357
 31
0.0
  0
LINE
  5
209
330
1F
100
AcDbEntity
  8
0
  6
Continuous
 62
     7
100
AcDbLine
 10
5024.0187553361
 20
5848.3929849357
 30
0.0
 11
5024.0187553361
 21
5838.7004054278
 31
0.0
  0
LINE
  5
20A
330
1F
100
AcDbEntity
  8
0
  6
Continuous
 62
     7
100
AcDbLine
 10
5026.0187295869
 20
5848.3929849357
 30
0.0
 11
5026.0187295869
 21
5838.7004054278
 31
0.0
  0
LINE
  5
20B
330
1F
100
AcDbEntity
  8
0
  6
Continuous
 62
     7
100
AcDbLine
 10
5024.0187553361
 20
5848.4410560817
 30
0.0
 11
5024.0187553361
 21
5848.3929849357
 31
0.0
  0
LINE
  5
20C
330
1F
100
AcDbEntity
  8
0
  6
Continuous
 62
     7
100
AcDbLine
 10
5026.0187295869
 20
5848.4410560817
 30
0.0
 11
5026.0187295869
 21
5848.3929849357
 31
0.0
  0
LINE
  5
20D
330
1F
100
AcDbEntity
  8
0
  6
Continuous
 62
     7
100
AcDbLine
 10
7522.0187810853
 20
5428.9578414649
 30
0.0
 11
5026.0187295869
 21
5428.9578414649
 31
0.0
  0
LINE
  5
20E
330
1F
100
AcDbEntity
  8
0
  6
Continuous
 62
     7
100
AcDbLine
 10
5026.0187295869
 20
5426.7578414768
 30
0.0
 11
7522.0187810853
 21
5426.7578414768
 31
0.0
  0
LINE
  5
20F
330
1F
100
AcDbEntity
  8
0
  6
Continuous
 62
     7
100
AcDbLine
 10
5026.0187295869
 20
5403.9578410924
 30
0.0
 11
7522.0187810853
 21
5403.9578410924
 31
0.0
  0
LINE
  5
210
330
1F
100
AcDbEntity
  8
0
  6
Continuous
 62
     7
100
AcDbLine
 10
5026.0187295869
 20
5836.5484989375
 30
0.0
 11
7522.0187810853
 21
5836.5484989375
 31
0.0
  0
LINE
  5
211
330
1F
100
AcDbEntity
  8
0
  6
Continuous
 62
     7
100
AcDbLine
 10
7522.0187810853
 20
5838.7004054278
 30
0.0
 11
5026.0187295869
 21
5838.7004054278
 31
0.0
  0
LINE
  5
212
330
1F
100
AcDbEntity
  8
0
  6
Continuous
 62
     7
100
AcDbLine
 10
5026.0187295869
 20
5848.3929849357
 30
0.0
 11
7522.0187810853
 21
5848.3929849357
 31
0.0
  0
LINE
  5
213
330
1F
100
AcDbEntity
  8
0
  6
Continuous
 62
     7
100
AcDbLine
 10
5142.5187496141
 20
5100.9419179648
 30
0.0
 11
5210.5187086061
 21
5100.9419179648
 31
0.0
  0
LINE
  5
214
330
1F
100
AcDbEntity
  8
0
  6
Continuous
 62
     7
100
AcDbLine
 10
5152.1891263917
 20
5160.941920349
 30
0.0
 11
5200.8484510377
 21
5160.941920349
 31
0.0
  0
LINE
  5
215
330
1F
100
AcDbEntity
  8
0
  6
Continuous
 62
     7
100
AcDbLine
 10
5152.3969081834
 20
5030.9419251174
 30
0.0
 11
5200.6405500367
 21
5030.9419251174
 31
0.0
  0
LINE
  5
216
330
1F
100
AcDbEntity
  8
0
  6
Continuous
 62
     7
100
AcDbLine
 10
5153.5187868074
 20
5167.4419260711
 30
0.0
 11
5199.518790622
 21
5167.4419260711
 31
0.0
  0
LINE
  5
217
330
1F
100
AcDbEntity
  8
0
  6
Continuous
 62
     7
100
AcDbLine
 10
5151.5188125566
 20
5163.4419179648
 30
0.0
 11
5201.5187648728
 21
5163.4419179648
 31
0.0
  0
LINE
  5
218
330
1F
100
AcDbEntity
  8
0
  6
Continuous
 62
     7
100
AcDbLine
 10
5156.5188077882
 20
5177.4419165343
 30
0.0
 11
5196.5187696412
 21
5177.4419165343
 31
0.0
  0
LINE
  5
219
330
1F
100
AcDbEntity
  8
0
  6
Continuous
 62
     7
100
AcDbLine
 10
5193.0187849
 20
5160.941920349
 30
0.0
 11
5192.5187019303
 21
5161.3081908912
 31
0.0
  0
LINE
  5
21A
330
1F
100
AcDbEntity
  8
0
  6
Continuous
 62
     7
100
AcDbLine
 10
5160.5187562898
 20
5161.3081908912
 30
0.0
 11
5160.0187925294
 21
5160.941920349
 31
0.0
  0
LINE
  5
21B
330
1F
100
AcDbEntity
  8
0
  6
Continuous
 62
     7
100
AcDbLine
 10
6581.5687684014
 20
5542.9578415245
 30
0.0
 11
6566.4687661126
 21
5542.9578415245
 31
0.0
  0
LINE
  5
21C
330
1F
100
AcDbEntity
  8
0
  6
Continuous
 62
     7
100
AcDbLine
 10
6581.5687684014
 20
5532.3578409046
 30
0.0
 11
6566.4687661126
 21
5532.3578409046
 31
0.0
  0
LINE
  5
21D
330
1F
100
AcDbEntity
  8
0
  6
Continuous
 62
     7
100
AcDbLine
 10
5981.5687445596
 20
5542.9578415245
 30
0.0
 11
5966.4687422708
 21
5542.9578415245
 31
0.0
  0
LINE
  5
21E
330
1F
100
AcDbEntity
  8
0
  6
Continuous
 62
     7
100
AcDbLine
 10
5981.5687445596
 20
5532.3578409046
 30
0.0
 11
5966.4687422708
 21
5532.3578409046
 31
0.0
  0
LINE
  5
21F
330
1F
100
AcDbEntity
  8
0
  6
Continuous
 62
     7
100
AcDbLine
 10
5381.5687803224
 20
5542.9578415245
 30
0.0
 11
5366.4687780335
 21
5542.9578415245
 31
0.0
  0
LINE
  5
220
330
1F
100
AcDbEntity
  8
0
  6
Continuous
 62
     7
100
AcDbLine
 10
5381.5687803224
 20
5532.3578409046
 30
0.0
 11
5366.4687780335
 21
5532.3578409046
 31
0.0
  0
LINE
  5
221
330
1F
100
AcDbEntity
  8
0
  6
Continuous
 62
     7
100
AcDbLine
 10
7181.5687326387
 20
5542.9578415245
 30
0.0
 11
7166.4687303498
 21
5542.9578415245
 31
0.0
  0
LINE
  5
222
330
1F
100
AcDbEntity
  8
0
  6
Continuous
 62
     7
100
AcDbLine
 10
7181.5687326387
 20
5532.3578409046
 30
0.0
 11
7166.4687303498
 21
5532.3578409046
 31
0.0
  0
LINE
  5
223
330
1F
100
AcDbEntity
  8
0
  6
Continuous
 62
     7
100
AcDbLine
 10
5381.5187720254
 20
5543.2578391522
 30
0.0
 11
5366.5187267259
 21
5543.2578391522
 31
0.0
  0
LINE
  5
224
330
1F
100
AcDbEntity
  8
0
  6
Continuous
 62
     7
100
AcDbLine
 10
5366.5187267259
 20
5532.2578392119
 30
0.0
 11
5381.5187720254
 21
5532.2578392119
 31
0.0
  0
LINE
  5
225
330
1F
100
AcDbEntity
  8
0
  6
Continuous
 62
     7
100
AcDbLine
 10
7181.5187839463
 20
5543.2578391522
 30
0.0
 11
7166.5187386468
 21
5543.2578391522
 31
0.0
  0
LINE
  5
226
330
1F
100
AcDbEntity
  8
0
  6
Continuous
 62
     7
100
AcDbLine
 10
7166.5187386468
 20
5532.2578392119
 30
0.0
 11
7181.5187839463
 21
5532.2578392119
 31
0.0
  0
LINE
  5
227
330
1F
100
AcDbEntity
  8
0
  6
Continuous
 62
     7
100
AcDbLine
 10
5981.5187660649
 20
5543.2578391522
 30
0.0
 11
5966.5187505677
 21
5543.2578391522
 31
0.0
  0
LINE
  5
228
330
1F
100
AcDbEntity
  8
0
  6
Continuous
 62
     7
100
AcDbLine
 10
5966.5187505677
 20
5532.2578392119
 30
0.0
 11
5981.5187660649
 21
5532.2578392119
 31
0.0
  0
LINE
  5
229
330
1F
100
AcDbEntity
  8
0
  6
Continuous
 62
     7
100
AcDbLine
 10
6581.5187601045
 20
5543.2578391522
 30
0.0
 11
6566.5187446073
 21
5543.2578391522
 31
0.0
  0
LINE
  5
22A
330
1F
100
AcDbEntity
  8
0
  6
Continuous
 62
     7
100
AcDbLine
 10
6566.5187446073
 20
5532.2578392119
 30
0.0
 11
6581.5187601045
 21
5532.2578392119
 31
0.0
  0
LINE
  5
22B
330
1F
100
AcDbEntity
  8
0
  6
Continuous
 62
     7
100
AcDbLine
 10
5388.0187777474
 20
5178.8578546733
 30
0.0
 11
5388.0187777474
 21
5178.9578414649
 31
0.0
  0
LINE
  5
22C
330
1F
100
AcDbEntity
  8
0
  6
Continuous
 62
     7
100
AcDbLine
 10
5360.0187806085
 20
5178.8578546733
 30
0.0
 11
5360.0187806085
 21
5178.9578414649
 31
0.0
  0
LINE
  5
22D
330
1F
100
AcDbEntity
  8
0
  6
Continuous
 62
     7
100
AcDbLine
 10
5388.0187777474
 20
5178.8578546733
 30
0.0
 11
5360.0187806085
 21
5178.8578546733
 31
0.0
  0
LINE
  5
22E
330
1F
100
AcDbEntity
  8
0
  6
Continuous
 62
     7
100
AcDbLine
 10
7160.0187329248
 20
5178.8578546733
 30
0.0
 11
7160.0187329248
 21
5178.9578414649
 31
0.0
  0
LINE
  5
22F
330
1F
100
AcDbEntity
  8
0
  6
Continuous
 62
     7
100
AcDbLine
 10
7188.0187300637
 20
5178.8578546733
 30
0.0
 11
7160.0187329248
 21
5178.8578546733
 31
0.0
  0
LINE
  5
230
330
1F
100
AcDbEntity
  8
0
  6
Continuous
 62
     7
100
AcDbLine
 10
7188.0187300637
 20
5178.8578546733
 30
0.0
 11
7188.0187300637
 21
5178.9578414649
 31
0.0
  0
LINE
  5
231
330
1F
100
AcDbEntity
  8
0
  6
Continuous
 62
     7
100
AcDbLine
 10
5988.0187419847
 20
5178.8578546733
 30
0.0
 11
5988.0187419847
 21
5178.9578414649
 31
0.0
  0
LINE
  5
232
330
1F
100
AcDbEntity
  8
0
  6
Continuous
 62
     7
100
AcDbLine
 10
5960.0187448457
 20
5178.8578546733
 30
0.0
 11
5960.0187448457
 21
5178.9578414649
 31
0.0
  0
LINE
  5
233
330
1F
100
AcDbEntity
  8
0
  6
Continuous
 62
     7
100
AcDbLine
 10
5988.0187419847
 20
5178.8578546733
 30
0.0
 11
5960.0187448457
 21
5178.8578546733
 31
0.0
  0
LINE
  5
234
330
1F
100
AcDbEntity
  8
0
  6
Continuous
 62
     7
100
AcDbLine
 10
6560.0187686875
 20
5178.8578546733
 30
0.0
 11
6560.0187686875
 21
5178.9578414649
 31
0.0
  0
LINE
  5
235
330
1F
100
AcDbEntity
  8
0
  6
Continuous
 62
     7
100
AcDbLine
 10
6588.0187658265
 20
5178.8578546733
 30
0.0
 11
6588.0187658265
 21
5178.9578414649
 31
0.0
  0
LINE
  5
236
330
1F
100
AcDbEntity
  8
0
  6
Continuous
 62
     7
100
AcDbLine
 10
6588.0187658265
 20
5178.8578546733
 30
0.0
 11
6560.0187686875
 21
5178.8578546733
 31
0.0
  0
LINE
  5
237
330
1F
100
AcDbEntity
  8
0
  6
Continuous
 62
     7
100
AcDbLine
 10
5375.5187300637
 20
5724.9578452796
 30
0.0
 11
5372.5187686875
 21
5724.9578452796
 31
0.0
  0
LINE
  5
238
330
1F
100
AcDbEntity
  8
0
  6
Continuous
 62
     7
100
AcDbLine
 10
6575.5187479451
 20
5724.9578452796
 30
0.0
 11
6572.5187567666
 21
5724.9578452796
 31
0.0
  0
LINE
  5
239
330
1F
100
AcDbEntity
  8
0
  6
Continuous
 62
     7
100
AcDbLine
 10
5975.5187539056
 20
5724.9578452796
 30
0.0
 11
5972.5187627271
 21
5724.9578452796
 31
0.0
  0
LINE
  5
23A
330
1F
100
AcDbEntity
  8
0
  6
Continuous
 62
     7
100
AcDbLine
 10
7175.5187419847
 20
5724.9578452796
 30
0.0
 11
7172.5187806085
 21
5724.9578452796
 31
0.0
  0
LINE
  5
23B
330
1F
100
AcDbEntity
  8
0
  6
Continuous
 62
     7
100
AcDbLine
 10
5380.7613161996
 20
5729.5219219417
 30
0.0
 11
5380.7613161996
 21
5728.5559988708
 31
0.0
  0
LINE
  5
23C
330
1F
100
AcDbEntity
  8
0
  6
Continuous
 62
     7
100
AcDbLine
 10
5383.264234443
 20
5730.8736956805
 30
0.0
 11
5383.264234443
 21
5730.2699900359
 31
0.0
  0
LINE
  5
23D
330
1F
100
AcDbEntity
  8
0
  6
Continuous
 62
     7
100
AcDbLine
 10
5382.1760324433
 20
5731.6354132384
 30
0.0
 11
5382.1760324433
 21
5731.3237405509
 31
0.0
  0
LINE
  5
23E
330
1F
100
AcDbEntity
  8
0
  6
Continuous
 62
     7
100
AcDbLine
 10
5380.3512362435
 20
5732.1560896129
 30
0.0
 11
5380.3512362435
 21
5731.9400525779
 31
0.0
  0
LINE
  5
23F
330
1F
100
AcDbEntity
  8
0
  6
Continuous
 62
     7
100
AcDbLine
 10
5376.7028955415
 20
5732.6545632571
 30
0.0
 11
5376.7028955415
 21
5732.486031124
 31
0.0
  0
LINE
  5
240
330
1F
100
AcDbEntity
  8
0
  6
Continuous
 62
     7
100
AcDbLine
 10
5373.7288025811
 20
5732.7496922702
 30
0.0
 11
5373.7288025811
 21
5732.5878656596
 31
0.0
  0
LINE
  5
241
330
1F
100
AcDbEntity
  8
0
  6
Continuous
 62
     7
100
AcDbLine
 10
5369.6574477151
 20
5732.4880278796
 30
0.0
 11
5369.6574477151
 21
5732.3062337131
 31
0.0
  0
LINE
  5
242
330
1F
100
AcDbEntity
  8
0
  6
Continuous
 62
     7
100
AcDbLine
 10
5367.2762421563
 20
5732.0623017043
 30
0.0
 11
5367.2762421563
 21
5731.8339265079
 31
0.0
  0
LINE
  5
243
330
1F
100
AcDbEntity
  8
0
  6
Continuous
 62
     7
100
AcDbLine
 10
5365.1667741731
 20
5731.3277936668
 30
0.0
 11
5365.1667741731
 21
5730.8896697253
 31
0.0
  0
LINE
  5
244
330
1F
100
AcDbEntity
  8
0
  6
Continuous
 62
     7
100
AcDbLine
 10
5365.8614663079
 20
5730.0320780963
 30
0.0
 11
5365.8614663079
 21
5729.0661550254
 31
0.0
  0
LINE
  5
245
330
1F
100
AcDbEntity
  8
0
  6
Continuous
 62
     7
100
AcDbLine
 10
5371.3346032098
 20
5728.8698173255
 30
0.0
 11
5371.3346032098
 21
5727.9038942546
 31
0.0
  0
LINE
  5
246
330
1F
100
AcDbEntity
  8
0
  6
Continuous
 62
     7
100
AcDbLine
 10
5367.470434089
 20
5729.8620856494
 30
0.0
 11
5366.5701655343
 21
5730.2428401202
 31
0.0
  0
LINE
  5
247
330
1F
100
AcDbEntity
  8
0
  6
Continuous
 62
     7
100
AcDbLine
 10
5366.5701655343
 20
5730.2428401202
 30
0.0
 11
5365.9954575494
 21
5730.6637383193
 31
0.0
  0
LINE
  5
248
330
1F
100
AcDbEntity
  8
0
  6
Continuous
 62
     7
100
AcDbLine
 10
5365.9954575494
 20
5730.6637383193
 30
0.0
 11
5365.7714632943
 21
5731.1063326091
 31
0.0
  0
LINE
  5
249
330
1F
100
AcDbEntity
  8
0
  6
Continuous
 62
     7
100
AcDbLine
 10
5365.7714632943
 20
5731.1063326091
 30
0.0
 11
5365.9078387216
 21
5731.551340887
 31
0.0
  0
LINE
  5
24A
330
1F
100
AcDbEntity
  8
0
  6
Continuous
 62
     7
100
AcDbLine
 10
5365.9078387216
 20
5731.551340887
 30
0.0
 11
5366.0352734521
 21
5731.6992200107
 31
0.0
  0
LINE
  5
24B
330
1F
100
AcDbEntity
  8
0
  6
Continuous
 62
     7
100
AcDbLine
 10
5382.193377395
 20
5731.448820898
 30
0.0
 11
5382.2660354569
 21
5731.2154389113
 31
0.0
  0
LINE
  5
24C
330
1F
100
AcDbEntity
  8
0
  6
Continuous
 62
     7
100
AcDbLine
 10
5382.2660354569
 20
5731.2154389113
 30
0.0
 11
5382.1296600297
 21
5730.7704306335
 31
0.0
  0
LINE
  5
24D
330
1F
100
AcDbEntity
  8
0
  6
Continuous
 62
     7
100
AcDbLine
 10
5382.1296600297
 20
5730.7704306335
 30
0.0
 11
5381.6387561753
 21
5730.3424990863
 31
0.0
  0
LINE
  5
24E
330
1F
100
AcDbEntity
  8
0
  6
Continuous
 62
     7
100
AcDbLine
 10
5381.6387561753
 20
5730.3424990863
 30
0.0
 11
5380.8148411706
 21
5729.9503601283
 31
0.0
  0
LINE
  5
24F
330
1F
100
AcDbEntity
  8
0
  6
Continuous
 62
     7
100
AcDbLine
 10
5380.8148411706
 20
5729.9503601283
 30
0.0
 11
5380.4615048364
 21
5729.8271871299
 31
0.0
  0
LINE
  5
250
330
1F
100
AcDbEntity
  8
0
  6
Continuous
 62
     7
100
AcDbLine
 10
5367.7926567987
 20
5729.7599530906
 30
0.0
 11
5367.470434089
 21
5729.8620856494
 31
0.0
  0
LINE
  5
251
330
1F
100
AcDbEntity
  8
0
  6
Continuous
 62
     7
100
AcDbLine
 10
5382.7614692643
 20
5731.2531388492
 30
0.0
 11
5383.0233124688
 21
5731.2441683501
 31
0.0
  0
LINE
  5
252
330
1F
100
AcDbEntity
  8
0
  6
Continuous
 62
     7
100
AcDbLine
 10
5380.7613161996
 20
5729.5219219417
 30
0.0
 11
5380.4528621629
 21
5729.6260810584
 31
0.0
  0
LINE
  5
253
330
1F
100
AcDbEntity
  8
0
  6
Continuous
 62
     7
100
AcDbLine
 10
5371.4011219934
 20
5728.999934265
 30
0.0
 11
5371.3346032098
 21
5728.8698173255
 31
0.0
  0
LINE
  5
254
330
1F
100
AcDbEntity
  8
0
  6
Continuous
 62
     7
100
AcDbLine
 10
5365.8614663079
 20
5730.0320780963
 30
0.0
 11
5366.2639764741
 21
5730.111918518
 31
0.0
  0
LINE
  5
255
330
1F
100
AcDbEntity
  8
0
  6
Continuous
 62
     7
100
AcDbLine
 10
5366.5187267259
 20
5731.2372542113
 30
0.0
 11
5365.9954575494
 21
5731.6296613902
 31
0.0
  0
LINE
  5
256
330
1F
100
AcDbEntity
  8
0
  6
Continuous
 62
     7
100
AcDbLine
 10
5365.9954575494
 20
5731.6296613902
 30
0.0
 11
5365.958443065
 21
5731.6715336532
 31
0.0
  0
LINE
  5
257
330
1F
100
AcDbEntity
  8
0
  6
Continuous
 62
     7
100
AcDbLine
 10
5381.6384581521
 20
5731.3082433433
 30
0.0
 11
5381.5187720254
 21
5731.2372542113
 31
0.0
  0
LINE
  5
258
330
1F
100
AcDbEntity
  8
0
  6
Continuous
 62
     7
100
AcDbLine
 10
5376.6363767579
 20
5732.3559141845
 30
0.0
 11
5376.7028955415
 21
5732.486031124
 31
0.0
  0
LINE
  5
259
330
1F
100
AcDbEntity
  8
0
  6
Continuous
 62
     7
100
AcDbLine
 10
5373.6623434022
 20
5732.4577487201
 30
0.0
 11
5373.7288025811
 21
5732.5878656596
 31
0.0
  0
LINE
  5
25A
330
1F
100
AcDbEntity
  8
0
  6
Continuous
 62
     7
100
AcDbLine
 10
5368.0657056764
 20
5729.9801624507
 30
0.0
 11
5367.2242073014
 21
5730.3389824122
 31
0.0
  0
LINE
  5
25B
330
1F
100
AcDbEntity
  8
0
  6
Continuous
 62
     7
100
AcDbLine
 10
5367.2242073014
 20
5730.3389824122
 30
0.0
 11
5366.7004016831
 21
5730.7362473697
 31
0.0
  0
LINE
  5
25C
330
1F
100
AcDbEntity
  8
0
  6
Continuous
 62
     7
100
AcDbLine
 10
5366.7004016831
 20
5730.7362473697
 30
0.0
 11
5366.5187863305
 21
5731.1533606738
 31
0.0
  0
LINE
  5
25D
330
1F
100
AcDbEntity
  8
0
  6
Continuous
 62
     7
100
AcDbLine
 10
5366.5187863305
 20
5731.1533606738
 30
0.0
 11
5366.6878847077
 21
5731.5708018035
 31
0.0
  0
LINE
  5
25E
330
1F
100
AcDbEntity
  8
0
  6
Continuous
 62
     7
100
AcDbLine
 10
5366.6878847077
 20
5731.5708018035
 30
0.0
 11
5367.1997693971
 21
5731.9691098422
 31
0.0
  0
LINE
  5
25F
330
1F
100
AcDbEntity
  8
0
  6
Continuous
 62
     7
100
AcDbLine
 10
5367.1997693971
 20
5731.9691098422
 30
0.0
 11
5367.2762421563
 21
5732.0109821052
 31
0.0
  0
LINE
  5
260
330
1F
100
AcDbEntity
  8
0
  6
Continuous
 62
     7
100
AcDbLine
 10
5381.469836612
 20
5731.3822723121
 30
0.0
 11
5381.4715651467
 21
5731.3782489986
 31
0.0
  0
LINE
  5
261
330
1F
100
AcDbEntity
  8
0
  6
Continuous
 62
     7
100
AcDbLine
 10
5381.4715651467
 20
5731.3782489986
 30
0.0
 11
5381.4778832391
 21
5730.95851309
 31
0.0
  0
LINE
  5
262
330
1F
100
AcDbEntity
  8
0
  6
Continuous
 62
     7
100
AcDbLine
 10
5381.4778832391
 20
5730.95851309
 30
0.0
 11
5381.1353949502
 21
5730.5482245177
 31
0.0
  0
LINE
  5
263
330
1F
100
AcDbEntity
  8
0
  6
Continuous
 62
     7
100
AcDbLine
 10
5381.1353949502
 20
5730.5482245177
 30
0.0
 11
5380.4601339295
 21
5730.1665759772
 31
0.0
  0
LINE
  5
264
330
1F
100
AcDbEntity
  8
0
  6
Continuous
 62
     7
100
AcDbLine
 10
5380.4601339295
 20
5730.1665759772
 30
0.0
 11
5379.4836906388
 21
5729.831448862
 31
0.0
  0
LINE
  5
265
330
1F
100
AcDbEntity
  8
0
  6
Continuous
 62
     7
100
AcDbLine
 10
5379.4836906388
 20
5729.831448862
 30
0.0
 11
5378.251722236
 21
5729.5584595889
 31
0.0
  0
LINE
  5
266
330
1F
100
AcDbEntity
  8
0
  6
Continuous
 62
     7
100
AcDbLine
 10
5378.251722236
 20
5729.5584595889
 30
0.0
 11
5376.8218068078
 21
5729.3604231566
 31
0.0
  0
LINE
  5
267
330
1F
100
AcDbEntity
  8
0
  6
Continuous
 62
     7
100
AcDbLine
 10
5376.8218068078
 20
5729.3604231566
 30
0.0
 11
5375.2608207658
 21
5729.2465484828
 31
0.0
  0
LINE
  5
268
330
1F
100
AcDbEntity
  8
0
  6
Continuous
 62
     7
100
AcDbLine
 10
5375.2608207658
 20
5729.2465484828
 30
0.0
 11
5373.6417797998
 21
5729.2221999854
 31
0.0
  0
LINE
  5
269
330
1F
100
AcDbEntity
  8
0
  6
Continuous
 62
     7
100
AcDbLine
 10
5373.6417797998
 20
5729.2221999854
 30
0.0
 11
5372.0403818086
 21
5729.2884803504
 31
0.0
  0
LINE
  5
26A
330
1F
100
AcDbEntity
  8
0
  6
Continuous
 62
     7
100
AcDbLine
 10
5372.0403818086
 20
5729.2884803504
 30
0.0
 11
5370.5314306214
 21
5729.4423497409
 31
0.0
  0
LINE
  5
26B
330
1F
100
AcDbEntity
  8
0
  6
Continuous
 62
     7
100
AcDbLine
 10
5370.5314306214
 20
5729.4423497409
 30
0.0
 11
5369.1855577424
 21
5729.6765661925
 31
0.0
  0
LINE
  5
26C
330
1F
100
AcDbEntity
  8
0
  6
Continuous
 62
     7
100
AcDbLine
 10
5369.1855577424
 20
5729.6765661925
 30
0.0
 11
5368.0657056764
 21
5729.9801624507
 31
0.0
  0
LINE
  5
26D
330
1F
100
AcDbEntity
  8
0
  6
Continuous
 62
     7
100
AcDbLine
 10
5373.6623434022
 20
5732.7491260261
 30
0.0
 11
5373.6623434022
 21
5732.4577487201
 31
0.0
  0
LINE
  5
26E
330
1F
100
AcDbEntity
  8
0
  6
Continuous
 62
     7
100
AcDbLine
 10
5369.6574477151
 20
5732.3062337131
 30
0.0
 11
5369.9659017518
 21
5732.202044794
 31
0.0
  0
LINE
  5
26F
330
1F
100
AcDbEntity
  8
0
  6
Continuous
 62
     7
100
AcDbLine
 10
5367.2762421563
 20
5731.8339265079
 30
0.0
 11
5367.5846365884
 21
5731.7297673911
 31
0.0
  0
LINE
  5
270
330
1F
100
AcDbEntity
  8
0
  6
Continuous
 62
     7
100
AcDbLine
 10
5369.9659017518
 20
5732.5256086082
 30
0.0
 11
5369.9659017518
 21
5732.202044794
 31
0.0
  0
LINE
  5
271
330
1F
100
AcDbEntity
  8
0
  6
Continuous
 62
     7
100
AcDbLine
 10
5380.3512362435
 20
5731.9400525779
 30
0.0
 11
5379.948785682
 21
5731.8602121562
 31
0.0
  0
LINE
  5
272
330
1F
100
AcDbEntity
  8
0
  6
Continuous
 62
     7
100
AcDbLine
 10
5382.1760324433
 20
5731.3237405509
 30
0.0
 11
5381.7735222772
 21
5731.2439299316
 31
0.0
  0
LINE
  5
273
330
1F
100
AcDbEntity
  8
0
  6
Continuous
 62
     7
100
AcDbLine
 10
5379.948785682
 20
5732.2386420459
 30
0.0
 11
5379.948785682
 21
5731.8602121562
 31
0.0
  0
LINE
  5
274
330
1F
100
AcDbEntity
  8
0
  6
Continuous
 62
     7
100
AcDbLine
 10
5365.6694797471
 20
5731.5597153396
 30
0.0
 11
5365.6694797471
 21
5730.872443983
 31
0.0
  0
LINE
  5
275
330
1F
100
AcDbEntity
  8
0
  6
Continuous
 62
     7
100
AcDbLine
 10
5365.6694797471
 20
5730.872443983
 30
0.0
 11
5365.1667741731
 21
5730.8896697253
 31
0.0
  0
LINE
  5
276
330
1F
100
AcDbEntity
  8
0
  6
Continuous
 62
     7
100
AcDbLine
 10
5365.2760294869
 20
5730.1027096004
 30
0.0
 11
5364.7733239129
 21
5730.1199055404
 31
0.0
  0
LINE
  5
277
330
1F
100
AcDbEntity
  8
0
  6
Continuous
 62
     7
100
AcDbLine
 10
5365.2760294869
 20
5730.2872157783
 30
0.0
 11
5365.2760294869
 21
5730.1027096004
 31
0.0
  0
LINE
  5
278
330
1F
100
AcDbEntity
  8
0
  6
Continuous
 62
     7
100
AcDbLine
 10
5382.7614692643
 20
5731.2531388492
 30
0.0
 11
5382.7614692643
 21
5730.2872157783
 31
0.0
  0
LINE
  5
279
330
1F
100
AcDbEntity
  8
0
  6
Continuous
 62
     7
100
AcDbLine
 10
5382.7614692643
 20
5730.2872157783
 30
0.0
 11
5383.264234443
 21
5730.2699900359
 31
0.0
  0
LINE
  5
27A
330
1F
100
AcDbEntity
  8
0
  6
Continuous
 62
     7
100
AcDbLine
 10
5382.3680190042
 20
5729.5174515933
 30
0.0
 11
5382.8707245782
 21
5729.5002556533
 31
0.0
  0
LINE
  5
27B
330
1F
100
AcDbEntity
  8
0
  6
Continuous
 62
     7
100
AcDbLine
 10
5382.3680190042
 20
5730.4833746642
 30
0.0
 11
5382.3680190042
 21
5729.5174515933
 31
0.0
  0
LINE
  5
27C
330
1F
100
AcDbEntity
  8
0
  6
Continuous
 62
     7
100
AcDbLine
 10
5366.2639764741
 20
5730.111918518
 30
0.0
 11
5366.2639764741
 21
5729.1459954471
 31
0.0
  0
LINE
  5
27D
330
1F
100
AcDbEntity
  8
0
  6
Continuous
 62
     7
100
AcDbLine
 10
5365.8614663079
 20
5729.0661550254
 30
0.0
 11
5366.2639764741
 21
5729.1459954471
 31
0.0
  0
LINE
  5
27E
330
1F
100
AcDbEntity
  8
0
  6
Continuous
 62
     7
100
AcDbLine
 10
5367.6862625077
 20
5728.4498728007
 30
0.0
 11
5368.0887726739
 21
5728.5296834201
 31
0.0
  0
LINE
  5
27F
330
1F
100
AcDbEntity
  8
0
  6
Continuous
 62
     7
100
AcDbLine
 10
5368.0887726739
 20
5729.495606491
 30
0.0
 11
5368.0887726739
 21
5728.5296834201
 31
0.0
  0
LINE
  5
280
330
1F
100
AcDbEntity
  8
0
  6
Continuous
 62
     7
100
AcDbLine
 10
5380.4528621629
 20
5729.6260810584
 30
0.0
 11
5380.4528621629
 21
5728.6601579875
 31
0.0
  0
LINE
  5
281
330
1F
100
AcDbEntity
  8
0
  6
Continuous
 62
     7
100
AcDbLine
 10
5378.0716566041
 20
5729.1538036555
 30
0.0
 11
5378.0716566041
 21
5728.1878805846
 31
0.0
  0
LINE
  5
282
330
1F
100
AcDbEntity
  8
0
  6
Continuous
 62
     7
100
AcDbLine
 10
5380.7613161996
 20
5728.5559988708
 30
0.0
 11
5380.4528621629
 21
5728.6601579875
 31
0.0
  0
LINE
  5
283
330
1F
100
AcDbEntity
  8
0
  6
Continuous
 62
     7
100
AcDbLine
 10
5378.3800510362
 20
5728.0836916656
 30
0.0
 11
5378.0716566041
 21
5728.1878805846
 31
0.0
  0
LINE
  5
284
330
1F
100
AcDbEntity
  8
0
  6
Continuous
 62
     7
100
AcDbLine
 10
5371.4011219934
 20
5728.999934265
 30
0.0
 11
5371.4011219934
 21
5728.0340111941
 31
0.0
  0
LINE
  5
285
330
1F
100
AcDbEntity
  8
0
  6
Continuous
 62
     7
100
AcDbLine
 10
5374.3752149537
 20
5728.8980997294
 30
0.0
 11
5374.3752149537
 21
5727.9321766585
 31
0.0
  0
LINE
  5
286
330
1F
100
AcDbEntity
  8
0
  6
Continuous
 62
     7
100
AcDbLine
 10
5371.4011219934
 20
5728.0340111941
 30
0.0
 11
5371.3346032098
 21
5727.9038942546
 31
0.0
  0
LINE
  5
287
330
1F
100
AcDbEntity
  8
0
  6
Continuous
 62
     7
100
AcDbLine
 10
5374.3752149537
 20
5727.9321766585
 30
0.0
 11
5374.3086961701
 21
5727.802059719
 31
0.0
  0
LINE
  5
288
330
1F
100
AcDbEntity
  8
0
  6
Continuous
 62
     7
100
AcDbLine
 10
7180.7612685159
 20
5729.5219219417
 30
0.0
 11
7180.7612685159
 21
5728.5559988708
 31
0.0
  0
LINE
  5
289
330
1F
100
AcDbEntity
  8
0
  6
Continuous
 62
     7
100
AcDbLine
 10
7183.2641867593
 20
5730.8736956805
 30
0.0
 11
7183.2641867593
 21
5730.2699900359
 31
0.0
  0
LINE
  5
28A
330
1F
100
AcDbEntity
  8
0
  6
Continuous
 62
     7
100
AcDbLine
 10
7182.1760443643
 20
5731.6354132384
 30
0.0
 11
7182.1760443643
 21
5731.3237405509
 31
0.0
  0
LINE
  5
28B
330
1F
100
AcDbEntity
  8
0
  6
Continuous
 62
     7
100
AcDbLine
 10
7180.3512481645
 20
5732.1560896129
 30
0.0
 11
7180.3512481645
 21
5731.9400525779
 31
0.0
  0
LINE
  5
28C
330
1F
100
AcDbEntity
  8
0
  6
Continuous
 62
     7
100
AcDbLine
 10
7176.7029074624
 20
5732.6545632571
 30
0.0
 11
7176.7029074624
 21
5732.486031124
 31
0.0
  0
LINE
  5
28D
330
1F
100
AcDbEntity
  8
0
  6
Continuous
 62
     7
100
AcDbLine
 10
7173.7288145021
 20
5732.7496922702
 30
0.0
 11
7173.7288145021
 21
5732.5878656596
 31
0.0
  0
LINE
  5
28E
330
1F
100
AcDbEntity
  8
0
  6
Continuous
 62
     7
100
AcDbLine
 10
7169.657459636
 20
5732.4880278796
 30
0.0
 11
7169.657459636
 21
5732.3062337131
 31
0.0
  0
LINE
  5
28F
330
1F
100
AcDbEntity
  8
0
  6
Continuous
 62
     7
100
AcDbLine
 10
7167.2761944726
 20
5732.0623017043
 30
0.0
 11
7167.2761944726
 21
5731.8339265079
 31
0.0
  0
LINE
  5
290
330
1F
100
AcDbEntity
  8
0
  6
Continuous
 62
     7
100
AcDbLine
 10
7165.166786094
 20
5731.3277936668
 30
0.0
 11
7165.166786094
 21
5730.8896697253
 31
0.0
  0
LINE
  5
291
330
1F
100
AcDbEntity
  8
0
  6
Continuous
 62
     7
100
AcDbLine
 10
7165.8614782289
 20
5730.0320780963
 30
0.0
 11
7165.8614782289
 21
5729.0661550254
 31
0.0
  0
LINE
  5
292
330
1F
100
AcDbEntity
  8
0
  6
Continuous
 62
     7
100
AcDbLine
 10
7171.3346151307
 20
5728.8698173255
 30
0.0
 11
7171.3346151307
 21
5727.9038942546
 31
0.0
  0
LINE
  5
293
330
1F
100
AcDbEntity
  8
0
  6
Continuous
 62
     7
100
AcDbLine
 10
7167.4703864053
 20
5729.8620856494
 30
0.0
 11
7166.5701774552
 21
5730.2428401202
 31
0.0
  0
LINE
  5
294
330
1F
100
AcDbEntity
  8
0
  6
Continuous
 62
     7
100
AcDbLine
 10
7166.5701774552
 20
5730.2428401202
 30
0.0
 11
7165.9954694703
 21
5730.6637383193
 31
0.0
  0
LINE
  5
295
330
1F
100
AcDbEntity
  8
0
  6
Continuous
 62
     7
100
AcDbLine
 10
7165.9954694703
 20
5730.6637383193
 30
0.0
 11
7165.7714752153
 21
5731.1063326091
 31
0.0
  0
LINE
  5
296
330
1F
100
AcDbEntity
  8
0
  6
Continuous
 62
     7
100
AcDbLine
 10
7165.7714752153
 20
5731.1063326091
 30
0.0
 11
7165.9078506425
 21
5731.551340887
 31
0.0
  0
LINE
  5
297
330
1F
100
AcDbEntity
  8
0
  6
Continuous
 62
     7
100
AcDbLine
 10
7165.9078506425
 20
5731.551340887
 30
0.0
 11
7166.0352257684
 21
5731.6992200107
 31
0.0
  0
LINE
  5
298
330
1F
100
AcDbEntity
  8
0
  6
Continuous
 62
     7
100
AcDbLine
 10
7182.1933893159
 20
5731.448820898
 30
0.0
 11
7182.2660473779
 21
5731.2154389113
 31
0.0
  0
LINE
  5
299
330
1F
100
AcDbEntity
  8
0
  6
Continuous
 62
     7
100
AcDbLine
 10
7182.2660473779
 20
5731.2154389113
 30
0.0
 11
7182.1296719506
 21
5730.7704306335
 31
0.0
  0
LINE
  5
29A
330
1F
100
AcDbEntity
  8
0
  6
Continuous
 62
     7
100
AcDbLine
 10
7182.1296719506
 20
5730.7704306335
 30
0.0
 11
7181.6387680963
 21
5730.3424990863
 31
0.0
  0
LINE
  5
29B
330
1F
100
AcDbEntity
  8
0
  6
Continuous
 62
     7
100
AcDbLine
 10
7181.6387680963
 20
5730.3424990863
 30
0.0
 11
7180.8148530915
 21
5729.9503601283
 31
0.0
  0
LINE
  5
29C
330
1F
100
AcDbEntity
  8
0
  6
Continuous
 62
     7
100
AcDbLine
 10
7180.8148530915
 20
5729.9503601283
 30
0.0
 11
7180.4615167573
 21
5729.8271871299
 31
0.0
  0
LINE
  5
29D
330
1F
100
AcDbEntity
  8
0
  6
Continuous
 62
     7
100
AcDbLine
 10
7167.7926687196
 20
5729.7599530906
 30
0.0
 11
7167.4703864053
 21
5729.8620856494
 31
0.0
  0
LINE
  5
29E
330
1F
100
AcDbEntity
  8
0
  6
Continuous
 62
     7
100
AcDbLine
 10
7182.7614811853
 20
5731.2531388492
 30
0.0
 11
7183.0233243898
 21
5731.2441683501
 31
0.0
  0
LINE
  5
29F
330
1F
100
AcDbEntity
  8
0
  6
Continuous
 62
     7
100
AcDbLine
 10
7180.7612685159
 20
5729.5219219417
 30
0.0
 11
7180.4528740838
 21
5729.6260810584
 31
0.0
  0
LINE
  5
2A0
330
1F
100
AcDbEntity
  8
0
  6
Continuous
 62
     7
100
AcDbLine
 10
7171.4011339143
 20
5728.999934265
 30
0.0
 11
7171.3346151307
 21
5728.8698173255
 31
0.0
  0
LINE
  5
2A1
330
1F
100
AcDbEntity
  8
0
  6
Continuous
 62
     7
100
AcDbLine
 10
7165.8614782289
 20
5730.0320780963
 30
0.0
 11
7166.263988395
 21
5730.111918518
 31
0.0
  0
LINE
  5
2A2
330
1F
100
AcDbEntity
  8
0
  6
Continuous
 62
     7
100
AcDbLine
 10
7166.5187386468
 20
5731.2372542113
 30
0.0
 11
7165.9954694703
 21
5731.6296613902
 31
0.0
  0
LINE
  5
2A3
330
1F
100
AcDbEntity
  8
0
  6
Continuous
 62
     7
100
AcDbLine
 10
7165.9954694703
 20
5731.6296613902
 30
0.0
 11
7165.9584549859
 21
5731.6715336532
 31
0.0
  0
LINE
  5
2A4
330
1F
100
AcDbEntity
  8
0
  6
Continuous
 62
     7
100
AcDbLine
 10
7181.638470073
 20
5731.3082433433
 30
0.0
 11
7181.5187839463
 21
5731.2372542113
 31
0.0
  0
LINE
  5
2A5
330
1F
100
AcDbEntity
  8
0
  6
Continuous
 62
     7
100
AcDbLine
 10
7176.6363886788
 20
5732.3559141845
 30
0.0
 11
7176.7029074624
 21
5732.486031124
 31
0.0
  0
LINE
  5
2A6
330
1F
100
AcDbEntity
  8
0
  6
Continuous
 62
     7
100
AcDbLine
 10
7173.6622957185
 20
5732.4577487201
 30
0.0
 11
7173.7288145021
 21
5732.5878656596
 31
0.0
  0
LINE
  5
2A7
330
1F
100
AcDbEntity
  8
0
  6
Continuous
 62
     7
100
AcDbLine
 10
7168.0657175973
 20
5729.9801624507
 30
0.0
 11
7167.2242192224
 21
5730.3389824122
 31
0.0
  0
LINE
  5
2A8
330
1F
100
AcDbEntity
  8
0
  6
Continuous
 62
     7
100
AcDbLine
 10
7167.2242192224
 20
5730.3389824122
 30
0.0
 11
7166.7004136041
 21
5730.7362473697
 31
0.0
  0
LINE
  5
2A9
330
1F
100
AcDbEntity
  8
0
  6
Continuous
 62
     7
100
AcDbLine
 10
7166.7004136041
 20
5730.7362473697
 30
0.0
 11
7166.5187982514
 21
5731.1533606738
 31
0.0
  0
LINE
  5
2AA
330
1F
100
AcDbEntity
  8
0
  6
Continuous
 62
     7
100
AcDbLine
 10
7166.5187982514
 20
5731.1533606738
 30
0.0
 11
7166.6878966287
 21
5731.5708018035
 31
0.0
  0
LINE
  5
2AB
330
1F
100
AcDbEntity
  8
0
  6
Continuous
 62
     7
100
AcDbLine
 10
7166.6878966287
 20
5731.5708018035
 30
0.0
 11
7167.199781318
 21
5731.9691098422
 31
0.0
  0
LINE
  5
2AC
330
1F
100
AcDbEntity
  8
0
  6
Continuous
 62
     7
100
AcDbLine
 10
7167.199781318
 20
5731.9691098422
 30
0.0
 11
7167.2761944726
 21
5732.0109821052
 31
0.0
  0
LINE
  5
2AD
330
1F
100
AcDbEntity
  8
0
  6
Continuous
 62
     7
100
AcDbLine
 10
7181.469848533
 20
5731.3822723121
 30
0.0
 11
7181.4715770677
 21
5731.3782489986
 31
0.0
  0
LINE
  5
2AE
330
1F
100
AcDbEntity
  8
0
  6
Continuous
 62
     7
100
AcDbLine
 10
7181.4715770677
 20
5731.3782489986
 30
0.0
 11
7181.47789516
 21
5730.95851309
 31
0.0
  0
LINE
  5
2AF
330
1F
100
AcDbEntity
  8
0
  6
Continuous
 62
     7
100
AcDbLine
 10
7181.47789516
 20
5730.95851309
 30
0.0
 11
7181.1354068711
 21
5730.5482245177
 31
0.0
  0
LINE
  5
2B0
330
1F
100
AcDbEntity
  8
0
  6
Continuous
 62
     7
100
AcDbLine
 10
7181.1354068711
 20
5730.5482245177
 30
0.0
 11
7180.4601458505
 21
5730.1665759772
 31
0.0
  0
LINE
  5
2B1
330
1F
100
AcDbEntity
  8
0
  6
Continuous
 62
     7
100
AcDbLine
 10
7180.4601458505
 20
5730.1665759772
 30
0.0
 11
7179.4837025598
 21
5729.831448862
 31
0.0
  0
LINE
  5
2B2
330
1F
100
AcDbEntity
  8
0
  6
Continuous
 62
     7
100
AcDbLine
 10
7179.4837025598
 20
5729.831448862
 30
0.0
 11
7178.2517341569
 21
5729.5584595889
 31
0.0
  0
LINE
  5
2B3
330
1F
100
AcDbEntity
  8
0
  6
Continuous
 62
     7
100
AcDbLine
 10
7178.2517341569
 20
5729.5584595889
 30
0.0
 11
7176.8218187287
 21
5729.3604231566
 31
0.0
  0
LINE
  5
2B4
330
1F
100
AcDbEntity
  8
0
  6
Continuous
 62
     7
100
AcDbLine
 10
7176.8218187287
 20
5729.3604231566
 30
0.0
 11
7175.2608326867
 21
5729.2465484828
 31
0.0
  0
LINE
  5
2B5
330
1F
100
AcDbEntity
  8
0
  6
Continuous
 62
     7
100
AcDbLine
 10
7175.2608326867
 20
5729.2465484828
 30
0.0
 11
7173.6417917207
 21
5729.2221999854
 31
0.0
  0
LINE
  5
2B6
330
1F
100
AcDbEntity
  8
0
  6
Continuous
 62
     7
100
AcDbLine
 10
7173.6417917207
 20
5729.2221999854
 30
0.0
 11
7172.0403341249
 21
5729.2884803504
 31
0.0
  0
LINE
  5
2B7
330
1F
100
AcDbEntity
  8
0
  6
Continuous
 62
     7
100
AcDbLine
 10
7172.0403341249
 20
5729.2884803504
 30
0.0
 11
7170.5314425424
 21
5729.4423497409
 31
0.0
  0
LINE
  5
2B8
330
1F
100
AcDbEntity
  8
0
  6
Continuous
 62
     7
100
AcDbLine
 10
7170.5314425424
 20
5729.4423497409
 30
0.0
 11
7169.1855696633
 21
5729.6765661925
 31
0.0
  0
LINE
  5
2B9
330
1F
100
AcDbEntity
  8
0
  6
Continuous
 62
     7
100
AcDbLine
 10
7169.1855696633
 20
5729.6765661925
 30
0.0
 11
7168.0657175973
 21
5729.9801624507
 31
0.0
  0
LINE
  5
2BA
330
1F
100
AcDbEntity
  8
0
  6
Continuous
 62
     7
100
AcDbLine
 10
7173.6622957185
 20
5732.7491260261
 30
0.0
 11
7173.6622957185
 21
5732.4577487201
 31
0.0
  0
LINE
  5
2BB
330
1F
100
AcDbEntity
  8
0
  6
Continuous
 62
     7
100
AcDbLine
 10
7169.657459636
 20
5732.3062337131
 30
0.0
 11
7169.9658540681
 21
5732.202044794
 31
0.0
  0
LINE
  5
2BC
330
1F
100
AcDbEntity
  8
0
  6
Continuous
 62
     7
100
AcDbLine
 10
7167.2761944726
 20
5731.8339265079
 30
0.0
 11
7167.5846485093
 21
5731.7297673911
 31
0.0
  0
LINE
  5
2BD
330
1F
100
AcDbEntity
  8
0
  6
Continuous
 62
     7
100
AcDbLine
 10
7169.9658540681
 20
5732.5256086082
 30
0.0
 11
7169.9658540681
 21
5732.202044794
 31
0.0
  0
LINE
  5
2BE
330
1F
100
AcDbEntity
  8
0
  6
Continuous
 62
     7
100
AcDbLine
 10
7180.3512481645
 20
5731.9400525779
 30
0.0
 11
7179.9487379983
 21
5731.8602121562
 31
0.0
  0
LINE
  5
2BF
330
1F
100
AcDbEntity
  8
0
  6
Continuous
 62
     7
100
AcDbLine
 10
7182.1760443643
 20
5731.3237405509
 30
0.0
 11
7181.7735341981
 21
5731.2439299316
 31
0.0
  0
LINE
  5
2C0
330
1F
100
AcDbEntity
  8
0
  6
Continuous
 62
     7
100
AcDbLine
 10
7179.9487379983
 20
5732.2386420459
 30
0.0
 11
7179.9487379983
 21
5731.8602121562
 31
0.0
  0
LINE
  5
2C1
330
1F
100
AcDbEntity
  8
0
  6
Continuous
 62
     7
100
AcDbLine
 10
7165.669491668
 20
5731.5597153396
 30
0.0
 11
7165.669491668
 21
5730.872443983
 31
0.0
  0
LINE
  5
2C2
330
1F
100
AcDbEntity
  8
0
  6
Continuous
 62
     7
100
AcDbLine
 10
7165.669491668
 20
5730.872443983
 30
0.0
 11
7165.166786094
 21
5730.8896697253
 31
0.0
  0
LINE
  5
2C3
330
1F
100
AcDbEntity
  8
0
  6
Continuous
 62
     7
100
AcDbLine
 10
7165.2760414079
 20
5730.1027096004
 30
0.0
 11
7164.7732762292
 21
5730.1199055404
 31
0.0
  0
LINE
  5
2C4
330
1F
100
AcDbEntity
  8
0
  6
Continuous
 62
     7
100
AcDbLine
 10
7165.2760414079
 20
5730.2872157783
 30
0.0
 11
7165.2760414079
 21
5730.1027096004
 31
0.0
  0
LINE
  5
2C5
330
1F
100
AcDbEntity
  8
0
  6
Continuous
 62
     7
100
AcDbLine
 10
7182.7614811853
 20
5731.2531388492
 30
0.0
 11
7182.7614811853
 21
5730.2872157783
 31
0.0
  0
LINE
  5
2C6
330
1F
100
AcDbEntity
  8
0
  6
Continuous
 62
     7
100
AcDbLine
 10
7182.7614811853
 20
5730.2872157783
 30
0.0
 11
7183.2641867593
 21
5730.2699900359
 31
0.0
  0
LINE
  5
2C7
330
1F
100
AcDbEntity
  8
0
  6
Continuous
 62
     7
100
AcDbLine
 10
7182.3680309251
 20
5729.5174515933
 30
0.0
 11
7182.8707364991
 21
5729.5002556533
 31
0.0
  0
LINE
  5
2C8
330
1F
100
AcDbEntity
  8
0
  6
Continuous
 62
     7
100
AcDbLine
 10
7182.3680309251
 20
5730.4833746642
 30
0.0
 11
7182.3680309251
 21
5729.5174515933
 31
0.0
  0
LINE
  5
2C9
330
1F
100
AcDbEntity
  8
0
  6
Continuous
 62
     7
100
AcDbLine
 10
7166.263988395
 20
5730.111918518
 30
0.0
 11
7166.263988395
 21
5729.1459954471
 31
0.0
  0
LINE
  5
2CA
330
1F
100
AcDbEntity
  8
0
  6
Continuous
 62
     7
100
AcDbLine
 10
7165.8614782289
 20
5729.0661550254
 30
0.0
 11
7166.263988395
 21
5729.1459954471
 31
0.0
  0
LINE
  5
2CB
330
1F
100
AcDbEntity
  8
0
  6
Continuous
 62
     7
100
AcDbLine
 10
7167.6862744287
 20
5728.4498728007
 30
0.0
 11
7168.0887249902
 21
5728.5296834201
 31
0.0
  0
LINE
  5
2CC
330
1F
100
AcDbEntity
  8
0
  6
Continuous
 62
     7
100
AcDbLine
 10
7168.0887249902
 20
5729.495606491
 30
0.0
 11
7168.0887249902
 21
5728.5296834201
 31
0.0
  0
LINE
  5
2CD
330
1F
100
AcDbEntity
  8
0
  6
Continuous
 62
     7
100
AcDbLine
 10
7180.4528740838
 20
5729.6260810584
 30
0.0
 11
7180.4528740838
 21
5728.6601579875
 31
0.0
  0
LINE
  5
2CE
330
1F
100
AcDbEntity
  8
0
  6
Continuous
 62
     7
100
AcDbLine
 10
7178.0716089204
 20
5729.1538036555
 30
0.0
 11
7178.0716089204
 21
5728.1878805846
 31
0.0
  0
LINE
  5
2CF
330
1F
100
AcDbEntity
  8
0
  6
Continuous
 62
     7
100
AcDbLine
 10
7180.7612685159
 20
5728.5559988708
 30
0.0
 11
7180.4528740838
 21
5728.6601579875
 31
0.0
  0
LINE
  5
2D0
330
1F
100
AcDbEntity
  8
0
  6
Continuous
 62
     7
100
AcDbLine
 10
7178.3800629571
 20
5728.0836916656
 30
0.0
 11
7178.0716089204
 21
5728.1878805846
 31
0.0
  0
LINE
  5
2D1
330
1F
100
AcDbEntity
  8
0
  6
Continuous
 62
     7
100
AcDbLine
 10
7171.4011339143
 20
5728.999934265
 30
0.0
 11
7171.4011339143
 21
5728.0340111941
 31
0.0
  0
LINE
  5
2D2
330
1F
100
AcDbEntity
  8
0
  6
Continuous
 62
     7
100
AcDbLine
 10
7174.37516727
 20
5728.8980997294
 30
0.0
 11
7174.37516727
 21
5727.9321766585
 31
0.0
  0
LINE
  5
2D3
330
1F
100
AcDbEntity
  8
0
  6
Continuous
 62
     7
100
AcDbLine
 10
7171.4011339143
 20
5728.0340111941
 30
0.0
 11
7171.3346151307
 21
5727.9038942546
 31
0.0
  0
LINE
  5
2D4
330
1F
100
AcDbEntity
  8
0
  6
Continuous
 62
     7
100
AcDbLine
 10
7174.37516727
 20
5727.9321766585
 30
0.0
 11
7174.3087080911
 21
5727.802059719
 31
0.0
  0
LINE
  5
2D5
330
1F
100
AcDbEntity
  8
0
  6
Continuous
 62
     7
100
AcDbLine
 10
5980.7612804368
 20
5729.5219219417
 30
0.0
 11
5980.7612804368
 21
5728.5559988708
 31
0.0
  0
LINE
  5
2D6
330
1F
100
AcDbEntity
  8
0
  6
Continuous
 62
     7
100
AcDbLine
 10
5983.2641986802
 20
5730.8736956805
 30
0.0
 11
5983.2641986802
 21
5730.2699900359
 31
0.0
  0
LINE
  5
2D7
330
1F
100
AcDbEntity
  8
0
  6
Continuous
 62
     7
100
AcDbLine
 10
5982.1760562852
 20
5731.6354132384
 30
0.0
 11
5982.1760562852
 21
5731.3237405509
 31
0.0
  0
LINE
  5
2D8
330
1F
100
AcDbEntity
  8
0
  6
Continuous
 62
     7
100
AcDbLine
 10
5980.3512600854
 20
5732.1560896129
 30
0.0
 11
5980.3512600854
 21
5731.9400525779
 31
0.0
  0
LINE
  5
2D9
330
1F
100
AcDbEntity
  8
0
  6
Continuous
 62
     7
100
AcDbLine
 10
5976.7029193833
 20
5732.6545632571
 30
0.0
 11
5976.7029193833
 21
5732.486031124
 31
0.0
  0
LINE
  5
2DA
330
1F
100
AcDbEntity
  8
0
  6
Continuous
 62
     7
100
AcDbLine
 10
5973.728826423
 20
5732.7496922702
 30
0.0
 11
5973.728826423
 21
5732.5878656596
 31
0.0
  0
LINE
  5
2DB
330
1F
100
AcDbEntity
  8
0
  6
Continuous
 62
     7
100
AcDbLine
 10
5969.6574417546
 20
5732.4880278796
 30
0.0
 11
5969.6574417546
 21
5732.3062337131
 31
0.0
  0
LINE
  5
2DC
330
1F
100
AcDbEntity
  8
0
  6
Continuous
 62
     7
100
AcDbLine
 10
5967.2762063935
 20
5732.0623017043
 30
0.0
 11
5967.2762063935
 21
5731.8339265079
 31
0.0
  0
LINE
  5
2DD
330
1F
100
AcDbEntity
  8
0
  6
Continuous
 62
     7
100
AcDbLine
 10
5965.1667682126
 20
5731.3277936668
 30
0.0
 11
5965.1667682126
 21
5730.8896697253
 31
0.0
  0
LINE
  5
2DE
330
1F
100
AcDbEntity
  8
0
  6
Continuous
 62
     7
100
AcDbLine
 10
5965.8614603475
 20
5730.0320780963
 30
0.0
 11
5965.8614603475
 21
5729.0661550254
 31
0.0
  0
LINE
  5
2DF
330
1F
100
AcDbEntity
  8
0
  6
Continuous
 62
     7
100
AcDbLine
 10
5971.3345972493
 20
5728.8698173255
 30
0.0
 11
5971.3345972493
 21
5727.9038942546
 31
0.0
  0
LINE
  5
2E0
330
1F
100
AcDbEntity
  8
0
  6
Continuous
 62
     7
100
AcDbLine
 10
5967.4704281285
 20
5729.8620856494
 30
0.0
 11
5966.5701893762
 21
5730.2428401202
 31
0.0
  0
LINE
  5
2E1
330
1F
100
AcDbEntity
  8
0
  6
Continuous
 62
     7
100
AcDbLine
 10
5966.5701893762
 20
5730.2428401202
 30
0.0
 11
5965.9954813912
 21
5730.6637383193
 31
0.0
  0
LINE
  5
2E2
330
1F
100
AcDbEntity
  8
0
  6
Continuous
 62
     7
100
AcDbLine
 10
5965.9954813912
 20
5730.6637383193
 30
0.0
 11
5965.7714573339
 21
5731.1063326091
 31
0.0
  0
LINE
  5
2E3
330
1F
100
AcDbEntity
  8
0
  6
Continuous
 62
     7
100
AcDbLine
 10
5965.7714573339
 20
5731.1063326091
 30
0.0
 11
5965.9078625634
 21
5731.551340887
 31
0.0
  0
LINE
  5
2E4
330
1F
100
AcDbEntity
  8
0
  6
Continuous
 62
     7
100
AcDbLine
 10
5965.9078625634
 20
5731.551340887
 30
0.0
 11
5966.0352376893
 21
5731.6992200107
 31
0.0
  0
LINE
  5
2E5
330
1F
100
AcDbEntity
  8
0
  6
Continuous
 62
     7
100
AcDbLine
 10
5982.1934012368
 20
5731.448820898
 30
0.0
 11
5982.2660592988
 21
5731.2154389113
 31
0.0
  0
LINE
  5
2E6
330
1F
100
AcDbEntity
  8
0
  6
Continuous
 62
     7
100
AcDbLine
 10
5982.2660592988
 20
5731.2154389113
 30
0.0
 11
5982.1296540692
 21
5730.7704306335
 31
0.0
  0
LINE
  5
2E7
330
1F
100
AcDbEntity
  8
0
  6
Continuous
 62
     7
100
AcDbLine
 10
5982.1296540692
 20
5730.7704306335
 30
0.0
 11
5981.6387502149
 21
5730.3424990863
 31
0.0
  0
LINE
  5
2E8
330
1F
100
AcDbEntity
  8
0
  6
Continuous
 62
     7
100
AcDbLine
 10
5981.6387502149
 20
5730.3424990863
 30
0.0
 11
5980.8148352101
 21
5729.9503601283
 31
0.0
  0
LINE
  5
2E9
330
1F
100
AcDbEntity
  8
0
  6
Continuous
 62
     7
100
AcDbLine
 10
5980.8148352101
 20
5729.9503601283
 30
0.0
 11
5979.6938804582
 21
5729.6110904903
 31
0.0
  0
LINE
  5
2EA
330
1F
100
AcDbEntity
  8
0
  6
Continuous
 62
     7
100
AcDbLine
 10
5979.6938804582
 20
5729.6110904903
 30
0.0
 11
5978.3249107793
 21
5729.339561531
 31
0.0
  0
LINE
  5
2EB
330
1F
100
AcDbEntity
  8
0
  6
Continuous
 62
     7
100
AcDbLine
 10
5978.3249107793
 20
5729.339561531
 30
0.0
 11
5976.7677394345
 21
5729.1476643771
 31
0.0
  0
LINE
  5
2EC
330
1F
100
AcDbEntity
  8
0
  6
Continuous
 62
     7
100
AcDbLine
 10
5976.7677394345
 20
5729.1476643771
 30
0.0
 11
5975.0904349282
 21
5729.0437138766
 31
0.0
  0
LINE
  5
2ED
330
1F
100
AcDbEntity
  8
0
  6
Continuous
 62
     7
100
AcDbLine
 10
5975.0904349282
 20
5729.0437138766
 30
0.0
 11
5973.3662513688
 21
5729.0323293895
 31
0.0
  0
LINE
  5
2EE
330
1F
100
AcDbEntity
  8
0
  6
Continuous
 62
     7
100
AcDbLine
 10
5973.3662513688
 20
5729.0323293895
 30
0.0
 11
5971.6706184342
 21
5729.1139281482
 31
0.0
  0
LINE
  5
2EF
330
1F
100
AcDbEntity
  8
0
  6
Continuous
 62
     7
100
AcDbLine
 10
5971.6706184342
 20
5729.1139281482
 30
0.0
 11
5970.077624698
 21
5729.285023281
 31
0.0
  0
LINE
  5
2F0
330
1F
100
AcDbEntity
  8
0
  6
Continuous
 62
     7
100
AcDbLine
 10
5970.077624698
 20
5729.285023281
 30
0.0
 11
5968.6568287805
 21
5729.5381046027
 31
0.0
  0
LINE
  5
2F1
330
1F
100
AcDbEntity
  8
0
  6
Continuous
 62
     7
100
AcDbLine
 10
5968.6568287805
 20
5729.5381046027
 30
0.0
 11
5967.4704281285
 21
5729.8620856494
 31
0.0
  0
LINE
  5
2F2
330
1F
100
AcDbEntity
  8
0
  6
Continuous
 62
     7
100
AcDbLine
 10
5982.7614931062
 20
5731.2531388492
 30
0.0
 11
5983.0233065084
 21
5731.2441683501
 31
0.0
  0
LINE
  5
2F3
330
1F
100
AcDbEntity
  8
0
  6
Continuous
 62
     7
100
AcDbLine
 10
5980.7612804368
 20
5729.5219219417
 30
0.0
 11
5980.4528562024
 21
5729.6260810584
 31
0.0
  0
LINE
  5
2F4
330
1F
100
AcDbEntity
  8
0
  6
Continuous
 62
     7
100
AcDbLine
 10
5971.4011160329
 20
5728.999934265
 30
0.0
 11
5971.3345972493
 21
5728.8698173255
 31
0.0
  0
LINE
  5
2F5
330
1F
100
AcDbEntity
  8
0
  6
Continuous
 62
     7
100
AcDbLine
 10
5965.8614603475
 20
5730.0320780963
 30
0.0
 11
5966.2639705136
 21
5730.111918518
 31
0.0
  0
LINE
  5
2F6
330
1F
100
AcDbEntity
  8
0
  6
Continuous
 62
     7
100
AcDbLine
 10
5966.5187505677
 20
5731.2372542113
 30
0.0
 11
5965.9954813912
 21
5731.6296613902
 31
0.0
  0
LINE
  5
2F7
330
1F
100
AcDbEntity
  8
0
  6
Continuous
 62
     7
100
AcDbLine
 10
5965.9954813912
 20
5731.6296613902
 30
0.0
 11
5965.9584669068
 21
5731.6715336532
 31
0.0
  0
LINE
  5
2F8
330
1F
100
AcDbEntity
  8
0
  6
Continuous
 62
     7
100
AcDbLine
 10
5981.638481994
 20
5731.3082433433
 30
0.0
 11
5981.5187660649
 21
5731.2372542113
 31
0.0
  0
LINE
  5
2F9
330
1F
100
AcDbEntity
  8
0
  6
Continuous
 62
     7
100
AcDbLine
 10
5976.6364005998
 20
5732.3559141845
 30
0.0
 11
5976.7029193833
 21
5732.486031124
 31
0.0
  0
LINE
  5
2FA
330
1F
100
AcDbEntity
  8
0
  6
Continuous
 62
     7
100
AcDbLine
 10
5973.6623076394
 20
5732.4577487201
 30
0.0
 11
5973.728826423
 21
5732.5878656596
 31
0.0
  0
LINE
  5
2FB
330
1F
100
AcDbEntity
  8
0
  6
Continuous
 62
     7
100
AcDbLine
 10
5968.0657295182
 20
5729.9801624507
 30
0.0
 11
5967.224201341
 21
5730.3389824122
 31
0.0
  0
LINE
  5
2FC
330
1F
100
AcDbEntity
  8
0
  6
Continuous
 62
     7
100
AcDbLine
 10
5967.224201341
 20
5730.3389824122
 30
0.0
 11
5966.700425525
 21
5730.7362473697
 31
0.0
  0
LINE
  5
2FD
330
1F
100
AcDbEntity
  8
0
  6
Continuous
 62
     7
100
AcDbLine
 10
5966.700425525
 20
5730.7362473697
 30
0.0
 11
5966.5188101724
 21
5731.1533606738
 31
0.0
  0
LINE
  5
2FE
330
1F
100
AcDbEntity
  8
0
  6
Continuous
 62
     7
100
AcDbLine
 10
5966.5188101724
 20
5731.1533606738
 30
0.0
 11
5966.6879085496
 21
5731.5708018035
 31
0.0
  0
LINE
  5
2FF
330
1F
100
AcDbEntity
  8
0
  6
Continuous
 62
     7
100
AcDbLine
 10
5966.6879085496
 20
5731.5708018035
 30
0.0
 11
5967.1997634366
 21
5731.9691098422
 31
0.0
  0
LINE
  5
300
330
1F
100
AcDbEntity
  8
0
  6
Continuous
 62
     7
100
AcDbLine
 10
5967.1997634366
 20
5731.9691098422
 30
0.0
 11
5967.2762063935
 21
5732.0109821052
 31
0.0
  0
LINE
  5
301
330
1F
100
AcDbEntity
  8
0
  6
Continuous
 62
     7
100
AcDbLine
 10
5981.4698306516
 20
5731.3822723121
 30
0.0
 11
5981.4715889886
 21
5731.3782489986
 31
0.0
  0
LINE
  5
302
330
1F
100
AcDbEntity
  8
0
  6
Continuous
 62
     7
100
AcDbLine
 10
5981.4715889886
 20
5731.3782489986
 30
0.0
 11
5981.4778772786
 21
5730.95851309
 31
0.0
  0
LINE
  5
303
330
1F
100
AcDbEntity
  8
0
  6
Continuous
 62
     7
100
AcDbLine
 10
5981.4778772786
 20
5730.95851309
 30
0.0
 11
5981.1353889897
 21
5730.5482245177
 31
0.0
  0
LINE
  5
304
330
1F
100
AcDbEntity
  8
0
  6
Continuous
 62
     7
100
AcDbLine
 10
5981.1353889897
 20
5730.5482245177
 30
0.0
 11
5980.4601577714
 21
5730.1665759772
 31
0.0
  0
LINE
  5
305
330
1F
100
AcDbEntity
  8
0
  6
Continuous
 62
     7
100
AcDbLine
 10
5980.4601577714
 20
5730.1665759772
 30
0.0
 11
5979.4836846784
 21
5729.831448862
 31
0.0
  0
LINE
  5
306
330
1F
100
AcDbEntity
  8
0
  6
Continuous
 62
     7
100
AcDbLine
 10
5979.4836846784
 20
5729.831448862
 30
0.0
 11
5978.2517162755
 21
5729.5584595889
 31
0.0
  0
LINE
  5
307
330
1F
100
AcDbEntity
  8
0
  6
Continuous
 62
     7
100
AcDbLine
 10
5978.2517162755
 20
5729.5584595889
 30
0.0
 11
5976.8218008473
 21
5729.3604231566
 31
0.0
  0
LINE
  5
308
330
1F
100
AcDbEntity
  8
0
  6
Continuous
 62
     7
100
AcDbLine
 10
5976.8218008473
 20
5729.3604231566
 30
0.0
 11
5975.2608446076
 21
5729.2465484828
 31
0.0
  0
LINE
  5
309
330
1F
100
AcDbEntity
  8
0
  6
Continuous
 62
     7
100
AcDbLine
 10
5975.2608446076
 20
5729.2465484828
 30
0.0
 11
5973.6417738393
 21
5729.2221999854
 31
0.0
  0
LINE
  5
30A
330
1F
100
AcDbEntity
  8
0
  6
Continuous
 62
     7
100
AcDbLine
 10
5973.6417738393
 20
5729.2221999854
 30
0.0
 11
5972.0403460458
 21
5729.2884803504
 31
0.0
  0
LINE
  5
30B
330
1F
100
AcDbEntity
  8
0
  6
Continuous
 62
     7
100
AcDbLine
 10
5972.0403460458
 20
5729.2884803504
 30
0.0
 11
5970.531424661
 21
5729.4423497409
 31
0.0
  0
LINE
  5
30C
330
1F
100
AcDbEntity
  8
0
  6
Continuous
 62
     7
100
AcDbLine
 10
5970.531424661
 20
5729.4423497409
 30
0.0
 11
5969.1855815843
 21
5729.6765661925
 31
0.0
  0
LINE
  5
30D
330
1F
100
AcDbEntity
  8
0
  6
Continuous
 62
     7
100
AcDbLine
 10
5969.1855815843
 20
5729.6765661925
 30
0.0
 11
5968.0657295182
 21
5729.9801624507
 31
0.0
  0
LINE
  5
30E
330
1F
100
AcDbEntity
  8
0
  6
Continuous
 62
     7
100
AcDbLine
 10
5973.6623076394
 20
5732.7491260261
 30
0.0
 11
5973.6623076394
 21
5732.4577487201
 31
0.0
  0
LINE
  5
30F
330
1F
100
AcDbEntity
  8
0
  6
Continuous
 62
     7
100
AcDbLine
 10
5969.6574417546
 20
5732.3062337131
 30
0.0
 11
5969.965865989
 21
5732.202044794
 31
0.0
  0
LINE
  5
310
330
1F
100
AcDbEntity
  8
0
  6
Continuous
 62
     7
100
AcDbLine
 10
5967.2762063935
 20
5731.8339265079
 30
0.0
 11
5967.5846604302
 21
5731.7297673911
 31
0.0
  0
LINE
  5
311
330
1F
100
AcDbEntity
  8
0
  6
Continuous
 62
     7
100
AcDbLine
 10
5969.965865989
 20
5732.5256086082
 30
0.0
 11
5969.965865989
 21
5732.202044794
 31
0.0
  0
LINE
  5
312
330
1F
100
AcDbEntity
  8
0
  6
Continuous
 62
     7
100
AcDbLine
 10
5980.3512600854
 20
5731.9400525779
 30
0.0
 11
5979.9487499192
 21
5731.8602121562
 31
0.0
  0
LINE
  5
313
330
1F
100
AcDbEntity
  8
0
  6
Continuous
 62
     7
100
AcDbLine
 10
5982.1760562852
 20
5731.3237405509
 30
0.0
 11
5981.773546119
 21
5731.2439299316
 31
0.0
  0
LINE
  5
314
330
1F
100
AcDbEntity
  8
0
  6
Continuous
 62
     7
100
AcDbLine
 10
5979.9487499192
 20
5732.2386420459
 30
0.0
 11
5979.9487499192
 21
5731.8602121562
 31
0.0
  0
LINE
  5
315
330
1F
100
AcDbEntity
  8
0
  6
Continuous
 62
     7
100
AcDbLine
 10
5965.6694737866
 20
5731.5597153396
 30
0.0
 11
5965.6694737866
 21
5730.872443983
 31
0.0
  0
LINE
  5
316
330
1F
100
AcDbEntity
  8
0
  6
Continuous
 62
     7
100
AcDbLine
 10
5965.6694737866
 20
5730.872443983
 30
0.0
 11
5965.1667682126
 21
5730.8896697253
 31
0.0
  0
LINE
  5
317
330
1F
100
AcDbEntity
  8
0
  6
Continuous
 62
     7
100
AcDbLine
 10
5965.2760235265
 20
5730.1027096004
 30
0.0
 11
5964.7732881501
 21
5730.1199055404
 31
0.0
  0
LINE
  5
318
330
1F
100
AcDbEntity
  8
0
  6
Continuous
 62
     7
100
AcDbLine
 10
5965.2760235265
 20
5730.2872157783
 30
0.0
 11
5965.2760235265
 21
5730.1027096004
 31
0.0
  0
LINE
  5
319
330
1F
100
AcDbEntity
  8
0
  6
Continuous
 62
     7
100
AcDbLine
 10
5982.7614931062
 20
5731.2531388492
 30
0.0
 11
5982.7614931062
 21
5730.2872157783
 31
0.0
  0
LINE
  5
31A
330
1F
100
AcDbEntity
  8
0
  6
Continuous
 62
     7
100
AcDbLine
 10
5982.7614931062
 20
5730.2872157783
 30
0.0
 11
5983.2641986802
 21
5730.2699900359
 31
0.0
  0
LINE
  5
31B
330
1F
100
AcDbEntity
  8
0
  6
Continuous
 62
     7
100
AcDbLine
 10
5982.368042846
 20
5729.5174515933
 30
0.0
 11
5982.8707484201
 21
5729.5002556533
 31
0.0
  0
LINE
  5
31C
330
1F
100
AcDbEntity
  8
0
  6
Continuous
 62
     7
100
AcDbLine
 10
5982.368042846
 20
5730.4833746642
 30
0.0
 11
5982.368042846
 21
5729.5174515933
 31
0.0
  0
LINE
  5
31D
330
1F
100
AcDbEntity
  8
0
  6
Continuous
 62
     7
100
AcDbLine
 10
5966.2639705136
 20
5730.111918518
 30
0.0
 11
5966.2639705136
 21
5729.1459954471
 31
0.0
  0
LINE
  5
31E
330
1F
100
AcDbEntity
  8
0
  6
Continuous
 62
     7
100
AcDbLine
 10
5965.8614603475
 20
5729.0661550254
 30
0.0
 11
5966.2639705136
 21
5729.1459954471
 31
0.0
  0
LINE
  5
31F
330
1F
100
AcDbEntity
  8
0
  6
Continuous
 62
     7
100
AcDbLine
 10
5967.6862565473
 20
5728.4498728007
 30
0.0
 11
5968.0887369111
 21
5728.5296834201
 31
0.0
  0
LINE
  5
320
330
1F
100
AcDbEntity
  8
0
  6
Continuous
 62
     7
100
AcDbLine
 10
5968.0887369111
 20
5729.495606491
 30
0.0
 11
5968.0887369111
 21
5728.5296834201
 31
0.0
  0
LINE
  5
321
330
1F
100
AcDbEntity
  8
0
  6
Continuous
 62
     7
100
AcDbLine
 10
5980.4528562024
 20
5729.6260810584
 30
0.0
 11
5980.4528562024
 21
5728.6601579875
 31
0.0
  0
LINE
  5
322
330
1F
100
AcDbEntity
  8
0
  6
Continuous
 62
     7
100
AcDbLine
 10
5978.0716208413
 20
5729.1538036555
 30
0.0
 11
5978.0716208413
 21
5728.1878805846
 31
0.0
  0
LINE
  5
323
330
1F
100
AcDbEntity
  8
0
  6
Continuous
 62
     7
100
AcDbLine
 10
5980.7612804368
 20
5728.5559988708
 30
0.0
 11
5980.4528562024
 21
5728.6601579875
 31
0.0
  0
LINE
  5
324
330
1F
100
AcDbEntity
  8
0
  6
Continuous
 62
     7
100
AcDbLine
 10
5978.380074878
 20
5728.0836916656
 30
0.0
 11
5978.0716208413
 21
5728.1878805846
 31
0.0
  0
LINE
  5
325
330
1F
100
AcDbEntity
  8
0
  6
Continuous
 62
     7
100
AcDbLine
 10
5971.4011160329
 20
5728.999934265
 30
0.0
 11
5971.4011160329
 21
5728.0340111941
 31
0.0
  0
LINE
  5
326
330
1F
100
AcDbEntity
  8
0
  6
Continuous
 62
     7
100
AcDbLine
 10
5974.3752089933
 20
5728.8980997294
 30
0.0
 11
5974.3752089933
 21
5727.9321766585
 31
0.0
  0
LINE
  5
327
330
1F
100
AcDbEntity
  8
0
  6
Continuous
 62
     7
100
AcDbLine
 10
5971.4011160329
 20
5728.0340111941
 30
0.0
 11
5971.3345972493
 21
5727.9038942546
 31
0.0
  0
LINE
  5
328
330
1F
100
AcDbEntity
  8
0
  6
Continuous
 62
     7
100
AcDbLine
 10
5974.3752089933
 20
5727.9321766585
 30
0.0
 11
5974.3086902097
 21
5727.802059719
 31
0.0
  0
LINE
  5
329
330
1F
100
AcDbEntity
  8
0
  6
Continuous
 62
     7
100
AcDbLine
 10
6580.7613042787
 20
5729.5219219417
 30
0.0
 11
6580.7613042787
 21
5728.5559988708
 31
0.0
  0
LINE
  5
32A
330
1F
100
AcDbEntity
  8
0
  6
Continuous
 62
     7
100
AcDbLine
 10
6583.2642225221
 20
5730.8736956805
 30
0.0
 11
6583.2642225221
 21
5730.2699900359
 31
0.0
  0
LINE
  5
32B
330
1F
100
AcDbEntity
  8
0
  6
Continuous
 62
     7
100
AcDbLine
 10
6582.1760503247
 20
5731.6354132384
 30
0.0
 11
6582.1760503247
 21
5731.3237405509
 31
0.0
  0
LINE
  5
32C
330
1F
100
AcDbEntity
  8
0
  6
Continuous
 62
     7
100
AcDbLine
 10
6580.3512541249
 20
5732.1560896129
 30
0.0
 11
6580.3512541249
 21
5731.9400525779
 31
0.0
  0
LINE
  5
32D
330
1F
100
AcDbEntity
  8
0
  6
Continuous
 62
     7
100
AcDbLine
 10
6576.7029134229
 20
5732.6545632571
 30
0.0
 11
6576.7029134229
 21
5732.486031124
 31
0.0
  0
LINE
  5
32E
330
1F
100
AcDbEntity
  8
0
  6
Continuous
 62
     7
100
AcDbLine
 10
6573.7288204625
 20
5732.7496922702
 30
0.0
 11
6573.7288204625
 21
5732.5878656596
 31
0.0
  0
LINE
  5
32F
330
1F
100
AcDbEntity
  8
0
  6
Continuous
 62
     7
100
AcDbLine
 10
6569.6574357942
 20
5732.4880278796
 30
0.0
 11
6569.6574357942
 21
5732.3062337131
 31
0.0
  0
LINE
  5
330
330
1F
100
AcDbEntity
  8
0
  6
Continuous
 62
     7
100
AcDbLine
 10
6567.2762302354
 20
5732.0623017043
 30
0.0
 11
6567.2762302354
 21
5731.8339265079
 31
0.0
  0
LINE
  5
331
330
1F
100
AcDbEntity
  8
0
  6
Continuous
 62
     7
100
AcDbLine
 10
6565.1667622521
 20
5731.3277936668
 30
0.0
 11
6565.1667622521
 21
5730.8896697253
 31
0.0
  0
LINE
  5
332
330
1F
100
AcDbEntity
  8
0
  6
Continuous
 62
     7
100
AcDbLine
 10
6565.861454387
 20
5730.0320780963
 30
0.0
 11
6565.861454387
 21
5729.0661550254
 31
0.0
  0
LINE
  5
333
330
1F
100
AcDbEntity
  8
0
  6
Continuous
 62
     7
100
AcDbLine
 10
6571.3345912889
 20
5728.8698173255
 30
0.0
 11
6571.3345912889
 21
5727.9038942546
 31
0.0
  0
LINE
  5
334
330
1F
100
AcDbEntity
  8
0
  6
Continuous
 62
     7
100
AcDbLine
 10
6567.4704221681
 20
5729.8620856494
 30
0.0
 11
6566.5701834157
 21
5730.2428401202
 31
0.0
  0
LINE
  5
335
330
1F
100
AcDbEntity
  8
0
  6
Continuous
 62
     7
100
AcDbLine
 10
6566.5701834157
 20
5730.2428401202
 30
0.0
 11
6565.9954754308
 21
5730.6637383193
 31
0.0
  0
LINE
  5
336
330
1F
100
AcDbEntity
  8
0
  6
Continuous
 62
     7
100
AcDbLine
 10
6565.9954754308
 20
5730.6637383193
 30
0.0
 11
6565.7714513734
 21
5731.1063326091
 31
0.0
  0
LINE
  5
337
330
1F
100
AcDbEntity
  8
0
  6
Continuous
 62
     7
100
AcDbLine
 10
6565.7714513734
 20
5731.1063326091
 30
0.0
 11
6565.907856603
 21
5731.551340887
 31
0.0
  0
LINE
  5
338
330
1F
100
AcDbEntity
  8
0
  6
Continuous
 62
     7
100
AcDbLine
 10
6565.907856603
 20
5731.551340887
 30
0.0
 11
6566.0352615312
 21
5731.6992200107
 31
0.0
  0
LINE
  5
339
330
1F
100
AcDbEntity
  8
0
  6
Continuous
 62
     7
100
AcDbLine
 10
6582.1933952764
 20
5731.448820898
 30
0.0
 11
6582.2660533383
 21
5731.2154389113
 31
0.0
  0
LINE
  5
33A
330
1F
100
AcDbEntity
  8
0
  6
Continuous
 62
     7
100
AcDbLine
 10
6582.2660533383
 20
5731.2154389113
 30
0.0
 11
6582.1296481088
 21
5730.7704306335
 31
0.0
  0
LINE
  5
33B
330
1F
100
AcDbEntity
  8
0
  6
Continuous
 62
     7
100
AcDbLine
 10
6582.1296481088
 20
5730.7704306335
 30
0.0
 11
6581.6387740567
 21
5730.3424990863
 31
0.0
  0
LINE
  5
33C
330
1F
100
AcDbEntity
  8
0
  6
Continuous
 62
     7
100
AcDbLine
 10
6581.6387740567
 20
5730.3424990863
 30
0.0
 11
6580.8148292497
 21
5729.9503601283
 31
0.0
  0
LINE
  5
33D
330
1F
100
AcDbEntity
  8
0
  6
Continuous
 62
     7
100
AcDbLine
 10
6580.8148292497
 20
5729.9503601283
 30
0.0
 11
6580.4615227178
 21
5729.8271871299
 31
0.0
  0
LINE
  5
33E
330
1F
100
AcDbEntity
  8
0
  6
Continuous
 62
     7
100
AcDbLine
 10
6567.79267468
 20
5729.7599530906
 30
0.0
 11
6567.4704221681
 21
5729.8620856494
 31
0.0
  0
LINE
  5
33F
330
1F
100
AcDbEntity
  8
0
  6
Continuous
 62
     7
100
AcDbLine
 10
6582.7614871457
 20
5731.2531388492
 30
0.0
 11
6583.0233005479
 21
5731.2441683501
 31
0.0
  0
LINE
  5
340
330
1F
100
AcDbEntity
  8
0
  6
Continuous
 62
     7
100
AcDbLine
 10
6580.7613042787
 20
5729.5219219417
 30
0.0
 11
6580.452850242
 21
5729.6260810584
 31
0.0
  0
LINE
  5
341
330
1F
100
AcDbEntity
  8
0
  6
Continuous
 62
     7
100
AcDbLine
 10
6571.4011100724
 20
5728.999934265
 30
0.0
 11
6571.3345912889
 21
5728.8698173255
 31
0.0
  0
LINE
  5
342
330
1F
100
AcDbEntity
  8
0
  6
Continuous
 62
     7
100
AcDbLine
 10
6565.861454387
 20
5730.0320780963
 30
0.0
 11
6566.2639645532
 21
5730.111918518
 31
0.0
  0
LINE
  5
343
330
1F
100
AcDbEntity
  8
0
  6
Continuous
 62
     7
100
AcDbLine
 10
6566.5187446073
 20
5731.2372542113
 30
0.0
 11
6565.9954754308
 21
5731.6296613902
 31
0.0
  0
LINE
  5
344
330
1F
100
AcDbEntity
  8
0
  6
Continuous
 62
     7
100
AcDbLine
 10
6565.9954754308
 20
5731.6296613902
 30
0.0
 11
6565.9584609464
 21
5731.6715336532
 31
0.0
  0
LINE
  5
345
330
1F
100
AcDbEntity
  8
0
  6
Continuous
 62
     7
100
AcDbLine
 10
6581.6384760335
 20
5731.3082433433
 30
0.0
 11
6581.5187601045
 21
5731.2372542113
 31
0.0
  0
LINE
  5
346
330
1F
100
AcDbEntity
  8
0
  6
Continuous
 62
     7
100
AcDbLine
 10
6576.6363946393
 20
5732.3559141845
 30
0.0
 11
6576.7029134229
 21
5732.486031124
 31
0.0
  0
LINE
  5
347
330
1F
100
AcDbEntity
  8
0
  6
Continuous
 62
     7
100
AcDbLine
 10
6573.6623016789
 20
5732.4577487201
 30
0.0
 11
6573.7288204625
 21
5732.5878656596
 31
0.0
  0
LINE
  5
348
330
1F
100
AcDbEntity
  8
0
  6
Continuous
 62
     7
100
AcDbLine
 10
6568.0657235578
 20
5729.9801624507
 30
0.0
 11
6567.2242251828
 21
5730.3389824122
 31
0.0
  0
LINE
  5
349
330
1F
100
AcDbEntity
  8
0
  6
Continuous
 62
     7
100
AcDbLine
 10
6567.2242251828
 20
5730.3389824122
 30
0.0
 11
6566.7004195645
 21
5730.7362473697
 31
0.0
  0
LINE
  5
34A
330
1F
100
AcDbEntity
  8
0
  6
Continuous
 62
     7
100
AcDbLine
 10
6566.7004195645
 20
5730.7362473697
 30
0.0
 11
6566.5188042119
 21
5731.1533606738
 31
0.0
  0
LINE
  5
34B
330
1F
100
AcDbEntity
  8
0
  6
Continuous
 62
     7
100
AcDbLine
 10
6566.5188042119
 20
5731.1533606738
 30
0.0
 11
6566.6879025891
 21
5731.5708018035
 31
0.0
  0
LINE
  5
34C
330
1F
100
AcDbEntity
  8
0
  6
Continuous
 62
     7
100
AcDbLine
 10
6566.6879025891
 20
5731.5708018035
 30
0.0
 11
6567.1997574761
 21
5731.9691098422
 31
0.0
  0
LINE
  5
34D
330
1F
100
AcDbEntity
  8
0
  6
Continuous
 62
     7
100
AcDbLine
 10
6567.1997574761
 20
5731.9691098422
 30
0.0
 11
6567.2762302354
 21
5732.0109821052
 31
0.0
  0
LINE
  5
34E
330
1F
100
AcDbEntity
  8
0
  6
Continuous
 62
     7
100
AcDbLine
 10
6581.4698246911
 20
5731.3822723121
 30
0.0
 11
6581.4715830281
 21
5731.3782489986
 31
0.0
  0
LINE
  5
34F
330
1F
100
AcDbEntity
  8
0
  6
Continuous
 62
     7
100
AcDbLine
 10
6581.4715830281
 20
5731.3782489986
 30
0.0
 11
6581.4778713182
 21
5730.95851309
 31
0.0
  0
LINE
  5
350
330
1F
100
AcDbEntity
  8
0
  6
Continuous
 62
     7
100
AcDbLine
 10
6581.4778713182
 20
5730.95851309
 30
0.0
 11
6581.1353830293
 21
5730.5482245177
 31
0.0
  0
LINE
  5
351
330
1F
100
AcDbEntity
  8
0
  6
Continuous
 62
     7
100
AcDbLine
 10
6581.1353830293
 20
5730.5482245177
 30
0.0
 11
6580.4601518109
 21
5730.1665759772
 31
0.0
  0
LINE
  5
352
330
1F
100
AcDbEntity
  8
0
  6
Continuous
 62
     7
100
AcDbLine
 10
6580.4601518109
 20
5730.1665759772
 30
0.0
 11
6579.4837085202
 21
5729.831448862
 31
0.0
  0
LINE
  5
353
330
1F
100
AcDbEntity
  8
0
  6
Continuous
 62
     7
100
AcDbLine
 10
6579.4837085202
 20
5729.831448862
 30
0.0
 11
6578.251710315
 21
5729.5584595889
 31
0.0
  0
LINE
  5
354
330
1F
100
AcDbEntity
  8
0
  6
Continuous
 62
     7
100
AcDbLine
 10
6578.251710315
 20
5729.5584595889
 30
0.0
 11
6576.8218246892
 21
5729.3604231566
 31
0.0
  0
LINE
  5
355
330
1F
100
AcDbEntity
  8
0
  6
Continuous
 62
     7
100
AcDbLine
 10
6576.8218246892
 20
5729.3604231566
 30
0.0
 11
6575.2608386472
 21
5729.2465484828
 31
0.0
  0
LINE
  5
356
330
1F
100
AcDbEntity
  8
0
  6
Continuous
 62
     7
100
AcDbLine
 10
6575.2608386472
 20
5729.2465484828
 30
0.0
 11
6573.6417976811
 21
5729.2221999854
 31
0.0
  0
LINE
  5
357
330
1F
100
AcDbEntity
  8
0
  6
Continuous
 62
     7
100
AcDbLine
 10
6573.6417976811
 20
5729.2221999854
 30
0.0
 11
6572.0403698876
 21
5729.2884803504
 31
0.0
  0
LINE
  5
358
330
1F
100
AcDbEntity
  8
0
  6
Continuous
 62
     7
100
AcDbLine
 10
6572.0403698876
 20
5729.2884803504
 30
0.0
 11
6570.5314485028
 21
5729.4423497409
 31
0.0
  0
LINE
  5
359
330
1F
100
AcDbEntity
  8
0
  6
Continuous
 62
     7
100
AcDbLine
 10
6570.5314485028
 20
5729.4423497409
 30
0.0
 11
6569.1855756238
 21
5729.6765661925
 31
0.0
  0
LINE
  5
35A
330
1F
100
AcDbEntity
  8
0
  6
Continuous
 62
     7
100
AcDbLine
 10
6569.1855756238
 20
5729.6765661925
 30
0.0
 11
6568.0657235578
 21
5729.9801624507
 31
0.0
  0
LINE
  5
35B
330
1F
100
AcDbEntity
  8
0
  6
Continuous
 62
     7
100
AcDbLine
 10
6573.6623016789
 20
5732.7491260261
 30
0.0
 11
6573.6623016789
 21
5732.4577487201
 31
0.0
  0
LINE
  5
35C
330
1F
100
AcDbEntity
  8
0
  6
Continuous
 62
     7
100
AcDbLine
 10
6569.6574357942
 20
5732.3062337131
 30
0.0
 11
6569.9658898309
 21
5732.202044794
 31
0.0
  0
LINE
  5
35D
330
1F
100
AcDbEntity
  8
0
  6
Continuous
 62
     7
100
AcDbLine
 10
6567.2762302354
 20
5731.8339265079
 30
0.0
 11
6567.5846544698
 21
5731.7297673911
 31
0.0
  0
LINE
  5
35E
330
1F
100
AcDbEntity
  8
0
  6
Continuous
 62
     7
100
AcDbLine
 10
6569.9658898309
 20
5732.5256086082
 30
0.0
 11
6569.9658898309
 21
5732.202044794
 31
0.0
  0
LINE
  5
35F
330
1F
100
AcDbEntity
  8
0
  6
Continuous
 62
     7
100
AcDbLine
 10
6580.3512541249
 20
5731.9400525779
 30
0.0
 11
6579.9487737611
 21
5731.8602121562
 31
0.0
  0
LINE
  5
360
330
1F
100
AcDbEntity
  8
0
  6
Continuous
 62
     7
100
AcDbLine
 10
6582.1760503247
 20
5731.3237405509
 30
0.0
 11
6581.7735401586
 21
5731.2439299316
 31
0.0
  0
LINE
  5
361
330
1F
100
AcDbEntity
  8
0
  6
Continuous
 62
     7
100
AcDbLine
 10
6579.9487737611
 20
5732.2386420459
 30
0.0
 11
6579.9487737611
 21
5731.8602121562
 31
0.0
  0
LINE
  5
362
330
1F
100
AcDbEntity
  8
0
  6
Continuous
 62
     7
100
AcDbLine
 10
6565.6694678262
 20
5731.5597153396
 30
0.0
 11
6565.6694678262
 21
5730.872443983
 31
0.0
  0
LINE
  5
363
330
1F
100
AcDbEntity
  8
0
  6
Continuous
 62
     7
100
AcDbLine
 10
6565.6694678262
 20
5730.872443983
 30
0.0
 11
6565.1667622521
 21
5730.8896697253
 31
0.0
  0
LINE
  5
364
330
1F
100
AcDbEntity
  8
0
  6
Continuous
 62
     7
100
AcDbLine
 10
6565.276017566
 20
5730.1027096004
 30
0.0
 11
6564.773311992
 21
5730.1199055404
 31
0.0
  0
LINE
  5
365
330
1F
100
AcDbEntity
  8
0
  6
Continuous
 62
     7
100
AcDbLine
 10
6565.276017566
 20
5730.2872157783
 30
0.0
 11
6565.276017566
 21
5730.1027096004
 31
0.0
  0
LINE
  5
366
330
1F
100
AcDbEntity
  8
0
  6
Continuous
 62
     7
100
AcDbLine
 10
6582.7614871457
 20
5731.2531388492
 30
0.0
 11
6582.7614871457
 21
5730.2872157783
 31
0.0
  0
LINE
  5
367
330
1F
100
AcDbEntity
  8
0
  6
Continuous
 62
     7
100
AcDbLine
 10
6582.7614871457
 20
5730.2872157783
 30
0.0
 11
6583.2642225221
 21
5730.2699900359
 31
0.0
  0
LINE
  5
368
330
1F
100
AcDbEntity
  8
0
  6
Continuous
 62
     7
100
AcDbLine
 10
6582.3680368856
 20
5729.5174515933
 30
0.0
 11
6582.8707424596
 21
5729.5002556533
 31
0.0
  0
LINE
  5
369
330
1F
100
AcDbEntity
  8
0
  6
Continuous
 62
     7
100
AcDbLine
 10
6582.3680368856
 20
5730.4833746642
 30
0.0
 11
6582.3680368856
 21
5729.5174515933
 31
0.0
  0
LINE
  5
36A
330
1F
100
AcDbEntity
  8
0
  6
Continuous
 62
     7
100
AcDbLine
 10
6566.2639645532
 20
5730.111918518
 30
0.0
 11
6566.2639645532
 21
5729.1459954471
 31
0.0
  0
LINE
  5
36B
330
1F
100
AcDbEntity
  8
0
  6
Continuous
 62
     7
100
AcDbLine
 10
6565.861454387
 20
5729.0661550254
 30
0.0
 11
6566.2639645532
 21
5729.1459954471
 31
0.0
  0
LINE
  5
36C
330
1F
100
AcDbEntity
  8
0
  6
Continuous
 62
     7
100
AcDbLine
 10
6567.6862505868
 20
5728.4498728007
 30
0.0
 11
6568.088760753
 21
5728.5296834201
 31
0.0
  0
LINE
  5
36D
330
1F
100
AcDbEntity
  8
0
  6
Continuous
 62
     7
100
AcDbLine
 10
6568.088760753
 20
5729.495606491
 30
0.0
 11
6568.088760753
 21
5728.5296834201
 31
0.0
  0
LINE
  5
36E
330
1F
100
AcDbEntity
  8
0
  6
Continuous
 62
     7
100
AcDbLine
 10
6580.452850242
 20
5729.6260810584
 30
0.0
 11
6580.452850242
 21
5728.6601579875
 31
0.0
  0
LINE
  5
36F
330
1F
100
AcDbEntity
  8
0
  6
Continuous
 62
     7
100
AcDbLine
 10
6578.0716446832
 20
5729.1538036555
 30
0.0
 11
6578.0716446832
 21
5728.1878805846
 31
0.0
  0
LINE
  5
370
330
1F
100
AcDbEntity
  8
0
  6
Continuous
 62
     7
100
AcDbLine
 10
6580.7613042787
 20
5728.5559988708
 30
0.0
 11
6580.452850242
 21
5728.6601579875
 31
0.0
  0
LINE
  5
371
330
1F
100
AcDbEntity
  8
0
  6
Continuous
 62
     7
100
AcDbLine
 10
6578.3800689176
 20
5728.0836916656
 30
0.0
 11
6578.0716446832
 21
5728.1878805846
 31
0.0
  0
LINE
  5
372
330
1F
100
AcDbEntity
  8
0
  6
Continuous
 62
     7
100
AcDbLine
 10
6571.4011100724
 20
5728.999934265
 30
0.0
 11
6571.4011100724
 21
5728.0340111941
 31
0.0
  0
LINE
  5
373
330
1F
100
AcDbEntity
  8
0
  6
Continuous
 62
     7
100
AcDbLine
 10
6574.3752030328
 20
5728.8980997294
 30
0.0
 11
6574.3752030328
 21
5727.9321766585
 31
0.0
  0
LINE
  5
374
330
1F
100
AcDbEntity
  8
0
  6
Continuous
 62
     7
100
AcDbLine
 10
6571.4011100724
 20
5728.0340111941
 30
0.0
 11
6571.3345912889
 21
5727.9038942546
 31
0.0
  0
LINE
  5
375
330
1F
100
AcDbEntity
  8
0
  6
Continuous
 62
     7
100
AcDbLine
 10
6574.3752030328
 20
5727.9321766585
 30
0.0
 11
6574.3086842492
 21
5727.802059719
 31
0.0
  0
LINE
  5
376
330
1F
100
AcDbEntity
  8
0
  6
Continuous
 62
     7
100
AcDbLine
 10
6561.8680623963
 20
5734.3360698909
 30
0.0
 11
6586.1694423154
 21
5734.3360698909
 31
0.0
  0
LINE
  5
377
330
1F
100
AcDbEntity
  8
0
  6
Continuous
 62
     7
100
AcDbLine
 10
6587.1370791066
 20
5734.0681149829
 30
0.0
 11
6586.1694423154
 21
5734.3360698909
 31
0.0
  0
LINE
  5
378
330
1F
100
AcDbEntity
  8
0
  6
Continuous
 62
     7
100
AcDbLine
 10
6561.8680623963
 20
5734.3360698909
 30
0.0
 11
6560.9004259686
 21
5734.0681140076
 31
0.0
  0
LINE
  5
379
330
1F
100
AcDbEntity
  8
0
  6
Continuous
 62
     7
100
AcDbLine
 10
6574.018767257
 20
5732.7507949561
 30
0.0
 11
6575.8876112893
 21
5732.7046013564
 31
0.0
  0
LINE
  5
37A
330
1F
100
AcDbEntity
  8
0
  6
Continuous
 62
     7
100
AcDbLine
 10
6575.8876112893
 20
5732.7046013564
 30
0.0
 11
6577.6889232591
 21
5732.5677192897
 31
0.0
  0
LINE
  5
37B
330
1F
100
AcDbEntity
  8
0
  6
Continuous
 62
     7
100
AcDbLine
 10
6577.6889232591
 20
5732.5677192897
 30
0.0
 11
6579.3575850919
 21
5732.3450661391
 31
0.0
  0
LINE
  5
37C
330
1F
100
AcDbEntity
  8
0
  6
Continuous
 62
     7
100
AcDbLine
 10
6579.3575850919
 20
5732.3450661391
 30
0.0
 11
6580.8332768872
 21
5732.0447183341
 31
0.0
  0
LINE
  5
37D
330
1F
100
AcDbEntity
  8
0
  6
Continuous
 62
     7
100
AcDbLine
 10
6580.8332768872
 20
5732.0447183341
 30
0.0
 11
6582.0626822904
 21
5731.6774941176
 31
0.0
  0
LINE
  5
37E
330
1F
100
AcDbEntity
  8
0
  6
Continuous
 62
     7
100
AcDbLine
 10
6582.0626822904
 20
5731.6774941176
 30
0.0
 11
6583.0013660386
 21
5731.2566853255
 31
0.0
  0
LINE
  5
37F
330
1F
100
AcDbEntity
  8
0
  6
Continuous
 62
     7
100
AcDbLine
 10
6583.0013660386
 20
5731.2566853255
 30
0.0
 11
6583.6153832868
 21
5730.7975209445
 31
0.0
  0
LINE
  5
380
330
1F
100
AcDbEntity
  8
0
  6
Continuous
 62
     7
100
AcDbLine
 10
6583.6153832868
 20
5730.7975209445
 30
0.0
 11
6583.882561107
 21
5730.3165710658
 31
0.0
  0
LINE
  5
381
330
1F
100
AcDbEntity
  8
0
  6
Continuous
 62
     7
100
AcDbLine
 10
6583.882561107
 20
5730.3165710658
 30
0.0
 11
6583.7932435468
 21
5729.8312104434
 31
0.0
  0
LINE
  5
382
330
1F
100
AcDbEntity
  8
0
  6
Continuous
 62
     7
100
AcDbLine
 10
6583.7932435468
 20
5729.8312104434
 30
0.0
 11
6583.350649257
 21
5729.3590224475
 31
0.0
  0
LINE
  5
383
330
1F
100
AcDbEntity
  8
0
  6
Continuous
 62
     7
100
AcDbLine
 10
6583.350649257
 20
5729.3590224475
 30
0.0
 11
6582.5707522824
 21
5728.9170540065
 31
0.0
  0
LINE
  5
384
330
1F
100
AcDbEntity
  8
0
  6
Continuous
 62
     7
100
AcDbLine
 10
6582.5707522824
 20
5728.9170540065
 30
0.0
 11
6581.4817754224
 21
5728.5212493629
 31
0.0
  0
LINE
  5
385
330
1F
100
AcDbEntity
  8
0
  6
Continuous
 62
     7
100
AcDbLine
 10
6581.4817754224
 20
5728.5212493629
 30
0.0
 11
6580.1230875447
 21
5728.1859434337
 31
0.0
  0
LINE
  5
386
330
1F
100
AcDbEntity
  8
0
  6
Continuous
 62
     7
100
AcDbLine
 10
6580.1230875447
 20
5728.1859434337
 30
0.0
 11
6578.5437432721
 21
5727.9232359618
 31
0.0
  0
LINE
  5
387
330
1F
100
AcDbEntity
  8
0
  6
Continuous
 62
     7
100
AcDbLine
 10
6578.5437432721
 20
5727.9232359618
 30
0.0
 11
6576.8008736566
 21
5727.7426636905
 31
0.0
  0
LINE
  5
388
330
1F
100
AcDbEntity
  8
0
  6
Continuous
 62
     7
100
AcDbLine
 10
6576.8008736566
 20
5727.7426636905
 30
0.0
 11
6574.957421203
 21
5727.6506937236
 31
0.0
  0
LINE
  5
389
330
1F
100
AcDbEntity
  8
0
  6
Continuous
 62
     7
100
AcDbLine
 10
6574.957421203
 20
5727.6506937236
 30
0.0
 11
6573.0800835088
 21
5727.6506937236
 31
0.0
  0
LINE
  5
38A
330
1F
100
AcDbEntity
  8
0
  6
Continuous
 62
     7
100
AcDbLine
 10
6573.0800835088
 20
5727.6506937236
 30
0.0
 11
6571.2366608575
 21
5727.7426636905
 31
0.0
  0
LINE
  5
38B
330
1F
100
AcDbEntity
  8
0
  6
Continuous
 62
     7
100
AcDbLine
 10
6571.2366608575
 20
5727.7426636905
 30
0.0
 11
6569.4937614396
 21
5727.9232359618
 31
0.0
  0
LINE
  5
38C
330
1F
100
AcDbEntity
  8
0
  6
Continuous
 62
     7
100
AcDbLine
 10
6569.4937614396
 20
5727.9232359618
 30
0.0
 11
6567.9144469693
 21
5728.1859434337
 31
0.0
  0
LINE
  5
38D
330
1F
100
AcDbEntity
  8
0
  6
Continuous
 62
     7
100
AcDbLine
 10
6567.9144469693
 20
5728.1859434337
 30
0.0
 11
6566.5557292893
 21
5728.5212493629
 31
0.0
  0
LINE
  5
38E
330
1F
100
AcDbEntity
  8
0
  6
Continuous
 62
     7
100
AcDbLine
 10
6566.5557292893
 20
5728.5212493629
 30
0.0
 11
6565.4667524293
 21
5728.9170540065
 31
0.0
  0
LINE
  5
38F
330
1F
100
AcDbEntity
  8
0
  6
Continuous
 62
     7
100
AcDbLine
 10
6565.4667524293
 20
5728.9170540065
 30
0.0
 11
6564.6868852571
 21
5729.3590224475
 31
0.0
  0
LINE
  5
390
330
1F
100
AcDbEntity
  8
0
  6
Continuous
 62
     7
100
AcDbLine
 10
6564.6868852571
 20
5729.3590224475
 30
0.0
 11
6564.244261165
 21
5729.8312104434
 31
0.0
  0
LINE
  5
391
330
1F
100
AcDbEntity
  8
0
  6
Continuous
 62
     7
100
AcDbLine
 10
6564.244261165
 20
5729.8312104434
 30
0.0
 11
6564.1549436048
 21
5730.3165710658
 31
0.0
  0
LINE
  5
392
330
1F
100
AcDbEntity
  8
0
  6
Continuous
 62
     7
100
AcDbLine
 10
6564.1549436048
 20
5730.3165710658
 30
0.0
 11
6564.422121425
 21
5730.7975209445
 31
0.0
  0
LINE
  5
393
330
1F
100
AcDbEntity
  8
0
  6
Continuous
 62
     7
100
AcDbLine
 10
6564.422121425
 20
5730.7975209445
 30
0.0
 11
6565.0361386731
 21
5731.2566853255
 31
0.0
  0
LINE
  5
394
330
1F
100
AcDbEntity
  8
0
  6
Continuous
 62
     7
100
AcDbLine
 10
6565.0361386731
 20
5731.2566853255
 30
0.0
 11
6565.9748224214
 21
5731.6774941176
 31
0.0
  0
LINE
  5
395
330
1F
100
AcDbEntity
  8
0
  6
Continuous
 62
     7
100
AcDbLine
 10
6565.9748224214
 20
5731.6774941176
 30
0.0
 11
6567.2042278245
 21
5732.0447183341
 31
0.0
  0
LINE
  5
396
330
1F
100
AcDbEntity
  8
0
  6
Continuous
 62
     7
100
AcDbLine
 10
6567.2042278245
 20
5732.0447183341
 30
0.0
 11
6568.6799196199
 21
5732.3450661391
 31
0.0
  0
LINE
  5
397
330
1F
100
AcDbEntity
  8
0
  6
Continuous
 62
     7
100
AcDbLine
 10
6568.6799196199
 20
5732.3450661391
 30
0.0
 11
6570.3485814527
 21
5732.5677192897
 31
0.0
  0
LINE
  5
398
330
1F
100
AcDbEntity
  8
0
  6
Continuous
 62
     7
100
AcDbLine
 10
6570.3485814527
 20
5732.5677192897
 30
0.0
 11
6572.1498934224
 21
5732.7046013564
 31
0.0
  0
LINE
  5
399
330
1F
100
AcDbEntity
  8
0
  6
Continuous
 62
     7
100
AcDbLine
 10
6572.1498934224
 20
5732.7046013564
 30
0.0
 11
6574.018767257
 21
5732.7507949561
 31
0.0
  0
LINE
  5
39A
330
1F
100
AcDbEntity
  8
0
  6
Continuous
 62
     7
100
AcDbLine
 10
6583.248129268
 20
5731.1039484233
 30
0.0
 11
6583.3937434152
 21
5730.6779242248
 31
0.0
  0
LINE
  5
39B
330
1F
100
AcDbEntity
  8
0
  6
Continuous
 62
     7
100
AcDbLine
 10
6583.3937434152
 20
5730.6779242248
 30
0.0
 11
6583.2687524751
 21
5730.2830136508
 31
0.0
  0
LINE
  5
39C
330
1F
100
AcDbEntity
  8
0
  6
Continuous
 62
     7
100
AcDbLine
 10
6582.3680368856
 20
5729.5743740291
 30
0.0
 11
6581.8137732938
 21
5729.3298757762
 31
0.0
  0
LINE
  5
39D
330
1F
100
AcDbEntity
  8
0
  6
Continuous
 62
     7
100
AcDbLine
 10
6581.8137732938
 20
5729.3298757762
 30
0.0
 11
6580.7613042787
 21
5728.9920366496
 31
0.0
  0
LINE
  5
39E
330
1F
100
AcDbEntity
  8
0
  6
Continuous
 62
     7
100
AcDbLine
 10
6565.861454387
 20
5729.4820464343
 30
0.0
 11
6565.3573779061
 21
5729.7493732661
 31
0.0
  0
LINE
  5
39F
330
1F
100
AcDbEntity
  8
0
  6
Continuous
 62
     7
100
AcDbLine
 10
6565.3573779061
 20
5729.7493732661
 30
0.0
 11
6564.8989585832
 21
5730.115614006
 31
0.0
  0
LINE
  5
3A0
330
1F
100
AcDbEntity
  8
0
  6
Continuous
 62
     7
100
AcDbLine
 10
6564.7687522367
 20
5730.2830136508
 30
0.0
 11
6564.6437612966
 21
5730.6779242248
 31
0.0
  0
LINE
  5
3A1
330
1F
100
AcDbEntity
  8
0
  6
Continuous
 62
     7
100
AcDbLine
 10
6564.6437612966
 20
5730.6779242248
 30
0.0
 11
6564.7893754438
 21
5731.1039484233
 31
0.0
  0
LINE
  5
3A2
330
1F
100
AcDbEntity
  8
0
  6
Continuous
 62
     7
100
AcDbLine
 10
7161.8680862382
 20
5734.3360698909
 30
0.0
 11
7186.1694363549
 21
5734.3360698909
 31
0.0
  0
LINE
  5
3A3
330
1F
100
AcDbEntity
  8
0
  6
Continuous
 62
     7
100
AcDbLine
 10
7187.1370847036
 20
5734.0681140076
 30
0.0
 11
7186.1694363549
 21
5734.3360698909
 31
0.0
  0
LINE
  5
3A4
330
1F
100
AcDbEntity
  8
0
  6
Continuous
 62
     7
100
AcDbLine
 10
7161.8680862382
 20
5734.3360698909
 30
0.0
 11
7160.9004259686
 21
5734.0681140076
 31
0.0
  0
LINE
  5
3A5
330
1F
100
AcDbEntity
  8
0
  6
Continuous
 62
     7
100
AcDbLine
 10
7174.0187314942
 20
5732.7507949561
 30
0.0
 11
7175.8876351312
 21
5732.7046013564
 31
0.0
  0
LINE
  5
3A6
330
1F
100
AcDbEntity
  8
0
  6
Continuous
 62
     7
100
AcDbLine
 10
7175.8876351312
 20
5732.7046013564
 30
0.0
 11
7177.6889471009
 21
5732.5677192897
 31
0.0
  0
LINE
  5
3A7
330
1F
100
AcDbEntity
  8
0
  6
Continuous
 62
     7
100
AcDbLine
 10
7177.6889471009
 20
5732.5677192897
 30
0.0
 11
7179.3575791314
 21
5732.3450661391
 31
0.0
  0
LINE
  5
3A8
330
1F
100
AcDbEntity
  8
0
  6
Continuous
 62
     7
100
AcDbLine
 10
7179.3575791314
 20
5732.3450661391
 30
0.0
 11
7180.8332709268
 21
5732.0447183341
 31
0.0
  0
LINE
  5
3A9
330
1F
100
AcDbEntity
  8
0
  6
Continuous
 62
     7
100
AcDbLine
 10
7180.8332709268
 20
5732.0447183341
 30
0.0
 11
7182.0626763299
 21
5731.6774941176
 31
0.0
  0
LINE
  5
3AA
330
1F
100
AcDbEntity
  8
0
  6
Continuous
 62
     7
100
AcDbLine
 10
7182.0626763299
 20
5731.6774941176
 30
0.0
 11
7183.0013898805
 21
5731.2566853255
 31
0.0
  0
LINE
  5
3AB
330
1F
100
AcDbEntity
  8
0
  6
Continuous
 62
     7
100
AcDbLine
 10
7183.0013898805
 20
5731.2566853255
 30
0.0
 11
7183.6153773263
 21
5730.7975209445
 31
0.0
  0
LINE
  5
3AC
330
1F
100
AcDbEntity
  8
0
  6
Continuous
 62
     7
100
AcDbLine
 10
7183.6153773263
 20
5730.7975209445
 30
0.0
 11
7183.8825849488
 21
5730.3165710658
 31
0.0
  0
LINE
  5
3AD
330
1F
100
AcDbEntity
  8
0
  6
Continuous
 62
     7
100
AcDbLine
 10
7183.8825849488
 20
5730.3165710658
 30
0.0
 11
7183.7932375863
 21
5729.8312104434
 31
0.0
  0
LINE
  5
3AE
330
1F
100
AcDbEntity
  8
0
  6
Continuous
 62
     7
100
AcDbLine
 10
7183.7932375863
 20
5729.8312104434
 30
0.0
 11
7183.3506134942
 21
5729.3590224475
 31
0.0
  0
LINE
  5
3AF
330
1F
100
AcDbEntity
  8
0
  6
Continuous
 62
     7
100
AcDbLine
 10
7183.3506134942
 20
5729.3590224475
 30
0.0
 11
7182.570746322
 21
5728.9170540065
 31
0.0
  0
LINE
  5
3B0
330
1F
100
AcDbEntity
  8
0
  6
Continuous
 62
     7
100
AcDbLine
 10
7182.570746322
 20
5728.9170540065
 30
0.0
 11
7181.4817694619
 21
5728.5212493629
 31
0.0
  0
LINE
  5
3B1
330
1F
100
AcDbEntity
  8
0
  6
Continuous
 62
     7
100
AcDbLine
 10
7181.4817694619
 20
5728.5212493629
 30
0.0
 11
7180.1230815843
 21
5728.1859434337
 31
0.0
  0
LINE
  5
3B2
330
1F
100
AcDbEntity
  8
0
  6
Continuous
 62
     7
100
AcDbLine
 10
7180.1230815843
 20
5728.1859434337
 30
0.0
 11
7178.5437373117
 21
5727.9232359618
 31
0.0
  0
LINE
  5
3B3
330
1F
100
AcDbEntity
  8
0
  6
Continuous
 62
     7
100
AcDbLine
 10
7178.5437373117
 20
5727.9232359618
 30
0.0
 11
7176.8008378938
 21
5727.7426636905
 31
0.0
  0
LINE
  5
3B4
330
1F
100
AcDbEntity
  8
0
  6
Continuous
 62
     7
100
AcDbLine
 10
7176.8008378938
 20
5727.7426636905
 30
0.0
 11
7174.9574450448
 21
5727.6506937236
 31
0.0
  0
LINE
  5
3B5
330
1F
100
AcDbEntity
  8
0
  6
Continuous
 62
     7
100
AcDbLine
 10
7174.9574450448
 20
5727.6506937236
 30
0.0
 11
7173.0800775483
 21
5727.6506937236
 31
0.0
  0
LINE
  5
3B6
330
1F
100
AcDbEntity
  8
0
  6
Continuous
 62
     7
100
AcDbLine
 10
7173.0800775483
 20
5727.6506937236
 30
0.0
 11
7171.2366250947
 21
5727.7426636905
 31
0.0
  0
LINE
  5
3B7
330
1F
100
AcDbEntity
  8
0
  6
Continuous
 62
     7
100
AcDbLine
 10
7171.2366250947
 20
5727.7426636905
 30
0.0
 11
7169.4937852815
 21
5727.9232359618
 31
0.0
  0
LINE
  5
3B8
330
1F
100
AcDbEntity
  8
0
  6
Continuous
 62
     7
100
AcDbLine
 10
7169.4937852815
 20
5727.9232359618
 30
0.0
 11
7167.9144410089
 21
5728.1859434337
 31
0.0
  0
LINE
  5
3B9
330
1F
100
AcDbEntity
  8
0
  6
Continuous
 62
     7
100
AcDbLine
 10
7167.9144410089
 20
5728.1859434337
 30
0.0
 11
7166.5557531312
 21
5728.5212493629
 31
0.0
  0
LINE
  5
3BA
330
1F
100
AcDbEntity
  8
0
  6
Continuous
 62
     7
100
AcDbLine
 10
7166.5557531312
 20
5728.5212493629
 30
0.0
 11
7165.4667762712
 21
5728.9170540065
 31
0.0
  0
LINE
  5
3BB
330
1F
100
AcDbEntity
  8
0
  6
Continuous
 62
     7
100
AcDbLine
 10
7165.4667762712
 20
5728.9170540065
 30
0.0
 11
7164.6868494943
 21
5729.3590224475
 31
0.0
  0
LINE
  5
3BC
330
1F
100
AcDbEntity
  8
0
  6
Continuous
 62
     7
100
AcDbLine
 10
7164.6868494943
 20
5729.3590224475
 30
0.0
 11
7164.2442850068
 21
5729.8312104434
 31
0.0
  0
LINE
  5
3BD
330
1F
100
AcDbEntity
  8
0
  6
Continuous
 62
     7
100
AcDbLine
 10
7164.2442850068
 20
5729.8312104434
 30
0.0
 11
7164.1549376443
 21
5730.3165710658
 31
0.0
  0
LINE
  5
3BE
330
1F
100
AcDbEntity
  8
0
  6
Continuous
 62
     7
100
AcDbLine
 10
7164.1549376443
 20
5730.3165710658
 30
0.0
 11
7164.4221452668
 21
5730.7975209445
 31
0.0
  0
LINE
  5
3BF
330
1F
100
AcDbEntity
  8
0
  6
Continuous
 62
     7
100
AcDbLine
 10
7164.4221452668
 20
5730.7975209445
 30
0.0
 11
7165.0361327127
 21
5731.2566853255
 31
0.0
  0
LINE
  5
3C0
330
1F
100
AcDbEntity
  8
0
  6
Continuous
 62
     7
100
AcDbLine
 10
7165.0361327127
 20
5731.2566853255
 30
0.0
 11
7165.9748462632
 21
5731.6774941176
 31
0.0
  0
LINE
  5
3C1
330
1F
100
AcDbEntity
  8
0
  6
Continuous
 62
     7
100
AcDbLine
 10
7165.9748462632
 20
5731.6774941176
 30
0.0
 11
7167.2042516664
 21
5732.0447183341
 31
0.0
  0
LINE
  5
3C2
330
1F
100
AcDbEntity
  8
0
  6
Continuous
 62
     7
100
AcDbLine
 10
7167.2042516664
 20
5732.0447183341
 30
0.0
 11
7168.6799434617
 21
5732.3450661391
 31
0.0
  0
LINE
  5
3C3
330
1F
100
AcDbEntity
  8
0
  6
Continuous
 62
     7
100
AcDbLine
 10
7168.6799434617
 20
5732.3450661391
 30
0.0
 11
7170.3485754922
 21
5732.5677192897
 31
0.0
  0
LINE
  5
3C4
330
1F
100
AcDbEntity
  8
0
  6
Continuous
 62
     7
100
AcDbLine
 10
7170.3485754922
 20
5732.5677192897
 30
0.0
 11
7172.149887462
 21
5732.7046013564
 31
0.0
  0
LINE
  5
3C5
330
1F
100
AcDbEntity
  8
0
  6
Continuous
 62
     7
100
AcDbLine
 10
7172.149887462
 20
5732.7046013564
 30
0.0
 11
7174.0187314942
 21
5732.7507949561
 31
0.0
  0
LINE
  5
3C6
330
1F
100
AcDbEntity
  8
0
  6
Continuous
 62
     7
100
AcDbLine
 10
7183.2481531098
 20
5731.1039484233
 30
0.0
 11
7183.393767257
 21
5730.6779242248
 31
0.0
  0
LINE
  5
3C7
330
1F
100
AcDbEntity
  8
0
  6
Continuous
 62
     7
100
AcDbLine
 10
7183.393767257
 20
5730.6779242248
 30
0.0
 11
7183.2687763169
 21
5730.2830136508
 31
0.0
  0
LINE
  5
3C8
330
1F
100
AcDbEntity
  8
0
  6
Continuous
 62
     7
100
AcDbLine
 10
7182.3680309251
 20
5729.5743740291
 30
0.0
 11
7181.8137673333
 21
5729.3298757762
 31
0.0
  0
LINE
  5
3C9
330
1F
100
AcDbEntity
  8
0
  6
Continuous
 62
     7
100
AcDbLine
 10
7181.8137673333
 20
5729.3298757762
 30
0.0
 11
7180.7612685159
 21
5728.9920366496
 31
0.0
  0
LINE
  5
3CA
330
1F
100
AcDbEntity
  8
0
  6
Continuous
 62
     7
100
AcDbLine
 10
7165.8614782289
 20
5729.4820464343
 30
0.0
 11
7165.357401748
 21
5729.7493732661
 31
0.0
  0
LINE
  5
3CB
330
1F
100
AcDbEntity
  8
0
  6
Continuous
 62
     7
100
AcDbLine
 10
7165.357401748
 20
5729.7493732661
 30
0.0
 11
7164.898982425
 21
5730.115614006
 31
0.0
  0
LINE
  5
3CC
330
1F
100
AcDbEntity
  8
0
  6
Continuous
 62
     7
100
AcDbLine
 10
7164.7687462762
 20
5730.2830136508
 30
0.0
 11
7164.6437553361
 21
5730.6779242248
 31
0.0
  0
LINE
  5
3CD
330
1F
100
AcDbEntity
  8
0
  6
Continuous
 62
     7
100
AcDbLine
 10
7164.6437553361
 20
5730.6779242248
 30
0.0
 11
7164.7687462762
 21
5731.0728347987
 31
0.0
  0
LINE
  5
3CE
330
1F
100
AcDbEntity
  8
0
  6
Continuous
 62
     7
100
AcDbLine
 10
5387.1370847036
 20
5734.0681140076
 30
0.0
 11
5386.169424434
 21
5734.3360698909
 31
0.0
  0
LINE
  5
3CF
330
1F
100
AcDbEntity
  8
0
  6
Continuous
 62
     7
100
AcDbLine
 10
5361.8680743173
 20
5734.3360698909
 30
0.0
 11
5360.9004259686
 21
5734.0681140076
 31
0.0
  0
LINE
  5
3D0
330
1F
100
AcDbEntity
  8
0
  6
Continuous
 62
     7
100
AcDbLine
 10
5361.8680743173
 20
5734.3360698909
 30
0.0
 11
5386.169424434
 21
5734.3360698909
 31
0.0
  0
LINE
  5
3D1
330
1F
100
AcDbEntity
  8
0
  6
Continuous
 62
     7
100
AcDbLine
 10
5374.018779178
 20
5732.7507949561
 30
0.0
 11
5375.8876232102
 21
5732.7046013564
 31
0.0
  0
LINE
  5
3D2
330
1F
100
AcDbEntity
  8
0
  6
Continuous
 62
     7
100
AcDbLine
 10
5375.8876232102
 20
5732.7046013564
 30
0.0
 11
5377.68893518
 21
5732.5677192897
 31
0.0
  0
LINE
  5
3D3
330
1F
100
AcDbEntity
  8
0
  6
Continuous
 62
     7
100
AcDbLine
 10
5377.68893518
 20
5732.5677192897
 30
0.0
 11
5379.3575672105
 21
5732.3450661391
 31
0.0
  0
LINE
  5
3D4
330
1F
100
AcDbEntity
  8
0
  6
Continuous
 62
     7
100
AcDbLine
 10
5379.3575672105
 20
5732.3450661391
 30
0.0
 11
5380.8332590058
 21
5732.0447183341
 31
0.0
  0
LINE
  5
3D5
330
1F
100
AcDbEntity
  8
0
  6
Continuous
 62
     7
100
AcDbLine
 10
5380.8332590058
 20
5732.0447183341
 30
0.0
 11
5382.062664409
 21
5731.6774941176
 31
0.0
  0
LINE
  5
3D6
330
1F
100
AcDbEntity
  8
0
  6
Continuous
 62
     7
100
AcDbLine
 10
5382.062664409
 20
5731.6774941176
 30
0.0
 11
5383.0013779595
 21
5731.2566853255
 31
0.0
  0
LINE
  5
3D7
330
1F
100
AcDbEntity
  8
0
  6
Continuous
 62
     7
100
AcDbLine
 10
5383.0013779595
 20
5731.2566853255
 30
0.0
 11
5383.6153654054
 21
5730.7975209445
 31
0.0
  0
LINE
  5
3D8
330
1F
100
AcDbEntity
  8
0
  6
Continuous
 62
     7
100
AcDbLine
 10
5383.6153654054
 20
5730.7975209445
 30
0.0
 11
5383.8825730279
 21
5730.3165710658
 31
0.0
  0
LINE
  5
3D9
330
1F
100
AcDbEntity
  8
0
  6
Continuous
 62
     7
100
AcDbLine
 10
5383.8825730279
 20
5730.3165710658
 30
0.0
 11
5383.7932256654
 21
5729.8312104434
 31
0.0
  0
LINE
  5
3DA
330
1F
100
AcDbEntity
  8
0
  6
Continuous
 62
     7
100
AcDbLine
 10
5383.7932256654
 20
5729.8312104434
 30
0.0
 11
5383.3506611779
 21
5729.3590224475
 31
0.0
  0
LINE
  5
3DB
330
1F
100
AcDbEntity
  8
0
  6
Continuous
 62
     7
100
AcDbLine
 10
5383.3506611779
 20
5729.3590224475
 30
0.0
 11
5382.570734401
 21
5728.9170540065
 31
0.0
  0
LINE
  5
3DC
330
1F
100
AcDbEntity
  8
0
  6
Continuous
 62
     7
100
AcDbLine
 10
5382.570734401
 20
5728.9170540065
 30
0.0
 11
5381.481757541
 21
5728.5212493629
 31
0.0
  0
LINE
  5
3DD
330
1F
100
AcDbEntity
  8
0
  6
Continuous
 62
     7
100
AcDbLine
 10
5381.481757541
 20
5728.5212493629
 30
0.0
 11
5380.1230696633
 21
5728.1859434337
 31
0.0
  0
LINE
  5
3DE
330
1F
100
AcDbEntity
  8
0
  6
Continuous
 62
     7
100
AcDbLine
 10
5380.1230696633
 20
5728.1859434337
 30
0.0
 11
5378.5437253907
 21
5727.9232359618
 31
0.0
  0
LINE
  5
3DF
330
1F
100
AcDbEntity
  8
0
  6
Continuous
 62
     7
100
AcDbLine
 10
5378.5437253907
 20
5727.9232359618
 30
0.0
 11
5376.8008855775
 21
5727.7426636905
 31
0.0
  0
LINE
  5
3E0
330
1F
100
AcDbEntity
  8
0
  6
Continuous
 62
     7
100
AcDbLine
 10
5376.8008855775
 20
5727.7426636905
 30
0.0
 11
5374.9574331239
 21
5727.6506937236
 31
0.0
  0
LINE
  5
3E1
330
1F
100
AcDbEntity
  8
0
  6
Continuous
 62
     7
100
AcDbLine
 10
5374.9574331239
 20
5727.6506937236
 30
0.0
 11
5373.0800656274
 21
5727.6506937236
 31
0.0
  0
LINE
  5
3E2
330
1F
100
AcDbEntity
  8
0
  6
Continuous
 62
     7
100
AcDbLine
 10
5373.0800656274
 20
5727.6506937236
 30
0.0
 11
5371.2366727784
 21
5727.7426636905
 31
0.0
  0
LINE
  5
3E3
330
1F
100
AcDbEntity
  8
0
  6
Continuous
 62
     7
100
AcDbLine
 10
5371.2366727784
 20
5727.7426636905
 30
0.0
 11
5369.4937733605
 21
5727.9232359618
 31
0.0
  0
LINE
  5
3E4
330
1F
100
AcDbEntity
  8
0
  6
Continuous
 62
     7
100
AcDbLine
 10
5369.4937733605
 20
5727.9232359618
 30
0.0
 11
5367.9144290879
 21
5728.1859434337
 31
0.0
  0
LINE
  5
3E5
330
1F
100
AcDbEntity
  8
0
  6
Continuous
 62
     7
100
AcDbLine
 10
5367.9144290879
 20
5728.1859434337
 30
0.0
 11
5366.5557412103
 21
5728.5212493629
 31
0.0
  0
LINE
  5
3E6
330
1F
100
AcDbEntity
  8
0
  6
Continuous
 62
     7
100
AcDbLine
 10
5366.5557412103
 20
5728.5212493629
 30
0.0
 11
5365.4667643502
 21
5728.9170540065
 31
0.0
  0
LINE
  5
3E7
330
1F
100
AcDbEntity
  8
0
  6
Continuous
 62
     7
100
AcDbLine
 10
5365.4667643502
 20
5728.9170540065
 30
0.0
 11
5364.686897178
 21
5729.3590224475
 31
0.0
  0
LINE
  5
3E8
330
1F
100
AcDbEntity
  8
0
  6
Continuous
 62
     7
100
AcDbLine
 10
5364.686897178
 20
5729.3590224475
 30
0.0
 11
5364.2442730859
 21
5729.8312104434
 31
0.0
  0
LINE
  5
3E9
330
1F
100
AcDbEntity
  8
0
  6
Continuous
 62
     7
100
AcDbLine
 10
5364.2442730859
 20
5729.8312104434
 30
0.0
 11
5364.1549257234
 21
5730.3165710658
 31
0.0
  0
LINE
  5
3EA
330
1F
100
AcDbEntity
  8
0
  6
Continuous
 62
     7
100
AcDbLine
 10
5364.1549257234
 20
5730.3165710658
 30
0.0
 11
5364.4221333459
 21
5730.7975209445
 31
0.0
  0
LINE
  5
3EB
330
1F
100
AcDbEntity
  8
0
  6
Continuous
 62
     7
100
AcDbLine
 10
5364.4221333459
 20
5730.7975209445
 30
0.0
 11
5365.0361207917
 21
5731.2566853255
 31
0.0
  0
LINE
  5
3EC
330
1F
100
AcDbEntity
  8
0
  6
Continuous
 62
     7
100
AcDbLine
 10
5365.0361207917
 20
5731.2566853255
 30
0.0
 11
5365.9748343423
 21
5731.6774941176
 31
0.0
  0
LINE
  5
3ED
330
1F
100
AcDbEntity
  8
0
  6
Continuous
 62
     7
100
AcDbLine
 10
5365.9748343423
 20
5731.6774941176
 30
0.0
 11
5367.2042397454
 21
5732.0447183341
 31
0.0
  0
LINE
  5
3EE
330
1F
100
AcDbEntity
  8
0
  6
Continuous
 62
     7
100
AcDbLine
 10
5367.2042397454
 20
5732.0447183341
 30
0.0
 11
5368.6799315408
 21
5732.3450661391
 31
0.0
  0
LINE
  5
3EF
330
1F
100
AcDbEntity
  8
0
  6
Continuous
 62
     7
100
AcDbLine
 10
5368.6799315408
 20
5732.3450661391
 30
0.0
 11
5370.3485635713
 21
5732.5677192897
 31
0.0
  0
LINE
  5
3F0
330
1F
100
AcDbEntity
  8
0
  6
Continuous
 62
     7
100
AcDbLine
 10
5370.3485635713
 20
5732.5677192897
 30
0.0
 11
5372.149875541
 21
5732.7046013564
 31
0.0
  0
LINE
  5
3F1
330
1F
100
AcDbEntity
  8
0
  6
Continuous
 62
     7
100
AcDbLine
 10
5372.149875541
 20
5732.7046013564
 30
0.0
 11
5374.018779178
 21
5732.7507949561
 31
0.0
  0
LINE
  5
3F2
330
1F
100
AcDbEntity
  8
0
  6
Continuous
 62
     7
100
AcDbLine
 10
5383.2481411889
 20
5731.1039484233
 30
0.0
 11
5383.3937553361
 21
5730.6779242248
 31
0.0
  0
LINE
  5
3F3
330
1F
100
AcDbEntity
  8
0
  6
Continuous
 62
     7
100
AcDbLine
 10
5383.3937553361
 20
5730.6779242248
 30
0.0
 11
5383.268764396
 21
5730.2830136508
 31
0.0
  0
LINE
  5
3F4
330
1F
100
AcDbEntity
  8
0
  6
Continuous
 62
     7
100
AcDbLine
 10
5382.3680190042
 20
5729.5743740291
 30
0.0
 11
5381.8137554124
 21
5729.3298757762
 31
0.0
  0
LINE
  5
3F5
330
1F
100
AcDbEntity
  8
0
  6
Continuous
 62
     7
100
AcDbLine
 10
5381.8137554124
 20
5729.3298757762
 30
0.0
 11
5380.7613161996
 21
5728.9920366496
 31
0.0
  0
LINE
  5
3F6
330
1F
100
AcDbEntity
  8
0
  6
Continuous
 62
     7
100
AcDbLine
 10
5365.8614663079
 20
5729.4820464343
 30
0.0
 11
5365.3573898271
 21
5729.7493732661
 31
0.0
  0
LINE
  5
3F7
330
1F
100
AcDbEntity
  8
0
  6
Continuous
 62
     7
100
AcDbLine
 10
5365.3573898271
 20
5729.7493732661
 30
0.0
 11
5364.8989705041
 21
5730.115614006
 31
0.0
  0
LINE
  5
3F8
330
1F
100
AcDbEntity
  8
0
  6
Continuous
 62
     7
100
AcDbLine
 10
5364.7687343553
 20
5730.2830136508
 30
0.0
 11
5364.6437434152
 21
5730.6779242248
 31
0.0
  0
LINE
  5
3F9
330
1F
100
AcDbEntity
  8
0
  6
Continuous
 62
     7
100
AcDbLine
 10
5364.6437434152
 20
5730.6779242248
 30
0.0
 11
5364.7893575624
 21
5731.103918621
 31
0.0
  0
LINE
  5
3FA
330
1F
100
AcDbEntity
  8
0
  6
Continuous
 62
     7
100
AcDbLine
 10
5987.1370903005
 20
5734.0681130322
 30
0.0
 11
5986.1694482759
 21
5734.3360698909
 31
0.0
  0
LINE
  5
3FB
330
1F
100
AcDbEntity
  8
0
  6
Continuous
 62
     7
100
AcDbLine
 10
5961.8680683568
 20
5734.3360698909
 30
0.0
 11
5960.9004259686
 21
5734.0681140076
 31
0.0
  0
LINE
  5
3FC
330
1F
100
AcDbEntity
  8
0
  6
Continuous
 62
     7
100
AcDbLine
 10
5961.8680683568
 20
5734.3360698909
 30
0.0
 11
5986.1694482759
 21
5734.3360698909
 31
0.0
  0
LINE
  5
3FD
330
1F
100
AcDbEntity
  8
0
  6
Continuous
 62
     7
100
AcDbLine
 10
5974.0187434152
 20
5732.7507949561
 30
0.0
 11
5975.8876172498
 21
5732.7046013564
 31
0.0
  0
LINE
  5
3FE
330
1F
100
AcDbEntity
  8
0
  6
Continuous
 62
     7
100
AcDbLine
 10
5975.8876172498
 20
5732.7046013564
 30
0.0
 11
5977.6889292195
 21
5732.5677192897
 31
0.0
  0
LINE
  5
3FF
330
1F
100
AcDbEntity
  8
0
  6
Continuous
 62
     7
100
AcDbLine
 10
5977.6889292195
 20
5732.5677192897
 30
0.0
 11
5979.3575910523
 21
5732.3450661391
 31
0.0
  0
LINE
  5
400
330
1F
100
AcDbEntity
  8
0
  6
Continuous
 62
     7
100
AcDbLine
 10
5979.3575910523
 20
5732.3450661391
 30
0.0
 11
5980.8332828477
 21
5732.0447183341
 31
0.0
  0
LINE
  5
401
330
1F
100
AcDbEntity
  8
0
  6
Continuous
 62
     7
100
AcDbLine
 10
5980.8332828477
 20
5732.0447183341
 30
0.0
 11
5982.0626882508
 21
5731.6774941176
 31
0.0
  0
LINE
  5
402
330
1F
100
AcDbEntity
  8
0
  6
Continuous
 62
     7
100
AcDbLine
 10
5982.0626882508
 20
5731.6774941176
 30
0.0
 11
5983.0013719991
 21
5731.2566853255
 31
0.0
  0
LINE
  5
403
330
1F
100
AcDbEntity
  8
0
  6
Continuous
 62
     7
100
AcDbLine
 10
5983.0013719991
 20
5731.2566853255
 30
0.0
 11
5983.6153892472
 21
5730.7975209445
 31
0.0
  0
LINE
  5
404
330
1F
100
AcDbEntity
  8
0
  6
Continuous
 62
     7
100
AcDbLine
 10
5983.6153892472
 20
5730.7975209445
 30
0.0
 11
5983.8825670674
 21
5730.3165710658
 31
0.0
  0
LINE
  5
405
330
1F
100
AcDbEntity
  8
0
  6
Continuous
 62
     7
100
AcDbLine
 10
5983.8825670674
 20
5730.3165710658
 30
0.0
 11
5983.7932495072
 21
5729.8312104434
 31
0.0
  0
LINE
  5
406
330
1F
100
AcDbEntity
  8
0
  6
Continuous
 62
     7
100
AcDbLine
 10
5983.7932495072
 20
5729.8312104434
 30
0.0
 11
5983.3506254151
 21
5729.3590224475
 31
0.0
  0
LINE
  5
407
330
1F
100
AcDbEntity
  8
0
  6
Continuous
 62
     7
100
AcDbLine
 10
5983.3506254151
 20
5729.3590224475
 30
0.0
 11
5982.5707582429
 21
5728.9170540065
 31
0.0
  0
LINE
  5
408
330
1F
100
AcDbEntity
  8
0
  6
Continuous
 62
     7
100
AcDbLine
 10
5982.5707582429
 20
5728.9170540065
 30
0.0
 11
5981.4817813829
 21
5728.5212493629
 31
0.0
  0
LINE
  5
409
330
1F
100
AcDbEntity
  8
0
  6
Continuous
 62
     7
100
AcDbLine
 10
5981.4817813829
 20
5728.5212493629
 30
0.0
 11
5980.1230637029
 21
5728.1859434337
 31
0.0
  0
LINE
  5
40A
330
1F
100
AcDbEntity
  8
0
  6
Continuous
 62
     7
100
AcDbLine
 10
5980.1230637029
 20
5728.1859434337
 30
0.0
 11
5978.5437492326
 21
5727.9232359618
 31
0.0
  0
LINE
  5
40B
330
1F
100
AcDbEntity
  8
0
  6
Continuous
 62
     7
100
AcDbLine
 10
5978.5437492326
 20
5727.9232359618
 30
0.0
 11
5976.8008498147
 21
5727.7426636905
 31
0.0
  0
LINE
  5
40C
330
1F
100
AcDbEntity
  8
0
  6
Continuous
 62
     7
100
AcDbLine
 10
5976.8008498147
 20
5727.7426636905
 30
0.0
 11
5974.9574271634
 21
5727.6506937236
 31
0.0
  0
LINE
  5
40D
330
1F
100
AcDbEntity
  8
0
  6
Continuous
 62
     7
100
AcDbLine
 10
5974.9574271634
 20
5727.6506937236
 30
0.0
 11
5973.0800894692
 21
5727.6506937236
 31
0.0
  0
LINE
  5
40E
330
1F
100
AcDbEntity
  8
0
  6
Continuous
 62
     7
100
AcDbLine
 10
5973.0800894692
 20
5727.6506937236
 30
0.0
 11
5971.2366370156
 21
5727.7426636905
 31
0.0
  0
LINE
  5
40F
330
1F
100
AcDbEntity
  8
0
  6
Continuous
 62
     7
100
AcDbLine
 10
5971.2366370156
 20
5727.7426636905
 30
0.0
 11
5969.4937674001
 21
5727.9232359618
 31
0.0
  0
LINE
  5
410
330
1F
100
AcDbEntity
  8
0
  6
Continuous
 62
     7
100
AcDbLine
 10
5969.4937674001
 20
5727.9232359618
 30
0.0
 11
5967.9144231275
 21
5728.1859434337
 31
0.0
  0
LINE
  5
411
330
1F
100
AcDbEntity
  8
0
  6
Continuous
 62
     7
100
AcDbLine
 10
5967.9144231275
 20
5728.1859434337
 30
0.0
 11
5966.5557352498
 21
5728.5212493629
 31
0.0
  0
LINE
  5
412
330
1F
100
AcDbEntity
  8
0
  6
Continuous
 62
     7
100
AcDbLine
 10
5966.5557352498
 20
5728.5212493629
 30
0.0
 11
5965.4667583898
 21
5728.9170540065
 31
0.0
  0
LINE
  5
413
330
1F
100
AcDbEntity
  8
0
  6
Continuous
 62
     7
100
AcDbLine
 10
5965.4667583898
 20
5728.9170540065
 30
0.0
 11
5964.6868614152
 21
5729.3590224475
 31
0.0
  0
LINE
  5
414
330
1F
100
AcDbEntity
  8
0
  6
Continuous
 62
     7
100
AcDbLine
 10
5964.6868614152
 20
5729.3590224475
 30
0.0
 11
5964.2442671254
 21
5729.8312104434
 31
0.0
  0
LINE
  5
415
330
1F
100
AcDbEntity
  8
0
  6
Continuous
 62
     7
100
AcDbLine
 10
5964.2442671254
 20
5729.8312104434
 30
0.0
 11
5964.1549495652
 21
5730.3165710658
 31
0.0
  0
LINE
  5
416
330
1F
100
AcDbEntity
  8
0
  6
Continuous
 62
     7
100
AcDbLine
 10
5964.1549495652
 20
5730.3165710658
 30
0.0
 11
5964.4221273854
 21
5730.7975209445
 31
0.0
  0
LINE
  5
417
330
1F
100
AcDbEntity
  8
0
  6
Continuous
 62
     7
100
AcDbLine
 10
5964.4221273854
 20
5730.7975209445
 30
0.0
 11
5965.0361446336
 21
5731.2566853255
 31
0.0
  0
LINE
  5
418
330
1F
100
AcDbEntity
  8
0
  6
Continuous
 62
     7
100
AcDbLine
 10
5965.0361446336
 20
5731.2566853255
 30
0.0
 11
5965.9748283818
 21
5731.6774941176
 31
0.0
  0
LINE
  5
419
330
1F
100
AcDbEntity
  8
0
  6
Continuous
 62
     7
100
AcDbLine
 10
5965.9748283818
 20
5731.6774941176
 30
0.0
 11
5967.204233785
 21
5732.0447183341
 31
0.0
  0
LINE
  5
41A
330
1F
100
AcDbEntity
  8
0
  6
Continuous
 62
     7
100
AcDbLine
 10
5967.204233785
 20
5732.0447183341
 30
0.0
 11
5968.6799255803
 21
5732.3450661391
 31
0.0
  0
LINE
  5
41B
330
1F
100
AcDbEntity
  8
0
  6
Continuous
 62
     7
100
AcDbLine
 10
5968.6799255803
 20
5732.3450661391
 30
0.0
 11
5970.3485874131
 21
5732.5677192897
 31
0.0
  0
LINE
  5
41C
330
1F
100
AcDbEntity
  8
0
  6
Continuous
 62
     7
100
AcDbLine
 10
5970.3485874131
 20
5732.5677192897
 30
0.0
 11
5972.1498993829
 21
5732.7046013564
 31
0.0
  0
LINE
  5
41D
330
1F
100
AcDbEntity
  8
0
  6
Continuous
 62
     7
100
AcDbLine
 10
5972.1498993829
 20
5732.7046013564
 30
0.0
 11
5974.0187434152
 21
5732.7507949561
 31
0.0
  0
LINE
  5
41E
330
1F
100
AcDbEntity
  8
0
  6
Continuous
 62
     7
100
AcDbLine
 10
5983.2481352284
 20
5731.1039484233
 30
0.0
 11
5983.3937493756
 21
5730.6779242248
 31
0.0
  0
LINE
  5
41F
330
1F
100
AcDbEntity
  8
0
  6
Continuous
 62
     7
100
AcDbLine
 10
5983.3937493756
 20
5730.6779242248
 30
0.0
 11
5983.2687584355
 21
5730.2830136508
 31
0.0
  0
LINE
  5
420
330
1F
100
AcDbEntity
  8
0
  6
Continuous
 62
     7
100
AcDbLine
 10
5982.368042846
 20
5729.5743740291
 30
0.0
 11
5981.8137792543
 21
5729.3298757762
 31
0.0
  0
LINE
  5
421
330
1F
100
AcDbEntity
  8
0
  6
Continuous
 62
     7
100
AcDbLine
 10
5981.8137792543
 20
5729.3298757762
 30
0.0
 11
5980.7612804368
 21
5728.9920366496
 31
0.0
  0
LINE
  5
422
330
1F
100
AcDbEntity
  8
0
  6
Continuous
 62
     7
100
AcDbLine
 10
5965.8614603475
 20
5729.4820464343
 30
0.0
 11
5965.3573838666
 21
5729.7493732661
 31
0.0
  0
LINE
  5
423
330
1F
100
AcDbEntity
  8
0
  6
Continuous
 62
     7
100
AcDbLine
 10
5965.3573838666
 20
5729.7493732661
 30
0.0
 11
5964.8989645436
 21
5730.115614006
 31
0.0
  0
LINE
  5
424
330
1F
100
AcDbEntity
  8
0
  6
Continuous
 62
     7
100
AcDbLine
 10
5964.7687581971
 20
5730.2830136508
 30
0.0
 11
5964.643767257
 21
5730.6779242248
 31
0.0
  0
LINE
  5
425
330
1F
100
AcDbEntity
  8
0
  6
Continuous
 62
     7
100
AcDbLine
 10
5964.643767257
 20
5730.6779242248
 30
0.0
 11
5964.7893814042
 21
5731.1039484233
 31
0.0
  0
LINE
  5
426
330
1F
100
AcDbEntity
  8
0
  6
Continuous
 62
     7
100
AcDbLine
 10
6292.0187545612
 20
4598.9578581542
 30
0.0
 11
6292.0187545612
 21
5178.9578414649
 31
0.0
  0
LINE
  5
427
330
1F
100
AcDbEntity
  8
0
  6
Continuous
 62
     7
100
AcDbLine
 10
6256.018756111
 20
4598.9578581542
 30
0.0
 11
6256.018756111
 21
5178.9578414649
 31
0.0
  0
LINE
  5
428
330
1F
100
AcDbEntity
  8
0
  6
Continuous
 62
     7
100
AcDbLine
 10
5064.0187171891
 20
4598.9578581542
 30
0.0
 11
5064.0187171891
 21
5178.9578414649
 31
0.0
  0
LINE
  5
429
330
1F
100
AcDbEntity
  8
0
  6
Continuous
 62
     7
100
AcDbLine
 10
5028.0187038377
 20
4598.9578581542
 30
0.0
 11
5028.0187038377
 21
5178.9578414649
 31
0.0
  0
LINE
  5
42A
330
1F
100
AcDbEntity
  8
0
  6
Continuous
 62
     7
100
AcDbLine
 10
5066.0188106492
 20
4735.9578228683
 30
0.0
 11
6254.0187557831
 21
4735.9578228683
 31
0.0
  0
LINE
  5
42B
330
1F
100
AcDbEntity
  8
0
  6
Continuous
 62
     7
100
AcDbLine
 10
6294.0187548891
 20
4735.9578228683
 30
0.0
 11
7482.018700023
 21
4735.9578228683
 31
0.0
  0
LINE
  5
42C
330
1F
100
AcDbEntity
  8
0
  6
Continuous
 62
     7
100
AcDbLine
 10
5066.0188106492
 20
4771.9578362197
 30
0.0
 11
6254.0187557831
 21
4771.9578362197
 31
0.0
  0
LINE
  5
42D
330
1F
100
AcDbEntity
  8
0
  6
Continuous
 62
     7
100
AcDbLine
 10
6294.0187548891
 20
4771.9578362197
 30
0.0
 11
7482.018700023
 21
4771.9578362197
 31
0.0
  0
LINE
  5
42E
330
1F
100
AcDbEntity
  8
0
  6
Continuous
 62
     7
100
AcDbLine
 10
7484.0187934831
 20
4598.9578581542
 30
0.0
 11
7484.0187934831
 21
5178.9578414649
 31
0.0
  0
LINE
  5
42F
330
1F
100
AcDbEntity
  8
0
  6
Continuous
 62
     7
100
AcDbLine
 10
7520.0188068345
 20
4598.9578581542
 30
0.0
 11
7520.0188068345
 21
5178.9578414649
 31
0.0
  0
LINE
  5
430
330
1F
100
AcDbEntity
  8
0
  6
Continuous
 62
     7
100
AcDbLine
 10
5203.8282064393
 20
5158.2895732612
 30
0.0
 11
5149.2093709901
 21
5158.2895732612
 31
0.0
  0
LINE
  5
431
330
1F
100
AcDbEntity
  8
0
  6
Continuous
 62
     7
100
AcDbLine
 10
5149.4125036195
 20
5033.6362636775
 30
0.0
 11
5203.6249546006
 21
5033.6362636775
 31
0.0
  0
LINE
  5
432
330
1F
100
AcDbEntity
  8
0
  6
Continuous
 62
     7
100
AcDbLine
 10
5153.5187868074
 20
5174.4419253558
 30
0.0
 11
5199.518790622
 21
5174.4419253558
 31
0.0
  0
LINE
  5
433
330
1F
100
AcDbEntity
  8
0
  6
Continuous
 62
     7
100
AcDbLine
 10
8373.4943805254
 20
4590.9578419417
 30
0.0
 11
8373.4943805254
 21
4586.9578338355
 31
0.0
  0
LINE
  5
434
330
1F
100
AcDbEntity
  8
0
  6
Continuous
 62
     7
100
AcDbLine
 10
8383.4943821645
 20
4586.9578338355
 30
0.0
 11
8383.4943821645
 21
4590.9578419417
 31
0.0
  0
LINE
  5
435
330
1F
100
AcDbEntity
  8
0
  6
Continuous
 62
     7
100
AcDbLine
 10
7941.4022875941
 20
4590.9578419417
 30
0.0
 11
7941.4022875941
 21
4586.9578338355
 31
0.0
  0
LINE
  5
436
330
1F
100
AcDbEntity
  8
0
  6
Continuous
 62
     7
100
AcDbLine
 10
7951.4023078597
 20
4586.9578338355
 30
0.0
 11
7951.4023078597
 21
4590.9578419417
 31
0.0
  0
LINE
  5
437
330
1F
100
AcDbEntity
  8
0
  6
Continuous
 62
     7
100
AcDbLine
 10
7941.4022875941
 20
4590.9578419417
 30
0.0
 11
7941.4022875941
 21
4586.9578338355
 31
0.0
  0
LINE
  5
438
330
1F
100
AcDbEntity
  8
0
  6
Continuous
 62
     7
100
AcDbLine
 10
7951.4023078597
 20
4586.9578338355
 30
0.0
 11
7951.4023078597
 21
4590.9578419417
 31
0.0
  0
LINE
  5
439
330
1F
100
AcDbEntity
  8
0
  6
Continuous
 62
     7
100
AcDbLine
 10
8373.4943805254
 20
4590.9578419417
 30
0.0
 11
8373.4943805254
 21
4586.9578338355
 31
0.0
  0
LINE
  5
43A
330
1F
100
AcDbEntity
  8
0
  6
Continuous
 62
     7
100
AcDbLine
 10
8383.4943821645
 20
4586.9578338355
 30
0.0
 11
8383.4943821645
 21
4590.9578419417
 31
0.0
  0
LINE
  5
43B
330
1F
100
AcDbEntity
  8
0
  6
Continuous
 62
     7
100
AcDbLine
 10
7920.0143827117
 20
5830.1717854232
 30
0.0
 11
7920.3943921244
 21
5830.1717854232
 31
0.0
  0
LINE
  5
43C
330
1F
100
AcDbEntity
  8
0
  6
Continuous
 62
     7
100
AcDbLine
 10
7920.3943921244
 20
5837.7717948646
 30
0.0
 11
7920.0143827117
 21
5837.7717948646
 31
0.0
  0
LINE
  5
43D
330
1F
100
AcDbEntity
  8
0
  6
Continuous
 62
     7
100
AcDbLine
 10
7920.0143827117
 20
5740.1717818469
 30
0.0
 11
7920.3943921244
 21
5740.1717818469
 31
0.0
  0
LINE
  5
43E
330
1F
100
AcDbEntity
  8
0
  6
Continuous
 62
     7
100
AcDbLine
 10
7920.3943921244
 20
5747.7717912883
 30
0.0
 11
7920.0143827117
 21
5747.7717912883
 31
0.0
  0
LINE
  5
43F
330
1F
100
AcDbEntity
  8
0
  6
Continuous
 62
     7
100
AcDbLine
 10
7926.4023018992
 20
5178.9419270248
 30
0.0
 11
7920.2259792006
 21
5178.9419270248
 31
0.0
  0
LINE
  5
440
330
1F
100
AcDbEntity
  8
0
  6
Continuous
 62
     7
100
AcDbLine
 10
7920.2259792006
 20
5098.9419437141
 30
0.0
 11
7926.4023018992
 21
5098.9419437141
 31
0.0
  0
LINE
  5
441
330
1F
100
AcDbEntity
  8
0
  6
Continuous
 62
     7
100
AcDbLine
 10
7920.2259792006
 20
5158.9419162959
 30
0.0
 11
7910.2259887374
 21
5158.9419162959
 31
0.0
  0
LINE
  5
442
330
1F
100
AcDbEntity
  8
0
  6
Continuous
 62
     7
100
AcDbLine
 10
7910.2259887374
 20
5118.9419246406
 30
0.0
 11
7920.2259792006
 21
5118.9419246406
 31
0.0
  0
LINE
  5
443
330
1F
100
AcDbEntity
  8
0
  6
Continuous
 62
     7
100
AcDbLine
 10
8102.8943670905
 20
5158.9419162959
 30
0.0
 11
7966.4022935546
 21
5158.9419162959
 31
0.0
  0
LINE
  5
444
330
1F
100
AcDbEntity
  8
0
  6
Continuous
 62
     7
100
AcDbLine
 10
7966.4022935546
 20
5118.9419246406
 30
0.0
 11
8102.8943670905
 21
5118.9419246406
 31
0.0
  0
LINE
  5
445
330
1F
100
AcDbEntity
  8
0
  6
Continuous
 62
     7
100
AcDbLine
 10
8146.8943668521
 20
5178.9578414649
 30
0.0
 11
8146.8943668521
 21
5177.4419165343
 31
0.0
  0
LINE
  5
446
330
1F
100
AcDbEntity
  8
0
  6
Continuous
 62
     7
100
AcDbLine
 10
8146.8943668521
 20
5163.4419179648
 30
0.0
 11
8146.8943668521
 21
5160.941920349
 31
0.0
  0
LINE
  5
447
330
1F
100
AcDbEntity
  8
0
  6
Continuous
 62
     7
100
AcDbLine
 10
8178.8943869984
 20
5160.941920349
 30
0.0
 11
8178.8943869984
 21
5163.4419179648
 31
0.0
  0
LINE
  5
448
330
1F
100
AcDbEntity
  8
0
  6
Continuous
 62
     7
100
AcDbLine
 10
8178.8943869984
 20
5177.4419165343
 30
0.0
 11
8178.8943869984
 21
5178.9578414649
 31
0.0
  0
LINE
  5
449
330
1F
100
AcDbEntity
  8
0
  6
Continuous
 62
     7
100
AcDbLine
 10
8128.8943899787
 20
5100.9419179648
 30
0.0
 11
8135.7881737864
 21
5033.6362636775
 31
0.0
  0
LINE
  5
44A
330
1F
100
AcDbEntity
  8
0
  6
Continuous
 62
     7
100
AcDbLine
 10
8190.0005949652
 20
5033.6362636775
 30
0.0
 11
8196.894378773
 21
5100.9419179648
 31
0.0
  0
LINE
  5
44B
330
1F
100
AcDbEntity
  8
0
  6
Continuous
 62
     7
100
AcDbLine
 10
8196.894378773
 20
5100.9419179648
 30
0.0
 11
8190.2038170016
 21
5158.2895732612
 31
0.0
  0
LINE
  5
44C
330
1F
100
AcDbEntity
  8
0
  6
Continuous
 62
     7
100
AcDbLine
 10
8130.7654691851
 20
5116.9799483508
 30
0.0
 11
8128.8943899787
 21
5100.9419179648
 31
0.0
  0
LINE
  5
44D
330
1F
100
AcDbEntity
  8
0
  6
Continuous
 62
     7
100
AcDbLine
 10
8118.8943697131
 20
5166.4419389457
 30
0.0
 11
8114.8943914092
 21
5164.9419284553
 31
0.0
  0
LINE
  5
44E
330
1F
100
AcDbEntity
  8
0
  6
Continuous
 62
     7
100
AcDbLine
 10
8114.8943914092
 20
5112.9419422835
 30
0.0
 11
8118.8943697131
 21
5111.4419317931
 31
0.0
  0
LINE
  5
44F
330
1F
100
AcDbEntity
  8
0
  6
Continuous
 62
     7
100
AcDbLine
 10
8114.8943914092
 20
5164.9419284553
 30
0.0
 11
8105.8943880713
 21
5164.9419284553
 31
0.0
  0
LINE
  5
450
330
1F
100
AcDbEntity
  8
0
  6
Continuous
 62
     7
100
AcDbLine
 10
8105.8943880713
 20
5112.9419422835
 30
0.0
 11
8114.8943914092
 21
5112.9419422835
 31
0.0
  0
LINE
  5
451
330
1F
100
AcDbEntity
  8
0
  6
Continuous
 62
     7
100
AcDbLine
 10
8187.8943754351
 20
5163.4419179648
 30
0.0
 11
8185.8943862832
 21
5167.4419260711
 31
0.0
  0
LINE
  5
452
330
1F
100
AcDbEntity
  8
0
  6
Continuous
 62
     7
100
AcDbLine
 10
8139.8943675673
 20
5167.4419260711
 30
0.0
 11
8137.8943933165
 21
5163.4419179648
 31
0.0
  0
LINE
  5
453
330
1F
100
AcDbEntity
  8
0
  6
Continuous
 62
     7
100
AcDbLine
 10
8139.8943675673
 20
5174.4419253558
 30
0.0
 11
8139.8943675673
 21
5167.4419260711
 31
0.0
  0
LINE
  5
454
330
1F
100
AcDbEntity
  8
0
  6
Continuous
 62
     7
100
AcDbLine
 10
8185.8943862832
 20
5167.4419260711
 30
0.0
 11
8185.8943862832
 21
5174.4419253558
 31
0.0
  0
LINE
  5
455
330
1F
100
AcDbEntity
  8
0
  6
Continuous
 62
     7
100
AcDbLine
 10
8118.8943697131
 20
5116.9419205875
 30
0.0
 11
8130.7892216361
 21
5116.9419205875
 31
0.0
  0
LINE
  5
456
330
1F
100
AcDbEntity
  8
0
  6
Continuous
 62
     7
100
AcDbLine
 10
8135.8943892634
 20
5160.941920349
 30
0.0
 11
8118.8943697131
 21
5160.941920349
 31
0.0
  0
LINE
  5
457
330
1F
100
AcDbEntity
  8
0
  6
Continuous
 62
     7
100
AcDbLine
 10
8146.8943668521
 20
5163.4419179648
 30
0.0
 11
8146.8943668521
 21
5160.941920349
 31
0.0
  0
LINE
  5
458
330
1F
100
AcDbEntity
  8
0
  6
Continuous
 62
     7
100
AcDbLine
 10
8178.8943869984
 20
5160.941920349
 30
0.0
 11
8178.8943869984
 21
5163.4419179648
 31
0.0
  0
LINE
  5
459
330
1F
100
AcDbEntity
  8
0
  6
Continuous
 62
     7
100
AcDbLine
 10
7979.9443794406
 20
5532.3578409046
 30
0.0
 11
7979.9443794406
 21
5542.9578415245
 31
0.0
  0
LINE
  5
45A
330
1F
100
AcDbEntity
  8
0
  6
Continuous
 62
     7
100
AcDbLine
 10
7970.394374243
 20
5518.9578450412
 30
0.0
 11
7972.3943782962
 21
5518.9578450412
 31
0.0
  0
LINE
  5
45B
330
1F
100
AcDbEntity
  8
0
  6
Continuous
 62
     7
100
AcDbLine
 10
7972.3943782962
 20
5558.9578366965
 30
0.0
 11
7970.394374243
 21
5558.9578366965
 31
0.0
  0
LINE
  5
45C
330
1F
100
AcDbEntity
  8
0
  6
Continuous
 62
     7
100
AcDbLine
 10
7979.794384352
 20
5543.2578391522
 30
0.0
 11
7979.794384352
 21
5546.400210926
 31
0.0
  0
LINE
  5
45D
330
1F
100
AcDbEntity
  8
0
  6
Continuous
 62
     7
100
AcDbLine
 10
7979.794384352
 20
5531.5154708118
 30
0.0
 11
7979.794384352
 21
5532.2578392119
 31
0.0
  0
LINE
  5
45E
330
1F
100
AcDbEntity
  8
0
  6
Continuous
 62
     7
100
AcDbLine
 10
7972.8943718589
 20
5768.9578450412
 30
0.0
 11
7970.394374243
 21
5768.9578450412
 31
0.0
  0
LINE
  5
45F
330
1F
100
AcDbEntity
  8
0
  6
Continuous
 62
     7
100
AcDbLine
 10
7970.394374243
 20
5708.957842657
 30
0.0
 11
7972.8943718589
 21
5708.957842657
 31
0.0
  0
LINE
  5
460
330
1F
100
AcDbEntity
  8
0
  6
Continuous
 62
     7
100
AcDbLine
 10
7972.8943718589
 20
5708.957842657
 30
0.0
 11
7973.3943952239
 21
5709.4578362197
 31
0.0
  0
LINE
  5
461
330
1F
100
AcDbEntity
  8
0
  6
Continuous
 62
     7
100
AcDbLine
 10
7973.3943952239
 20
5768.4578514785
 30
0.0
 11
7972.8943718589
 21
5768.9578450412
 31
0.0
  0
LINE
  5
462
330
1F
100
AcDbEntity
  8
0
  6
Continuous
 62
     7
100
AcDbLine
 10
7982.0443702853
 20
5724.9578452796
 30
0.0
 11
8104.3943775809
 21
5724.9578452796
 31
0.0
  0
LINE
  5
463
330
1F
100
AcDbEntity
  8
0
  6
Continuous
 62
     7
100
AcDbLine
 10
7973.3943952239
 20
5724.9578452796
 30
0.0
 11
7978.7650717414
 21
5724.9578452796
 31
0.0
  0
LINE
  5
464
330
1F
100
AcDbEntity
  8
0
  6
Continuous
 62
     7
100
AcDbLine
 10
8138.3943868792
 20
5752.9578424186
 30
0.0
 11
7973.3943952239
 21
5752.9578424186
 31
0.0
  0
LINE
  5
465
330
1F
100
AcDbEntity
  8
0
  6
Continuous
 62
     7
100
AcDbLine
 10
8139.3943740046
 20
5751.9578552932
 30
0.0
 11
8138.3943868792
 21
5752.9578424186
 31
0.0
  0
LINE
  5
466
330
1F
100
AcDbEntity
  8
0
  6
Continuous
 62
     7
100
AcDbLine
 10
8360.4943802571
 20
4596.9578242988
 30
0.0
 11
8396.4943815014
 21
4596.9578242988
 31
0.0
  0
LINE
  5
467
330
1F
100
AcDbEntity
  8
0
  6
Continuous
 62
     7
100
AcDbLine
 10
8392.9943820184
 20
4590.9578420877
 30
0.0
 11
8363.9943820184
 21
4590.9578420877
 31
0.0
  0
LINE
  5
468
330
1F
100
AcDbEntity
  8
0
  6
Continuous
 62
     7
100
AcDbLine
 10
8396.4943815014
 20
4598.9578581542
 30
0.0
 11
8360.4943802571
 21
4598.9578581542
 31
0.0
  0
LINE
  5
469
330
1F
100
AcDbEntity
  8
0
  6
Continuous
 62
     7
100
AcDbLine
 10
8396.4943815014
 20
4596.9578242988
 30
0.0
 11
8396.4943815014
 21
4598.9578581542
 31
0.0
  0
LINE
  5
46A
330
1F
100
AcDbEntity
  8
0
  6
Continuous
 62
     7
100
AcDbLine
 10
8360.4943802571
 20
4596.9578242988
 30
0.0
 11
8360.4943802571
 21
4598.9578581542
 31
0.0
  0
LINE
  5
46B
330
1F
100
AcDbEntity
  8
0
  6
Continuous
 62
     7
100
AcDbLine
 10
8360.4943802571
 20
4598.9578581542
 30
0.0
 11
8357.9943826413
 21
4598.9578581542
 31
0.0
  0
LINE
  5
46C
330
1F
100
AcDbEntity
  8
0
  6
Continuous
 62
     7
100
AcDbLine
 10
8357.9943826413
 20
4596.9578242988
 30
0.0
 11
8360.4943802571
 21
4596.9578242988
 31
0.0
  0
LINE
  5
46D
330
1F
100
AcDbEntity
  8
0
  6
Continuous
 62
     7
100
AcDbLine
 10
8357.9943826413
 20
4596.9578242988
 30
0.0
 11
8357.9943826413
 21
4598.9578581542
 31
0.0
  0
LINE
  5
46E
330
1F
100
AcDbEntity
  8
0
  6
Continuous
 62
     7
100
AcDbLine
 10
8398.9943820434
 20
4596.9578242988
 30
0.0
 11
8398.9943820434
 21
4598.9578581542
 31
0.0
  0
LINE
  5
46F
330
1F
100
AcDbEntity
  8
0
  6
Continuous
 62
     7
100
AcDbLine
 10
8396.4943815014
 20
4596.9578242988
 30
0.0
 11
8398.9943820434
 21
4596.9578242988
 31
0.0
  0
LINE
  5
470
330
1F
100
AcDbEntity
  8
0
  6
Continuous
 62
     7
100
AcDbLine
 10
8398.9943820434
 20
4598.9578581542
 30
0.0
 11
8396.4943815014
 21
4598.9578581542
 31
0.0
  0
LINE
  5
471
330
1F
100
AcDbEntity
  8
0
  6
Continuous
 62
     7
100
AcDbLine
 10
8378.4943813449
 20
4578.957817623
 30
0.0
 11
8378.4943813449
 21
4586.9578338355
 31
0.0
  0
LINE
  5
472
330
1F
100
AcDbEntity
  8
0
  6
Continuous
 62
     7
100
AcDbLine
 10
8378.4943813449
 20
4578.957817623
 30
0.0
 11
8363.4943826115
 21
4578.957817623
 31
0.0
  0
LINE
  5
473
330
1F
100
AcDbEntity
  8
0
  6
Continuous
 62
     7
100
AcDbLine
 10
8363.4943826115
 20
4578.957817623
 30
0.0
 11
8363.4943826115
 21
4586.9578338355
 31
0.0
  0
LINE
  5
474
330
1F
100
AcDbEntity
  8
0
  6
Continuous
 62
     7
100
AcDbLine
 10
8378.4943813449
 20
4586.9578338355
 30
0.0
 11
8363.4943826115
 21
4586.9578338355
 31
0.0
  0
LINE
  5
475
330
1F
100
AcDbEntity
  8
0
  6
Continuous
 62
     7
100
AcDbLine
 10
8393.4943814753
 20
4578.957817623
 30
0.0
 11
8393.4943814753
 21
4586.9578338355
 31
0.0
  0
LINE
  5
476
330
1F
100
AcDbEntity
  8
0
  6
Continuous
 62
     7
100
AcDbLine
 10
8393.4943814753
 20
4578.957817623
 30
0.0
 11
8378.4943813449
 21
4578.957817623
 31
0.0
  0
LINE
  5
477
330
1F
100
AcDbEntity
  8
0
  6
Continuous
 62
     7
100
AcDbLine
 10
8393.4943814753
 20
4586.9578338355
 30
0.0
 11
8378.4943813449
 21
4586.9578338355
 31
0.0
  0
LINE
  5
478
330
1F
100
AcDbEntity
  8
0
  6
Continuous
 62
     7
100
AcDbLine
 10
7928.4023059523
 20
4598.9578581542
 30
0.0
 11
7925.9022785342
 21
4598.9578581542
 31
0.0
  0
LINE
  5
479
330
1F
100
AcDbEntity
  8
0
  6
Continuous
 62
     7
100
AcDbLine
 10
7928.4023059523
 20
4596.9578242988
 30
0.0
 11
7928.4023059523
 21
4598.9578581542
 31
0.0
  0
LINE
  5
47A
330
1F
100
AcDbEntity
  8
0
  6
Continuous
 62
     7
100
AcDbLine
 10
7925.9022785342
 20
4596.9578242988
 30
0.0
 11
7928.4023059523
 21
4596.9578242988
 31
0.0
  0
LINE
  5
47B
330
1F
100
AcDbEntity
  8
0
  6
Continuous
 62
     7
100
AcDbLine
 10
7925.9022785342
 20
4596.9578242988
 30
0.0
 11
7925.9022785342
 21
4598.9578581542
 31
0.0
  0
LINE
  5
47C
330
1F
100
AcDbEntity
  8
0
  6
Continuous
 62
     7
100
AcDbLine
 10
7966.9022901019
 20
4598.9578581542
 30
0.0
 11
7964.4022895014
 21
4598.9578581542
 31
0.0
  0
LINE
  5
47D
330
1F
100
AcDbEntity
  8
0
  6
Continuous
 62
     7
100
AcDbLine
 10
7966.9022901019
 20
4596.9578242988
 30
0.0
 11
7966.9022901019
 21
4598.9578581542
 31
0.0
  0
LINE
  5
47E
330
1F
100
AcDbEntity
  8
0
  6
Continuous
 62
     7
100
AcDbLine
 10
7964.4022895014
 20
4596.9578242988
 30
0.0
 11
7966.9022901019
 21
4596.9578242988
 31
0.0
  0
LINE
  5
47F
330
1F
100
AcDbEntity
  8
0
  6
Continuous
 62
     7
100
AcDbLine
 10
7964.4022895014
 20
4596.9578242988
 30
0.0
 11
7964.4022895014
 21
4598.9578581542
 31
0.0
  0
LINE
  5
480
330
1F
100
AcDbEntity
  8
0
  6
Continuous
 62
     7
100
AcDbLine
 10
7964.4022895014
 20
4598.9578581542
 30
0.0
 11
7928.4023059523
 21
4598.9578581542
 31
0.0
  0
LINE
  5
481
330
1F
100
AcDbEntity
  8
0
  6
Continuous
 62
     7
100
AcDbLine
 10
7928.4023059523
 20
4596.9578242988
 30
0.0
 11
7964.4022895014
 21
4596.9578242988
 31
0.0
  0
LINE
  5
482
330
1F
100
AcDbEntity
  8
0
  6
Continuous
 62
     7
100
AcDbLine
 10
7960.9023049986
 20
4590.9578421801
 30
0.0
 11
7931.9022933248
 21
4590.9578417033
 31
0.0
  0
LINE
  5
483
330
1F
100
AcDbEntity
  8
0
  6
Continuous
 62
     7
100
AcDbLine
 10
7946.4022828257
 20
4578.957817623
 30
0.0
 11
7946.4022828257
 21
4586.9578338355
 31
0.0
  0
LINE
  5
484
330
1F
100
AcDbEntity
  8
0
  6
Continuous
 62
     7
100
AcDbLine
 10
7946.4022828257
 20
4578.957817623
 30
0.0
 11
7931.4022971308
 21
4578.957817623
 31
0.0
  0
LINE
  5
485
330
1F
100
AcDbEntity
  8
0
  6
Continuous
 62
     7
100
AcDbLine
 10
7931.4022971308
 20
4578.957817623
 30
0.0
 11
7931.4022971308
 21
4586.9578338355
 31
0.0
  0
LINE
  5
486
330
1F
100
AcDbEntity
  8
0
  6
Continuous
 62
     7
100
AcDbLine
 10
7946.4022828257
 20
4586.9578338355
 30
0.0
 11
7931.4022971308
 21
4586.9578338355
 31
0.0
  0
LINE
  5
487
330
1F
100
AcDbEntity
  8
0
  6
Continuous
 62
     7
100
AcDbLine
 10
7961.4022983229
 20
4578.957817623
 30
0.0
 11
7961.4022983229
 21
4586.9578338355
 31
0.0
  0
LINE
  5
488
330
1F
100
AcDbEntity
  8
0
  6
Continuous
 62
     7
100
AcDbLine
 10
7961.4022983229
 20
4578.957817623
 30
0.0
 11
7946.4022828257
 21
4578.957817623
 31
0.0
  0
LINE
  5
489
330
1F
100
AcDbEntity
  8
0
  6
Continuous
 62
     7
100
AcDbLine
 10
7961.4022983229
 20
4586.9578338355
 30
0.0
 11
7946.4022828257
 21
4586.9578338355
 31
0.0
  0
LINE
  5
48A
330
1F
100
AcDbEntity
  8
0
  6
Continuous
 62
     7
100
AcDbLine
 10
8358.4943799293
 20
4598.9578581542
 30
0.0
 11
8358.4943799293
 21
5178.9578414649
 31
0.0
  0
LINE
  5
48B
330
1F
100
AcDbEntity
  8
0
  6
Continuous
 62
     7
100
AcDbLine
 10
8398.4943813636
 20
4598.9578581542
 30
0.0
 11
8398.4943813636
 21
5178.9578414649
 31
0.0
  0
LINE
  5
48C
330
1F
100
AcDbEntity
  8
0
  6
Continuous
 62
     7
100
AcDbLine
 10
7926.4023018992
 20
4598.9578581542
 30
0.0
 11
7926.4023018992
 21
5178.9578414649
 31
0.0
  0
LINE
  5
48D
330
1F
100
AcDbEntity
  8
0
  6
Continuous
 62
     7
100
AcDbLine
 10
7966.4022935546
 20
4598.9578581542
 30
0.0
 11
7966.4022935546
 21
5178.9578414649
 31
0.0
  0
LINE
  5
48E
330
1F
100
AcDbEntity
  8
0
  6
Continuous
 62
     7
100
AcDbLine
 10
8358.4943799293
 20
4733.9578486175
 30
0.0
 11
7966.4022935546
 21
4733.9578486175
 31
0.0
  0
LINE
  5
48F
330
1F
100
AcDbEntity
  8
0
  6
Continuous
 62
     7
100
AcDbLine
 10
8358.4943799293
 20
4735.9578228683
 30
0.0
 11
7966.4022935546
 21
4735.9578228683
 31
0.0
  0
LINE
  5
490
330
1F
100
AcDbEntity
  8
0
  6
Continuous
 62
     7
100
AcDbLine
 10
8358.4943799293
 20
4771.9578362197
 30
0.0
 11
7966.4022935546
 21
4771.9578362197
 31
0.0
  0
LINE
  5
491
330
1F
100
AcDbEntity
  8
0
  6
Continuous
 62
     7
100
AcDbLine
 10
8358.4943799293
 20
4773.9578700751
 30
0.0
 11
7966.4022935546
 21
4773.9578700751
 31
0.0
  0
LINE
  5
492
330
1F
100
AcDbEntity
  8
0
  6
Continuous
 62
     7
100
AcDbLine
 10
7923.0517758048
 20
5848.3929849357
 30
0.0
 11
7968.6517728484
 21
5838.7004054278
 31
0.0
  0
LINE
  5
493
330
1F
100
AcDbEntity
  8
0
  6
Continuous
 62
     7
100
AcDbLine
 10
7970.394374243
 20
5836.5484989375
 30
0.0
 11
7970.394374243
 21
5428.9578414649
 31
0.0
  0
LINE
  5
494
330
1F
100
AcDbEntity
  8
0
  6
Continuous
 62
     7
100
AcDbLine
 10
7970.394374243
 20
5428.9578414649
 30
0.0
 11
8398.1943814075
 21
5428.9578414649
 31
0.0
  0
LINE
  5
495
330
1F
100
AcDbEntity
  8
0
  6
Continuous
 62
     7
100
AcDbLine
 10
8400.3943813956
 20
5426.7578414768
 30
0.0
 11
8400.3943813956
 21
5403.9578410924
 31
0.0
  0
LINE
  5
496
330
1F
100
AcDbEntity
  8
0
  6
Continuous
 62
     7
100
AcDbLine
 10
8400.3943813956
 20
5403.9578410924
 30
0.0
 11
8397.3943813695
 21
5403.9578410924
 31
0.0
  0
LINE
  5
497
330
1F
100
AcDbEntity
  8
0
  6
Continuous
 62
     7
100
AcDbLine
 10
8397.3943813695
 20
5403.9578410924
 30
0.0
 11
8397.3943813695
 21
5403.9478405506
 31
0.0
  0
LINE
  5
498
330
1F
100
AcDbEntity
  8
0
  6
Continuous
 62
     7
100
AcDbLine
 10
8397.3943813695
 20
5178.9578414649
 30
0.0
 11
8397.3943813695
 21
5403.9478405506
 31
0.0
  0
LINE
  5
499
330
1F
100
AcDbEntity
  8
0
  6
Continuous
 62
     7
100
AcDbLine
 10
8397.3943813695
 20
5178.9578414649
 30
0.0
 11
7923.4943700946
 21
5178.9578414649
 31
0.0
  0
LINE
  5
49A
330
1F
100
AcDbEntity
  8
0
  6
Continuous
 62
     7
100
AcDbLine
 10
7923.4943700946
 20
5823.5578454227
 30
0.0
 11
7923.4943700946
 21
5178.9578414649
 31
0.0
  0
LINE
  5
49B
330
1F
100
AcDbEntity
  8
0
  6
Continuous
 62
     7
100
AcDbLine
 10
7923.4943700946
 20
5823.5578454227
 30
0.0
 11
7924.4943870223
 21
5823.5578454227
 31
0.0
  0
LINE
  5
49C
330
1F
100
AcDbEntity
  8
0
  6
Continuous
 62
     7
100
AcDbLine
 10
7924.4943870223
 20
5823.5578454227
 30
0.0
 11
7924.4943870223
 21
5825.5578494758
 31
0.0
  0
LINE
  5
49D
330
1F
100
AcDbEntity
  8
0
  6
Continuous
 62
     7
100
AcDbLine
 10
7924.4943870223
 20
5825.5578494758
 30
0.0
 11
7920.3943921244
 21
5825.5578494758
 31
0.0
  0
LINE
  5
49E
330
1F
100
AcDbEntity
  8
0
  6
Continuous
 62
     7
100
AcDbLine
 10
7920.3943921244
 20
5825.5578494758
 30
0.0
 11
7920.3943921244
 21
5846.2410784453
 31
0.0
  0
LINE
  5
49F
330
1F
100
AcDbEntity
  8
0
  6
Continuous
 62
     7
100
AcDbLine
 10
7920.3943921244
 20
5178.9578414649
 30
0.0
 11
7920.3943921244
 21
5823.5578454227
 31
0.0
  0
LINE
  5
4A0
330
1F
100
AcDbEntity
  8
0
  6
Continuous
 62
     7
100
AcDbLine
 10
7920.3943921244
 20
5823.5578454227
 30
0.0
 11
7923.4943700946
 21
5823.5578454227
 31
0.0
  0
LINE
  5
4A1
330
1F
100
AcDbEntity
  8
0
  6
Continuous
 62
     7
100
AcDbLine
 10
7923.4943700946
 20
5178.9578414649
 30
0.0
 11
7920.3943921244
 21
5178.9578414649
 31
0.0
  0
LINE
  5
4A2
330
1F
100
AcDbEntity
  8
0
  6
Continuous
 62
     7
100
AcDbLine
 10
8400.4943813931
 20
5178.9578414649
 30
0.0
 11
8400.4943813931
 21
5403.9478405506
 31
0.0
  0
LINE
  5
4A3
330
1F
100
AcDbEntity
  8
0
  6
Continuous
 62
     7
100
AcDbLine
 10
8400.4943813931
 20
5178.9578414649
 30
0.0
 11
8397.3943813695
 21
5178.9578414649
 31
0.0
  0
LINE
  5
4A4
330
1F
100
AcDbEntity
  8
0
  6
Continuous
 62
     7
100
AcDbLine
 10
8397.3943813695
 20
5403.9478405506
 30
0.0
 11
8400.4943813931
 21
5403.9478405506
 31
0.0
  0
LINE
  5
4A5
330
1F
100
AcDbEntity
  8
0
  6
Continuous
 62
     7
100
AcDbLine
 10
7921.5943826354
 20
5825.5578494758
 30
0.0
 11
7921.5943826354
 21
5823.9578521937
 31
0.0
  0
LINE
  5
4A6
330
1F
100
AcDbEntity
  8
0
  6
Continuous
 62
     7
100
AcDbLine
 10
7920.3943921244
 20
5825.5578494758
 30
0.0
 11
7920.3943921244
 21
5823.9578521937
 31
0.0
  0
LINE
  5
4A7
330
1F
100
AcDbEntity
  8
0
  6
Continuous
 62
     7
100
AcDbLine
 10
7920.3943921244
 20
5823.9578521937
 30
0.0
 11
7921.5943826354
 21
5823.9578521937
 31
0.0
  0
LINE
  5
4A8
330
1F
100
AcDbEntity
  8
0
  6
Continuous
 62
     7
100
AcDbLine
 10
7920.0143827117
 20
5830.1717854232
 30
0.0
 11
7920.0143827117
 21
5837.7717948646
 31
0.0
  0
LINE
  5
4A9
330
1F
100
AcDbEntity
  8
0
  6
Continuous
 62
     7
100
AcDbLine
 10
7918.1943846858
 20
5832.0718026847
 30
0.0
 11
7918.1943846858
 21
5835.8717776031
 31
0.0
  0
LINE
  5
4AA
330
1F
100
AcDbEntity
  8
0
  6
Continuous
 62
     7
100
AcDbLine
 10
7920.0143827117
 20
5747.6403332442
 30
0.0
 11
7920.0143827117
 21
5747.7717912883
 31
0.0
  0
LINE
  5
4AB
330
1F
100
AcDbEntity
  8
0
  6
Continuous
 62
     7
100
AcDbLine
 10
7920.0143827117
 20
5740.1717818469
 30
0.0
 11
7920.0143827117
 21
5747.6403332442
 31
0.0
  0
LINE
  5
4AC
330
1F
100
AcDbEntity
  8
0
  6
Continuous
 62
     7
100
AcDbLine
 10
7918.1943846858
 20
5745.8060599059
 30
0.0
 11
7918.1943846858
 21
5745.8718038291
 31
0.0
  0
LINE
  5
4AD
330
1F
100
AcDbEntity
  8
0
  6
Continuous
 62
     7
100
AcDbLine
 10
7918.1943846858
 20
5742.0717991084
 30
0.0
 11
7918.1943846858
 21
5745.8060599059
 31
0.0
  0
LINE
  5
4AE
330
1F
100
AcDbEntity
  8
0
  6
Continuous
 62
     7
100
AcDbLine
 10
7923.8943768656
 20
5825.5578494758
 30
0.0
 11
7923.8943768656
 21
5824.971786806
 31
0.0
  0
LINE
  5
4AF
330
1F
100
AcDbEntity
  8
0
  6
Continuous
 62
     7
100
AcDbLine
 10
7923.8943768656
 20
5824.971786806
 30
0.0
 11
7922.3943961775
 21
5824.971786806
 31
0.0
  0
LINE
  5
4B0
330
1F
100
AcDbEntity
  8
0
  6
Continuous
 62
     7
100
AcDbLine
 10
7922.3943961775
 20
5824.971786806
 30
0.0
 11
7922.3943961775
 21
5825.5578494758
 31
0.0
  0
LINE
  5
4B1
330
1F
100
AcDbEntity
  8
0
  6
Continuous
 62
     7
100
AcDbLine
 10
7923.8943768656
 20
5824.971786806
 30
0.0
 11
7923.8943768656
 21
5823.5578454227
 31
0.0
  0
LINE
  5
4B2
330
1F
100
AcDbEntity
  8
0
  6
Continuous
 62
     7
100
AcDbLine
 10
7922.3943961775
 20
5824.971786806
 30
0.0
 11
7922.3943961775
 21
5823.5578454227
 31
0.0
  0
LINE
  5
4B3
330
1F
100
AcDbEntity
  8
0
  6
Continuous
 62
     7
100
AcDbLine
 10
7920.2259792006
 20
5178.9419270248
 30
0.0
 11
7920.2259792006
 21
5098.9419437141
 31
0.0
  0
LINE
  5
4B4
330
1F
100
AcDbEntity
  8
0
  6
Continuous
 62
     7
100
AcDbLine
 10
7910.2259887374
 20
5158.9419162959
 30
0.0
 11
7910.2259887374
 21
5118.9419246406
 31
0.0
  0
LINE
  5
4B5
330
1F
100
AcDbEntity
  8
0
  6
Continuous
 62
     7
100
AcDbLine
 10
8128.8943899787
 20
5100.9419179648
 30
0.0
 11
8196.894378773
 21
5100.9419179648
 31
0.0
  0
LINE
  5
4B6
330
1F
100
AcDbEntity
  8
0
  6
Continuous
 62
     7
100
AcDbLine
 10
8114.8943914092
 20
5164.9419284553
 30
0.0
 11
8114.8943914092
 21
5112.9419422835
 31
0.0
  0
LINE
  5
4B7
330
1F
100
AcDbEntity
  8
0
  6
Continuous
 62
     7
100
AcDbLine
 10
8118.8943697131
 20
5166.4419389457
 30
0.0
 11
8118.8943697131
 21
5111.4419317931
 31
0.0
  0
LINE
  5
4B8
330
1F
100
AcDbEntity
  8
0
  6
Continuous
 62
     7
100
AcDbLine
 10
8140.4246104872
 20
5160.941920349
 30
0.0
 11
8187.2240317977
 21
5160.941920349
 31
0.0
  0
LINE
  5
4B9
330
1F
100
AcDbEntity
  8
0
  6
Continuous
 62
     7
100
AcDbLine
 10
8138.772548548
 20
5030.9419251174
 30
0.0
 11
8187.0162053025
 21
5030.9419251174
 31
0.0
  0
LINE
  5
4BA
330
1F
100
AcDbEntity
  8
0
  6
Continuous
 62
     7
100
AcDbLine
 10
8102.8943670905
 20
5161.9419372768
 30
0.0
 11
8102.8943670905
 21
5115.9419334621
 31
0.0
  0
LINE
  5
4BB
330
1F
100
AcDbEntity
  8
0
  6
Continuous
 62
     7
100
AcDbLine
 10
8139.8943675673
 20
5167.4419260711
 30
0.0
 11
8185.8943862832
 21
5167.4419260711
 31
0.0
  0
LINE
  5
4BC
330
1F
100
AcDbEntity
  8
0
  6
Continuous
 62
     7
100
AcDbLine
 10
8137.8943933165
 20
5163.4419179648
 30
0.0
 11
8187.8943754351
 21
5163.4419179648
 31
0.0
  0
LINE
  5
4BD
330
1F
100
AcDbEntity
  8
0
  6
Continuous
 62
     7
100
AcDbLine
 10
8142.8943885482
 20
5177.4419165343
 30
0.0
 11
8182.8943802035
 21
5177.4419165343
 31
0.0
  0
LINE
  5
4BE
330
1F
100
AcDbEntity
  8
0
  6
Continuous
 62
     7
100
AcDbLine
 10
7978.8240505374
 20
5542.9578415245
 30
0.0
 11
7978.1121326602
 21
5542.9578415245
 31
0.0
  0
LINE
  5
4BF
330
1F
100
AcDbEntity
  8
0
  6
Continuous
 62
     7
100
AcDbLine
 10
7978.8240505374
 20
5532.3578409046
 30
0.0
 11
7978.3981753504
 21
5532.3578409046
 31
0.0
  0
LINE
  5
4C0
330
1F
100
AcDbEntity
  8
0
  6
Continuous
 62
     7
100
AcDbLine
 10
7979.9443794406
 20
5542.9578415245
 30
0.0
 11
7978.8240505374
 21
5542.9578415245
 31
0.0
  0
LINE
  5
4C1
330
1F
100
AcDbEntity
  8
0
  6
Continuous
 62
     7
100
AcDbLine
 10
7979.9443794406
 20
5532.3578409046
 30
0.0
 11
7978.8240505374
 21
5532.3578409046
 31
0.0
  0
LINE
  5
4C2
330
1F
100
AcDbEntity
  8
0
  6
Continuous
 62
     7
100
AcDbLine
 10
7972.3943782962
 20
5530.5936328262
 30
0.0
 11
7972.3943782962
 21
5518.9578450412
 31
0.0
  0
LINE
  5
4C3
330
1F
100
AcDbEntity
  8
0
  6
Continuous
 62
     7
100
AcDbLine
 10
7972.3943782962
 20
5558.9578366965
 30
0.0
 11
7972.3943782962
 21
5547.3220489115
 31
0.0
  0
LINE
  5
4C4
330
1F
100
AcDbEntity
  8
0
  6
Continuous
 62
     7
100
AcDbLine
 10
7979.794384352
 20
5543.2578391522
 30
0.0
 11
7978.6891652262
 21
5543.2578391522
 31
0.0
  0
LINE
  5
4C5
330
1F
100
AcDbEntity
  8
0
  6
Continuous
 62
     7
100
AcDbLine
 10
7978.6891652262
 20
5532.2578392119
 30
0.0
 11
7979.794384352
 21
5532.2578392119
 31
0.0
  0
LINE
  5
4C6
330
1F
100
AcDbEntity
  8
0
  6
Continuous
 62
     7
100
AcDbLine
 10
7979.2903972781
 20
5724.9578452796
 30
0.0
 11
7978.8943840182
 21
5724.9578452796
 31
0.0
  0
LINE
  5
4C7
330
1F
100
AcDbEntity
  8
0
  6
Continuous
 62
     7
100
AcDbLine
 10
7981.8943751967
 20
5724.9578452796
 30
0.0
 11
7979.2903972781
 21
5724.9578452796
 31
0.0
  0
LINE
  5
4C8
330
1F
100
AcDbEntity
  8
0
  6
Continuous
 62
     7
100
AcDbLine
 10
7972.8943718589
 20
5750.529787609
 30
0.0
 11
7972.8943718589
 21
5768.9578450412
 31
0.0
  0
LINE
  5
4C9
330
1F
100
AcDbEntity
  8
0
  6
Continuous
 62
     7
100
AcDbLine
 10
7972.8943718589
 20
5708.957842657
 30
0.0
 11
7972.8943718589
 21
5750.529787609
 31
0.0
  0
LINE
  5
4CA
330
1F
100
AcDbEntity
  8
0
  6
Continuous
 62
     7
100
AcDbLine
 10
7973.3943952239
 20
5750.3369367808
 30
0.0
 11
7973.3943952239
 21
5709.4578362197
 31
0.0
  0
LINE
  5
4CB
330
1F
100
AcDbEntity
  8
0
  6
Continuous
 62
     7
100
AcDbLine
 10
7973.3943952239
 20
5768.4578514785
 30
0.0
 11
7973.3943952239
 21
5750.3369367808
 31
0.0
  0
LINE
  5
4CC
330
1F
100
AcDbEntity
  8
0
  6
Continuous
 62
     7
100
AcDbLine
 10
8138.3943868792
 20
5734.0681172103
 30
0.0
 11
8138.3943868792
 21
5752.9578424186
 31
0.0
  0
LINE
  5
4CD
330
1F
100
AcDbEntity
  8
0
  6
Continuous
 62
     7
100
AcDbLine
 10
8104.3943775809
 20
5724.9578452796
 30
0.0
 11
8104.5654131091
 21
5725.0036812514
 31
0.0
  0
LINE
  5
4CE
330
1F
100
AcDbEntity
  8
0
  6
Continuous
 62
     7
100
AcDbLine
 10
8104.5654131091
 20
5725.0036812514
 30
0.0
 11
8105.0773872054
 21
5725.1408613414
 31
0.0
  0
LINE
  5
4CF
330
1F
100
AcDbEntity
  8
0
  6
Continuous
 62
     7
100
AcDbLine
 10
8105.0773872054
 20
5725.1408613414
 30
0.0
 11
8105.9269322074
 21
5725.3684914798
 31
0.0
  0
LINE
  5
4D0
330
1F
100
AcDbEntity
  8
0
  6
Continuous
 62
     7
100
AcDbLine
 10
8105.9269322074
 20
5725.3684914798
 30
0.0
 11
8107.1085048831
 21
5725.6850815505
 31
0.0
  0
LINE
  5
4D1
330
1F
100
AcDbEntity
  8
0
  6
Continuous
 62
     7
100
AcDbLine
 10
8107.1085048831
 20
5725.6850815505
 30
0.0
 11
8108.614386431
 21
5726.0885751933
 31
0.0
  0
LINE
  5
4D2
330
1F
100
AcDbEntity
  8
0
  6
Continuous
 62
     7
100
AcDbLine
 10
8108.614386431
 20
5726.0885751933
 30
0.0
 11
8110.4346824801
 21
5726.5763200015
 31
0.0
  0
LINE
  5
4D3
330
1F
100
AcDbEntity
  8
0
  6
Continuous
 62
     7
100
AcDbLine
 10
8110.4346824801
 20
5726.5763200015
 30
0.0
 11
8112.5574721015
 21
5727.1451271266
 31
0.0
  0
LINE
  5
4D4
330
1F
100
AcDbEntity
  8
0
  6
Continuous
 62
     7
100
AcDbLine
 10
8112.5574721015
 20
5727.1451271266
 30
0.0
 11
8114.9688972151
 21
5727.7912712783
 31
0.0
  0
LINE
  5
4D5
330
1F
100
AcDbEntity
  8
0
  6
Continuous
 62
     7
100
AcDbLine
 10
8114.9688972151
 20
5727.7912712783
 30
0.0
 11
8117.6531625903
 21
5728.5105205268
 31
0.0
  0
LINE
  5
4D6
330
1F
100
AcDbEntity
  8
0
  6
Continuous
 62
     7
100
AcDbLine
 10
8117.6531625903
 20
5728.5105205268
 30
0.0
 11
8120.5926848567
 21
5729.2981661052
 31
0.0
  0
LINE
  5
4D7
330
1F
100
AcDbEntity
  8
0
  6
Continuous
 62
     7
100
AcDbLine
 10
8120.5926848567
 20
5729.2981661052
 30
0.0
 11
8123.768211714
 21
5730.1490522117
 31
0.0
  0
LINE
  5
4D8
330
1F
100
AcDbEntity
  8
0
  6
Continuous
 62
     7
100
AcDbLine
 10
8123.768211714
 20
5730.1490522117
 30
0.0
 11
8127.1589411414
 21
5731.0575760097
 31
0.0
  0
LINE
  5
4D9
330
1F
100
AcDbEntity
  8
0
  6
Continuous
 62
     7
100
AcDbLine
 10
8127.1589411414
 20
5731.0575760097
 30
0.0
 11
8130.7427300131
 21
5732.0178664416
 31
0.0
  0
LINE
  5
4DA
330
1F
100
AcDbEntity
  8
0
  6
Continuous
 62
     7
100
AcDbLine
 10
8130.7427300131
 20
5732.0178664416
 30
0.0
 11
8134.496064297
 21
5733.0235756129
 31
0.0
  0
LINE
  5
4DB
330
1F
100
AcDbEntity
  8
0
  6
Continuous
 62
     7
100
AcDbLine
 10
8134.496064297
 20
5733.0235756129
 30
0.0
 11
8138.3943868792
 21
5734.0681172103
 31
0.0
  0
LINE
  5
4DC
330
1F
100
AcDbEntity
  8
0
  6
Continuous
 62
     7
100
AcDbLine
 10
8139.3943740046
 20
5751.9578552932
 30
0.0
 11
8139.3943740046
 21
5734.3360698909
 31
0.0
  0
LINE
  5
4DD
330
1F
100
AcDbEntity
  8
0
  6
Continuous
 62
     7
100
AcDbLine
 10
8139.3943740046
 20
5734.3360698909
 30
0.0
 11
8138.3943868792
 21
5734.0681172103
 31
0.0
  0
LINE
  5
4DE
330
1F
100
AcDbEntity
  8
0
  6
Continuous
 62
     7
100
AcDbLine
 10
8360.4943802571
 20
4598.9578581542
 30
0.0
 11
8360.4943802571
 21
5178.9578414649
 31
0.0
  0
LINE
  5
4DF
330
1F
100
AcDbEntity
  8
0
  6
Continuous
 62
     7
100
AcDbLine
 10
8396.4943815014
 20
4598.9578581542
 30
0.0
 11
8396.4943815014
 21
5178.9578414649
 31
0.0
  0
LINE
  5
4E0
330
1F
100
AcDbEntity
  8
0
  6
Continuous
 62
     7
100
AcDbLine
 10
7928.4023059523
 20
4598.9578581542
 30
0.0
 11
7928.4023059523
 21
5178.9578414649
 31
0.0
  0
LINE
  5
4E1
330
1F
100
AcDbEntity
  8
0
  6
Continuous
 62
     7
100
AcDbLine
 10
7964.4022895014
 20
4598.9578581542
 30
0.0
 11
7964.4022895014
 21
5178.9578414649
 31
0.0
  0
LINE
  5
4E2
330
1F
100
AcDbEntity
  8
0
  6
Continuous
 62
     7
100
AcDbLine
 10
8135.7881737864
 20
5033.6362636775
 30
0.0
 11
8190.0005949652
 21
5033.6362636775
 31
0.0
  0
LINE
  5
4E3
330
1F
100
AcDbEntity
  8
0
  6
Continuous
 62
     7
100
AcDbLine
 10
8190.2038170016
 20
5158.2895732612
 30
0.0
 11
8137.6726342356
 21
5158.2895732612
 31
0.0
  0
LINE
  5
4E4
330
1F
100
AcDbEntity
  8
0
  6
Continuous
 62
     7
100
AcDbLine
 10
8105.8943880713
 20
5164.9419284553
 30
0.0
 11
8105.8943880713
 21
5112.9419422835
 31
0.0
  0
LINE
  5
4E5
330
1F
100
AcDbEntity
  8
0
  6
Continuous
 62
     7
100
AcDbLine
 10
8139.8943675673
 20
5174.4419253558
 30
0.0
 11
8185.8943862832
 21
5174.4419253558
 31
0.0
  0
LINE
  5
4E6
330
1F
100
AcDbEntity
  8
0
  6
Continuous
 62
     7
100
AcDbLine
 10
5033.7186960176
 20
4173.2274348808
 30
0.0
 11
5033.7186960176
 21
4172.8474254681
 31
0.0
  0
LINE
  5
4E7
330
1F
100
AcDbEntity
  8
0
  6
Continuous
 62
     7
100
AcDbLine
 10
5041.3187650636
 20
4172.8474254681
 30
0.0
 11
5041.3187650636
 21
4173.2274348808
 31
0.0
  0
LINE
  5
4E8
330
1F
100
AcDbEntity
  8
0
  6
Continuous
 62
     7
100
AcDbLine
 10
5173.7188009217
 20
4173.2274348808
 30
0.0
 11
5173.7188009217
 21
4172.8474254681
 31
0.0
  0
LINE
  5
4E9
330
1F
100
AcDbEntity
  8
0
  6
Continuous
 62
     7
100
AcDbLine
 10
5181.3187507585
 20
4172.8474254681
 30
0.0
 11
5181.3187507585
 21
4173.2274348808
 31
0.0
  0
LINE
  5
4EA
330
1F
100
AcDbEntity
  8
0
  6
Continuous
 62
     7
100
AcDbLine
 10
5216.5187505677
 20
4172.8474254681
 30
0.0
 11
5216.5187505677
 21
4173.0158383919
 31
0.0
  0
LINE
  5
4EB
330
1F
100
AcDbEntity
  8
0
  6
Continuous
 62
     7
100
AcDbLine
 10
5136.5187076524
 20
4173.0158383919
 30
0.0
 11
5136.5187076524
 21
4172.8474254681
 31
0.0
  0
LINE
  5
4EC
330
1F
100
AcDbEntity
  8
0
  6
Continuous
 62
     7
100
AcDbLine
 10
5196.5187696412
 20
4173.0158383919
 30
0.0
 11
5196.5187696412
 21
4183.0158288551
 31
0.0
  0
LINE
  5
4ED
330
1F
100
AcDbEntity
  8
0
  6
Continuous
 62
     7
100
AcDbLine
 10
5156.5188077882
 20
4183.0158288551
 30
0.0
 11
5156.5188077882
 21
4173.0158383919
 31
0.0
  0
LINE
  5
4EE
330
1F
100
AcDbEntity
  8
0
  6
Continuous
 62
     7
100
AcDbLine
 10
7204.0187624887
 20
4120.3474457337
 30
0.0
 11
7204.0187624887
 21
4122.8474433495
 31
0.0
  0
LINE
  5
4EF
330
1F
100
AcDbEntity
  8
0
  6
Continuous
 62
     7
100
AcDbLine
 10
7144.0187601045
 20
4122.8474433495
 30
0.0
 11
7144.0187601045
 21
4120.3474457337
 31
0.0
  0
LINE
  5
4F0
330
1F
100
AcDbEntity
  8
0
  6
Continuous
 62
     7
100
AcDbLine
 10
7144.0187601045
 20
4120.3474457337
 30
0.0
 11
7144.5187834695
 21
4119.8474223686
 31
0.0
  0
LINE
  5
4F1
330
1F
100
AcDbEntity
  8
0
  6
Continuous
 62
     7
100
AcDbLine
 10
7203.5187391236
 20
4119.8474223686
 30
0.0
 11
7204.0187624887
 21
4120.3474457337
 31
0.0
  0
LINE
  5
4F2
330
1F
100
AcDbEntity
  8
0
  6
Continuous
 62
     7
100
AcDbLine
 10
5404.0187505677
 20
4120.3474457337
 30
0.0
 11
5404.0187505677
 21
4122.8474433495
 31
0.0
  0
LINE
  5
4F3
330
1F
100
AcDbEntity
  8
0
  6
Continuous
 62
     7
100
AcDbLine
 10
5344.0187481835
 20
4122.8474433495
 30
0.0
 11
5344.0187481835
 21
4120.3474457337
 31
0.0
  0
LINE
  5
4F4
330
1F
100
AcDbEntity
  8
0
  6
Continuous
 62
     7
100
AcDbLine
 10
5344.0187481835
 20
4120.3474457337
 30
0.0
 11
5344.5187715486
 21
4119.8474223686
 31
0.0
  0
LINE
  5
4F5
330
1F
100
AcDbEntity
  8
0
  6
Continuous
 62
     7
100
AcDbLine
 10
5403.5187272027
 20
4119.8474223686
 30
0.0
 11
5404.0187505677
 21
4120.3474457337
 31
0.0
  0
LINE
  5
4F6
330
1F
100
AcDbEntity
  8
0
  6
Continuous
 62
     7
100
AcDbLine
 10
6004.0187446073
 20
4120.3474457337
 30
0.0
 11
6004.0187446073
 21
4122.8474433495
 31
0.0
  0
LINE
  5
4F7
330
1F
100
AcDbEntity
  8
0
  6
Continuous
 62
     7
100
AcDbLine
 10
5944.0187422231
 20
4122.8474433495
 30
0.0
 11
5944.0187422231
 21
4120.3474457337
 31
0.0
  0
LINE
  5
4F8
330
1F
100
AcDbEntity
  8
0
  6
Continuous
 62
     7
100
AcDbLine
 10
5944.0187422231
 20
4120.3474457337
 30
0.0
 11
5944.5187655881
 21
4119.8474223686
 31
0.0
  0
LINE
  5
4F9
330
1F
100
AcDbEntity
  8
0
  6
Continuous
 62
     7
100
AcDbLine
 10
6003.5187510446
 20
4119.8474223686
 30
0.0
 11
6004.0187446073
 21
4120.3474457337
 31
0.0
  0
LINE
  5
4FA
330
1F
100
AcDbEntity
  8
0
  6
Continuous
 62
     7
100
AcDbLine
 10
6604.0187684491
 20
4120.3474457337
 30
0.0
 11
6604.0187684491
 21
4122.8474433495
 31
0.0
  0
LINE
  5
4FB
330
1F
100
AcDbEntity
  8
0
  6
Continuous
 62
     7
100
AcDbLine
 10
6544.0187660649
 20
4122.8474433495
 30
0.0
 11
6544.0187660649
 21
4120.3474457337
 31
0.0
  0
LINE
  5
4FC
330
1F
100
AcDbEntity
  8
0
  6
Continuous
 62
     7
100
AcDbLine
 10
6544.0187660649
 20
4120.3474457337
 30
0.0
 11
6544.5187596276
 21
4119.8474223686
 31
0.0
  0
LINE
  5
4FD
330
1F
100
AcDbEntity
  8
0
  6
Continuous
 62
     7
100
AcDbLine
 10
6603.5187450841
 20
4119.8474223686
 30
0.0
 11
6604.0187684491
 21
4120.3474457337
 31
0.0
  0
LINE
  5
4FE
330
1F
100
AcDbEntity
  8
0
  6
Continuous
 62
     7
100
AcDbLine
 10
6560.0187686875
 20
4119.8474223686
 30
0.0
 11
6560.0187686875
 21
3954.8474307133
 31
0.0
  0
LINE
  5
4FF
330
1F
100
AcDbEntity
  8
0
  6
Continuous
 62
     7
100
AcDbLine
 10
6588.0187658265
 20
3954.8474307133
 30
0.0
 11
6588.0187658265
 21
4119.8474223686
 31
0.0
  0
LINE
  5
500
330
1F
100
AcDbEntity
  8
0
  6
Continuous
 62
     7
100
AcDbLine
 10
6560.0187686875
 20
3954.8474307133
 30
0.0
 11
6561.0187558129
 21
3953.8474435879
 31
0.0
  0
LINE
  5
501
330
1F
100
AcDbEntity
  8
0
  6
Continuous
 62
     7
100
AcDbLine
 10
6587.0187488988
 20
3953.8474435879
 30
0.0
 11
6588.0187658265
 21
3954.8474307133
 31
0.0
  0
LINE
  5
502
330
1F
100
AcDbEntity
  8
0
  6
Continuous
 62
     7
100
AcDbLine
 10
7160.0187329248
 20
4119.8474223686
 30
0.0
 11
7160.0187329248
 21
3954.8474307133
 31
0.0
  0
LINE
  5
503
330
1F
100
AcDbEntity
  8
0
  6
Continuous
 62
     7
100
AcDbLine
 10
7188.0187300637
 20
3954.8474307133
 30
0.0
 11
7188.0187300637
 21
4119.8474223686
 31
0.0
  0
LINE
  5
504
330
1F
100
AcDbEntity
  8
0
  6
Continuous
 62
     7
100
AcDbLine
 10
7160.0187329248
 20
3954.8474307133
 30
0.0
 11
7161.0187796548
 21
3953.8474435879
 31
0.0
  0
LINE
  5
505
330
1F
100
AcDbEntity
  8
0
  6
Continuous
 62
     7
100
AcDbLine
 10
7187.0187429383
 20
3953.8474435879
 30
0.0
 11
7188.0187300637
 21
3954.8474307133
 31
0.0
  0
LINE
  5
506
330
1F
100
AcDbEntity
  8
0
  6
Continuous
 62
     7
100
AcDbLine
 10
5360.0187806085
 20
4119.8474223686
 30
0.0
 11
5360.0187806085
 21
3954.8474307133
 31
0.0
  0
LINE
  5
507
330
1F
100
AcDbEntity
  8
0
  6
Continuous
 62
     7
100
AcDbLine
 10
5388.0187777474
 20
3954.8474307133
 30
0.0
 11
5388.0187777474
 21
4119.8474223686
 31
0.0
  0
LINE
  5
508
330
1F
100
AcDbEntity
  8
0
  6
Continuous
 62
     7
100
AcDbLine
 10
5360.0187806085
 20
3954.8474307133
 30
0.0
 11
5361.0187677339
 21
3953.8474435879
 31
0.0
  0
LINE
  5
509
330
1F
100
AcDbEntity
  8
0
  6
Continuous
 62
     7
100
AcDbLine
 10
5387.0187310174
 20
3953.8474435879
 30
0.0
 11
5388.0187777474
 21
3954.8474307133
 31
0.0
  0
LINE
  5
50A
330
1F
100
AcDbEntity
  8
0
  6
Continuous
 62
     7
100
AcDbLine
 10
5960.0187448457
 20
4119.8474223686
 30
0.0
 11
5960.0187448457
 21
3954.8474307133
 31
0.0
  0
LINE
  5
50B
330
1F
100
AcDbEntity
  8
0
  6
Continuous
 62
     7
100
AcDbLine
 10
5988.0187419847
 20
3954.8474307133
 30
0.0
 11
5988.0187419847
 21
4119.8474223686
 31
0.0
  0
LINE
  5
50C
330
1F
100
AcDbEntity
  8
0
  6
Continuous
 62
     7
100
AcDbLine
 10
5960.0187448457
 20
3954.8474307133
 30
0.0
 11
5961.0187617734
 21
3953.8474435879
 31
0.0
  0
LINE
  5
50D
330
1F
100
AcDbEntity
  8
0
  6
Continuous
 62
     7
100
AcDbLine
 10
5987.0187548593
 20
3953.8474435879
 30
0.0
 11
5988.0187419847
 21
3954.8474307133
 31
0.0
  0
LINE
  5
50E
330
1F
100
AcDbEntity
  8
0
  6
Continuous
 62
     7
100
AcDbLine
 10
7477.3687032655
 20
3692.7474361994
 30
0.0
 11
5070.6688074067
 21
3692.7474361994
 31
0.0
  0
LINE
  5
50F
330
1F
100
AcDbEntity
  8
0
  6
Continuous
 62
     7
100
AcDbLine
 10
5070.6688074067
 20
3692.7474361994
 30
0.0
 11
5070.6688074067
 21
3692.8474361969
 31
0.0
  0
LINE
  5
510
330
1F
100
AcDbEntity
  8
0
  6
Continuous
 62
     7
100
AcDbLine
 10
7477.3687032655
 20
3692.7474361994
 30
0.0
 11
7477.3687032655
 21
3692.8474361969
 31
0.0
  0
LINE
  5
511
330
1F
100
AcDbEntity
  8
0
  6
Continuous
 62
     7
100
AcDbLine
 10
5070.1030401185
 20
3692.8474361969
 30
0.0
 11
5070.3468231156
 21
3692.7791404863
 31
0.0
  0
LINE
  5
512
330
1F
100
AcDbEntity
  8
0
  6
Continuous
 62
     7
100
AcDbLine
 10
5070.3468231156
 20
3692.7791404863
 30
0.0
 11
5070.6688074067
 21
3692.7474361994
 31
0.0
  0
LINE
  5
513
330
1F
100
AcDbEntity
  8
0
  6
Continuous
 62
     7
100
AcDbLine
 10
7477.3687032655
 20
3692.7474361994
 30
0.0
 11
7477.6906875566
 21
3692.7791404863
 31
0.0
  0
LINE
  5
514
330
1F
100
AcDbEntity
  8
0
  6
Continuous
 62
     7
100
AcDbLine
 10
7477.6906875566
 20
3692.7791404863
 30
0.0
 11
7477.9344705537
 21
3692.8474361969
 31
0.0
  0
LINE
  5
515
330
1F
100
AcDbEntity
  8
0
  6
Continuous
 62
     7
100
AcDbLine
 10
7524.0187553361
 20
4172.8474254681
 30
0.0
 11
7522.0187810853
 21
4172.8474254681
 31
0.0
  0
LINE
  5
516
330
1F
100
AcDbEntity
  8
0
  6
Continuous
 62
     7
100
AcDbLine
 10
7524.0187553361
 20
4172.8474254681
 30
0.0
 11
7524.0187553361
 21
4170.1900417877
 31
0.0
  0
LINE
  5
517
330
1F
100
AcDbEntity
  8
0
  6
Continuous
 62
     7
100
AcDbLine
 10
7524.0187553361
 20
4170.1900417877
 30
0.0
 11
7522.0187810853
 21
4170.1900417877
 31
0.0
  0
LINE
  5
518
330
1F
100
AcDbEntity
  8
0
  6
Continuous
 62
     7
100
AcDbLine
 10
7522.0187810853
 20
4172.8474254681
 30
0.0
 11
7522.0187810853
 21
4170.1900417877
 31
0.0
  0
LINE
  5
519
330
1F
100
AcDbEntity
  8
0
  6
Continuous
 62
     7
100
AcDbLine
 10
7524.0187553361
 20
4124.5900447441
 30
0.0
 11
7522.0187810853
 21
4124.5900447441
 31
0.0
  0
LINE
  5
51A
330
1F
100
AcDbEntity
  8
0
  6
Continuous
 62
     7
100
AcDbLine
 10
7524.0187553361
 20
4170.1900417877
 30
0.0
 11
7524.0187553361
 21
4124.5900447441
 31
0.0
  0
LINE
  5
51B
330
1F
100
AcDbEntity
  8
0
  6
Continuous
 62
     7
100
AcDbLine
 10
7522.0187810853
 20
4170.1900417877
 30
0.0
 11
7522.0187810853
 21
4124.5900447441
 31
0.0
  0
LINE
  5
51C
330
1F
100
AcDbEntity
  8
0
  6
Continuous
 62
     7
100
AcDbLine
 10
7524.0187553361
 20
4122.8474433495
 30
0.0
 11
7522.0187810853
 21
4122.8474433495
 31
0.0
  0
LINE
  5
51D
330
1F
100
AcDbEntity
  8
0
  6
Continuous
 62
     7
100
AcDbLine
 10
7524.0187553361
 20
4124.5900447441
 30
0.0
 11
7524.0187553361
 21
4122.8474433495
 31
0.0
  0
LINE
  5
51E
330
1F
100
AcDbEntity
  8
0
  6
Continuous
 62
     7
100
AcDbLine
 10
7522.0187810853
 20
4124.5900447441
 30
0.0
 11
7522.0187810853
 21
4122.8474433495
 31
0.0
  0
LINE
  5
51F
330
1F
100
AcDbEntity
  8
0
  6
Continuous
 62
     7
100
AcDbLine
 10
7524.0187553361
 20
3695.047436185
 30
0.0
 11
7522.0187810853
 21
3695.047436185
 31
0.0
  0
LINE
  5
520
330
1F
100
AcDbEntity
  8
0
  6
Continuous
 62
     7
100
AcDbLine
 10
7524.0187553361
 20
4122.8474433495
 30
0.0
 11
7524.0187553361
 21
3695.047436185
 31
0.0
  0
LINE
  5
521
330
1F
100
AcDbEntity
  8
0
  6
Continuous
 62
     7
100
AcDbLine
 10
7522.0187810853
 20
4122.8474433495
 30
0.0
 11
7522.0187810853
 21
3695.047436185
 31
0.0
  0
LINE
  5
522
330
1F
100
AcDbEntity
  8
0
  6
Continuous
 62
     7
100
AcDbLine
 10
7524.0187553361
 20
3692.8474361969
 30
0.0
 11
7522.0187810853
 21
3692.8474361969
 31
0.0
  0
LINE
  5
523
330
1F
100
AcDbEntity
  8
0
  6
Continuous
 62
     7
100
AcDbLine
 10
7524.0187553361
 20
3695.047436185
 30
0.0
 11
7524.0187553361
 21
3692.8474361969
 31
0.0
  0
LINE
  5
524
330
1F
100
AcDbEntity
  8
0
  6
Continuous
 62
     7
100
AcDbLine
 10
7522.0187810853
 20
3695.047436185
 30
0.0
 11
7522.0187810853
 21
3692.8474361969
 31
0.0
  0
LINE
  5
525
330
1F
100
AcDbEntity
  8
0
  6
Continuous
 62
     7
100
AcDbLine
 10
7521.6997770265
 20
3692.8474361969
 30
0.0
 11
7521.5235856965
 21
3692.8070018269
 31
0.0
  0
LINE
  5
526
330
1F
100
AcDbEntity
  8
0
  6
Continuous
 62
     7
100
AcDbLine
 10
7521.5235856965
 20
3692.8070018269
 30
0.0
 11
7520.9187177613
 21
3692.7474361994
 31
0.0
  0
LINE
  5
527
330
1F
100
AcDbEntity
  8
0
  6
Continuous
 62
     7
100
AcDbLine
 10
7520.9187177613
 20
3692.7474361994
 30
0.0
 11
7482.1187166169
 21
3692.7474361994
 31
0.0
  0
LINE
  5
528
330
1F
100
AcDbEntity
  8
0
  6
Continuous
 62
     7
100
AcDbLine
 10
7481.3377765611
 20
3692.8474361969
 30
0.0
 11
7481.513967891
 21
3692.8070018269
 31
0.0
  0
LINE
  5
529
330
1F
100
AcDbEntity
  8
0
  6
Continuous
 62
     7
100
AcDbLine
 10
7481.513967891
 20
3692.8070018269
 30
0.0
 11
7482.1187166169
 21
3692.7474361994
 31
0.0
  0
LINE
  5
52A
330
1F
100
AcDbEntity
  8
0
  6
Continuous
 62
     7
100
AcDbLine
 10
5024.0187553361
 20
4170.1900417877
 30
0.0
 11
5026.0187295869
 21
4170.1900417877
 31
0.0
  0
LINE
  5
52B
330
1F
100
AcDbEntity
  8
0
  6
Continuous
 62
     7
100
AcDbLine
 10
5024.0187553361
 20
4172.8474254681
 30
0.0
 11
5026.0187295869
 21
4172.8474254681
 31
0.0
  0
LINE
  5
52C
330
1F
100
AcDbEntity
  8
0
  6
Continuous
 62
     7
100
AcDbLine
 10
5026.0187295869
 20
4172.8474254681
 30
0.0
 11
5026.0187295869
 21
4170.1900417877
 31
0.0
  0
LINE
  5
52D
330
1F
100
AcDbEntity
  8
0
  6
Continuous
 62
     7
100
AcDbLine
 10
5024.0187553361
 20
4172.8474254681
 30
0.0
 11
5024.0187553361
 21
4170.1900417877
 31
0.0
  0
LINE
  5
52E
330
1F
100
AcDbEntity
  8
0
  6
Continuous
 62
     7
100
AcDbLine
 10
5024.0187553361
 20
4124.5900447441
 30
0.0
 11
5026.0187295869
 21
4124.5900447441
 31
0.0
  0
LINE
  5
52F
330
1F
100
AcDbEntity
  8
0
  6
Continuous
 62
     7
100
AcDbLine
 10
5026.0187295869
 20
4170.1900417877
 30
0.0
 11
5026.0187295869
 21
4124.5900447441
 31
0.0
  0
LINE
  5
530
330
1F
100
AcDbEntity
  8
0
  6
Continuous
 62
     7
100
AcDbLine
 10
5024.0187553361
 20
4170.1900417877
 30
0.0
 11
5024.0187553361
 21
4124.5900447441
 31
0.0
  0
LINE
  5
531
330
1F
100
AcDbEntity
  8
0
  6
Continuous
 62
     7
100
AcDbLine
 10
5024.0187553361
 20
4122.8474433495
 30
0.0
 11
5026.0187295869
 21
4122.8474433495
 31
0.0
  0
LINE
  5
532
330
1F
100
AcDbEntity
  8
0
  6
Continuous
 62
     7
100
AcDbLine
 10
5026.0187295869
 20
4124.5900447441
 30
0.0
 11
5026.0187295869
 21
4122.8474433495
 31
0.0
  0
LINE
  5
533
330
1F
100
AcDbEntity
  8
0
  6
Continuous
 62
     7
100
AcDbLine
 10
5024.0187553361
 20
4124.5900447441
 30
0.0
 11
5024.0187553361
 21
4122.8474433495
 31
0.0
  0
LINE
  5
534
330
1F
100
AcDbEntity
  8
0
  6
Continuous
 62
     7
100
AcDbLine
 10
5024.0187553361
 20
3695.047436185
 30
0.0
 11
5026.0187295869
 21
3695.047436185
 31
0.0
  0
LINE
  5
535
330
1F
100
AcDbEntity
  8
0
  6
Continuous
 62
     7
100
AcDbLine
 10
5026.0187295869
 20
4122.8474433495
 30
0.0
 11
5026.0187295869
 21
3695.047436185
 31
0.0
  0
LINE
  5
536
330
1F
100
AcDbEntity
  8
0
  6
Continuous
 62
     7
100
AcDbLine
 10
5024.0187553361
 20
4122.8474433495
 30
0.0
 11
5024.0187553361
 21
3695.047436185
 31
0.0
  0
LINE
  5
537
330
1F
100
AcDbEntity
  8
0
  6
Continuous
 62
     7
100
AcDbLine
 10
5024.0187553361
 20
3692.8474361969
 30
0.0
 11
5026.0187295869
 21
3692.8474361969
 31
0.0
  0
LINE
  5
538
330
1F
100
AcDbEntity
  8
0
  6
Continuous
 62
     7
100
AcDbLine
 10
5026.0187295869
 20
3695.047436185
 30
0.0
 11
5026.0187295869
 21
3692.8474361969
 31
0.0
  0
LINE
  5
539
330
1F
100
AcDbEntity
  8
0
  6
Continuous
 62
     7
100
AcDbLine
 10
5024.0187553361
 20
3695.047436185
 30
0.0
 11
5024.0187553361
 21
3692.8474361969
 31
0.0
  0
LINE
  5
53A
330
1F
100
AcDbEntity
  8
0
  6
Continuous
 62
     7
100
AcDbLine
 10
5026.3377336457
 20
3692.8474361969
 30
0.0
 11
5026.5139249757
 21
3692.8070018269
 31
0.0
  0
LINE
  5
53B
330
1F
100
AcDbEntity
  8
0
  6
Continuous
 62
     7
100
AcDbLine
 10
5026.5139249757
 20
3692.8070018269
 30
0.0
 11
5027.1187929109
 21
3692.7474361994
 31
0.0
  0
LINE
  5
53C
330
1F
100
AcDbEntity
  8
0
  6
Continuous
 62
     7
100
AcDbLine
 10
5027.1187929109
 20
3692.7474361994
 30
0.0
 11
5065.9187940553
 21
3692.7474361994
 31
0.0
  0
LINE
  5
53D
330
1F
100
AcDbEntity
  8
0
  6
Continuous
 62
     7
100
AcDbLine
 10
5066.6997341111
 20
3692.8474361969
 30
0.0
 11
5066.5235427812
 21
3692.8070018269
 31
0.0
  0
LINE
  5
53E
330
1F
100
AcDbEntity
  8
0
  6
Continuous
 62
     7
100
AcDbLine
 10
5066.5235427812
 20
3692.8070018269
 30
0.0
 11
5065.9187940553
 21
3692.7474361994
 31
0.0
  0
LINE
  5
53F
330
1F
100
AcDbEntity
  8
0
  6
Continuous
 62
     7
100
AcDbLine
 10
7522.0187810853
 20
4172.8474254681
 30
0.0
 11
5026.0187295869
 21
4172.8474254681
 31
0.0
  0
LINE
  5
540
330
1F
100
AcDbEntity
  8
0
  6
Continuous
 62
     7
100
AcDbLine
 10
5026.0187295869
 20
4170.1900417877
 30
0.0
 11
7522.0187810853
 21
4170.1900417877
 31
0.0
  0
LINE
  5
541
330
1F
100
AcDbEntity
  8
0
  6
Continuous
 62
     7
100
AcDbLine
 10
7522.0187810853
 20
4124.5900447441
 30
0.0
 11
5026.0187295869
 21
4124.5900447441
 31
0.0
  0
LINE
  5
542
330
1F
100
AcDbEntity
  8
0
  6
Continuous
 62
     7
100
AcDbLine
 10
5026.0187295869
 20
4122.8474433495
 30
0.0
 11
7522.0187810853
 21
4122.8474433495
 31
0.0
  0
LINE
  5
543
330
1F
100
AcDbEntity
  8
0
  6
Continuous
 62
     7
100
AcDbLine
 10
7522.0187810853
 20
3737.8474379851
 30
0.0
 11
5026.0187295869
 21
3737.8474379851
 31
0.0
  0
LINE
  5
544
330
1F
100
AcDbEntity
  8
0
  6
Continuous
 62
     7
100
AcDbLine
 10
5026.0187295869
 20
3735.647437997
 30
0.0
 11
7522.0187810853
 21
3735.647437997
 31
0.0
  0
LINE
  5
545
330
1F
100
AcDbEntity
  8
0
  6
Continuous
 62
     7
100
AcDbLine
 10
7522.0187810853
 20
3695.047436185
 30
0.0
 11
5026.0187295869
 21
3695.047436185
 31
0.0
  0
LINE
  5
546
330
1F
100
AcDbEntity
  8
0
  6
Continuous
 62
     7
100
AcDbLine
 10
5026.0187295869
 20
3695.047436185
 30
0.0
 11
5026.0187295869
 21
3735.647437997
 31
0.0
  0
LINE
  5
547
330
1F
100
AcDbEntity
  8
0
  6
Continuous
 62
     7
100
AcDbLine
 10
7522.0187810853
 20
3695.047436185
 30
0.0
 11
7522.0187810853
 21
3735.647437997
 31
0.0
  0
LINE
  5
548
330
1F
100
AcDbEntity
  8
0
  6
Continuous
 62
     7
100
AcDbLine
 10
5026.0187295869
 20
3692.8474361969
 30
0.0
 11
7522.0187810853
 21
3692.8474361969
 31
0.0
  0
LINE
  5
549
330
1F
100
AcDbEntity
  8
0
  6
Continuous
 62
     7
100
AcDbLine
 10
7522.0187810853
 20
3738.1898070646
 30
0.0
 11
5026.0187295869
 21
3738.1898070646
 31
0.0
  0
LINE
  5
54A
330
1F
100
AcDbEntity
  8
0
  6
Continuous
 62
     7
100
AcDbLine
 10
5026.0187295869
 20
3863.5648841931
 30
0.0
 11
7522.0187810853
 21
3863.5648841931
 31
0.0
  0
LINE
  5
54B
330
1F
100
AcDbEntity
  8
0
  6
Continuous
 62
     7
100
AcDbLine
 10
7522.0187810853
 20
3864.2225022389
 30
0.0
 11
5026.0187295869
 21
3864.2225022389
 31
0.0
  0
LINE
  5
54C
330
1F
100
AcDbEntity
  8
0
  6
Continuous
 62
     7
100
AcDbLine
 10
5037.7246049836
 20
4173.2274348808
 30
0.0
 11
5041.3187650636
 21
4173.2274348808
 31
0.0
  0
LINE
  5
54D
330
1F
100
AcDbEntity
  8
0
  6
Continuous
 62
     7
100
AcDbLine
 10
5033.7186960176
 20
4173.2274348808
 30
0.0
 11
5037.7246049836
 21
4173.2274348808
 31
0.0
  0
LINE
  5
54E
330
1F
100
AcDbEntity
  8
0
  6
Continuous
 62
     7
100
AcDbLine
 10
5037.6217273667
 20
4175.0474329067
 30
0.0
 11
5039.4188074067
 21
4175.0474329067
 31
0.0
  0
LINE
  5
54F
330
1F
100
AcDbEntity
  8
0
  6
Continuous
 62
     7
100
AcDbLine
 10
5035.6187728837
 20
4175.0474329067
 30
0.0
 11
5037.6217273667
 21
4175.0474329067
 31
0.0
  0
LINE
  5
550
330
1F
100
AcDbEntity
  8
0
  6
Continuous
 62
     7
100
AcDbLine
 10
5176.4422563508
 20
4175.0474329067
 30
0.0
 11
5179.4187931016
 21
4175.0474329067
 31
0.0
  0
LINE
  5
551
330
1F
100
AcDbEntity
  8
0
  6
Continuous
 62
     7
100
AcDbLine
 10
5175.6187585786
 20
4175.0474329067
 30
0.0
 11
5176.4422563508
 21
4175.0474329067
 31
0.0
  0
LINE
  5
552
330
1F
100
AcDbEntity
  8
0
  6
Continuous
 62
     7
100
AcDbLine
 10
5175.3656772569
 20
4173.2274348808
 30
0.0
 11
5181.3187507585
 21
4173.2274348808
 31
0.0
  0
LINE
  5
553
330
1F
100
AcDbEntity
  8
0
  6
Continuous
 62
     7
100
AcDbLine
 10
5173.7188009217
 20
4173.2274348808
 30
0.0
 11
5175.3656772569
 21
4173.2274348808
 31
0.0
  0
LINE
  5
554
330
1F
100
AcDbEntity
  8
0
  6
Continuous
 62
     7
100
AcDbLine
 10
5177.2687553361
 20
3925.1512837742
 30
0.0
 11
5177.2687553361
 21
3935.5435886196
 31
0.0
  0
LINE
  5
555
330
1F
100
AcDbEntity
  8
0
  6
Continuous
 62
     7
100
AcDbLine
 10
5175.7687553361
 20
3935.5435886196
 30
0.0
 11
5175.7687553361
 21
3925.1512837742
 31
0.0
  0
LINE
  5
556
330
1F
100
AcDbEntity
  8
0
  6
Continuous
 62
     7
100
AcDbLine
 10
5213.4678272203
 20
4173.0158383919
 30
0.0
 11
5181.3187507585
 21
4173.0158383919
 31
0.0
  0
LINE
  5
557
330
1F
100
AcDbEntity
  8
0
  6
Continuous
 62
     7
100
AcDbLine
 10
5173.7188009217
 20
4173.0158383919
 30
0.0
 11
5136.5187076524
 21
4173.0158383919
 31
0.0
  0
LINE
  5
558
330
1F
100
AcDbEntity
  8
0
  6
Continuous
 62
     7
100
AcDbLine
 10
5216.5187505677
 20
4173.0158383919
 30
0.0
 11
5213.4678272203
 21
4173.0158383919
 31
0.0
  0
LINE
  5
559
330
1F
100
AcDbEntity
  8
0
  6
Continuous
 62
     7
100
AcDbLine
 10
5194.9933675721
 20
4183.0158288551
 30
0.0
 11
5156.5188077882
 21
4183.0158288551
 31
0.0
  0
LINE
  5
55A
330
1F
100
AcDbEntity
  8
0
  6
Continuous
 62
     7
100
AcDbLine
 10
5196.5187696412
 20
4183.0158288551
 30
0.0
 11
5194.9933675721
 21
4183.0158288551
 31
0.0
  0
LINE
  5
55B
330
1F
100
AcDbEntity
  8
0
  6
Continuous
 62
     7
100
AcDbLine
 10
5164.4717363313
 20
3922.2777987791
 30
0.0
 11
5165.9452823594
 21
3920.4251970125
 31
0.0
  0
LINE
  5
55C
330
1F
100
AcDbEntity
  8
0
  6
Continuous
 62
     7
100
AcDbLine
 10
5165.9452823594
 20
3920.4251970125
 30
0.0
 11
5167.2195104554
 21
3919.2220623566
 31
0.0
  0
LINE
  5
55D
330
1F
100
AcDbEntity
  8
0
  6
Continuous
 62
     7
100
AcDbLine
 10
5185.8179477647
 20
3919.2220623566
 30
0.0
 11
5187.09229507
 21
3920.4251970125
 31
0.0
  0
LINE
  5
55E
330
1F
100
AcDbEntity
  8
0
  6
Continuous
 62
     7
100
AcDbLine
 10
5187.09229507
 20
3920.4251970125
 30
0.0
 11
5188.5658410981
 21
3922.2777987791
 31
0.0
  0
LINE
  5
55F
330
1F
100
AcDbEntity
  8
0
  6
Continuous
 62
     7
100
AcDbLine
 10
5189.530840297
 20
3923.9492173268
 30
0.0
 11
5190.3984455064
 21
3926.1516238524
 31
0.0
  0
LINE
  5
560
330
1F
100
AcDbEntity
  8
0
  6
Continuous
 62
     7
100
AcDbLine
 10
5190.3984455064
 20
3926.1516238524
 30
0.0
 11
5190.8032802537
 21
3927.8567488266
 31
0.0
  0
LINE
  5
561
330
1F
100
AcDbEntity
  8
0
  6
Continuous
 62
     7
100
AcDbLine
 10
5181.5040019944
 20
3943.963503368
 30
0.0
 11
5179.8249391511
 21
3944.4654936863
 31
0.0
  0
LINE
  5
562
330
1F
100
AcDbEntity
  8
0
  6
Continuous
 62
     7
100
AcDbLine
 10
5179.8249391511
 20
3944.4654936863
 30
0.0
 11
5177.4837879136
 21
3944.8152835442
 31
0.0
  0
LINE
  5
563
330
1F
100
AcDbEntity
  8
0
  6
Continuous
 62
     7
100
AcDbLine
 10
5175.5537895158
 20
3944.8152835442
 30
0.0
 11
5173.2126382783
 21
3944.4654936863
 31
0.0
  0
LINE
  5
564
330
1F
100
AcDbEntity
  8
0
  6
Continuous
 62
     7
100
AcDbLine
 10
5173.2126382783
 20
3944.4654936863
 30
0.0
 11
5171.533575435
 21
3943.963503368
 31
0.0
  0
LINE
  5
565
330
1F
100
AcDbEntity
  8
0
  6
Continuous
 62
     7
100
AcDbLine
 10
5162.2342971757
 20
3927.8567488266
 30
0.0
 11
5162.639131923
 21
3926.1516238524
 31
0.0
  0
LINE
  5
566
330
1F
100
AcDbEntity
  8
0
  6
Continuous
 62
     7
100
AcDbLine
 10
5162.639131923
 20
3926.1516238524
 30
0.0
 11
5163.5067371324
 21
3923.9492173268
 31
0.0
  0
LINE
  5
567
330
1F
100
AcDbEntity
  8
0
  6
Continuous
 62
     7
100
AcDbLine
 10
5175.5537895158
 20
3946.6529363047
 30
0.0
 11
5175.5537895158
 21
3939.4414479805
 31
0.0
  0
LINE
  5
568
330
1F
100
AcDbEntity
  8
0
  6
Continuous
 62
     7
100
AcDbLine
 10
5177.4837879136
 20
3939.4414479805
 30
0.0
 11
5177.4837879136
 21
3946.6529363047
 31
0.0
  0
LINE
  5
569
330
1F
100
AcDbEntity
  8
0
  6
Continuous
 62
     7
100
AcDbLine
 10
5191.1222843125
 20
3923.0303968264
 30
0.0
 11
5184.876909633
 21
3926.6361500097
 31
0.0
  0
LINE
  5
56A
330
1F
100
AcDbEntity
  8
0
  6
Continuous
 62
     7
100
AcDbLine
 10
5183.9119104341
 20
3924.9647165609
 30
0.0
 11
5190.1572851136
 21
3921.3589782787
 31
0.0
  0
LINE
  5
56B
330
1F
100
AcDbEntity
  8
0
  6
Continuous
 62
     7
100
AcDbLine
 10
5162.8802923158
 20
3921.3589782787
 30
0.0
 11
5169.1256669953
 21
3924.9647165609
 31
0.0
  0
LINE
  5
56C
330
1F
100
AcDbEntity
  8
0
  6
Continuous
 62
     7
100
AcDbLine
 10
5168.1606677964
 20
3926.6361500097
 30
0.0
 11
5161.9152931169
 21
3923.0303968264
 31
0.0
  0
LINE
  5
56D
330
1F
100
AcDbEntity
  8
0
  6
Continuous
 62
     7
100
AcDbLine
 10
7146.3404206231
 20
4120.3474457337
 30
0.0
 11
7204.0187624887
 21
4120.3474457337
 31
0.0
  0
LINE
  5
56E
330
1F
100
AcDbEntity
  8
0
  6
Continuous
 62
     7
100
AcDbLine
 10
7144.0187601045
 20
4120.3474457337
 30
0.0
 11
7146.3404206231
 21
4120.3474457337
 31
0.0
  0
LINE
  5
56F
330
1F
100
AcDbEntity
  8
0
  6
Continuous
 62
     7
100
AcDbLine
 10
7146.8017605737
 20
4119.8474223686
 30
0.0
 11
7144.5187834695
 21
4119.8474223686
 31
0.0
  0
LINE
  5
570
330
1F
100
AcDbEntity
  8
0
  6
Continuous
 62
     7
100
AcDbLine
 10
7203.5187391236
 20
4119.8474223686
 30
0.0
 11
7146.8017605737
 21
4119.8474223686
 31
0.0
  0
LINE
  5
571
330
1F
100
AcDbEntity
  8
0
  6
Continuous
 62
     7
100
AcDbLine
 10
5346.3404087022
 20
4120.3474457337
 30
0.0
 11
5404.0187505677
 21
4120.3474457337
 31
0.0
  0
LINE
  5
572
330
1F
100
AcDbEntity
  8
0
  6
Continuous
 62
     7
100
AcDbLine
 10
5344.0187481835
 20
4120.3474457337
 30
0.0
 11
5346.3404087022
 21
4120.3474457337
 31
0.0
  0
LINE
  5
573
330
1F
100
AcDbEntity
  8
0
  6
Continuous
 62
     7
100
AcDbLine
 10
5346.8017486528
 20
4119.8474223686
 30
0.0
 11
5344.5187715486
 21
4119.8474223686
 31
0.0
  0
LINE
  5
574
330
1F
100
AcDbEntity
  8
0
  6
Continuous
 62
     7
100
AcDbLine
 10
5403.5187272027
 20
4119.8474223686
 30
0.0
 11
5346.8017486528
 21
4119.8474223686
 31
0.0
  0
LINE
  5
575
330
1F
100
AcDbEntity
  8
0
  6
Continuous
 62
     7
100
AcDbLine
 10
5946.340432544
 20
4120.3474457337
 30
0.0
 11
6004.0187446073
 21
4120.3474457337
 31
0.0
  0
LINE
  5
576
330
1F
100
AcDbEntity
  8
0
  6
Continuous
 62
     7
100
AcDbLine
 10
5944.0187422231
 20
4120.3474457337
 30
0.0
 11
5946.340432544
 21
4120.3474457337
 31
0.0
  0
LINE
  5
577
330
1F
100
AcDbEntity
  8
0
  6
Continuous
 62
     7
100
AcDbLine
 10
5946.8017426923
 20
4119.8474223686
 30
0.0
 11
5944.5187655881
 21
4119.8474223686
 31
0.0
  0
LINE
  5
578
330
1F
100
AcDbEntity
  8
0
  6
Continuous
 62
     7
100
AcDbLine
 10
6003.5187510446
 20
4119.8474223686
 30
0.0
 11
5946.8017426923
 21
4119.8474223686
 31
0.0
  0
LINE
  5
579
330
1F
100
AcDbEntity
  8
0
  6
Continuous
 62
     7
100
AcDbLine
 10
6546.3404265836
 20
4120.3474457337
 30
0.0
 11
6604.0187684491
 21
4120.3474457337
 31
0.0
  0
LINE
  5
57A
330
1F
100
AcDbEntity
  8
0
  6
Continuous
 62
     7
100
AcDbLine
 10
6544.0187660649
 20
4120.3474457337
 30
0.0
 11
6546.3404265836
 21
4120.3474457337
 31
0.0
  0
LINE
  5
57B
330
1F
100
AcDbEntity
  8
0
  6
Continuous
 62
     7
100
AcDbLine
 10
6546.8017367318
 20
4119.8474223686
 30
0.0
 11
6544.5187596276
 21
4119.8474223686
 31
0.0
  0
LINE
  5
57C
330
1F
100
AcDbEntity
  8
0
  6
Continuous
 62
     7
100
AcDbLine
 10
6603.5187450841
 20
4119.8474223686
 30
0.0
 11
6546.8017367318
 21
4119.8474223686
 31
0.0
  0
LINE
  5
57D
330
1F
100
AcDbEntity
  8
0
  6
Continuous
 62
     7
100
AcDbLine
 10
6560.0187686875
 20
3954.8474307133
 30
0.0
 11
6588.0187658265
 21
3954.8474307133
 31
0.0
  0
LINE
  5
57E
330
1F
100
AcDbEntity
  8
0
  6
Continuous
 62
     7
100
AcDbLine
 10
6587.0187488988
 20
3953.8474435879
 30
0.0
 11
6561.0187558129
 21
3953.8474435879
 31
0.0
  0
LINE
  5
57F
330
1F
100
AcDbEntity
  8
0
  6
Continuous
 62
     7
100
AcDbLine
 10
7160.0187329248
 20
3954.8474307133
 30
0.0
 11
7188.0187300637
 21
3954.8474307133
 31
0.0
  0
LINE
  5
580
330
1F
100
AcDbEntity
  8
0
  6
Continuous
 62
     7
100
AcDbLine
 10
7187.0187429383
 20
3953.8474435879
 30
0.0
 11
7161.0187796548
 21
3953.8474435879
 31
0.0
  0
LINE
  5
581
330
1F
100
AcDbEntity
  8
0
  6
Continuous
 62
     7
100
AcDbLine
 10
5360.0187806085
 20
3954.8474307133
 30
0.0
 11
5388.0187777474
 21
3954.8474307133
 31
0.0
  0
LINE
  5
582
330
1F
100
AcDbEntity
  8
0
  6
Continuous
 62
     7
100
AcDbLine
 10
5387.0187310174
 20
3953.8474435879
 30
0.0
 11
5361.0187677339
 21
3953.8474435879
 31
0.0
  0
LINE
  5
583
330
1F
100
AcDbEntity
  8
0
  6
Continuous
 62
     7
100
AcDbLine
 10
5960.0187448457
 20
3954.8474307133
 30
0.0
 11
5988.0187419847
 21
3954.8474307133
 31
0.0
  0
LINE
  5
584
330
1F
100
AcDbEntity
  8
0
  6
Continuous
 62
     7
100
AcDbLine
 10
5987.0187548593
 20
3953.8474435879
 30
0.0
 11
5961.0187617734
 21
3953.8474435879
 31
0.0
  0
LINE
  5
585
330
1F
100
AcDbEntity
  8
0
  6
Continuous
 62
     7
100
AcDbLine
 10
7520.9187177613
 20
3692.8474361969
 30
0.0
 11
7520.9187177613
 21
3692.7474361994
 31
0.0
  0
LINE
  5
586
330
1F
100
AcDbEntity
  8
0
  6
Continuous
 62
     7
100
AcDbLine
 10
7482.1187166169
 20
3692.8474361969
 30
0.0
 11
7482.1187166169
 21
3692.7474361994
 31
0.0
  0
LINE
  5
587
330
1F
100
AcDbEntity
  8
0
  6
Continuous
 62
     7
100
AcDbLine
 10
5027.1187929109
 20
3692.8474361969
 30
0.0
 11
5027.1187929109
 21
3692.7474361994
 31
0.0
  0
LINE
  5
588
330
1F
100
AcDbEntity
  8
0
  6
Continuous
 62
     7
100
AcDbLine
 10
5065.9187940553
 20
3692.8474361969
 30
0.0
 11
5065.9187940553
 21
3692.7474361994
 31
0.0
  0
LINE
  5
589
330
1F
100
AcDbEntity
  8
0
  6
Continuous
 62
     7
100
AcDbLine
 10
5026.0187295869
 20
4122.5050742699
 30
0.0
 11
5344.0187481835
 21
4122.5050742699
 31
0.0
  0
LINE
  5
58A
330
1F
100
AcDbEntity
  8
0
  6
Continuous
 62
     7
100
AcDbLine
 10
5404.0187505677
 20
4122.5050742699
 30
0.0
 11
5944.0187422231
 21
4122.5050742699
 31
0.0
  0
LINE
  5
58B
330
1F
100
AcDbEntity
  8
0
  6
Continuous
 62
     7
100
AcDbLine
 10
6004.0187446073
 20
4122.5050742699
 30
0.0
 11
6544.0187660649
 21
4122.5050742699
 31
0.0
  0
LINE
  5
58C
330
1F
100
AcDbEntity
  8
0
  6
Continuous
 62
     7
100
AcDbLine
 10
6604.0187684491
 20
4122.5050742699
 30
0.0
 11
7144.0187601045
 21
4122.5050742699
 31
0.0
  0
LINE
  5
58D
330
1F
100
AcDbEntity
  8
0
  6
Continuous
 62
     7
100
AcDbLine
 10
7204.0187624887
 20
4122.5050742699
 30
0.0
 11
7522.0187810853
 21
4122.5050742699
 31
0.0
  0
LINE
  5
58E
330
1F
100
AcDbEntity
  8
0
  6
Continuous
 62
     7
100
AcDbLine
 10
7522.0187810853
 20
3997.1299822403
 30
0.0
 11
7188.0187300637
 21
3997.1299822403
 31
0.0
  0
LINE
  5
58F
330
1F
100
AcDbEntity
  8
0
  6
Continuous
 62
     7
100
AcDbLine
 10
7160.0187329248
 20
3997.1299822403
 30
0.0
 11
6588.0187658265
 21
3997.1299822403
 31
0.0
  0
LINE
  5
590
330
1F
100
AcDbEntity
  8
0
  6
Continuous
 62
     7
100
AcDbLine
 10
6560.0187686875
 20
3997.1299822403
 30
0.0
 11
5988.0187419847
 21
3997.1299822403
 31
0.0
  0
LINE
  5
591
330
1F
100
AcDbEntity
  8
0
  6
Continuous
 62
     7
100
AcDbLine
 10
5960.0187448457
 20
3997.1299822403
 30
0.0
 11
5388.0187777474
 21
3997.1299822403
 31
0.0
  0
LINE
  5
592
330
1F
100
AcDbEntity
  8
0
  6
Continuous
 62
     7
100
AcDbLine
 10
5360.0187806085
 20
3997.1299822403
 30
0.0
 11
5026.0187295869
 21
3997.1299822403
 31
0.0
  0
LINE
  5
593
330
1F
100
AcDbEntity
  8
0
  6
Continuous
 62
     7
100
AcDbLine
 10
5026.0187295869
 20
3996.4723641945
 30
0.0
 11
5360.0187806085
 21
3996.4723641945
 31
0.0
  0
LINE
  5
594
330
1F
100
AcDbEntity
  8
0
  6
Continuous
 62
     7
100
AcDbLine
 10
5388.0187777474
 20
3996.4723641945
 30
0.0
 11
5960.0187448457
 21
3996.4723641945
 31
0.0
  0
LINE
  5
595
330
1F
100
AcDbEntity
  8
0
  6
Continuous
 62
     7
100
AcDbLine
 10
5988.0187419847
 20
3996.4723641945
 30
0.0
 11
6560.0187686875
 21
3996.4723641945
 31
0.0
  0
LINE
  5
596
330
1F
100
AcDbEntity
  8
0
  6
Continuous
 62
     7
100
AcDbLine
 10
6588.0187658265
 20
3996.4723641945
 30
0.0
 11
7160.0187329248
 21
3996.4723641945
 31
0.0
  0
LINE
  5
597
330
1F
100
AcDbEntity
  8
0
  6
Continuous
 62
     7
100
AcDbLine
 10
7188.0187300637
 20
3996.4723641945
 30
0.0
 11
7522.0187810853
 21
3996.4723641945
 31
0.0
  0
LWPOLYLINE
  5
598
330
1F
100
AcDbEntity
  8
0
  6
Continuous
 62
     7
100
AcDbPolyline
 90
        5
 70
   128
 43
0.0
 10
6566.4672851562
 20
5532.3578409046
 10
6562.7717591514
 20
5533.8622160809
 10
6561.1692023433
 20
5537.6634281557
 10
6562.7743163912
 20
5541.4578017152
 10
6566.4687661126
 20
5542.9578415245
  0
LWPOLYLINE
  5
599
330
1F
100
AcDbEntity
  8
0
  6
Continuous
 62
     7
100
AcDbPolyline
 90
        5
 70
   128
 43
0.0
 10
6581.5658569336
 20
5542.9578415245
 10
6585.2638782541
 20
5541.4573127301
 10
6586.8685479722
 20
5537.6548512978
 10
6585.2644632279
 20
5533.8589238969
 10
6581.5687684014
 20
5532.3578409046
  0
LWPOLYLINE
  5
59A
330
1F
100
AcDbEntity
  8
0
  6
Continuous
 62
     7
100
AcDbPolyline
 90
        5
 70
   128
 43
0.0
 10
5966.4649963379
 20
5532.3578409046
 10
5962.7717545886
 20
5533.8622263953
 10
5961.1692116575
 20
5537.663430325
 10
5962.7743136232
 20
5541.4577898115
 10
5966.4687422708
 20
5542.9578415245
  0
LWPOLYLINE
  5
59B
330
1F
100
AcDbEntity
  8
0
  6
Continuous
 62
     7
100
AcDbPolyline
 90
        5
 70
   128
 43
0.0
 10
5981.5673828125
 20
5542.9578415245
 10
5985.2638730863
 20
5541.4573236568
 10
5986.8685565269
 20
5537.654847584
 10
5985.2644580368
 20
5533.8589129993
 10
5981.5687445596
 20
5532.3578409046
  0
LWPOLYLINE
  5
59C
330
1F
100
AcDbEntity
  8
0
  6
Continuous
 62
     7
100
AcDbPolyline
 90
        5
 70
   128
 43
0.0
 10
5366.4665222168
 20
5532.3578409046
 10
5362.7717584515
 20
5533.8622060767
 10
5361.1691824574
 20
5537.6634254576
 10
5362.7743239917
 20
5541.4577948044
 10
5366.4687780335
 20
5542.9578415245
  0
LWPOLYLINE
  5
59D
330
1F
100
AcDbEntity
  8
0
  6
Continuous
 62
     7
100
AcDbPolyline
 90
        5
 70
   128
 43
0.0
 10
5381.5650939941
 20
5542.9578415245
 10
5385.2638887334
 20
5541.4573140863
 10
5386.868552603
 20
5537.6548613426
 10
5385.2644583511
 20
5533.85893629
 10
5381.5687803224
 20
5532.3578409046
  0
LWPOLYLINE
  5
59E
330
1F
100
AcDbEntity
  8
0
  6
Continuous
 62
     7
100
AcDbPolyline
 90
        5
 70
   128
 43
0.0
 10
7166.4657592773
 20
5532.3578409046
 10
7162.7717510061
 20
5533.8622249068
 10
7161.169194358
 20
5537.663426523
 10
7162.7743183186
 20
5541.4577772067
 10
7166.4687303498
 20
5542.9578415245
  0
LWPOLYLINE
  5
59F
330
1F
100
AcDbEntity
  8
0
  6
Continuous
 62
     7
100
AcDbPolyline
 90
        5
 70
   128
 43
0.0
 10
7181.568145752
 20
5542.9578415245
 10
7185.2638780133
 20
5541.4573363137
 10
7186.8685696966
 20
5537.6548550613
 10
7185.264448992
 20
5533.8589156916
 10
7181.5687326387
 20
5532.3578409046
  0
LWPOLYLINE
  5
5A0
330
1F
100
AcDbEntity
  8
0
  6
Continuous
 62
     7
100
AcDbPolyline
 90
        3
 70
   128
 43
0.0
 10
5392.1852111816
 20
5547.3220489115
 10
5371.6066809153
 20
5546.404364118
 10
5355.8517602876
 20
5547.3220489115
  0
LWPOLYLINE
  5
5A1
330
1F
100
AcDbEntity
  8
0
  6
Continuous
 62
     7
100
AcDbPolyline
 90
        3
 70
   128
 43
0.0
 10
5392.1852111816
 20
5530.5936328262
 10
5393.9901367097
 20
5540.0274192492
 10
5392.1857384637
 20
5547.3220489115
  0
LWPOLYLINE
  5
5A2
330
1F
100
AcDbEntity
  8
0
  6
Continuous
 62
     7
100
AcDbPolyline
 90
        3
 70
   128
 43
0.0
 10
5355.8502197266
 20
5530.5936328262
 10
5376.4308215259
 20
5531.5113174784
 10
5392.1857384637
 20
5530.5936328262
  0
LWPOLYLINE
  5
5A3
330
1F
100
AcDbEntity
  8
0
  6
Continuous
 62
     7
100
AcDbPolyline
 90
        3
 70
   128
 43
0.0
 10
5355.8502197266
 20
5547.3220489115
 10
5354.0474163909
 20
5537.8882669735
 10
5355.8517602876
 20
5530.5936328262
  0
LWPOLYLINE
  5
5A4
330
1F
100
AcDbEntity
  8
0
  6
Continuous
 62
     7
100
AcDbPolyline
 90
        5
 70
   128
 43
0.0
 10
5366.5161132812
 20
5543.2578391522
 10
5362.6818826746
 20
5541.6962979452
 10
5361.0192255718
 20
5537.7519895686
 10
5362.6844788627
 20
5533.814910161
 10
5366.5187267259
 20
5532.2578392119
  0
LWPOLYLINE
  5
5A5
330
1F
100
AcDbEntity
  8
0
  6
Continuous
 62
     7
100
AcDbPolyline
 90
        5
 70
   128
 43
0.0
 10
5381.5155029297
 20
5532.2578392119
 10
5385.3556214276
 20
5533.8193824423
 10
5387.0182684625
 20
5537.7636846964
 10
5385.3530246503
 20
5541.7007714
 10
5381.5187720254
 20
5543.2578391522
  0
LWPOLYLINE
  5
5A6
330
1F
100
AcDbEntity
  8
0
  6
Continuous
 62
     7
100
AcDbPolyline
 90
        3
 70
   128
 43
0.0
 10
7192.1844482422
 20
5547.3220489115
 10
7171.6066891463
 20
5546.4043642593
 10
7155.8517722085
 20
5547.3220489115
  0
LWPOLYLINE
  5
5A7
330
1F
100
AcDbEntity
  8
0
  6
Continuous
 62
     7
100
AcDbPolyline
 90
        3
 70
   128
 43
0.0
 10
7192.1844482422
 20
5530.5936328262
 10
7193.9900942813
 20
5540.0274147642
 10
7192.1857503846
 20
5547.3220489115
  0
LWPOLYLINE
  5
5A8
330
1F
100
AcDbEntity
  8
0
  6
Continuous
 62
     7
100
AcDbPolyline
 90
        3
 70
   128
 43
0.0
 10
7155.8494567871
 20
5530.5936328262
 10
7176.4308297569
 20
5531.5113176197
 10
7192.1857503846
 20
5530.5936328262
  0
LWPOLYLINE
  5
5A9
330
1F
100
AcDbEntity
  8
0
  6
Continuous
 62
     7
100
AcDbPolyline
 90
        3
 70
   128
 43
0.0
 10
7155.8494567871
 20
5547.3220489115
 10
7154.0473739625
 20
5537.8882624886
 10
7155.8517722085
 20
5530.5936328262
  0
LWPOLYLINE
  5
5AA
330
1F
100
AcDbEntity
  8
0
  6
Continuous
 62
     7
100
AcDbPolyline
 90
        5
 70
   128
 43
0.0
 10
7166.5153503418
 20
5543.2578391522
 10
7162.6818883767
 20
5541.6963023713
 10
7161.0192425996
 20
5537.7519998964
 10
7162.6844865424
 20
5533.8149142351
 10
7166.5187386468
 20
5532.2578392119
  0
LWPOLYLINE
  5
5AB
330
1F
100
AcDbEntity
  8
0
  6
Continuous
 62
     7
100
AcDbPolyline
 90
        5
 70
   128
 43
0.0
 10
7181.5185546875
 20
5532.2578392119
 10
7185.3556271297
 20
5533.8193868683
 10
7187.0182854903
 20
5537.7636950242
 10
7185.35303233
 20
5541.7007754741
 10
7181.5187839463
 20
5543.2578391522
  0
LWPOLYLINE
  5
5AC
330
1F
100
AcDbEntity
  8
0
  6
Continuous
 62
     7
100
AcDbPolyline
 90
        3
 70
   128
 43
0.0
 10
5992.1836853027
 20
5547.3220489115
 10
5971.6066839769
 20
5546.4043642861
 10
5955.8517543271
 20
5547.3220489115
  0
LWPOLYLINE
  5
5AD
330
1F
100
AcDbEntity
  8
0
  6
Continuous
 62
     7
100
AcDbPolyline
 90
        3
 70
   128
 43
0.0
 10
5992.1836853027
 20
5530.5936328262
 10
5993.990105765
 20
5540.0274128424
 10
5992.1857623056
 20
5547.3220489115
  0
LWPOLYLINE
  5
5AE
330
1F
100
AcDbEntity
  8
0
  6
Continuous
 62
     7
100
AcDbPolyline
 90
        3
 70
   128
 43
0.0
 10
5955.8486938477
 20
5530.5936328262
 10
5976.4308317265
 20
5531.5113175203
 10
5992.1857623056
 20
5530.5936328262
  0
LWPOLYLINE
  5
5AF
330
1F
100
AcDbEntity
  8
0
  6
Continuous
 62
     7
100
AcDbPolyline
 90
        3
 70
   128
 43
0.0
 10
5955.8486938477
 20
5547.3220489115
 10
5954.0474131651
 20
5537.8882689221
 10
5955.8517543271
 20
5530.5936328262
  0
LWPOLYLINE
  5
5B0
330
1F
100
AcDbEntity
  8
0
  6
Continuous
 62
     7
100
AcDbPolyline
 90
        5
 70
   128
 43
0.0
 10
5966.5184020996
 20
5543.2578391522
 10
5962.6818843422
 20
5541.6963125847
 10
5961.0192406026
 20
5537.7519932873
 10
5962.6844972454
 20
5533.8149155049
 10
5966.5187505677
 20
5532.2578392119
  0
LWPOLYLINE
  5
5B1
330
1F
100
AcDbEntity
  8
0
  6
Continuous
 62
     7
100
AcDbPolyline
 90
        5
 70
   128
 43
0.0
 10
5981.517791748
 20
5532.2578392119
 10
5985.3556283131
 20
5533.8193744418
 10
5987.0182789734
 20
5537.7636964695
 10
5985.3530177871
 20
5541.7007721673
 10
5981.5187660649
 20
5543.2578391522
  0
LWPOLYLINE
  5
5B2
330
1F
100
AcDbEntity
  8
0
  6
Continuous
 62
     7
100
AcDbPolyline
 90
        3
 70
   128
 43
0.0
 10
6592.1821594238
 20
5547.3220489115
 10
6571.6066789457
 20
5546.4043642174
 10
6555.8517483666
 20
5547.3220489115
  0
LWPOLYLINE
  5
5B3
330
1F
100
AcDbEntity
  8
0
  6
Continuous
 62
     7
100
AcDbPolyline
 90
        3
 70
   128
 43
0.0
 10
6592.1821594238
 20
5530.5936328262
 10
6593.9900975071
 20
5540.0274128156
 10
6592.1857563451
 20
5547.3220489115
  0
LWPOLYLINE
  5
5B4
330
1F
100
AcDbEntity
  8
0
  6
Continuous
 62
     7
100
AcDbPolyline
 90
        3
 70
   128
 43
0.0
 10
6555.850982666
 20
5530.5936328262
 10
6576.4308266953
 20
5531.5113174517
 10
6592.1857563451
 20
5530.5936328262
  0
LWPOLYLINE
  5
5B5
330
1F
100
AcDbEntity
  8
0
  6
Continuous
 62
     7
100
AcDbPolyline
 90
        3
 70
   128
 43
0.0
 10
6555.850982666
 20
5547.3220489115
 10
6554.0474049072
 20
5537.8882688953
 10
6555.8517483666
 20
5530.5936328262
  0
LWPOLYLINE
  5
5B6
330
1F
100
AcDbEntity
  8
0
  6
Continuous
 62
     7
100
AcDbPolyline
 90
        5
 70
   128
 43
0.0
 10
6566.5168762207
 20
5543.2578391522
 10
6562.6818814911
 20
5541.6963103718
 10
6561.0192320886
 20
5537.7519881233
 10
6562.6844934056
 20
5533.8149134678
 10
6566.5187446073
 20
5532.2578392119
  0
LWPOLYLINE
  5
5B7
330
1F
100
AcDbEntity
  8
0
  6
Continuous
 62
     7
100
AcDbPolyline
 90
        5
 70
   128
 43
0.0
 10
6581.5162658691
 20
5532.2578392119
 10
6585.355625462
 20
5533.8193722289
 10
6587.0182704594
 20
5537.7636913055
 10
6585.3530139473
 20
5541.7007701302
 10
6581.5187601045
 20
5543.2578391522
  0
LWPOLYLINE
  5
5B8
330
1F
100
AcDbEntity
  8
0
  6
Continuous
 62
     7
100
AcDbPolyline
 90
       12
 70
   128
 43
0.0
 10
8137.6724243164
 20
5158.2895732612
 10
8141.315469668
 20
5133.0698905185
 10
8131.793505161
 20
5118.2430470542
 10
8130.8061312235
 20
5116.9981858634
 10
8130.7673611391
 20
5116.9497833469
 10
8130.7647979788
 20
5116.9465941666
 10
8130.7646478211
 20
5116.9464096927
 10
8130.7646423972
 20
5116.9464039353
 10
8130.7647380617
 20
5116.946526105
 10
8130.7649953438
 20
5116.9468500825
 10
8130.7700013495
 20
5116.9531164102
 10
8130.7892514384
 20
5116.9771767348
  0
LWPOLYLINE
  5
5B9
330
1F
100
AcDbEntity
  8
0
  6
Continuous
 62
     7
100
AcDbPolyline
 90
        3
 70
   128
 43
0.0
 10
8135.8871459961
 20
5160.9419203491
 10
8136.4875784399
 20
5160.0827742466
 10
8137.6726342356
 20
5158.2895732612
  0
LINE
  5
5BA
330
1F
100
AcDbEntity
  8
0
  6
Continuous
 62
     7
100
AcDbLine
 10
8135.8871459961
 20
5160.9419203491
 30
0.0
 11
8140.4246104872
 21
5160.941920349
 31
0.0
  0
LWPOLYLINE
  5
5BB
330
1F
100
AcDbEntity
  8
0
  6
Continuous
 62
     7
100
AcDbPolyline
 90
        5
 70
   128
 43
0.0
 10
7978.8208007812
 20
5532.3578409046
 10
7977.3853832517
 20
5533.8622060767
 10
7976.5473578841
 20
5537.6634254576
 10
7977.3870654784
 20
5541.4577948044
 10
7978.8240505374
 20
5542.9578415245
  0
LWPOLYLINE
  5
5BC
330
1F
100
AcDbEntity
  8
0
  6
Continuous
 62
     7
100
AcDbPolyline
 90
        3
 70
   128
 43
0.0
 10
7972.3930358887
 20
5547.3220489115
 10
7970.442324713
 20
5537.8882669735
 10
7972.3943782962
 20
5530.5936328262
  0
LWPOLYLINE
  5
5BD
330
1F
100
AcDbEntity
  8
0
  6
Continuous
 62
     7
100
AcDbPolyline
 90
       10
 70
   128
 43
0.0
 10
7979.7096252441
 20
5546.400210926
 10
7979.7433240673
 20
5546.3957243981
 10
7979.7434816616
 20
5546.3957037482
 10
7979.7434898279
 20
5546.3957027423
 10
7979.7434911015
 20
5546.3957026602
 10
7979.7434727411
 20
5546.3957052985
 10
7979.7427530635
 20
5546.3958028233
 10
7979.7188346523
 20
5546.3990133169
 10
7979.3241212447
 20
5546.4516574494
 10
7972.3943782962
 20
5547.3220489115
  0
LWPOLYLINE
  5
5BE
330
1F
100
AcDbEntity
  8
0
  6
Continuous
 62
     7
100
AcDbPolyline
 90
       11
 70
   128
 43
0.0
 10
7972.3930358887
 20
5530.5936328262
 10
7979.3281484699
 20
5531.4645603848
 10
7979.6875236277
 20
5531.5124908442
 10
7979.7130845007
 20
5531.5159108687
 10
7979.7148065906
 20
5531.5161417696
 10
7979.7148642538
 20
5531.5161495952
 10
7979.714866903
 20
5531.5161499709
 10
7979.7148670519
 20
5531.5161500123
 10
7979.7148599755
 20
5531.5161491088
 10
7979.7146243293
 20
5531.5161178538
 10
7979.7097755587
 20
5531.5154708118
  0
LWPOLYLINE
  5
5BF
330
1F
100
AcDbEntity
  8
0
  6
Continuous
 62
     7
100
AcDbPolyline
 90
        5
 70
   128
 43
0.0
 10
7978.687286377
 20
5543.2578391522
 10
7977.1919846396
 20
5541.6962979452
 10
7976.3114622412
 20
5537.7519895686
 10
7977.1937416232
 20
5533.814910161
 10
7978.6891652262
 20
5532.2578392119
  0
LWPOLYLINE
  5
5C0
330
1F
100
AcDbEntity
  8
0
  6
Continuous
 62
     7
100
AcDbPolyline
 90
        3
 70
   128
 43
0.0
 10
5390.9683227539
 20
4119.8474223686
 10
5389.4007730177
 20
4118.4785096486
 10
5388.0187777474
 20
4117.6135594917
  0
LWPOLYLINE
  5
5C1
330
1F
100
AcDbEntity
  8
0
  6
Continuous
 62
     7
100
AcDbPolyline
 90
        3
 70
   128
 43
0.0
 10
5360.0158691406
 20
4117.5394709183
 10
5358.322733897
 20
4118.7300257174
 10
5357.1106103852
 20
4119.8474223686
  0
LWPOLYLINE
  5
5C2
330
1F
100
AcDbEntity
  8
0
  6
Continuous
 62
     7
100
AcDbPolyline
 90
        3
 70
   128
 43
0.0
 10
7190.9713745117
 20
4119.8474223686
 10
7189.4007476474
 20
4118.4784755473
 10
7188.0187300637
 20
4117.6135594917
  0
LWPOLYLINE
  5
5C3
330
1F
100
AcDbEntity
  8
0
  6
Continuous
 62
     7
100
AcDbPolyline
 90
        3
 70
   128
 43
0.0
 10
7160.0151062012
 20
4117.5394709183
 10
7158.3236150011
 20
4118.7317470791
 10
7157.1105627015
 20
4119.8474223686
  0
LWPOLYLINE
  5
5C4
330
1F
100
AcDbEntity
  8
0
  6
Continuous
 62
     7
100
AcDbPolyline
 90
        3
 70
   128
 43
0.0
 10
5990.9706115723
 20
4119.8474223686
 10
5989.4007484119
 20
4118.4784925978
 10
5988.0187419847
 20
4117.6135594917
  0
LWPOLYLINE
  5
5C5
330
1F
100
AcDbEntity
  8
0
  6
Continuous
 62
     7
100
AcDbPolyline
 90
        3
 70
   128
 43
0.0
 10
5960.018157959
 20
4117.5394709183
 10
5958.3231606147
 20
4118.7308843713
 10
5957.1105746224
 20
4119.8474223686
  0
LWPOLYLINE
  5
5C6
330
1F
100
AcDbEntity
  8
0
  6
Continuous
 62
     7
100
AcDbPolyline
 90
        3
 70
   128
 43
0.0
 10
6590.9690856934
 20
4119.8474223686
 10
6589.4007610968
 20
4118.4785096486
 10
6588.0187658265
 20
4117.6135594917
  0
LWPOLYLINE
  5
5C7
330
1F
100
AcDbEntity
  8
0
  6
Continuous
 62
     7
100
AcDbPolyline
 90
        3
 70
   128
 43
0.0
 10
6560.0166320801
 20
4117.5394709183
 10
6558.3227219761
 20
4118.7300257174
 10
6557.1105984643
 20
4119.8474223686
  0
ENDSEC
  0
SECTION
  2
OBJECTS
  0
DICTIONARY
  5
C
330
0
100
AcDbDictionary
281
     1
  3
ACAD_GROUP
350
D
  3
ACAD_LAYOUT
350
1A
  3
ACAD_MLINESTYLE
350
17
  3
ACAD_PLOTSETTINGS
350
19
  3
ACAD_PLOTSTYLENAME
350
E
  3
ACAD_SCALELIST
350
47
  3
DWGPROPS
350
5C8
  0
DICTIONARY
  5
D
102
{ACAD_REACTORS
330
C
102
}
330
C
100
AcDbDictionary
281
     1
  0
DICTIONARY
  5
1A
102
{ACAD_REACTORS
330
C
102
}
330
C
100
AcDbDictionary
281
     1
  3
Layout1
350
1E
  3
Layout2
350
26
  3
Model
350
22
  0
DICTIONARY
  5
17
102
{ACAD_REACTORS
330
C
102
}
330
C
100
AcDbDictionary
281
     1
  3
Standard
350
18
  0
DICTIONARY
  5
19
102
{ACAD_REACTORS
330
C
102
}
330
C
100
AcDbDictionary
281
     1
  0
ACDBDICTIONARYWDFLT
  5
E
102
{ACAD_REACTORS
330
C
102
}
330
C
100
AcDbDictionary
281
     1
  3
Normal
350
F
100
AcDbDictionaryWithDefault
340
F
  0
DICTIONARY
  5
47
102
{ACAD_REACTORS
330
C
102
}
330
C
100
AcDbDictionary
281
     1
  3
A0
350
48
  3
A1
350
49
  3
A2
350
4A
  3
A3
350
4B
  3
A4
350
4C
  3
A5
350
4D
  3
A6
350
4E
  3
A7
350
4F
  3
A8
350
50
  3
A9
350
51
  3
B0
350
52
  3
B1
350
53
  3
B2
350
54
  3
B3
350
55
  3
B4
350
56
  3
B5
350
57
  3
B6
350
58
  3
B7
350
59
  3
B8
350
5A
  3
B9
350
5B
  3
C0
350
5C
  3
C1
350
5D
  3
C2
350
5E
  3
C3
350
5F
  3
C4
350
60
  3
C5
350
61
  3
C6
350
62
  3
C7
350
63
  3
C8
350
64
  3
C9
350
65
  3
D0
350
66
  3
D1
350
67
  3
D2
350
68
  0
XRECORD
  5
5C8
102
{ACAD_REACTORS
330
C
102
}
330
C
100
AcDbXrecord
280
     1
  1
DWGPROPS COOKIE
  2

  3

  4

  6

  7

  8
radek.stransky
  9

300
=
301
=
302
=
303
=
304
=
305
=
306
=
307
=
308
=
309
=
 40
0.0
 41
2459096.383056481
 42
2459096.383087477
  1

 90
        0
  0
LAYOUT
  5
1E
102
{ACAD_REACTORS
330
1A
102
}
330
1A
100
AcDbPlotSettings
  1

  2
none_device
  4

  6

 40
0.0
 41
0.0
 42
0.0
 43
0.0
 44
0.0
 45
0.0
 46
0.0
 47
0.0
 48
0.0
 49
0.0
140
0.0
141
0.0
142
1.0
143
1.0
 70
   688
 72
     1
 73
     0
 74
     5
  7

 75
    16
147
1.0
148
0.0
149
0.0
100
AcDbLayout
  1
Layout1
 70
     1
 71
     1
 10
0.0
 20
0.0
 11
420.0
 21
297.0
 12
0.0
 22
0.0
 32
0.0
 14
1.0000000000E+20
 24
1.0000000000E+20
 34
1.0000000000E+20
 15
-1.0000000000E+20
 25
-1.0000000000E+20
 35
-1.0000000000E+20
146
0.0
 13
0.0
 23
0.0
 33
0.0
 16
1.0
 26
0.0
 36
0.0
 17
0.0
 27
1.0
 37
0.0
 76
     0
330
1B
  0
LAYOUT
  5
26
102
{ACAD_REACTORS
330
1A
102
}
330
1A
100
AcDbPlotSettings
  1

  2
none_device
  4

  6

 40
0.0
 41
0.0
 42
0.0
 43
0.0
 44
0.0
 45
0.0
 46
0.0
 47
0.0
 48
0.0
 49
0.0
140
0.0
141
0.0
142
1.0
143
1.0
 70
   688
 72
     1
 73
     0
 74
     5
  7

 75
    16
147
1.0
148
0.0
149
0.0
100
AcDbLayout
  1
Layout2
 70
     1
 71
     2
 10
0.0
 20
0.0
 11
0.0
 21
0.0
 12
0.0
 22
0.0
 32
0.0
 14
0.0
 24
0.0
 34
0.0
 15
0.0
 25
0.0
 35
0.0
146
0.0
 13
0.0
 23
0.0
 33
0.0
 16
1.0
 26
0.0
 36
0.0
 17
0.0
 27
1.0
 37
0.0
 76
     0
330
23
  0
LAYOUT
  5
22
102
{ACAD_REACTORS
330
1A
102
}
330
1A
100
AcDbPlotSettings
  1

  2
none_device
  4
ANSI_A_(11.00_x_8.50_Inches)
  6

 40
6.35
 41
19.05
 42
6.35000508
 43
19.05000254
 44
279.4
 45
215.9
 46
-416.5282323785
 47
-301.9143112755
 48
0.0
 49
0.0
140
0.0
141
0.0
142
0.0032252565
143
1.0
 70
  1696
 72
     0
 73
     0
 74
     0
  7

 75
     0
147
0.0179189148
148
-1300.4909072572
149
0.0
100
AcDbLayout
  1
Model
 70
     1
 71
     0
 10
0.0
 20
0.0
 11
420.0
 21
297.0
 12
0.0
 22
0.0
 32
0.0
 14
5024.0187553361
 24
3692.7474361994
 34
0.0
 15
8400.4943813931
 25
5848.4410560817
 35
0.0
146
0.0
 13
0.0
 23
0.0
 33
0.0
 16
1.0
 26
0.0
 36
0.0
 17
0.0
 27
1.0
 37
0.0
 76
     0
330
1F
331
29
  0
MLINESTYLE
  5
18
102
{ACAD_REACTORS
330
17
102
}
330
17
100
AcDbMlineStyle
  2
Standard
 70
     0
  3

 62
   256
 51
90.0
 52
90.0
 71
     2
 49
0.5
 62
   256
  6
BYLAYER
 49
-0.5
 62
   256
  6
BYLAYER
  0
ACDBPLACEHOLDER
  5
F
102
{ACAD_REACTORS
330
E
102
}
330
E
  0
SCALE
  5
48
102
{ACAD_REACTORS
330
47
102
}
330
47
100
AcDbScale
 70
     0
300
1:1
140
1.0
141
1.0
290
     1
  0
SCALE
  5
49
102
{ACAD_REACTORS
330
47
102
}
330
47
100
AcDbScale
 70
     0
300
1:2
140
1.0
141
2.0
290
     0
  0
SCALE
  5
4A
102
{ACAD_REACTORS
330
47
102
}
330
47
100
AcDbScale
 70
     0
300
1:4
140
1.0
141
4.0
290
     0
  0
SCALE
  5
4B
102
{ACAD_REACTORS
330
47
102
}
330
47
100
AcDbScale
 70
     0
300
1:5
140
1.0
141
5.0
290
     0
  0
SCALE
  5
4C
102
{ACAD_REACTORS
330
47
102
}
330
47
100
AcDbScale
 70
     0
300
1:8
140
1.0
141
8.0
290
     0
  0
SCALE
  5
4D
102
{ACAD_REACTORS
330
47
102
}
330
47
100
AcDbScale
 70
     0
300
1:10
140
1.0
141
10.0
290
     0
  0
SCALE
  5
4E
102
{ACAD_REACTORS
330
47
102
}
330
47
100
AcDbScale
 70
     0
300
1:16
140
1.0
141
16.0
290
     0
  0
SCALE
  5
4F
102
{ACAD_REACTORS
330
47
102
}
330
47
100
AcDbScale
 70
     0
300
1:20
140
1.0
141
20.0
290
     0
  0
SCALE
  5
50
102
{ACAD_REACTORS
330
47
102
}
330
47
100
AcDbScale
 70
     0
300
1:30
140
1.0
141
30.0
290
     0
  0
SCALE
  5
51
102
{ACAD_REACTORS
330
47
102
}
330
47
100
AcDbScale
 70
     0
300
1:40
140
1.0
141
40.0
290
     0
  0
SCALE
  5
52
102
{ACAD_REACTORS
330
47
102
}
330
47
100
AcDbScale
 70
     0
300
1:50
140
1.0
141
50.0
290
     0
  0
SCALE
  5
53
102
{ACAD_REACTORS
330
47
102
}
330
47
100
AcDbScale
 70
     0
300
1:100
140
1.0
141
100.0
290
     0
  0
SCALE
  5
54
102
{ACAD_REACTORS
330
47
102
}
330
47
100
AcDbScale
 70
     0
300
2:1
140
2.0
141
1.0
290
     0
  0
SCALE
  5
55
102
{ACAD_REACTORS
330
47
102
}
330
47
100
AcDbScale
 70
     0
300
4:1
140
4.0
141
1.0
290
     0
  0
SCALE
  5
56
102
{ACAD_REACTORS
330
47
102
}
330
47
100
AcDbScale
 70
     0
300
8:1
140
8.0
141
1.0
290
     0
  0
SCALE
  5
57
102
{ACAD_REACTORS
330
47
102
}
330
47
100
AcDbScale
 70
     0
300
10:1
140
10.0
141
1.0
290
     0
  0
SCALE
  5
58
102
{ACAD_REACTORS
330
47
102
}
330
47
100
AcDbScale
 70
     0
300
100:1
140
100.0
141
1.0
290
     0
  0
SCALE
  5
59
102
{ACAD_REACTORS
330
47
102
}
330
47
100
AcDbScale
 70
     0
300
1/128" = 1'-0"
140
0.0078125
141
12.0
290
     0
  0
SCALE
  5
5A
102
{ACAD_REACTORS
330
47
102
}
330
47
100
AcDbScale
 70
     0
300
1/64" = 1'-0"
140
0.015625
141
12.0
290
     0
  0
SCALE
  5
5B
102
{ACAD_REACTORS
330
47
102
}
330
47
100
AcDbScale
 70
     0
300
1/32" = 1'-0"
140
0.03125
141
12.0
290
     0
  0
SCALE
  5
5C
102
{ACAD_REACTORS
330
47
102
}
330
47
100
AcDbScale
 70
     0
300
1/16" = 1'-0"
140
0.0625
141
12.0
290
     0
  0
SCALE
  5
5D
102
{ACAD_REACTORS
330
47
102
}
330
47
100
AcDbScale
 70
     0
300
3/32" = 1'-0"
140
0.09375
141
12.0
290
     0
  0
SCALE
  5
5E
102
{ACAD_REACTORS
330
47
102
}
330
47
100
AcDbScale
 70
     0
300
1/8" = 1'-0"
140
0.125
141
12.0
290
     0
  0
SCALE
  5
5F
102
{ACAD_REACTORS
330
47
102
}
330
47
100
AcDbScale
 70
     0
300
3/16" = 1'-0"
140
0.1875
141
12.0
290
     0
  0
SCALE
  5
60
102
{ACAD_REACTORS
330
47
102
}
330
47
100
AcDbScale
 70
     0
300
1/4" = 1'-0"
140
0.25
141
12.0
290
     0
  0
SCALE
  5
61
102
{ACAD_REACTORS
330
47
102
}
330
47
100
AcDbScale
 70
     0
300
3/8" = 1'-0"
140
0.375
141
12.0
290
     0
  0
SCALE
  5
62
102
{ACAD_REACTORS
330
47
102
}
330
47
100
AcDbScale
 70
     0
300
1/2" = 1'-0"
140
0.5
141
12.0
290
     0
  0
SCALE
  5
63
102
{ACAD_REACTORS
330
47
102
}
330
47
100
AcDbScale
 70
     0
300
3/4" = 1'-0"
140
0.75
141
12.0
290
     0
  0
SCALE
  5
64
102
{ACAD_REACTORS
330
47
102
}
330
47
100
AcDbScale
 70
     0
300
1" = 1'-0"
140
1.0
141
12.0
290
     0
  0
SCALE
  5
65
102
{ACAD_REACTORS
330
47
102
}
330
47
100
AcDbScale
 70
     0
300
1-1/2" = 1'-0"
140
1.5
141
12.0
290
     0
  0
SCALE
  5
66
102
{ACAD_REACTORS
330
47
102
}
330
47
100
AcDbScale
 70
     0
300
3" = 1'-0"
140
3.0
141
12.0
290
     0
  0
SCALE
  5
67
102
{ACAD_REACTORS
330
47
102
}
330
47
100
AcDbScale
 70
     0
300
6" = 1'-0"
140
6.0
141
12.0
290
     0
  0
SCALE
  5
68
102
{ACAD_REACTORS
330
47
102
}
330
47
100
AcDbScale
 70
     0
300
1'-0" = 1'-0"
140
12.0
141
12.0
290
     0
  0
ENDSEC
  0
EOF
