  0
SECTION
  2
HEADER
  9
$ACADVER
  1
AC1015
  9
$ACADMAINTVER
 70
     6
  9
$DWGCODEPAGE
  3
ANSI_1250
  9
$INSBASE
 10
0.0
 20
0.0
 30
0.0
  9
$EXTMIN
 10
0.0
 20
0.0
 30
0.0
  9
$EXTMAX
 10
20000.0
 20
10000.0
 30
0.0
  9
$LIMMIN
 10
0.0
 20
0.0
  9
$LIMMAX
 10
20000.0
 20
10000.0
  9
$ORTHOMODE
 70
     0
  9
$REGENMODE
 70
     1
  9
$FILLMODE
 70
     1
  9
$QTEXTMODE
 70
     0
  9
$MIRRTEXT
 70
     1
  9
$LTSCALE
 40
1.0
  9
$ATTMODE
 70
     1
  9
$TEXTSIZE
 40
2.0
  9
$TRACEWID
 40
1.0
  9
$TEXTSTYLE
  7
Standard
  9
$CLAYER
  8
0
  9
$CELTYPE
  6
ByLayer
  9
$CECOLOR
 62
   256
  9
$CELTSCALE
 40
1.0
  9
$DISPSILH
 70
     0
  9
$DIMSCALE
 40
1.0
  9
$DIMASZ
 40
2.0
  9
$DIMEXO
 40
1.0
  9
$DIMDLI
 40
3.75
  9
$DIMRND
 40
0.0
  9
$DIMDLE
 40
0.0
  9
$DIMEXE
 40
1.0
  9
$DIMTP
 40
0.0
  9
$DIMTM
 40
0.0
  9
$DIMTXT
 40
2.0
  9
$DIMCEN
 40
2.5
  9
$DIMTSZ
 40
0.0
  9
$DIMTOL
 70
     0
  9
$DIMLIM
 70
     0
  9
$DIMTIH
 70
     1
  9
$DIMTOH
 70
     1
  9
$DIMSE1
 70
     0
  9
$DIMSE2
 70
     0
  9
$DIMTAD
 70
     1
  9
$DIMZIN
 70
     0
  9
$DIMBLK
  1

  9
$DIMASO
 70
     1
  9
$DIMSHO
 70
     1
  9
$DIMPOST
  1

  9
$DIMAPOST
  1

  9
$DIMALT
 70
     0
  9
$DIMALTD
 70
     3
  9
$DIMALTF
 40
0.0393700787
  9
$DIMLFAC
 40
1.0
  9
$DIMTOFL
 70
     1
  9
$DIMTVP
 40
0.0
  9
$DIMTIX
 70
     0
  9
$DIMSOXD
 70
     0
  9
$DIMSAH
 70
     0
  9
$DIMBLK1
  1

  9
$DIMBLK2
  1

  9
$DIMSTYLE
  2
ISO-25
  9
$DIMCLRD
 70
     0
  9
$DIMCLRE
 70
     0
  9
$DIMCLRT
 70
     0
  9
$DIMTFAC
 40
1.0
  9
$DIMGAP
 40
1.524
  9
$DIMJUST
 70
     0
  9
$DIMSD1
 70
     0
  9
$DIMSD2
 70
     0
  9
$DIMTOLJ
 70
     0
  9
$DIMTZIN
 70
     0
  9
$DIMALTZ
 70
     0
  9
$DIMALTTZ
 70
     0
  9
$DIMUPT
 70
     0
  9
$DIMDEC
 70
     2
  9
$DIMTDEC
 70
     0
  9
$DIMALTU
 70
     2
  9
$DIMALTTD
 70
     3
  9
$DIMTXSTY
  7
Standard
  9
$DIMAUNIT
 70
     0
  9
$DIMADEC
 70
     2
  9
$DIMALTRND
 40
0.0
  9
$DIMAZIN
 70
     0
  9
$DIMDSEP
 70
    44
  9
$DIMATFIT
 70
     3
  9
$DIMFRAC
 70
     0
  9
$DIMLDRBLK
  1

  9
$DIMLUNIT
 70
     2
  9
$DIMLWD
 70
    -2
  9
$DIMLWE
 70
    -2
  9
$DIMTMOVE
 70
     0
  9
$LUNITS
 70
     2
  9
$LUPREC
 70
     3
  9
$SKETCHINC
 40
1.0
  9
$FILLETRAD
 40
10.0
  9
$AUNITS
 70
     0
  9
$AUPREC
 70
     2
  9
$MENU
  1
.
  9
$ELEVATION
 40
0.0
  9
$PELEVATION
 40
0.0
  9
$THICKNESS
 40
0.0
  9
$LIMCHECK
 70
     0
  9
$CHAMFERA
 40
0.0
  9
$CHAMFERB
 40
0.0
  9
$CHAMFERC
 40
0.0
  9
$CHAMFERD
 40
0.0
  9
$SKPOLY
 70
     0
  9
$TDCREATE
 40
2458688.564042616
  9
$TDUCREATE
 40
2458688.480709282
  9
$TDUPDATE
 40
2458688.564043333
  9
$TDUUPDATE
 40
2458688.48071
  9
$TDINDWG
 40
0.0000000116
  9
$TDUSRTIMER
 40
0.0000000116
  9
$USRTIMER
 70
     1
  9
$ANGBASE
 50
0.0
  9
$ANGDIR
 70
     0
  9
$PDMODE
 70
     0
  9
$PDSIZE
 40
-1.0
  9
$PLINEWID
 40
0.0
  9
$SPLFRAME
 70
     0
  9
$SPLINETYPE
 70
     6
  9
$SPLINESEGS
 70
     8
  9
$HANDSEED
  5
20E
  9
$SURFTAB1
 70
     6
  9
$SURFTAB2
 70
     6
  9
$SURFTYPE
 70
     6
  9
$SURFU
 70
     6
  9
$SURFV
 70
     6
  9
$UCSBASE
  2

  9
$UCSNAME
  2

  9
$UCSORG
 10
0.0
 20
0.0
 30
0.0
  9
$UCSXDIR
 10
1.0
 20
0.0
 30
0.0
  9
$UCSYDIR
 10
0.0
 20
1.0
 30
0.0
  9
$UCSORTHOREF
  2

  9
$UCSORTHOVIEW
 70
     0
  9
$UCSORGTOP
 10
0.0
 20
0.0
 30
0.0
  9
$UCSORGBOTTOM
 10
0.0
 20
0.0
 30
0.0
  9
$UCSORGLEFT
 10
0.0
 20
0.0
 30
0.0
  9
$UCSORGRIGHT
 10
0.0
 20
0.0
 30
0.0
  9
$UCSORGFRONT
 10
0.0
 20
0.0
 30
0.0
  9
$UCSORGBACK
 10
0.0
 20
0.0
 30
0.0
  9
$PUCSBASE
  2

  9
$PUCSNAME
  2

  9
$PUCSORG
 10
0.0
 20
0.0
 30
0.0
  9
$PUCSXDIR
 10
1.0
 20
0.0
 30
0.0
  9
$PUCSYDIR
 10
0.0
 20
1.0
 30
0.0
  9
$PUCSORTHOREF
  2

  9
$PUCSORTHOVIEW
 70
     0
  9
$PUCSORGTOP
 10
0.0
 20
0.0
 30
0.0
  9
$PUCSORGBOTTOM
 10
0.0
 20
0.0
 30
0.0
  9
$PUCSORGLEFT
 10
0.0
 20
0.0
 30
0.0
  9
$PUCSORGRIGHT
 10
0.0
 20
0.0
 30
0.0
  9
$PUCSORGFRONT
 10
0.0
 20
0.0
 30
0.0
  9
$PUCSORGBACK
 10
0.0
 20
0.0
 30
0.0
  9
$USERI1
 70
     0
  9
$USERI2
 70
     0
  9
$USERI3
 70
     0
  9
$USERI4
 70
     0
  9
$USERI5
 70
     0
  9
$USERR1
 40
0.0
  9
$USERR2
 40
0.0
  9
$USERR3
 40
0.0
  9
$USERR4
 40
0.0
  9
$USERR5
 40
0.0
  9
$WORLDVIEW
 70
     1
  9
$SHADEDGE
 70
     3
  9
$SHADEDIF
 70
    70
  9
$TILEMODE
 70
     1
  9
$MAXACTVP
 70
    64
  9
$PINSBASE
 10
0.0
 20
0.0
 30
0.0
  9
$PLIMCHECK
 70
     0
  9
$PEXTMIN
 10
1.0000000000E+20
 20
1.0000000000E+20
 30
1.0000000000E+20
  9
$PEXTMAX
 10
-1.0000000000E+20
 20
-1.0000000000E+20
 30
-1.0000000000E+20
  9
$PLIMMIN
 10
0.0
 20
0.0
  9
$PLIMMAX
 10
420.0
 20
297.0
  9
$UNITMODE
 70
     0
  9
$VISRETAIN
 70
     1
  9
$PLINEGEN
 70
     0
  9
$PSLTSCALE
 70
     1
  9
$TREEDEPTH
 70
  3020
  9
$CMLSTYLE
  2
Standard
  9
$CMLJUST
 70
     0
  9
$CMLSCALE
 40
20.0
  9
$PROXYGRAPHICS
 70
     1
  9
$MEASUREMENT
 70
     1
  9
$CELWEIGHT
370
    -1
  9
$ENDCAPS
280
     0
  9
$JOINSTYLE
280
     0
  9
$LWDISPLAY
290
     1
  9
$INSUNITS
 70
     4
  9
$HYPERLINKBASE
  1

  9
$STYLESHEET
  1

  9
$XEDIT
290
     1
  9
$CEPSNTYPE
380
     0
  9
$PSTYLEMODE
290
     1
  9
$FINGERPRINTGUID
  2
{E5571135-0C55-47BB-B99F-8AD1AA2F2D2D}
  9
$VERSIONGUID
  2
{FAEB1C32-E019-11D5-929B-00C0DF256EC4}
  9
$EXTNAMES
290
     1
  9
$PSVPSCALE
 40
0.0
  9
$OLESTARTUP
290
     0
  0
ENDSEC
  0
SECTION
  2
CLASSES
  0
CLASS
  1
ACDBDICTIONARYWDFLT
  2
AcDbDictionaryWithDefault
  3
ObjectDBX Classes
 90
        0
280
     0
281
     0
  0
CLASS
  1
VISUALSTYLE
  2
AcDbVisualStyle
  3
ObjectDBX Classes
 90
     4095
280
     0
281
     0
  0
CLASS
  1
MATERIAL
  2
AcDbMaterial
  3
ObjectDBX Classes
 90
     1153
280
     0
281
     0
  0
CLASS
  1
SCALE
  2
AcDbScale
  3
ObjectDBX Classes
 90
     1153
280
     0
281
     0
  0
CLASS
  1
TABLESTYLE
  2
AcDbTableStyle
  3
ObjectDBX Classes
 90
     4095
280
     0
281
     0
  0
CLASS
  1
MLEADERSTYLE
  2
AcDbMLeaderStyle
  3
ACDB_MLEADERSTYLE_CLASS
 90
     4095
280
     0
281
     0
  0
CLASS
  1
SUN
  2
AcDbSun
  3
SCENEOE
 90
     1153
280
     0
281
     0
  0
CLASS
  1
ACDBPLACEHOLDER
  2
AcDbPlaceHolder
  3
ObjectDBX Classes
 90
        0
280
     0
281
     0
  0
CLASS
  1
LAYOUT
  2
AcDbLayout
  3
ObjectDBX Classes
 90
        0
280
     0
281
     0
  0
ENDSEC
  0
SECTION
  2
TABLES
  0
TABLE
  2
VPORT
  5
8
330
0
100
AcDbSymbolTable
 70
     1
  0
VPORT
  5
29
330
8
100
AcDbSymbolTableRecord
100
AcDbViewportTableRecord
  2
*Active
 70
     0
 10
0.0
 20
0.0
 11
1.0
 21
1.0
 12
10000.0
 22
5000.0
 13
0.0
 23
0.0
 14
10.0
 24
10.0
 15
10.0
 25
10.0
 16
0.0
 26
0.0
 36
1.0
 17
0.0
 27
0.0
 37
0.0
 40
10000.0
 41
2.0
 42
50.0
 43
0.0
 44
0.0
 50
0.0
 51
0.0
 71
     0
 72
  2000
 73
     1
 74
     3
 75
     0
 76
     0
 77
     0
 78
     0
281
     0
 65
     1
110
0.0
120
0.0
130
0.0
111
1.0
121
0.0
131
0.0
112
0.0
122
1.0
132
0.0
 79
     0
146
0.0
  0
ENDTAB
  0
TABLE
  2
LTYPE
  5
5
330
0
100
AcDbSymbolTable
 70
     6
  0
LTYPE
  5
14
330
5
100
AcDbSymbolTableRecord
100
AcDbLinetypeTableRecord
  2
ByBlock
 70
     0
  3

 72
    65
 73
     0
 40
0.0
  0
LTYPE
  5
15
330
5
100
AcDbSymbolTableRecord
100
AcDbLinetypeTableRecord
  2
ByLayer
 70
     0
  3

 72
    65
 73
     0
 40
0.0
  0
LTYPE
  5
16
330
5
100
AcDbSymbolTableRecord
100
AcDbLinetypeTableRecord
  2
Continuous
 70
     0
  3
Solid line
 72
    65
 73
     0
 40
0.0
  0
LTYPE
  5
6E
330
5
100
AcDbSymbolTableRecord
100
AcDbLinetypeTableRecord
  2
HIDDEN
 70
     0
  3
Hidden __ __ __ __ __ __ __ __ __ __ __ __ __ __
 72
    65
 73
     2
 40
1.905
 49
1.27
 74
     0
 49
-0.635
 74
     0
  0
LTYPE
  5
6F
330
5
100
AcDbSymbolTableRecord
100
AcDbLinetypeTableRecord
  2
PHANTOM
 70
     0
  3
Phantom ______  __  __  ______  __  __  ______
 72
    65
 73
     6
 40
12.7
 49
6.35
 74
     0
 49
-1.27
 74
     0
 49
1.27
 74
     0
 49
-1.27
 74
     0
 49
1.27
 74
     0
 49
-1.27
 74
     0
  0
LTYPE
  5
70
330
5
100
AcDbSymbolTableRecord
100
AcDbLinetypeTableRecord
  2
CENTER
 70
     0
  3
Center ____ _ ____ _ ____ _ ____ _ ____ _ ____
 72
    65
 73
     4
 40
10.16
 49
6.35
 74
     0
 49
-1.27
 74
     0
 49
1.27
 74
     0
 49
-1.27
 74
     0
  0
LTYPE
  5
71
330
5
100
AcDbSymbolTableRecord
100
AcDbLinetypeTableRecord
  2
CENTERX2
 70
     0
  3
Center (2x) ________  __  ________  __  _____
 72
    65
 73
     4
 40
20.32
 49
12.7
 74
     0
 49
-2.54
 74
     0
 49
2.54
 74
     0
 49
-2.54
 74
     0
  0
LTYPE
  5
72
330
5
100
AcDbSymbolTableRecord
100
AcDbLinetypeTableRecord
  2
DOT2
 70
     0
  3
Dot (.5x) ........................................
 72
    65
 73
     2
 40
0.635
 49
0.0
 74
     0
 49
-0.635
 74
     0
  0
ENDTAB
  0
TABLE
  2
LAYER
  5
2
330
0
100
AcDbSymbolTable
 70
    13
  0
LAYER
  5
10
330
2
100
AcDbSymbolTableRecord
100
AcDbLayerTableRecord
  2
0
 70
     0
 62
     7
  6
Continuous
370
    -3
390
F
  0
LAYER
  5
73
330
2
100
AcDbSymbolTableRecord
100
AcDbLayerTableRecord
  2
FORMAT
 70
     0
 62
     7
  6
Continuous
370
    -3
390
F
  0
LAYER
  5
74
330
2
100
AcDbSymbolTableRecord
100
AcDbLayerTableRecord
  2
OSA
 70
     0
 62
     7
  6
CENTER
370
    -3
390
F
  0
LAYER
  5
75
330
2
100
AcDbSymbolTableRecord
100
AcDbLayerTableRecord
  2
0_35
 70
     0
 62
     7
  6
Continuous
370
    35
390
F
  0
LAYER
  5
76
330
2
100
AcDbSymbolTableRecord
100
AcDbLayerTableRecord
  2
0_5
 70
     0
 62
     7
  6
Continuous
370
    50
390
F
  0
LAYER
  5
77
330
2
100
AcDbSymbolTableRecord
100
AcDbLayerTableRecord
  2
0_25
 70
     0
 62
     7
  6
Continuous
370
    25
390
F
  0
LAYER
  5
78
330
2
100
AcDbSymbolTableRecord
100
AcDbLayerTableRecord
  2
0_18
 70
     0
 62
     7
  6
Continuous
370
    -3
390
F
  0
LAYER
  5
79
330
2
100
AcDbSymbolTableRecord
100
AcDbLayerTableRecord
  2
SLD-0
 70
     0
 62
   179
  6
Continuous
370
    -3
390
F
  0
LAYER
  5
7A
330
2
100
AcDbSymbolTableRecord
100
AcDbLayerTableRecord
  2
KOTY
 70
     0
 62
     7
  6
Continuous
370
    -3
390
F
  0
LAYER
  5
7B
330
2
100
AcDbSymbolTableRecord
100
AcDbLayerTableRecord
  2
SILNA
 70
     0
 62
   179
  6
Continuous
370
    -3
390
F
  0
LAYER
  5
7C
330
2
100
AcDbSymbolTableRecord
100
AcDbLayerTableRecord
  2
0_18_1
 70
     0
 62
   179
  6
Continuous
370
    -3
390
F
  0
LAYER
  5
7D
330
2
100
AcDbSymbolTableRecord
100
AcDbLayerTableRecord
  2
0_35_1
 70
     0
 62
   179
  6
Continuous
370
    35
390
F
  0
LAYER
  5
7E
330
2
100
AcDbSymbolTableRecord
100
AcDbLayerTableRecord
  2
0_5_1
 70
     0
 62
   179
  6
Continuous
370
    50
390
F
  0
ENDTAB
  0
TABLE
  2
STYLE
  5
3
330
0
100
AcDbSymbolTable
 70
     1
  0
STYLE
  5
11
330
3
100
AcDbSymbolTableRecord
100
AcDbTextStyleTableRecord
  2
Standard
 70
     0
 40
0.0
 41
1.0
 50
0.0
 71
     0
 42
2.0
  3
txt
  4

  0
ENDTAB
  0
TABLE
  2
VIEW
  5
6
330
0
100
AcDbSymbolTable
 70
     0
  0
ENDTAB
  0
TABLE
  2
UCS
  5
7
330
0
100
AcDbSymbolTable
 70
     0
  0
ENDTAB
  0
TABLE
  2
APPID
  5
9
330
0
100
AcDbSymbolTable
 70
     1
  0
APPID
  5
12
330
9
100
AcDbSymbolTableRecord
100
AcDbRegAppTableRecord
  2
ACAD
 70
     0
  0
ENDTAB
  0
TABLE
  2
DIMSTYLE
  5
A
330
0
100
AcDbSymbolTable
 70
     1
100
AcDbDimStyleTable
  0
DIMSTYLE
105
27
330
A
100
AcDbSymbolTableRecord
100
AcDbDimStyleTableRecord
  2
ISO-25
 70
     0
 41
2.5
 42
0.625
 43
3.75
 44
1.25
 73
     0
 74
     0
 77
     1
 78
     8
140
2.5
141
2.5
143
0.0393700787
147
0.625
171
     3
172
     1
178
     0
271
     2
272
     2
274
     3
278
    44
283
     0
284
     8
340
11
  0
ENDTAB
  0
TABLE
  2
BLOCK_RECORD
  5
1
330
0
100
AcDbSymbolTable
 70
     1
  0
BLOCK_RECORD
  5
1F
330
1
100
AcDbSymbolTableRecord
100
AcDbBlockTableRecord
  2
*Model_Space
340
22
  0
BLOCK_RECORD
  5
1B
330
1
100
AcDbSymbolTableRecord
100
AcDbBlockTableRecord
  2
*Paper_Space
340
1E
  0
BLOCK_RECORD
  5
23
330
1
100
AcDbSymbolTableRecord
100
AcDbBlockTableRecord
  2
*Paper_Space0
340
26
  0
ENDTAB
  0
ENDSEC
  0
SECTION
  2
BLOCKS
  0
BLOCK
  5
20
330
1F
100
AcDbEntity
  8
0
100
AcDbBlockBegin
  2
*Model_Space
 70
     0
 10
0.0
 20
0.0
 30
0.0
  3
*Model_Space
  1

  0
ENDBLK
  5
21
330
1F
100
AcDbEntity
  8
0
100
AcDbBlockEnd
  0
BLOCK
  5
1C
330
1B
100
AcDbEntity
 67
     1
  8
0
100
AcDbBlockBegin
  2
*Paper_Space
 70
     0
 10
0.0
 20
0.0
 30
0.0
  3
*Paper_Space
  1

  0
ENDBLK
  5
1D
330
1B
100
AcDbEntity
 67
     1
  8
0
100
AcDbBlockEnd
  0
BLOCK
  5
24
330
23
100
AcDbEntity
  8
0
100
AcDbBlockBegin
  2
*Paper_Space0
 70
     0
 10
0.0
 20
0.0
 30
0.0
  3
*Paper_Space0
  1

  0
ENDBLK
  5
25
330
23
100
AcDbEntity
  8
0
100
AcDbBlockEnd
  0
ENDSEC
  0
SECTION
  2
ENTITIES
  0
ARC
  5
7F
330
1F
100
AcDbEntity
  8
0
  6
Continuous
 62
     7
370
    25
100
AcDbCircle
 10
6624.6930227415
 20
5321.8623262259
 30
0.0
 40
3.5450000000003
100
AcDbArc
 50
244.6216205953
 51
313.1953745497
  0
ARC
  5
80
330
1F
100
AcDbEntity
  8
0
  6
Continuous
 62
     7
370
    25
100
AcDbCircle
 10
6626.1545290617
 20
5324.9432512942
 30
0.0
 40
3.545000000000599
100
AcDbArc
 50
356.0478666408
 51
64.6216205952
  0
LINE
  5
81
330
1F
100
AcDbEntity
  8
0
  6
Continuous
 62
     7
370
    25
100
AcDbLine
 10
6621.6440335339
 20
5321.8753660457
 30
0.0
 11
6622.78275047
 21
5321.3351896392
 31
0.0
  0
LINE
  5
82
330
1F
100
AcDbEntity
  8
0
  6
Continuous
 62
     7
370
    25
100
AcDbLine
 10
6625.354318363
 20
5326.7561706143
 30
0.0
 11
6624.1797939366
 21
5327.3133306192
 31
0.0
  0
ARC
  5
83
330
1F
100
AcDbEntity
  8
0
  6
Continuous
 62
     7
370
    25
100
AcDbCircle
 10
6543.260119273
 20
5150.1978796079
 30
0.0
 40
3.544999999999638
100
AcDbArc
 50
244.6216205952
 51
313.1953745497
  0
ARC
  5
84
330
1F
100
AcDbEntity
  8
0
  6
Continuous
 62
     7
370
    25
100
AcDbCircle
 10
6544.7216255931
 20
5153.2788046761
 30
0.0
 40
3.545000000000599
100
AcDbArc
 50
356.0478666408
 51
64.6216205952
  0
LINE
  5
85
330
1F
100
AcDbEntity
  8
0
  6
Continuous
 62
     7
370
    25
100
AcDbLine
 10
6541.3448051041
 20
5149.6731290953
 30
0.0
 11
6541.3498416966
 21
5149.6707449096
 31
0.0
  0
LINE
  5
86
330
1F
100
AcDbEntity
  8
0
  6
Continuous
 62
     7
370
    25
100
AcDbLine
 10
6543.9214095896
 20
5155.0917277472
 30
0.0
 11
6543.8805729574
 21
5155.1110992568
 31
0.0
  0
ARC
  5
87
330
1F
100
AcDbEntity
  8
0
  6
Continuous
 62
     7
370
    25
100
AcDbCircle
 10
6281.8829815372
 20
5324.9432512942
 30
0.0
 40
3.544999999999959
100
AcDbArc
 50
115.3783794048
 51
183.9521333592
  0
ARC
  5
88
330
1F
100
AcDbEntity
  8
0
  6
Continuous
 62
     7
370
    25
100
AcDbCircle
 10
6283.3444878573
 20
5321.8623262259
 30
0.0
 40
3.5450000000003
100
AcDbArc
 50
226.8046254503
 51
295.3783794048
  0
LINE
  5
89
330
1F
100
AcDbEntity
  8
0
  6
Continuous
 62
     7
370
    25
100
AcDbLine
 10
6283.8577166623
 20
5327.3133306192
 30
0.0
 11
6282.6831922358
 21
5326.7561706143
 31
0.0
  0
LINE
  5
8A
330
1F
100
AcDbEntity
  8
0
  6
Continuous
 62
     7
370
    25
100
AcDbLine
 10
6285.2547601288
 20
5321.3351896392
 30
0.0
 11
6286.3934770649
 21
5321.8753660457
 31
0.0
  0
ARC
  5
8B
330
1F
100
AcDbEntity
  8
0
  6
Continuous
 62
     7
370
    25
100
AcDbCircle
 10
6363.3158850057
 20
5153.2788046761
 30
0.0
 40
3.544999999999959
100
AcDbArc
 50
115.3783794048
 51
183.9521333592
  0
ARC
  5
8C
330
1F
100
AcDbEntity
  8
0
  6
Continuous
 62
     7
370
    25
100
AcDbCircle
 10
6364.7773913259
 20
5150.1978796079
 30
0.0
 40
3.54500000000026
100
AcDbArc
 50
226.8046254503
 51
295.3783794047
  0
LINE
  5
8D
330
1F
100
AcDbEntity
  8
0
  6
Continuous
 62
     7
370
    25
100
AcDbLine
 10
6451.0187552733
 20
5232.0616567867
 30
0.0
 11
6451.0187552733
 21
5215.23710586
 31
0.0
  0
LINE
  5
8E
330
1F
100
AcDbEntity
  8
0
  6
Continuous
 62
     7
370
    25
100
AcDbLine
 10
6457.0187553255
 20
5215.23710586
 30
0.0
 11
6457.0187553255
 21
5232.0616567867
 31
0.0
  0
LWPOLYLINE
  5
8F
330
1F
100
AcDbEntity
  8
0
  6
Continuous
 62
     7
370
    25
100
AcDbPolyline
 90
        3
 70
   128
 43
0.0
 10
6562.0187581008
 20
5296.7027487593
 10
6567.6477089947
 20
5302.6629785436
 10
6574.1132408803
 20
5309.8622994857
  0
LINE
  5
90
330
1F
100
AcDbEntity
  8
0
  6
Continuous
 62
     7
370
    25
100
AcDbLine
 10
6595.6403449601
 20
5337.0616544398
 30
0.0
 11
6596.3529184884
 21
5338.0616536724
 31
0.0
  0
LINE
  5
91
330
1F
100
AcDbEntity
  8
0
  6
Continuous
 62
     7
370
    25
100
AcDbLine
 10
6311.6845921105
 20
5338.0616536724
 30
0.0
 11
6312.3971656388
 21
5337.0616544398
 31
0.0
  0
LWPOLYLINE
  5
92
330
1F
100
AcDbEntity
  8
0
  6
Continuous
 62
     7
370
    25
100
AcDbPolyline
 90
        3
 70
   128
 43
0.0
 10
6333.9242697185
 20
5309.8622994857
 10
6340.3898016041
 20
5302.6629785436
 10
6346.018752498
 20
5296.7027487593
  0
ARC
  5
93
330
1F
100
AcDbEntity
  8
0
  6
Continuous
 62
     7
370
    25
100
AcDbCircle
 10
6454.0187552994
 20
5136.7627922366
 30
0.0
 40
22.0
100
AcDbArc
 50
180.0
 51
0.0
  0
LINE
  5
94
330
1F
100
AcDbEntity
  8
0
  6
Continuous
 62
     7
370
    25
100
AcDbLine
 10
6476.0187551802
 20
5136.7627928393
 30
0.0
 11
6476.0187551802
 21
5150.3127316373
 31
0.0
  0
LINE
  5
95
330
1F
100
AcDbEntity
  8
0
  6
Continuous
 62
     7
370
    25
100
AcDbLine
 10
6432.0187554186
 20
5150.3127316373
 30
0.0
 11
6432.0187554186
 21
5136.7627928393
 31
0.0
  0
ARC
  5
96
330
1F
100
AcDbEntity
  8
0
  6
Continuous
 62
     7
370
    25
100
AcDbCircle
 10
6454.0187552994
 20
5136.7627922366
 30
0.0
 40
20.49999999999935
100
AcDbArc
 50
49.3034827444
 51
130.675801494
  0
LINE
  5
97
330
1F
100
AcDbEntity
  8
0
  6
Continuous
 62
     7
370
    25
100
AcDbLine
 10
6426.3463639146
 20
5178.6477962869
 30
0.0
 11
6427.9233146882
 21
5175.3437171119
 31
0.0
  0
LINE
  5
98
330
1F
100
AcDbEntity
  8
0
  6
Continuous
 62
     7
370
    25
100
AcDbLine
 10
6480.1141959107
 20
5175.3437171119
 30
0.0
 11
6481.6911466843
 21
5178.6477962869
 31
0.0
  0
LINE
  5
99
330
1F
100
AcDbEntity
  8
0
  6
Continuous
 62
     7
370
    25
100
AcDbLine
 10
6447.5187551653
 20
5156.2050084012
 30
0.0
 11
6447.5187551653
 21
5148.3229646819
 31
0.0
  0
LINE
  5
9A
330
1F
100
AcDbEntity
  8
0
  6
Continuous
 62
     7
370
    25
100
AcDbLine
 10
6460.5187554335
 20
5148.2974240916
 30
0.0
 11
6460.5187554335
 21
5156.2050084012
 31
0.0
  0
ARC
  5
9B
330
1F
100
AcDbEntity
  8
0
  6
Continuous
 62
     7
370
    25
100
AcDbCircle
 10
6454.0187552994
 20
5166.7627922366
 30
0.0
 40
27.47006201954355
100
AcDbArc
 50
331.7794941505
 51
0.0
  0
ARC
  5
9C
330
1F
100
AcDbEntity
  8
0
  6
Continuous
 62
     7
370
    25
100
AcDbCircle
 10
6454.0187552994
 20
5166.7627922366
 30
0.0
 40
27.47006201954271
100
AcDbArc
 50
271.7959147904
 51
328.2114701512
  0
ARC
  5
9D
330
1F
100
AcDbEntity
  8
0
  6
Continuous
 62
     7
370
    25
100
AcDbCircle
 10
6454.0187552994
 20
5166.7627922366
 30
0.0
 40
27.47006201954338
100
AcDbArc
 50
211.7618888103
 51
268.2291230397
  0
ARC
  5
9E
330
1F
100
AcDbEntity
  8
0
  6
Continuous
 62
     7
370
    25
100
AcDbCircle
 10
6454.0187552994
 20
5166.7627922366
 30
0.0
 40
27.47006201954384
100
AcDbArc
 50
151.7868072993
 51
208.2001319886
  0
ARC
  5
9F
330
1F
100
AcDbEntity
  8
0
  6
Continuous
 62
     7
370
    25
100
AcDbCircle
 10
6454.0187552994
 20
5166.7627922366
 30
0.0
 40
27.47006201954336
100
AcDbArc
 50
91.7775775914
 51
148.2181301184
  0
ARC
  5
A0
330
1F
100
AcDbEntity
  8
0
  6
Continuous
 62
     7
370
    25
100
AcDbCircle
 10
6454.0187552994
 20
5166.7627922366
 30
0.0
 40
27.47006201954395
100
AcDbArc
 50
31.7657651205
 51
88.2258104036
  0
ARC
  5
A1
330
1F
100
AcDbEntity
  8
0
  6
Continuous
 62
     7
370
    25
100
AcDbCircle
 10
6454.0187552994
 20
5166.7627922366
 30
0.0
 40
27.47006201954366
100
AcDbArc
 50
0.0
 51
28.2012520036
  0
LWPOLYLINE
  5
A2
330
1F
100
AcDbEntity
  8
0
  6
Continuous
 62
     7
370
    25
100
AcDbPolyline
 90
        4
 70
   128
 43
0.0
 10
6629.071427924
 20
5323.3926227676
 10
6629.4074044054
 20
5324.1008805471
 10
6629.6225175684
 20
5324.554345234
 10
6629.6910927123
 20
5324.6989181625
  0
LWPOLYLINE
  5
A3
330
1F
100
AcDbEntity
  8
0
  6
Continuous
 62
     7
370
    25
100
AcDbPolyline
 90
        8
 70
   128
 43
0.0
 10
6627.1195397204
 20
5319.2779371875
 10
6627.1198228424
 20
5319.2785332339
 10
6627.2065625018
 20
5319.4614077347
 10
6627.4379030293
 20
5319.9490817623
 10
6627.7859345501
 20
5320.6827255326
 10
6628.2086506909
 20
5321.5738615381
 10
6628.6551043814
 20
5322.5149965273
 10
6629.071427924
 20
5323.3926227676
  0
LWPOLYLINE
  5
A4
330
1F
100
AcDbEntity
  8
0
  6
Continuous
 62
     7
370
    25
100
AcDbPolyline
 90
        4
 70
   128
 43
0.0
 10
6547.6385266012
 20
5151.7281780379
 10
6547.9745030826
 20
5152.4364302295
 10
6548.1896162456
 20
5152.8899023669
 10
6548.25819884
 20
5153.0344734328
  0
LWPOLYLINE
  5
A5
330
1F
100
AcDbEntity
  8
0
  6
Continuous
 62
     7
370
    25
100
AcDbPolyline
 90
        8
 70
   128
 43
0.0
 10
6545.686630947
 20
5147.6134905951
 10
6545.686914069
 20
5147.6140866416
 10
6545.7736611789
 20
5147.7969685929
 10
6546.0050017064
 20
5148.2846388953
 10
6546.3530257767
 20
5149.0182826655
 10
6546.7757568186
 20
5149.9094168084
 10
6547.2222030586
 20
5150.8505443471
 10
6547.6385266012
 20
5151.7281780379
  0
LINE
  5
A6
330
1F
100
AcDbEntity
  8
0
  6
Continuous
 62
     7
370
    25
100
AcDbLine
 10
6280.9093133038
 20
5319.2962097364
 30
0.0
 11
6280.9179708784
 21
5319.2779371875
 31
0.0
  0
LWPOLYLINE
  5
A7
330
1F
100
AcDbEntity
  8
0
  6
Continuous
 62
     7
370
    25
100
AcDbPolyline
 90
       10
 70
   128
 43
0.0
 10
6278.3464178866
 20
5324.6989181625
 10
6278.381122691
 20
5324.6257515984
 10
6278.558059079
 20
5324.2527587699
 10
6278.8645461625
 20
5323.6066537338
 10
6279.2636290615
 20
5322.7653677004
 10
6279.7071770256
 20
5321.8303701269
 10
6280.1416650837
 20
5320.9144367265
 10
6280.5147156542
 20
5320.1280447083
 10
6280.7813123291
 20
5319.5660399633
 10
6280.9093133038
 20
5319.2962097364
  0
LINE
  5
A8
330
1F
100
AcDbEntity
  8
0
  6
Continuous
 62
     7
370
    25
100
AcDbLine
 10
6362.3422146266
 20
5147.6317594188
 30
0.0
 11
6362.3508796519
 21
5147.6134905951
 31
0.0
  0
LWPOLYLINE
  5
A9
330
1F
100
AcDbEntity
  8
0
  6
Continuous
 62
     7
370
    25
100
AcDbPolyline
 90
       10
 70
   128
 43
0.0
 10
6359.7793117588
 20
5153.0344734328
 10
6359.8140240138
 20
5152.9613087314
 10
6359.9909604019
 20
5152.5883177655
 10
6360.2974549359
 20
5151.9422034161
 10
6360.696537835
 20
5151.1009136575
 10
6361.1400783485
 20
5150.1659253972
 10
6361.5745664066
 20
5149.2499957221
 10
6361.9476169771
 20
5148.4636018412
 10
6362.214213652
 20
5147.9015896457
 10
6362.3422146266
 20
5147.6317594188
  0
SPLINE
  5
AA
330
1F
100
AcDbEntity
  8
0
  6
Continuous
 62
     7
370
    25
100
AcDbSpline
210
0.0
220
0.0
230
1.0
 70
     8
 71
     3
 72
    11
 73
     7
 74
     0
 42
0.000000001
 43
0.00000001
 40
0.0
 40
0.0
 40
0.0
 40
0.0
 40
0.2499996200979984
 40
0.5000001853072358
 40
0.749999520701833
 40
1.0
 40
1.0
 40
1.0
 40
1.0
 10
6625.415383321611
 20
5337.061654439781
 30
0.0
 10
6625.78808419819
 20
5336.93073644631
 30
0.0
 10
6626.533487360324
 20
5336.668899964438
 30
0.0
 10
6627.481485047429
 20
5336.355474286826
 30
0.0
 10
6628.159489860687
 20
5336.167936737917
 30
0.0
 10
6628.274080969157
 20
5336.200256757795
 30
0.0
 10
6628.331376654473
 20
5336.216416804705
 30
0.0
  0
SPLINE
  5
AB
330
1F
100
AcDbEntity
  8
0
  6
Continuous
 62
     7
370
    25
100
AcDbSpline
210
0.0
220
0.0
230
1.0
 70
     8
 71
     3
 72
    11
 73
     7
 74
     0
 42
0.000000001
 43
0.00000001
 40
0.0
 40
0.0
 40
0.0
 40
0.0
 40
0.2499959534345891
 40
0.4999959854861011
 40
0.7499988886370403
 40
0.9999999999999999
 40
0.9999999999999999
 40
0.9999999999999999
 40
0.9999999999999999
 10
6625.415383321611
 20
5337.061654439781
 30
0.0
 10
6625.550562828822
 20
5337.041493713429
 30
0.0
 10
6625.820924048664
 20
5337.001171931809
 30
0.0
 10
6626.169762701573
 20
5336.967132948962
 30
0.0
 10
6626.428618799166
 20
5336.975057007839
 30
0.0
 10
6626.488709473748
 20
5337.032788698095
 30
0.0
 10
6626.51875470337
 20
5337.061654439781
 30
0.0
  0
LINE
  5
AC
330
1F
100
AcDbEntity
  8
0
  6
Continuous
 62
     7
370
    25
100
AcDbLine
 10
6626.5187547034
 20
5337.0616544398
 30
0.0
 11
6628.3313766545
 21
5336.2164168047
 31
0.0
  0
LINE
  5
AD
330
1F
100
AcDbEntity
  8
0
  6
Continuous
 62
     7
370
    25
100
AcDbLine
 10
6628.3313766545
 20
5336.2164168047
 30
0.0
 11
6540.9880862063
 21
5148.9081481831
 31
0.0
  0
LWPOLYLINE
  5
AE
330
1F
100
AcDbEntity
  8
0
  6
Continuous
 62
     7
370
    25
100
AcDbPolyline
 90
        8
 70
   128
 43
0.0
 10
6534.9860251373
 20
5136.2554977076
 10
6534.8628744906
 20
5136.3129267829
 10
6534.6116185611
 20
5136.4300946133
 10
6534.2734814113
 20
5136.5877637999
 10
6533.8614717549
 20
5136.7798844712
 10
6533.3913997239
 20
5136.9990805524
 10
6532.8813478774
 20
5137.2369328873
 10
6532.3509186929
 20
5137.484277262
  0
LINE
  5
AF
330
1F
100
AcDbEntity
  8
0
  6
Continuous
 62
     7
370
    25
100
AcDbLine
 10
6532.3509186929
 20
5137.484277262
 30
0.0
 11
6625.4153833216
 21
5337.0616544398
 31
0.0
  0
CIRCLE
  5
B0
330
1F
100
AcDbEntity
  8
0
  6
Continuous
 62
     7
370
    25
100
AcDbCircle
 10
6409.0187552994
 20
5227.0616541045
 30
0.0
 40
4.25
  0
CIRCLE
  5
B1
330
1F
100
AcDbEntity
  8
0
  6
Continuous
 62
     7
370
    25
100
AcDbCircle
 10
6569.0187552994
 20
5267.0616541045
 30
0.0
 40
4.25
  0
LINE
  5
B2
330
1F
100
AcDbEntity
  8
0
  6
Continuous
 62
     7
370
    25
100
AcDbLine
 10
6376.9870460456
 20
5137.0616505282
 30
0.0
 11
6376.5929028815
 21
5137.9068890946
 31
0.0
  0
LINE
  5
B3
330
1F
100
AcDbEntity
  8
0
  6
Continuous
 62
     7
370
    25
100
AcDbLine
 10
6376.5929028815
 20
5137.9068890946
 30
0.0
 11
6375.6865919059
 21
5137.484277262
 31
0.0
  0
LINE
  5
B4
330
1F
100
AcDbEntity
  8
0
  6
Continuous
 62
     7
370
    25
100
AcDbLine
 10
6282.6221272772
 20
5337.0616544398
 30
0.0
 11
6375.6865919059
 21
5137.484277262
 31
0.0
  0
LINE
  5
B5
330
1F
100
AcDbEntity
  8
0
  6
Continuous
 62
     7
370
    25
100
AcDbLine
 10
6625.4153833216
 20
5337.0616544398
 30
0.0
 11
6282.6221272772
 21
5337.0616544398
 31
0.0
  0
LINE
  5
B6
330
1F
100
AcDbEntity
  8
0
  6
Continuous
 62
     7
370
    25
100
AcDbLine
 10
6531.4446077174
 20
5137.9068890946
 30
0.0
 11
6531.0504645532
 21
5137.0616505282
 31
0.0
  0
LINE
  5
B7
330
1F
100
AcDbEntity
  8
0
  6
Continuous
 62
     7
370
    25
100
AcDbLine
 10
6484.0187546289
 20
5137.0616505282
 30
0.0
 11
6531.0504645532
 21
5137.0616505282
 31
0.0
  0
LINE
  5
B8
330
1F
100
AcDbEntity
  8
0
  6
Continuous
 62
     7
370
    25
100
AcDbLine
 10
6484.0187546289
 20
5137.0616505282
 30
0.0
 11
6484.0187546289
 21
5167.0616517203
 31
0.0
  0
ARC
  5
B9
330
1F
100
AcDbEntity
  8
0
  6
Continuous
 62
     7
370
    25
100
AcDbCircle
 10
6454.0187552994
 20
5167.0616541045
 30
0.0
 40
30.0
100
AcDbArc
 50
0.0
 51
180.0
  0
LINE
  5
BA
330
1F
100
AcDbEntity
  8
0
  6
Continuous
 62
     7
370
    25
100
AcDbLine
 10
6424.01875597
 20
5167.0616517203
 30
0.0
 11
6424.01875597
 21
5137.0616505282
 31
0.0
  0
LINE
  5
BB
330
1F
100
AcDbEntity
  8
0
  6
Continuous
 62
     7
370
    25
100
AcDbLine
 10
6376.9870460456
 20
5137.0616505282
 30
0.0
 11
6424.01875597
 21
5137.0616505282
 31
0.0
  0
ARC
  5
BC
330
1F
100
AcDbEntity
  8
0
  6
Continuous
 62
     7
370
    25
100
AcDbCircle
 10
6339.0187552994
 20
5289.0616541045
 30
0.0
 40
7.0
100
AcDbArc
 50
180.0
 51
0.0
  0
LINE
  5
BD
330
1F
100
AcDbEntity
  8
0
  6
Continuous
 62
     7
370
    25
100
AcDbLine
 10
6346.018752498
 20
5289.0616530912
 30
0.0
 11
6346.018752498
 21
5305.0616557138
 31
0.0
  0
ARC
  5
BE
330
1F
100
AcDbEntity
  8
0
  6
Continuous
 62
     7
370
    25
100
AcDbCircle
 10
6339.0187552994
 20
5305.0616541045
 30
0.0
 40
7.000000000000909
100
AcDbArc
 50
0.0
 51
180.0
  0
LINE
  5
BF
330
1F
100
AcDbEntity
  8
0
  6
Continuous
 62
     7
370
    25
100
AcDbLine
 10
6332.0187539285
 20
5305.0616557138
 30
0.0
 11
6332.0187539285
 21
5289.0616530912
 31
0.0
  0
ARC
  5
C0
330
1F
100
AcDbEntity
  8
0
  6
Continuous
 62
     7
370
    25
100
AcDbCircle
 10
6569.0187552994
 20
5289.0616541045
 30
0.0
 40
7.0
100
AcDbArc
 50
180.0
 51
0.0
  0
LINE
  5
C1
330
1F
100
AcDbEntity
  8
0
  6
Continuous
 62
     7
370
    25
100
AcDbLine
 10
6576.0187566703
 20
5289.0616530912
 30
0.0
 11
6576.0187566703
 21
5305.0616557138
 31
0.0
  0
ARC
  5
C2
330
1F
100
AcDbEntity
  8
0
  6
Continuous
 62
     7
370
    25
100
AcDbCircle
 10
6569.0187552994
 20
5305.0616541045
 30
0.0
 40
7.0
100
AcDbArc
 50
0.0
 51
180.0
  0
LINE
  5
C3
330
1F
100
AcDbEntity
  8
0
  6
Continuous
 62
     7
370
    25
100
AcDbLine
 10
6562.0187581008
 20
5305.0616557138
 30
0.0
 11
6562.0187581008
 21
5289.0616530912
 31
0.0
  0
ARC
  5
C4
330
1F
100
AcDbEntity
  8
0
  6
Continuous
 62
     7
370
    25
100
AcDbCircle
 10
6519.0187552994
 20
5149.0616541045
 30
0.0
 40
7.0
100
AcDbArc
 50
180.0
 51
0.0
  0
LINE
  5
C5
330
1F
100
AcDbEntity
  8
0
  6
Continuous
 62
     7
370
    25
100
AcDbLine
 10
6526.0187522
 20
5149.0616599458
 30
0.0
 11
6526.0187522
 21
5165.0616476672
 31
0.0
  0
ARC
  5
C6
330
1F
100
AcDbEntity
  8
0
  6
Continuous
 62
     7
370
    25
100
AcDbCircle
 10
6519.0187552994
 20
5165.0616541045
 30
0.0
 40
7.0
100
AcDbArc
 50
0.0
 51
180.0
  0
LINE
  5
C7
330
1F
100
AcDbEntity
  8
0
  6
Continuous
 62
     7
370
    25
100
AcDbLine
 10
6512.0187536305
 20
5165.0616476672
 30
0.0
 11
6512.0187536305
 21
5149.0616599458
 31
0.0
  0
ARC
  5
C8
330
1F
100
AcDbEntity
  8
0
  6
Continuous
 62
     7
370
    25
100
AcDbCircle
 10
6389.0187552994
 20
5149.0616541045
 30
0.0
 40
7.0
100
AcDbArc
 50
180.0
 51
0.0
  0
LINE
  5
C9
330
1F
100
AcDbEntity
  8
0
  6
Continuous
 62
     7
370
    25
100
AcDbLine
 10
6396.0187569683
 20
5149.0616599458
 30
0.0
 11
6396.0187569683
 21
5165.0616476672
 31
0.0
  0
ARC
  5
CA
330
1F
100
AcDbEntity
  8
0
  6
Continuous
 62
     7
370
    25
100
AcDbCircle
 10
6389.0187552994
 20
5165.0616541045
 30
0.0
 40
7.0
100
AcDbArc
 50
0.0
 51
180.0
  0
LINE
  5
CB
330
1F
100
AcDbEntity
  8
0
  6
Continuous
 62
     7
370
    25
100
AcDbLine
 10
6382.0187583989
 20
5165.0616476672
 30
0.0
 11
6382.0187583989
 21
5149.0616599458
 31
0.0
  0
CIRCLE
  5
CC
330
1F
100
AcDbEntity
  8
0
  6
Continuous
 62
     7
370
    25
100
AcDbCircle
 10
6364.0187552994
 20
5229.5616541045
 30
0.0
 40
22.5
  0
CIRCLE
  5
CD
330
1F
100
AcDbEntity
  8
0
  6
Continuous
 62
     7
370
    25
100
AcDbCircle
 10
6544.0187552994
 20
5229.5616541045
 30
0.0
 40
22.5
  0
ARC
  5
CE
330
1F
100
AcDbEntity
  8
0
  6
Continuous
 62
     7
370
    25
100
AcDbCircle
 10
6454.0187552994
 20
5221.5616541045
 30
0.0
 40
7.0
100
AcDbArc
 50
180.0
 51
0.0
  0
LINE
  5
CF
330
1F
100
AcDbEntity
  8
0
  6
Continuous
 62
     7
370
    25
100
AcDbLine
 10
6461.0187555155
 20
5221.561650409
 30
0.0
 11
6461.0187555155
 21
5237.5616530316
 31
0.0
  0
ARC
  5
D0
330
1F
100
AcDbEntity
  8
0
  6
Continuous
 62
     7
370
    25
100
AcDbCircle
 10
6454.0187552994
 20
5237.5616541045
 30
0.0
 40
7.0
100
AcDbArc
 50
0.0
 51
180.0
  0
LINE
  5
D1
330
1F
100
AcDbEntity
  8
0
  6
Continuous
 62
     7
370
    25
100
AcDbLine
 10
6447.0187550833
 20
5237.5616530316
 30
0.0
 11
6447.0187550833
 21
5221.561650409
 31
0.0
  0
CIRCLE
  5
D2
330
1F
100
AcDbEntity
  8
0
  6
Continuous
 62
     7
370
    25
100
AcDbCircle
 10
6339.0187552994
 20
5267.0616541045
 30
0.0
 40
4.250000000000909
  0
CIRCLE
  5
D3
330
1F
100
AcDbEntity
  8
0
  6
Continuous
 62
     7
370
    25
100
AcDbCircle
 10
6499.0187552994
 20
5227.0616541045
 30
0.0
 40
4.249999999999091
  0
LINE
  5
D4
330
1F
100
AcDbEntity
  8
0
  6
Continuous
 62
     7
370
    25
100
AcDbLine
 10
6532.3509186929
 20
5137.484277262
 30
0.0
 11
6531.4446077174
 21
5137.9068890946
 31
0.0
  0
LWPOLYLINE
  5
D5
330
1F
100
AcDbEntity
  8
0
  6
Continuous
 62
     7
370
    25
100
AcDbPolyline
 90
        9
 70
   128
 43
0.0
 10
6375.6865919059
 20
5137.484277262
 10
6375.1561627215
 20
5137.2369328873
 10
6374.646110875
 20
5136.9990805524
 10
6374.176038844
 20
5136.7798844712
 10
6373.7640291875
 20
5136.5877637999
 10
6373.4258920377
 20
5136.4300946133
 10
6373.1746361082
 20
5136.3129267829
 10
6373.0199173516
 20
5136.2407753604
 10
6372.9676738804
 20
5136.2164119618
  0
LINE
  5
D6
330
1F
100
AcDbEntity
  8
0
  6
Continuous
 62
     7
370
    25
100
AcDbLine
 10
6367.0551091855
 20
5148.8959441321
 30
0.0
 11
6279.7061339444
 21
5336.2164168047
 31
0.0
  0
SPLINE
  5
D7
330
1F
100
AcDbEntity
  8
0
  6
Continuous
 62
     7
370
    25
100
AcDbSpline
210
0.0
220
0.0
230
1.0
 70
     8
 71
     3
 72
    11
 73
     7
 74
     0
 42
0.000000001
 43
0.00000001
 40
0.0
 40
0.0
 40
0.0
 40
0.0
 40
0.2500004792981703
 40
0.4999998146927709
 40
0.7500003799020116
 40
1.0
 40
1.0
 40
1.0
 40
1.0
 10
6279.70613394436
 20
5336.216416804705
 30
0.0
 10
6279.763429629676
 20
5336.200256757795
 30
0.0
 10
6279.878020738146
 20
5336.167936737917
 30
0.0
 10
6280.556025551405
 20
5336.355474286826
 30
0.0
 10
6281.504023238509
 20
5336.668899964438
 30
0.0
 10
6282.249426400644
 20
5336.93073644631
 30
0.0
 10
6282.622127277223
 20
5337.061654439781
 30
0.0
  0
LINE
  5
D8
330
1F
100
AcDbEntity
  8
0
  6
Continuous
 62
     7
370
    25
100
AcDbLine
 10
6281.5187558955
 20
5337.0616544398
 30
0.0
 11
6279.7061339444
 21
5336.2164168047
 31
0.0
  0
SPLINE
  5
D9
330
1F
100
AcDbEntity
  8
0
  6
Continuous
 62
     7
370
    25
100
AcDbSpline
210
0.0
220
0.0
230
1.0
 70
     8
 71
     3
 72
    11
 73
     7
 74
     0
 42
0.000000001
 43
0.00000001
 40
0.0
 40
0.0
 40
0.0
 40
0.0
 40
0.2500011113629595
 40
0.5000040145138986
 40
0.7500040465654108
 40
0.9999999999999999
 40
0.9999999999999999
 40
0.9999999999999999
 40
0.9999999999999999
 10
6281.518755895463
 20
5337.061654439781
 30
0.0
 10
6281.548801125085
 20
5337.032788698095
 30
0.0
 10
6281.608891799668
 20
5336.975057007839
 30
0.0
 10
6281.86774789726
 20
5336.967132948962
 30
0.0
 10
6282.216586550169
 20
5337.001171931809
 30
0.0
 10
6282.48694777001
 20
5337.041493713429
 30
0.0
 10
6282.622127277223
 20
5337.061654439781
 30
0.0
  0
LINE
  5
DA
330
1F
100
AcDbEntity
  8
0
  6
Continuous
 62
     7
370
    25
100
AcDbLine
 10
6636.6468951529
 20
5347.0616542163
 30
0.0
 11
6632.3775336569
 21
5338.0616536724
 31
0.0
  0
LINE
  5
DB
330
1F
100
AcDbEntity
  8
0
  6
Continuous
 62
     7
370
    25
100
AcDbLine
 10
6632.3775336569
 20
5338.0616536724
 30
0.0
 11
6535.333490414
 21
5133.48817326
 31
0.0
  0
ARC
  5
DC
330
1F
100
AcDbEntity
  8
0
  6
Continuous
 62
     7
370
    25
100
AcDbCircle
 10
6454.0187552994
 20
5172.0616236185
 30
0.0
 40
89.99998455174142
100
AcDbArc
 50
205.3783627682
 51
334.6216372318
  0
LINE
  5
DD
330
1F
100
AcDbEntity
  8
0
  6
Continuous
 62
     7
370
    25
100
AcDbLine
 10
6372.7040201848
 20
5133.48817326
 30
0.0
 11
6271.3906154459
 21
5347.0616542163
 31
0.0
  0
LINE
  5
DE
330
1F
100
AcDbEntity
  8
0
  6
Continuous
 62
     7
370
    25
100
AcDbLine
 10
6636.6468951529
 20
5347.0616542163
 30
0.0
 11
6271.3906154459
 21
5347.0616542163
 31
0.0
  0
LINE
  5
DF
330
1F
100
AcDbEntity
  8
0
  6
Continuous
 62
     7
370
    25
100
AcDbLine
 10
6630.7173207825
 20
5338.0616536724
 30
0.0
 11
6533.9782447046
 21
5134.1310689586
 31
0.0
  0
LINE
  5
E0
330
1F
100
AcDbEntity
  8
0
  6
Continuous
 62
     7
370
    25
100
AcDbLine
 10
6277.3201898163
 20
5338.0616536724
 30
0.0
 11
6630.7173207825
 21
5338.0616536724
 31
0.0
  0
SPLINE
  5
E1
330
1F
100
AcDbEntity
  8
0
  6
Continuous
 62
     7
370
    25
100
AcDbSpline
210
0.0
220
0.0
230
1.0
 70
     8
 71
     3
 72
    65
 73
    61
 74
     0
 42
0.000000001
 43
0.00000001
 40
0.0
 40
0.0
 40
0.0
 40
0.0
 40
0.5000000000000043
 40
0.5312500000000046
 40
0.5312500000000046
 40
0.5351562500000047
 40
0.5351562500000047
 40
0.5390625000000047
 40
0.5390625000000047
 40
0.5468750000000048
 40
0.5468750000000048
 40
0.5625000000000049
 40
0.5625000000000049
 40
0.578125000000005
 40
0.578125000000005
 40
0.5859375000000051
 40
0.5859375000000051
 40
0.5937500000000051
 40
0.5937500000000051
 40
0.6250000000000054
 40
0.6250000000000054
 40
0.6562500000000058
 40
0.6562500000000058
 40
0.6640625000000058
 40
0.6640625000000058
 40
0.6718750000000057
 40
0.6718750000000057
 40
0.6875000000000056
 40
0.6875000000000056
 40
0.7187500000000051
 40
0.7187500000000051
 40
0.726562500000005
 40
0.726562500000005
 40
0.7343750000000048
 40
0.7343750000000048
 40
0.7500000000000044
 40
0.7500000000000044
 40
0.7656250000000042
 40
0.7656250000000042
 40
0.7812500000000039
 40
0.7812500000000039
 40
0.8125000000000032
 40
0.8125000000000032
 40
0.828125000000003
 40
0.828125000000003
 40
0.8359375000000028
 40
0.8359375000000028
 40
0.8437500000000027
 40
0.8437500000000027
 40
0.8750000000000021
 40
0.8750000000000021
 40
0.9062500000000017
 40
0.9062500000000017
 40
0.9375000000000011
 40
0.9375000000000011
 40
0.9687500000000007
 40
0.9687500000000007
 40
0.9843750000000003
 40
0.9843750000000003
 40
1.0
 40
1.0
 40
1.0
 40
1.0
 10
6277.320186823064
 20
5338.061654103464
 30
0.0
 10
6307.602117793649
 20
5274.225898516056
 30
0.0
 10
6339.776669449895
 20
5206.400408204433
 30
0.0
 10
6371.951221106143
 20
5138.574917892811
 30
0.0
 10
6374.080419377512
 20
5134.086466328071
 30
0.0
 10
6374.317280935609
 20
5133.587915772372
 30
0.0
 10
6374.802920018808
 20
5132.597792256625
 30
0.0
 10
6375.050210345339
 20
5132.105348442348
 30
0.0
 10
6375.805423470604
 20
5130.635829718165
 30
0.0
 10
6376.326682240042
 20
5129.666563911053
 30
0.0
 10
6377.943472670841
 20
5126.789809804161
 30
0.0
 10
6379.091921003581
 20
5124.913307754681
 30
0.0
 10
6381.530558689066
 20
5121.243302502962
 30
0.0
 10
6382.820731450143
 20
5119.449789585189
 30
0.0
 10
6384.864747859859
 20
5116.823204862982
 30
0.0
 10
6385.564238822424
 20
5115.958305925599
 30
0.0
 10
6387.000270066693
 20
5114.250202905146
 30
0.0
 10
6387.738224823164
 20
5113.405476530932
 30
0.0
 10
6391.506422701907
 20
5109.255473411547
 30
0.0
 10
6394.735177211501
 20
5106.204966241248
 30
0.0
 10
6401.601285156185
 20
5100.618038970892
 30
0.0
 10
6405.238978094818
 20
5098.082046024141
 30
0.0
 10
6410.052161924791
 20
5095.246813288592
 30
0.0
 10
6411.030010638856
 20
5094.695528393742
 30
0.0
 10
6413.003361795746
 20
5093.631979193318
 30
0.0
 10
6413.997100581967
 20
5093.120557778603
 30
0.0
 10
6416.999122973686
 20
5091.646247745567
 30
0.0
 10
6419.028173039291
 20
5090.743199305819
 30
0.0
 10
6425.196870093981
 20
5088.269037633862
 30
0.0
 10
6429.417805565011
 20
5086.932163518496
 30
0.0
 10
6434.832165111608
 20
5085.659276763467
 30
0.0
 10
6435.921951579886
 20
5085.424624254763
 30
0.0
 10
6438.115508140623
 20
5084.995614143847
 30
0.0
 10
6439.220976935848
 20
5084.801004291839
 30
0.0
 10
6442.545223164533
 20
5084.280679148037
 30
0.0
 10
6444.768417301522
 20
5084.018561801431
 30
0.0
 10
6449.228781793111
 20
5083.662849415953
 30
0.0
 10
6451.465951970258
 20
5083.569252237374
 30
0.0
 10
6455.954510769028
 20
5083.553500908784
 30
0.0
 10
6458.187991323985
 20
5083.631619778743
 30
0.0
 10
6464.840568670656
 20
5084.114190610009
 30
0.0
 10
6469.219549477316
 20
5084.7649972158
 30
0.0
 10
6475.704644248321
 20
5086.230563431199
 30
0.0
 10
6477.852358010497
 20
5086.801163855381
 30
0.0
 10
6481.052367710439
 20
5087.783610836414
 30
0.0
 10
6482.115448863129
 20
5088.132156381542
 30
0.0
 10
6484.234340453143
 20
5088.871921043159
 30
0.0
 10
6485.284500742867
 20
5089.261192625245
 30
0.0
 10
6490.480820020806
 20
5091.299450667624
 30
0.0
 10
6494.474173270552
 20
5093.2253178583
 30
0.0
 10
6502.140510236074
 20
5097.654885444557
 30
0.0
 10
6505.812504390424
 20
5100.160370658574
 30
0.0
 10
6512.823179129104
 20
5105.772520749406
 30
0.0
 10
6516.072352486858
 20
5108.806537153191
 30
0.0
 10
6522.076280829431
 20
5115.314469711991
 30
0.0
 10
6524.830001867351
 20
5118.789313769743
 30
0.0
 10
6528.581776962991
 20
5124.33862817045
 30
0.0
 10
6529.77117696716
 20
5126.249874233473
 30
0.0
 10
6531.989221203736
 20
5130.135446274235
 30
0.0
 10
6533.021852793588
 20
5132.114939091359
 30
0.0
 10
6533.97824753993
 20
5134.131064857311
 30
0.0
  0
LWPOLYLINE
  5
E2
330
1F
100
AcDbEntity
  8
0
  6
Continuous
 62
     7
370
    25
100
AcDbPolyline
 90
        8
 70
   128
 43
0.0
 10
6270.6274822777
 20
5348.6703810176
 10
6271.4385673827
 20
5349.4814603018
 10
6272.1735075539
 20
5350.2164121146
 10
6272.8092208928
 20
5350.8521147432
 10
6273.3256653374
 20
5351.3685689667
 10
6273.7066284245
 20
5351.7495269316
 10
6273.9400998181
 20
5351.9830037239
 10
6274.0187481469
 20
5352.0616541045
  0
LINE
  5
E3
330
1F
100
AcDbEntity
  8
0
  6
Continuous
 62
     7
370
    25
100
AcDbLine
 10
6274.0187481469
 20
5352.0616541045
 30
0.0
 11
6634.7707495516
 21
5352.0616541045
 31
0.0
  0
SPLINE
  5
E4
330
1F
100
AcDbEntity
  8
0
  6
Continuous
 62
     7
370
    25
100
AcDbSpline
210
0.0
220
0.0
230
1.0
 70
     8
 71
     3
 72
    20
 73
    16
 74
     0
 42
0.000000001
 43
0.00000001
 40
0.0
 40
0.0
 40
0.0
 40
0.0
 40
0.125
 40
0.125
 40
0.2500000000000001
 40
0.2500000000000001
 40
0.3750000000000001
 40
0.3750000000000001
 40
0.5000000000000001
 40
0.5000000000000001
 40
0.6250000000000001
 40
0.6250000000000001
 40
0.7500000000000002
 40
0.7500000000000002
 40
1.0
 40
1.0
 40
1.0
 40
1.0
 10
6634.770748539061
 20
5352.061654104505
 30
0.0
 10
6634.771668547839
 20
5352.061654104551
 30
0.0
 10
6634.799931964263
 20
5352.042241144019
 30
0.0
 10
6634.904947132338
 20
5351.969159567014
 30
0.0
 10
6634.983213545657
 20
5351.914428151787
 30
0.0
 10
6635.176222514641
 20
5351.77928377013
 30
0.0
 10
6635.290763535657
 20
5351.699015365596
 30
0.0
 10
6635.549385866709
 20
5351.51777592255
 30
0.0
 10
6635.692117677077
 20
5351.417750097583
 30
0.0
 10
6635.993482620913
 20
5351.206606390451
 30
0.0
 10
6636.152991758314
 20
5351.094873734441
 30
0.0
 10
6636.486555443502
 20
5350.861283038579
 30
0.0
 10
6636.661350495649
 20
5350.738906398512
 30
0.0
 10
6637.198314267564
 20
5350.363056519774
 30
0.0
 10
6637.572915594385
 20
5350.100966486838
 30
0.0
 10
6637.960157202302
 20
5349.830078539274
 30
0.0
  0
LWPOLYLINE
  5
E5
330
1F
100
AcDbEntity
  8
0
  6
Continuous
 62
     7
370
    25
100
AcDbPolyline
 90
        4
 70
   128
 43
0.0
 10
6637.9601642912
 20
5349.8300785559
 10
6637.5512466257
 20
5348.9680915499
 10
6637.1078625744
 20
5348.0334017786
 10
6636.6468951529
 20
5347.0616542163
  0
SPLINE
  5
E6
330
1F
100
AcDbEntity
  8
0
  6
Continuous
 62
     7
370
    25
100
AcDbSpline
210
0.0
220
0.0
230
1.0
 70
    24
 71
     3
 72
     8
 73
     4
 74
     0
 42
0.000000001
 43
0.00000001
 40
0.0
 40
0.0
 40
0.0
 40
0.0
 40
1.0
 40
1.0
 40
1.0
 40
1.0
 10
6271.390618112971
 20
5347.061654104505
 30
0.0
 10
6271.130567893105
 20
5347.609852377986
 30
0.0
 10
6270.876133313309
 20
5348.146212614216
 30
0.0
 10
6270.627482207081
 20
5348.670381012169
 30
0.0
  0
LINE
  5
E7
330
1F
100
AcDbEntity
  8
0
  6
Continuous
 62
     7
370
    25
100
AcDbLine
 10
6447.0187550833
 20
5232.0616567867
 30
0.0
 11
6461.0187555155
 21
5232.0616567867
 31
0.0
  0
SPLINE
  5
E8
330
1F
100
AcDbEntity
  8
0
  6
Continuous
 62
     7
370
    25
100
AcDbSpline
210
0.0
220
0.0
230
1.0
 70
     8
 71
     3
 72
    10
 73
     6
 74
     0
 42
0.000000001
 43
0.00000001
 40
0.0
 40
0.0
 40
0.0
 40
0.0
 40
0.5
 40
0.5
 40
1.0
 40
1.0
 40
1.0
 40
1.0
 10
6374.288793109433
 20
5133.650951968275
 30
0.0
 10
6374.292159743195
 20
5133.643965384866
 30
0.0
 10
6374.36338419704
 20
5133.669674194226
 30
0.0
 10
6374.632618614054
 20
5133.783259224791
 30
0.0
 10
6374.830555751885
 20
5133.871104722329
 30
0.0
 10
6375.079404127622
 20
5133.984496162444
 30
0.0
  0
SPLINE
  5
E9
330
1F
100
AcDbEntity
  8
0
  6
Continuous
 62
     7
370
    25
100
AcDbSpline
210
0.0
220
0.0
230
1.0
 70
     8
 71
     3
 72
    62
 73
    58
 74
     0
 42
0.000000001
 43
0.00000001
 40
0.0
 40
0.0
 40
0.0
 40
0.0
 40
0.0312499999999997
 40
0.0312499999999997
 40
0.0624999999999994
 40
0.0624999999999994
 40
0.1249999999999987
 40
0.1249999999999987
 40
0.1874999999999981
 40
0.1874999999999981
 40
0.2031249999999979
 40
0.2031249999999979
 40
0.2187499999999977
 40
0.2187499999999977
 40
0.2499999999999977
 40
0.2499999999999977
 40
0.3124999999999978
 40
0.3124999999999978
 40
0.3437499999999981
 40
0.3437499999999981
 40
0.3593749999999983
 40
0.3593749999999983
 40
0.3749999999999986
 40
0.3749999999999986
 40
0.4374999999999997
 40
0.4374999999999997
 40
0.4687500000000002
 40
0.4687500000000002
 40
0.5000000000000008
 40
0.5000000000000008
 40
0.5625000000000018
 40
0.5625000000000018
 40
0.5937500000000023
 40
0.5937500000000023
 40
0.6093750000000026
 40
0.6093750000000026
 40
0.6250000000000027
 40
0.6250000000000027
 40
0.6875000000000034
 40
0.6875000000000034
 40
0.7500000000000041
 40
0.7500000000000041
 40
0.7656250000000042
 40
0.7656250000000042
 40
0.7812500000000042
 40
0.7812500000000042
 40
0.8125000000000038
 40
0.8125000000000038
 40
0.8750000000000026
 40
0.8750000000000026
 40
0.906250000000002
 40
0.906250000000002
 40
0.9375000000000013
 40
0.9375000000000013
 40
0.9687500000000007
 40
0.9687500000000007
 40
1.0
 40
1.0
 40
1.0
 40
1.0
 10
6532.960983634104
 20
5133.99024500282
 30
0.0
 10
6532.042795733522
 20
5132.154465666048
 30
0.0
 10
6531.060393301985
 20
5130.350218862302
 30
0.0
 10
6528.975894833608
 20
5126.818160907595
 30
0.0
 10
6527.873456237197
 20
5125.089394676291
 30
0.0
 10
6524.38491778149
 20
5120.015287819617
 30
0.0
 10
6521.85285431363
 20
5116.830995035804
 30
0.0
 10
6516.389839609073
 20
5110.849261739644
 30
0.0
 10
6513.45868254844
 20
5108.051458276158
 30
0.0
 10
6509.543149281875
 20
5104.797500323115
 30
0.0
 10
6508.747379595869
 20
5104.158954254133
 30
0.0
 10
6507.130135808858
 20
5102.906718917852
 30
0.0
 10
6506.307029419046
 20
5102.291884669969
 30
0.0
 10
6503.813502543816
 20
5100.496100492254
 30
0.0
 10
6502.118586315987
 20
5099.363027326694
 30
0.0
 10
6496.937702576695
 20
5096.153074782513
 30
0.0
 10
6493.356169090443
 20
5094.264344188422
 30
0.0
 10
6487.79556942577
 20
5091.801988244526
 30
0.0
 10
6485.910486166485
 20
5091.043319771738
 30
0.0
 10
6483.034479042738
 20
5090.000573142376
 30
0.0
 10
6482.067736960809
 20
5089.668885349987
 30
0.0
 10
6480.117810443942
 20
5089.037882134248
 30
0.0
 10
6479.135300057383
 20
5088.738830667134
 30
0.0
 10
6474.212134545631
 20
5087.334377967145
 30
0.0
 10
6470.216363037893
 20
5086.491866166967
 30
0.0
 10
6464.137957598804
 20
5085.644246725602
 30
0.0
 10
6462.091640625459
 20
5085.431222098377
 30
0.0
 10
6458.014858240131
 20
5085.150031459005
 30
0.0
 10
6455.981361808445
 20
5085.080998560229
 30
0.0
 10
6449.895352497871
 20
5085.085601210722
 30
0.0
 10
6445.857228709316
 20
5085.369607046161
 30
0.0
 10
6439.828575143469
 20
5086.212768846255
 30
0.0
 10
6437.823799542007
 20
5086.563645667202
 30
0.0
 10
6434.823982476004
 20
5087.197366899197
 30
0.0
 10
6433.823470970703
 20
5087.426986147559
 30
0.0
 10
6431.834154846813
 20
5087.920440424022
 30
0.0
 10
6430.846595301909
 20
5088.183887863669
 30
0.0
 10
6425.943901699488
 20
5089.58381098851
 30
0.0
 10
6422.133398899133
 20
5090.966745370947
 30
0.0
 10
6414.728318048099
 20
5094.241230951599
 30
0.0
 10
6411.1336187142
 20
5096.132502139137
 30
0.0
 10
6406.78122728072
 20
5098.828670073764
 30
0.0
 10
6405.917455812945
 20
5099.384972054228
 30
0.0
 10
6404.217397729575
 20
5100.522244595791
 30
0.0
 10
6403.379403681829
 20
5101.10421906427
 30
0.0
 10
6400.900988016369
 20
5102.889560832297
 30
0.0
 10
6399.296067629949
 20
5104.132273853923
 30
0.0
 10
6394.620563562017
 20
5108.014751599543
 30
0.0
 10
6391.6882150401
 20
5110.807726389471
 30
0.0
 10
6387.572202831655
 20
5115.310289297574
 30
0.0
 10
6386.247532541346
 20
5116.863601899645
 30
0.0
 10
6383.694743277783
 20
5120.077236667297
 30
0.0
 10
6382.477276040021
 20
5121.724201398461
 30
0.0
 10
6380.159974164097
 20
5125.095920958403
 30
0.0
 10
6379.059943662547
 20
5126.820936077216
 30
0.0
 10
6376.977541549153
 20
5130.349557423382
 30
0.0
 10
6375.994824866994
 20
5132.154275634959
 30
0.0
 10
6375.076757915655
 20
5133.989786347851
 30
0.0
  0
SPLINE
  5
EA
330
1F
100
AcDbEntity
  8
0
  6
Continuous
 62
     7
370
    25
100
AcDbSpline
210
0.0
220
0.0
230
1.0
 70
     8
 71
     3
 72
    28
 73
    24
 74
     0
 42
0.000000001
 43
0.00000001
 40
0.0
 40
0.0
 40
0.0
 40
0.0
 40
0.0079333050452348
 40
0.0175051546785908
 40
0.0293582047407631
 40
0.043835545774003
 40
0.0611256937086626
 40
0.0813394465610845
 40
0.1045464977938257
 40
0.130793364772448
 40
0.1601126968170881
 40
0.1925284084269522
 40
0.2280586689477932
 40
0.2667177284751097
 40
0.3085170795653653
 40
0.3534662228869868
 40
0.4015731874833904
 40
0.4528448938219296
 40
0.5072874131173666
 40
0.6304383919231741
 40
0.753608907928518
 40
0.8767968265191957
 40
0.9999999999999999
 40
0.9999999999999999
 40
0.9999999999999999
 40
0.9999999999999999
 10
6533.974601456489
 20
5134.12337940032
 30
0.0
 10
6533.97175886995
 20
5134.117389240922
 30
0.0
 10
6533.965486589134
 20
5134.104171714785
 30
0.0
 10
6533.957014402344
 20
5134.086466779425
 30
0.0
 10
6533.948327798811
 20
5134.068713577905
 30
0.0
 10
6533.939273637751
 20
5134.050976576026
 30
0.0
 10
6533.929577034995
 20
5134.033198137663
 30
0.0
 10
6533.918989942992
 20
5134.015513119941
 30
0.0
 10
6533.907200819204
 20
5133.998057508981
 30
0.0
 10
6533.893854295453
 20
5133.981009180332
 30
0.0
 10
6533.878541650054
 20
5133.964566497427
 30
0.0
 10
6533.860803995415
 20
5133.948953111706
 30
0.0
 10
6533.840132495718
 20
5133.93441560229
 30
0.0
 10
6533.815970206352
 20
5133.921223360125
 30
0.0
 10
6533.787714503197
 20
5133.909668525583
 30
0.0
 10
6533.75471855491
 20
5133.90006139325
 30
0.0
 10
6533.716300647041
 20
5133.892743948711
 30
0.0
 10
6533.671724890716
 20
5133.888026198116
 30
0.0
 10
6533.599673056464
 20
5133.885799963336
 30
0.0
 10
6533.49154422213
 20
5133.890961080375
 30
0.0
 10
6533.335681383497
 20
5133.909628732973
 30
0.0
 10
6533.15969146922
 20
5133.939549865009
 30
0.0
 10
6533.02549816899
 20
5133.969009083973
 30
0.0
 10
6532.9583973647
 20
5133.983739605414
 30
0.0
  0
SPLINE
  5
EB
330
1F
100
AcDbEntity
  8
0
  6
Continuous
 62
     7
370
    25
100
AcDbSpline
210
0.0
220
0.0
230
1.0
 70
     8
 71
     3
 72
    14
 73
    10
 74
     0
 42
0.000000001
 43
0.00000001
 40
0.0
 40
0.0
 40
0.0
 40
0.0
 40
0.1520767202022366
 40
0.3094999616626595
 40
0.4718226575479761
 40
0.638475426780852
 40
0.8087700766030607
 40
0.9819081694209268
 40
1.0
 40
1.0
 40
1.0
 40
1.0
 10
6532.961709839669
 20
5134.00108612946
 30
0.0
 10
6530.568844219234
 20
5134.019500703547
 30
0.0
 10
6525.698987631035
 20
5134.05697724806
 30
0.0
 10
6517.463632782112
 20
5134.115393942596
 30
0.0
 10
6508.429365100506
 20
5134.173898479153
 30
0.0
 10
6498.607614226024
 20
5134.230023102222
 30
0.0
 10
6488.091683648234
 20
5134.277936773594
 30
0.0
 10
6480.436924296562
 20
5134.307990864089
 30
0.0
 10
6476.274902432569
 20
5134.316634890935
 30
0.0
 10
6475.881142956582
 20
5134.317452682767
 30
0.0
  0
SPLINE
  5
EC
330
1F
100
AcDbEntity
  8
0
  6
Continuous
 62
     7
370
    25
100
AcDbSpline
210
0.0
220
0.0
230
1.0
 70
     8
 71
     3
 72
    14
 73
    10
 74
     0
 42
0.000000001
 43
0.00000001
 40
0.0
 40
0.0
 40
0.0
 40
0.0
 40
0.020638021043844
 40
0.1933267906700154
 40
0.3631797170420075
 40
0.5294002056128142
 40
0.6913019575571193
 40
0.8483172082091
 40
1.0
 40
1.0
 40
1.0
 40
1.0
 10
6432.328995732037
 20
5134.317825211797
 30
0.0
 10
6431.8785992409
 20
5134.31689453173
 30
0.0
 10
6427.659507304935
 20
5134.308176380408
 30
0.0
 10
6419.948335297252
 20
5134.277970742508
 30
0.0
 10
6409.432718348651
 20
5134.230033042623
 30
0.0
 10
6399.610660901876
 20
5134.173914643665
 30
0.0
 10
6390.576215620266
 20
5134.11540846822
 30
0.0
 10
6382.340629951674
 20
5134.056992185763
 30
0.0
 10
6377.470620627175
 20
5134.019515625274
 30
0.0
 10
6375.077678305474
 20
5134.001101030622
 30
0.0
  0
CIRCLE
  5
ED
330
1F
100
AcDbEntity
  8
0
  6
Continuous
 62
     7
370
    25
100
AcDbCircle
 10
6454.0187552994
 20
5166.7627922366
 30
0.0
 40
21.0
  0
LINE
  5
EE
330
1F
100
AcDbEntity
  8
0
  6
Continuous
 62
     7
370
    25
100
AcDbLine
 10
6474.5128773576
 20
5167.2536382811
 30
0.0
 11
6474.4923882609
 21
5166.8978283542
 31
0.0
  0
SPLINE
  5
EF
330
1F
100
AcDbEntity
  8
0
  6
Continuous
 62
     7
370
    25
100
AcDbSpline
210
0.0
220
0.0
230
1.0
 70
     8
 71
     3
 72
    24
 73
    20
 74
     0
 42
0.000000001
 43
0.00000001
 40
0.0
 40
0.0
 40
0.0
 40
0.0
 40
0.0476237311370537
 40
0.1075552825873309
 40
0.1658664374818672
 40
0.2258633706068645
 40
0.2842657203480309
 40
0.3443601420293025
 40
0.4027749757502111
 40
0.4629042221364806
 40
0.5209417403425609
 40
0.5806846797738532
 40
0.6383825298419245
 40
0.6977279957249725
 40
0.7710745054959072
 40
0.8295086045294835
 40
0.8896381439272124
 40
0.9480543552812667
 40
1.0
 40
1.0
 40
1.0
 40
1.0
 10
6474.325869647232
 20
5165.264720691953
 30
0.0
 10
6474.193627263053
 20
5164.343382186096
 30
0.0
 10
6473.894965930544
 20
5162.262595549058
 30
0.0
 10
6472.755979402834
 20
5159.206778308067
 30
0.0
 10
6471.060632320841
 20
5156.158997200975
 30
0.0
 10
6468.880240054836
 20
5153.465210608256
 30
0.0
 10
6466.258333594299
 20
5151.15156993973
 30
0.0
 10
6463.309424774434
 20
5149.326491962718
 30
0.0
 10
6460.065783081816
 20
5148.010883267149
 30
0.0
 10
6456.684184526086
 20
5147.270509080534
 30
0.0
 10
6453.201578214234
 20
5147.112596646885
 30
0.0
 10
6449.788360981765
 20
5147.540164983906
 30
0.0
 10
6446.47248161883
 20
5148.542082851845
 30
0.0
 10
6443.130318363225
 20
5150.199805216094
 30
0.0
 10
6440.139483719064
 20
5152.472493297019
 30
0.0
 10
6437.618817780189
 20
5155.264109622287
 30
0.0
 10
6435.773290014222
 20
5158.196381669401
 30
0.0
 10
6434.441342053808
 20
5161.270558340945
 30
0.0
 10
6434.026697148196
 20
5163.387845075812
 30
0.0
 10
6433.831530106631
 20
5164.384419693265
 30
0.0
  0
LINE
  5
F0
330
1F
100
AcDbEntity
  8
0
  6
Continuous
 62
     7
370
    25
100
AcDbLine
 10
6433.542428953
 20
5167.0389423507
 30
0.0
 11
6433.5246332413
 21
5167.2536382811
 31
0.0
  0
LINE
  5
F1
330
1F
100
AcDbEntity
  8
0
  6
Continuous
 62
     7
370
    25
100
AcDbLine
 10
6467.6953493109
 20
5193.7627891438
 30
0.0
 11
6459.0788250281
 21
5193.7627891438
 31
0.0
  0
LINE
  5
F2
330
1F
100
AcDbEntity
  8
0
  6
Continuous
 62
     7
370
    25
100
AcDbLine
 10
6448.9586855708
 20
5193.7627891438
 30
0.0
 11
6440.3421612879
 21
5193.7627891438
 31
0.0
  0
LINE
  5
F3
330
1F
100
AcDbEntity
  8
0
  6
Continuous
 62
     7
370
    25
100
AcDbLine
 10
6474.7325335121
 20
5188.7627939122
 30
0.0
 11
6470.468810243
 21
5188.7627939122
 31
0.0
  0
LINE
  5
F4
330
1F
100
AcDbEntity
  8
0
  6
Continuous
 62
     7
370
    25
100
AcDbLine
 10
6437.5687003559
 20
5188.7627939122
 30
0.0
 11
6433.3049770868
 21
5188.7627939122
 31
0.0
  0
SPLINE
  5
F5
330
1F
100
AcDbEntity
  8
0
  6
Continuous
 62
     7
370
    25
100
AcDbSpline
210
0.0
220
0.0
230
1.0
 70
     8
 71
     3
 72
    16
 73
    12
 74
     0
 42
0.000000001
 43
0.00000001
 40
0.0
 40
0.0
 40
0.0
 40
0.0
 40
0.0229769470378382
 40
0.1472983349289881
 40
0.2558699490860559
 40
0.3628942422549202
 40
0.4810819801399145
 40
0.5963704560731219
 40
0.7937910934917939
 40
0.9891702005245728
 40
1.0
 40
1.0
 40
1.0
 40
1.0
 10
6450.321604214055
 20
5193.411240948949
 30
0.0
 10
6450.302375967458
 20
5193.406345925443
 30
0.0
 10
6450.179109429801
 20
5193.374965393878
 30
0.0
 10
6450.007769946717
 20
5193.278433610123
 30
0.0
 10
6449.892946226051
 20
5193.057483544778
 30
0.0
 10
6449.917426689672
 20
5192.754805311221
 30
0.0
 10
6450.117991279412
 20
5192.385610266677
 30
0.0
 10
6450.570412756793
 20
5191.931373388031
 30
0.0
 10
6451.289858156013
 20
5191.509209398387
 30
0.0
 10
6451.914967103595
 20
5191.298890871866
 30
0.0
 10
6452.240527172384
 20
5191.217731081611
 30
0.0
 10
6452.257625125726
 20
5191.213468684468
 30
0.0
  0
LWPOLYLINE
  5
F6
330
1F
100
AcDbEntity
  8
0
  6
Continuous
 62
     7
370
    25
100
AcDbPolyline
 90
        9
 70
   128
 43
0.0
 10
6452.1501359487
 20
5190.7771179812
 10
6452.1667800801
 20
5190.8446947472
 10
6452.1831001112
 20
5190.9109453099
 10
6452.1987786939
 20
5190.9745881694
 10
6452.2135103544
 20
5191.0343865292
 10
6452.2270085946
 20
5191.0891930001
 10
6452.239010665
 20
5191.1379048961
 10
6452.2492828038
 20
5191.1796132462
 10
6452.2576251257
 20
5191.2134686845
  0
SPLINE
  5
F7
330
1F
100
AcDbEntity
  8
0
  6
Continuous
 62
     7
370
    25
100
AcDbSpline
210
0.0
220
0.0
230
1.0
 70
     8
 71
     3
 72
    16
 73
    12
 74
     0
 42
0.000000001
 43
0.00000001
 40
0.0
 40
0.0
 40
0.0
 40
0.0
 40
0.0100500365518242
 40
0.1944152005250975
 40
0.3893123164062443
 40
0.5079270411464644
 40
0.6313994288784179
 40
0.7423081157820237
 40
0.852819460234268
 40
0.9771953316412352
 40
0.9999999999999999
 40
0.9999999999999999
 40
0.9999999999999999
 40
0.9999999999999999
 10
6452.1501359487
 20
5190.777117981229
 30
0.0
 10
6452.131896354074
 20
5190.782824297704
 30
0.0
 10
6451.77905639887
 20
5190.893211424748
 30
0.0
 10
6451.092459584015
 20
5191.183119719354
 30
0.0
 10
6450.317390533859
 20
5191.736319710282
 30
0.0
 10
6449.821985528395
 20
5192.308280817951
 30
0.0
 10
6449.589066646127
 20
5192.766607996609
 30
0.0
 10
6449.54237640146
 20
5193.13823661282
 30
0.0
 10
6449.649283765032
 20
5193.402436888324
 30
0.0
 10
6449.826878197371
 20
5193.510530481984
 30
0.0
 10
6449.957880379253
 20
5193.540667035389
 30
0.0
 10
6449.978178316173
 20
5193.545336498532
 30
0.0
  0
ARC
  5
F8
330
1F
100
AcDbEntity
  8
0
  6
Continuous
 62
     7
370
    25
100
AcDbCircle
 10
6450.0191631594
 20
5193.1434870302
 30
0.0
 40
0.4039340943395745
100
AcDbArc
 50
41.5187692688
 51
95.8234909252
  0
ARC
  5
F9
330
1F
100
AcDbEntity
  8
0
  6
Continuous
 62
     7
370
    25
100
AcDbCircle
 10
6454.0187552994
 20
5166.7627922366
 30
0.0
 40
24.08692089788896
100
AcDbArc
 50
94.4493725849
 51
145.5506274151
  0
SPLINE
  5
FA
330
1F
100
AcDbEntity
  8
0
  6
Continuous
 62
     7
370
    25
100
AcDbSpline
210
0.0
220
0.0
230
1.0
 70
     8
 71
     3
 72
    14
 73
    10
 74
     0
 42
0.000000001
 43
0.00000001
 40
0.0
 40
0.0
 40
0.0
 40
0.0
 40
0.1384398775559803
 40
0.2809978824971362
 40
0.4088906166749646
 40
0.5168153791907115
 40
0.6501740674187438
 40
0.8439586783297057
 40
1.0
 40
1.0
 40
1.0
 40
1.0
 10
6432.844678354827
 20
5183.653304948125
 30
0.0
 10
6432.935722688958
 20
5183.730628584505
 30
0.0
 10
6433.12051962432
 20
5183.887575979096
 30
0.0
 10
6433.463300488136
 20
5183.816576771073
 30
0.0
 10
6433.790192090916
 20
5183.508664748443
 30
0.0
 10
6434.063815403048
 20
5183.01060319296
 30
0.0
 10
6434.27637659614
 20
5182.263733944611
 30
0.0
 10
6434.32824319982
 20
5181.335889505965
 30
0.0
 10
6434.209162276714
 20
5180.680542422133
 30
0.0
 10
6434.156045732466
 20
5180.388222111974
 30
0.0
  0
ARC
  5
FB
330
1F
100
AcDbEntity
  8
0
  6
Continuous
 62
     7
370
    25
100
AcDbCircle
 10
6454.0187552994
 20
5166.7627922366
 30
0.0
 40
27.0856246786982
100
AcDbArc
 50
98.5792883632
 51
141.4207116368
  0
SPLINE
  5
FC
330
1F
100
AcDbEntity
  8
0
  6
Continuous
 62
     7
370
    25
100
AcDbSpline
210
0.0
220
0.0
230
1.0
 70
     8
 71
     3
 72
    16
 73
    12
 74
     0
 42
0.000000001
 43
0.00000001
 40
0.0
 40
0.0
 40
0.0
 40
0.0
 40
0.022975352805478
 40
0.1472980860139237
 40
0.2558698358318864
 40
0.3628946217263019
 40
0.4810814830066563
 40
0.596370164480072
 40
0.7937918671580544
 40
0.98917163378164
 40
1.0
 40
1.0
 40
1.0
 40
1.0
 10
6429.091945705381
 20
5176.885182632718
 30
0.0
 10
6429.086568288221
 20
5176.866089353557
 30
0.0
 10
6429.052092941446
 20
5176.743679765334
 30
0.0
 10
6429.050048814556
 20
5176.546986219041
 30
0.0
 10
6429.183977447788
 20
5176.337088423362
 30
0.0
 10
6429.458350747303
 20
5176.206946231793
 30
0.0
 10
6429.878356467574
 20
5176.196053878451
 30
0.0
 10
6430.497948292919
 20
5176.360735596508
 30
0.0
 10
6431.223293980225
 20
5176.772694261123
 30
0.0
 10
6431.717947374649
 20
5177.208935699116
 30
0.0
 10
6431.951038361452
 20
5177.450272327896
 30
0.0
 10
6431.963278395501
 20
5177.462945355687
 30
0.0
  0
LWPOLYLINE
  5
FD
330
1F
100
AcDbEntity
  8
0
  6
Continuous
 62
     7
370
    25
100
AcDbPolyline
 90
        9
 70
   128
 43
0.0
 10
6432.2874270802
 20
5177.1516899007
 10
6432.2372343814
 20
5177.199880256
 10
6432.1880177086
 20
5177.2471467393
 10
6432.1407381868
 20
5177.2925505774
 10
6432.0963122373
 20
5177.3351977008
 10
6432.0556059903
 20
5177.3742983477
 10
6432.0194129324
 20
5177.4090478556
 10
6431.9884352809
 20
5177.4387905734
 10
6431.9632783955
 20
5177.4629453557
  0
SPLINE
  5
FE
330
1F
100
AcDbEntity
  8
0
  6
Continuous
 62
     7
370
    25
100
AcDbSpline
210
0.0
220
0.0
230
1.0
 70
     8
 71
     3
 72
    16
 73
    12
 74
     0
 42
0.000000001
 43
0.00000001
 40
0.0
 40
0.0
 40
0.0
 40
0.0
 40
0.010051291758462
 40
0.1944157138777792
 40
0.3893130970900756
 40
0.5079264903358749
 40
0.6314002696097106
 40
0.7423080393255325
 40
0.8528194784043771
 40
0.9771956047974647
 40
1.0
 40
1.0
 40
1.0
 40
1.0
 10
6432.287427080241
 20
5177.15168990067
 30
0.0
 10
6432.27336641809
 20
5177.138742525074
 30
0.0
 10
6432.001400014619
 20
5176.888309712088
 30
0.0
 10
6431.406949793718
 20
5176.438745875823
 30
0.0
 10
6430.540363102517
 20
5176.044081639454
 30
0.0
 10
6429.797330161076
 20
5175.901019367475
 30
0.0
 10
6429.283938768308
 20
5175.928485245836
 30
0.0
 10
6428.938762123637
 20
5176.073855269968
 30
0.0
 10
6428.763415755544
 20
5176.29854327359
 30
0.0
 10
6428.758587149792
 20
5176.506402081043
 30
0.0
 10
6428.797995795958
 20
5176.634913767099
 30
0.0
 10
6428.804101837245
 20
5176.654825581822
 30
0.0
  0
ARC
  5
FF
330
1F
100
AcDbEntity
  8
0
  6
Continuous
 62
     7
370
    25
100
AcDbCircle
 10
6429.1725983983
 20
5176.4893856975
 30
0.0
 40
0.4039307748086402
100
AcDbArc
 50
101.5176383285
 51
155.8218699889
  0
SPLINE
  5
100
330
1F
100
AcDbEntity
  8
0
  6
Continuous
 62
     7
370
    25
100
AcDbSpline
210
0.0
220
0.0
230
1.0
 70
     8
 71
     3
 72
    14
 73
    10
 74
     0
 42
0.000000001
 43
0.00000001
 40
0.0
 40
0.0
 40
0.0
 40
0.0
 40
0.1384397965029836
 40
0.2809979769106418
 40
0.4088914837771704
 40
0.5168155558609404
 40
0.6501745284002275
 40
0.843958198812911
 40
0.9999999999999999
 40
0.9999999999999999
 40
0.9999999999999999
 40
0.9999999999999999
 10
6479.233408761588
 20
5176.654825581822
 30
0.0
 10
6479.254847499944
 20
5176.537319603081
 30
0.0
 10
6479.298362748144
 20
5176.298812012523
 30
0.0
 10
6479.065507177756
 20
5176.037426855441
 30
0.0
 10
6478.635380907044
 20
5175.908325295974
 30
0.0
 10
6478.067242652553
 20
5175.920366512364
 30
0.0
 10
6477.314156410545
 20
5176.109732018006
 30
0.0
 10
6476.484678979663
 20
5176.528715121323
 30
0.0
 10
6475.976679713001
 20
5176.959524659128
 30
0.0
 10
6475.750083518592
 20
5177.15168990067
 30
0.0
  0
ARC
  5
101
330
1F
100
AcDbEntity
  8
0
  6
Continuous
 62
     7
370
    25
100
AcDbCircle
 10
6454.0187552994
 20
5166.7627922366
 30
0.0
 40
27.08562467869774
100
AcDbArc
 50
338.5792883632
 51
21.4207116368
  0
SPLINE
  5
102
330
1F
100
AcDbEntity
  8
0
  6
Continuous
 62
     7
370
    25
100
AcDbSpline
210
0.0
220
0.0
230
1.0
 70
     8
 71
     3
 72
    16
 73
    12
 74
     0
 42
0.000000001
 43
0.00000001
 40
0.0
 40
0.0
 40
0.0
 40
0.0
 40
0.0100495279344742
 40
0.194415550746401
 40
0.389312973425553
 40
0.5079263906906469
 40
0.6314001949680088
 40
0.7423079871427312
 40
0.8528194486002191
 40
0.9771956001795588
 40
0.9999999999999999
 40
0.9999999999999999
 40
0.9999999999999999
 40
0.9999999999999999
 10
6475.750083518592
 20
5156.37389816216
 30
0.0
 10
6475.764144266521
 20
5156.386840476349
 30
0.0
 10
6476.036159834852
 20
5156.637219116761
 30
0.0
 10
6476.630533375288
 20
5157.086868703053
 30
0.0
 10
6477.497151394906
 20
5157.481502044085
 30
0.0
 10
6478.240179575272
 20
5157.624569664185
 30
0.0
 10
6478.753572039117
 20
5157.597102582682
 30
0.0
 10
6479.098748422114
 20
5157.451732852489
 30
0.0
 10
6479.274094860131
 20
5157.22704477032
 30
0.0
 10
6479.278923448413
 20
5157.019185982492
 30
0.0
 10
6479.239514802791
 20
5156.890674295826
 30
0.0
 10
6479.233408761588
 20
5156.870762481008
 30
0.0
  0
ARC
  5
103
330
1F
100
AcDbEntity
  8
0
  6
Continuous
 62
     7
370
    25
100
AcDbCircle
 10
6454.0187552994
 20
5166.7627922366
 30
0.0
 40
24.08692089788859
100
AcDbArc
 50
334.4493725849
 51
25.5506274151
  0
SPLINE
  5
104
330
1F
100
AcDbEntity
  8
0
  6
Continuous
 62
     7
370
    25
100
AcDbSpline
210
0.0
220
0.0
230
1.0
 70
     8
 71
     3
 72
    14
 73
    10
 74
     0
 42
0.000000001
 43
0.00000001
 40
0.0
 40
0.0
 40
0.0
 40
0.0
 40
0.1384396820509007
 40
0.2809977087788842
 40
0.4088922359181059
 40
0.5168161005968192
 40
0.650174777014484
 40
0.8439587355147724
 40
0.9999999999999999
 40
0.9999999999999999
 40
0.9999999999999999
 40
0.9999999999999999
 10
6458.05933228266
 20
5193.545336498532
 30
0.0
 10
6458.171815590241
 20
5193.505151549241
 30
0.0
 10
6458.400128392161
 20
5193.423586216883
 30
0.0
 10
6458.510051468883
 20
5193.091239710822
 30
0.0
 10
6458.406817352633
 20
5192.654171037182
 30
0.0
 10
6458.112302475096
 20
5192.168182492351
 30
0.0
 10
6457.571772936451
 20
5191.61066666144
 30
0.0
 10
6456.794171942425
 20
5191.101831799473
 30
0.0
 10
6456.167088368328
 20
5190.877280288971
 30
0.0
 10
6455.887374650133
 20
5190.777117981229
 30
0.0
  0
ARC
  5
105
330
1F
100
AcDbEntity
  8
0
  6
Continuous
 62
     7
370
    25
100
AcDbCircle
 10
6454.0187552994
 20
5166.7627922366
 30
0.0
 40
27.08562467869763
100
AcDbArc
 50
38.5792883632
 51
81.4207116368
  0
SPLINE
  5
106
330
1F
100
AcDbEntity
  8
0
  6
Continuous
 62
     7
370
    25
100
AcDbSpline
210
0.0
220
0.0
230
1.0
 70
     8
 71
     3
 72
    16
 73
    12
 74
     0
 42
0.000000001
 43
0.00000001
 40
0.0
 40
0.0
 40
0.0
 40
0.0
 40
0.0100499066564923
 40
0.1944176333954341
 40
0.3893129748393408
 40
0.5079257439756365
 40
0.6313995645461459
 40
0.7423078352255899
 40
0.8528191184819115
 40
0.9771948342313355
 40
1.0
 40
1.0
 40
1.0
 40
1.0
 10
6473.881464866367
 20
5180.388222111974
 30
0.0
 10
6473.877285752189
 20
5180.406870730862
 30
0.0
 10
6473.79643987809
 20
5180.767632325395
 30
0.0
 10
6473.704250879447
 20
5181.507206665106
 30
0.0
 10
6473.79578792368
 20
5182.455031892385
 30
0.0
 10
6474.043406453954
 20
5183.170041082672
 30
0.0
 10
6474.323886435922
 20
5183.600916071565
 30
0.0
 10
6474.622367653322
 20
5183.827179368306
 30
0.0
 10
6474.904625424131
 20
5183.866674273113
 30
0.0
 10
6475.087048309937
 20
5183.766959744666
 30
0.0
 10
6475.178640372434
 20
5183.66855276709
 30
0.0
 10
6475.192832244006
 20
5183.653304948125
 30
0.0
  0
ARC
  5
107
330
1F
100
AcDbEntity
  8
0
  6
Continuous
 62
     7
370
    25
100
AcDbCircle
 10
6454.0187552994
 20
5166.7627922366
 30
0.0
 40
24.08692089788947
100
AcDbArc
 50
34.4493725849
 51
85.5506274151
  0
SPLINE
  5
108
330
1F
100
AcDbEntity
  8
0
  6
Continuous
 62
     7
370
    25
100
AcDbSpline
210
0.0
220
0.0
230
1.0
 70
     8
 71
     3
 72
    16
 73
    12
 74
     0
 42
0.000000001
 43
0.00000001
 40
0.0
 40
0.0
 40
0.0
 40
0.0
 40
0.0229765572353695
 40
0.1472987963637801
 40
0.2558705319552184
 40
0.362894944827817
 40
0.4810808485199633
 40
0.5963694534001666
 40
0.7937918612265897
 40
0.9891701884117394
 40
1.0
 40
1.0
 40
1.0
 40
1.0
 10
6457.715906384778
 20
5140.114347113881
 30
0.0
 10
6457.73513466334
 20
5140.119236645835
 30
0.0
 10
6457.858403883326
 20
5140.150582602684
 30
0.0
 10
6458.02973931337
 20
5140.247168268593
 30
0.0
 10
6458.144564328531
 20
5140.468100357104
 30
0.0
 10
6458.12008528488
 20
5140.770784614768
 30
0.0
 10
6457.919516728888
 20
5141.13996230056
 30
0.0
 10
6457.467094897865
 20
5141.594199719166
 30
0.0
 10
6456.747660806015
 20
5142.01638716911
 30
0.0
 10
6456.122541831695
 20
5142.226682459753
 30
0.0
 10
6455.796983422091
 20
5142.307842068931
 30
0.0
 10
6455.779885473107
 20
5142.312104477201
 30
0.0
  0
LWPOLYLINE
  5
109
330
1F
100
AcDbEntity
  8
0
  6
Continuous
 62
     7
370
    25
100
AcDbPolyline
 90
        9
 70
   128
 43
0.0
 10
6455.8873746501
 20
5142.7484700816
 10
6455.8707305187
 20
5142.6808933156
 10
6455.8544104876
 20
5142.6146427529
 10
6455.8387319049
 20
5142.5509998935
 10
6455.8240002444
 20
5142.4911866324
 10
6455.8105020043
 20
5142.4363950627
 10
6455.7984999338
 20
5142.3876682656
 10
6455.7882277951
 20
5142.3459748166
 10
6455.7798854731
 20
5142.3121044772
  0
SPLINE
  5
10A
330
1F
100
AcDbEntity
  8
0
  6
Continuous
 62
     7
370
    25
100
AcDbSpline
210
0.0
220
0.0
230
1.0
 70
     8
 71
     3
 72
    16
 73
    12
 74
     0
 42
0.000000001
 43
0.00000001
 40
0.0
 40
0.0
 40
0.0
 40
0.0
 40
0.0100500383267597
 40
0.1944162624141729
 40
0.38931341271607
 40
0.5079263973245822
 40
0.6314005393544948
 40
0.7423077899694477
 40
0.8528191539390839
 40
0.9771956239262048
 40
0.9999999999999999
 40
0.9999999999999999
 40
0.9999999999999999
 40
0.9999999999999999
 10
6455.887374650133
 20
5142.748470081601
 30
0.0
 10
6455.905614247795
 20
5142.742763772498
 30
0.0
 10
6456.258456126605
 20
5142.632376204613
 30
0.0
 10
6456.945047941609
 20
5142.342450495053
 30
0.0
 10
6457.720113988689
 20
5141.789249687336
 30
0.0
 10
6458.215531422429
 20
5141.217309205152
 30
0.0
 10
6458.448440760471
 20
5140.758962404375
 30
0.0
 10
6458.495134924715
 20
5140.387351042515
 30
0.0
 10
6458.388225371904
 20
5140.123163816639
 30
0.0
 10
6458.210634544799
 20
5140.015017167053
 30
0.0
 10
6458.07963024529
 20
5139.984915545494
 30
0.0
 10
6458.05933228266
 20
5139.980251564298
 30
0.0
  0
ARC
  5
10B
330
1F
100
AcDbEntity
  8
0
  6
Continuous
 62
     7
370
    25
100
AcDbCircle
 10
6458.0183474395
 20
5140.3821010326
 30
0.0
 40
0.4039340943388935
100
AcDbArc
 50
221.5187692689
 51
275.8234909253
  0
SPLINE
  5
10C
330
1F
100
AcDbEntity
  8
0
  6
Continuous
 62
     7
370
    25
100
AcDbSpline
210
0.0
220
0.0
230
1.0
 70
     8
 71
     3
 72
    16
 73
    12
 74
     0
 42
0.000000001
 43
0.00000001
 40
0.0
 40
0.0
 40
0.0
 40
0.0
 40
0.0229768198916416
 40
0.1472990873752493
 40
0.2558704304730628
 40
0.3628948154424038
 40
0.4810812339834827
 40
0.5963694835744815
 40
0.7937904466919014
 40
0.9891694814042121
 40
1.0
 40
1.0
 40
1.0
 40
1.0
 10
6478.945564893452
 20
5156.640390528951
 30
0.0
 10
6478.950942313346
 20
5156.659489110611
 30
0.0
 10
6478.985415710736
 20
5156.781925708104
 30
0.0
 10
6478.987462456434
 20
5156.978595267959
 30
0.0
 10
6478.853533021214
 20
5157.188501232326
 30
0.0
 10
6478.579159749063
 20
5157.31864149407
 30
0.0
 10
6478.159154748831
 20
5157.329533702632
 30
0.0
 10
6477.539559342549
 20
5157.164855279962
 30
0.0
 10
6476.814236697319
 20
5156.752874375725
 30
0.0
 10
6476.319516865633
 20
5156.316692286504
 30
0.0
 10
6476.086472155489
 20
5156.075305879927
 30
0.0
 10
6476.074232203332
 20
5156.062627805982
 30
0.0
  0
LWPOLYLINE
  5
10D
330
1F
100
AcDbEntity
  8
0
  6
Continuous
 62
     7
370
    25
100
AcDbPolyline
 90
        9
 70
   128
 43
0.0
 10
6475.7500835186
 20
5156.3738981622
 10
6475.8002762174
 20
5156.3257078069
 10
6475.8494928902
 20
5156.2784413236
 10
6475.896772412
 20
5156.2330374854
 10
6475.9411983615
 20
5156.1903754609
 10
6475.9819046086
 20
5156.1512897151
 10
6476.0180976665
 20
5156.1165402072
 10
6476.0490753179
 20
5156.0867974894
 10
6476.0742322033
 20
5156.062627806
  0
ARC
  5
10E
330
1F
100
AcDbEntity
  8
0
  6
Continuous
 62
     7
370
    25
100
AcDbCircle
 10
6478.8648716038
 20
5157.0362274882
 30
0.0
 40
0.4039781000124429
100
AcDbArc
 50
281.522146747
 51
335.8209776689
  0
SPLINE
  5
10F
330
1F
100
AcDbEntity
  8
0
  6
Continuous
 62
     7
370
    25
100
AcDbSpline
210
0.0
220
0.0
230
1.0
 70
     8
 71
     3
 72
    16
 73
    12
 74
     0
 42
0.000000001
 43
0.00000001
 40
0.0
 40
0.0
 40
0.0
 40
0.0
 40
0.022977419363112
 40
0.1472989121348254
 40
0.2558707032187356
 40
0.3628952162058917
 40
0.4810812531954018
 40
0.5963716599185817
 40
0.7937915252896095
 40
0.9891689754329741
 40
1.0
 40
1.0
 40
1.0
 40
1.0
 10
6475.248413575259
 20
5183.288837446485
 30
0.0
 10
6475.234562423429
 20
5183.303046480279
 30
0.0
 10
6475.14576830933
 20
5183.394134830425
 30
0.0
 10
6474.976478928776
 20
5183.494222577331
 30
0.0
 10
6474.727723252507
 20
5183.483194407841
 30
0.0
 10
6474.477833399241
 20
5183.310650136406
 30
0.0
 10
6474.258389600563
 20
5182.952366533704
 30
0.0
 10
6474.091219886147
 20
5182.333433114262
 30
0.0
 10
6474.085325308126
 20
5181.49929649422
 30
0.0
 10
6474.215755931049
 20
5180.852781511196
 30
0.0
 10
6474.308245116791
 20
5180.530257799938
 30
0.0
 10
6474.313103077379
 20
5180.513317360196
 30
0.0
  0
LWPOLYLINE
  5
110
330
1F
100
AcDbEntity
  8
0
  6
Continuous
 62
     7
370
    25
100
AcDbPolyline
 90
        9
 70
   128
 43
0.0
 10
6473.8814648664
 20
5180.388222112
 10
6473.9483021623
 20
5180.4075936215
 10
6474.0138374692
 20
5180.426592602
 10
6474.0767967379
 20
5180.4448316233
 10
6474.1359543478
 20
5180.4619828599
 10
6474.1901573217
 20
5180.4776886838
 10
6474.2383532649
 20
5180.4916510718
 10
6474.2796015417
 20
5180.5036018031
 10
6474.3131030774
 20
5180.5133173602
  0
ARC
  5
111
330
1F
100
AcDbEntity
  8
0
  6
Continuous
 62
     7
370
    25
100
AcDbCircle
 10
6474.8652835589
 20
5183.41688191
 30
0.0
 40
0.4039603867567829
100
AcDbArc
 50
341.520047622
 51
35.8215667316
  0
SPLINE
  5
112
330
1F
100
AcDbEntity
  8
0
  6
Continuous
 62
     7
370
    25
100
AcDbSpline
210
0.0
220
0.0
230
1.0
 70
     8
 71
     3
 72
    14
 73
    10
 74
     0
 42
0.000000001
 43
0.00000001
 40
0.0
 40
0.0
 40
0.0
 40
0.0
 40
0.1384401121448621
 40
0.2809981356226285
 40
0.4088921992959842
 40
0.5168171446921974
 40
0.6501760588989443
 40
0.8439609981814418
 40
0.9999999999999999
 40
0.9999999999999999
 40
0.9999999999999999
 40
0.9999999999999999
 10
6475.192832244006
 20
5149.872283114705
 30
0.0
 10
6475.10178807037
 20
5149.794961498791
 30
0.0
 10
6474.916991607448
 20
5149.638018329802
 30
0.0
 10
6474.574207643906
 20
5149.708987084267
 30
0.0
 10
6474.247320239558
 20
5150.016926617917
 30
0.0
 10
6473.973694879207
 20
5150.514983376696
 30
0.0
 10
6473.76113433779
 20
5151.261854749755
 30
0.0
 10
6473.70926656136
 20
5152.189693595327
 30
0.0
 10
6473.828348400723
 20
5152.845035660092
 30
0.0
 10
6473.881464866367
 20
5153.137351049695
 30
0.0
  0
ARC
  5
113
330
1F
100
AcDbEntity
  8
0
  6
Continuous
 62
     7
370
    25
100
AcDbCircle
 10
6454.0187552994
 20
5166.7627922366
 30
0.0
 40
27.08562467869763
100
AcDbArc
 50
278.5792883632
 51
321.4207116368
  0
ARC
  5
114
330
1F
100
AcDbEntity
  8
0
  6
Continuous
 62
     7
370
    25
100
AcDbCircle
 10
6454.0187552994
 20
5166.7627922366
 30
0.0
 40
24.0869208978892
100
AcDbArc
 50
274.4493725849
 51
325.5506274151
  0
SPLINE
  5
115
330
1F
100
AcDbEntity
  8
0
  6
Continuous
 62
     7
370
    25
100
AcDbSpline
210
0.0
220
0.0
230
1.0
 70
     8
 71
     3
 72
    14
 73
    10
 74
     0
 42
0.000000001
 43
0.00000001
 40
0.0
 40
0.0
 40
0.0
 40
0.0
 40
0.1384399163425681
 40
0.2809973648803007
 40
0.4088914231102749
 40
0.5168155886178745
 40
0.6501746765985611
 40
0.84395968179981
 40
0.9999999999999999
 40
0.9999999999999999
 40
0.9999999999999999
 40
0.9999999999999999
 10
6428.804101837245
 20
5156.870762481008
 30
0.0
 10
6428.782662832893
 20
5156.988270457165
 30
0.0
 10
6428.73914717724
 20
5157.226781376015
 30
0.0
 10
6428.972005608312
 20
5157.488136504943
 30
0.0
 10
6429.402128663245
 20
5157.617268099943
 30
0.0
 10
6429.970267751668
 20
5157.605219343382
 30
0.0
 10
6430.723358048072
 20
5157.415859679208
 30
0.0
 10
6431.552823099419
 20
5156.99685429485
 30
0.0
 10
6432.060829680671
 20
5156.566056445261
 30
0.0
 10
6432.287427080241
 20
5156.37389816216
 30
0.0
  0
ARC
  5
116
330
1F
100
AcDbEntity
  8
0
  6
Continuous
 62
     7
370
    25
100
AcDbCircle
 10
6454.0187552994
 20
5166.7627922366
 30
0.0
 40
27.08562467869774
100
AcDbArc
 50
158.5792883632
 51
201.4207116368
  0
ARC
  5
117
330
1F
100
AcDbEntity
  8
0
  6
Continuous
 62
     7
370
    25
100
AcDbCircle
 10
6454.0187552994
 20
5166.7627922366
 30
0.0
 40
24.08692089788898
100
AcDbArc
 50
154.4493725849
 51
205.5506274151
  0
SPLINE
  5
118
330
1F
100
AcDbEntity
  8
0
  6
Continuous
 62
     7
370
    25
100
AcDbSpline
210
0.0
220
0.0
230
1.0
 70
     8
 71
     3
 72
    16
 73
    12
 74
     0
 42
0.000000001
 43
0.00000001
 40
0.0
 40
0.0
 40
0.0
 40
0.0
 40
0.0229762993614906
 40
0.1472978884716654
 40
0.2558697636893732
 40
0.3628943596113196
 40
0.4810804881848407
 40
0.5963683607804948
 40
0.7937913654957818
 40
0.9891689670398619
 40
1.0
 40
1.0
 40
1.0
 40
1.0
 10
6432.789097023574
 20
5150.236735715184
 30
0.0
 10
6432.802948242773
 20
5150.222532052183
 30
0.0
 10
6432.891746499995
 20
5150.131474326322
 30
0.0
 10
6433.061030461582
 20
5150.03135783617
 30
0.0
 10
6433.309787599861
 20
5150.042395611707
 30
0.0
 10
6433.559677300344
 20
5150.214937103515
 30
0.0
 10
6433.779118543695
 20
5150.573219997113
 30
0.0
 10
6433.946294101156
 20
5151.192145700094
 30
0.0
 10
6433.952184986114
 20
5152.02628805282
 30
0.0
 10
6433.821754680067
 20
5152.67280653937
 30
0.0
 10
6433.729265482654
 20
5152.99533026228
 30
0.0
 10
6433.724407521454
 20
5153.012270702634
 30
0.0
  0
LWPOLYLINE
  5
119
330
1F
100
AcDbEntity
  8
0
  6
Continuous
 62
     7
370
    25
100
AcDbPolyline
 90
        9
 70
   128
 43
0.0
 10
6434.1560457325
 20
5153.1373510497
 10
6434.0892084366
 20
5153.1179795401
 10
6434.0236731296
 20
5153.0989954608
 10
6433.960713861
 20
5153.0807415383
 10
6433.901556251
 20
5153.0636052029
 10
6433.8473532772
 20
5153.047899379
 10
6433.7991573339
 20
5153.033936991
 10
6433.7579090571
 20
5153.0219713586
 10
6433.7244075215
 20
5153.0122707026
  0
SPLINE
  5
11A
330
1F
100
AcDbEntity
  8
0
  6
Continuous
 62
     7
370
    25
100
AcDbSpline
210
0.0
220
0.0
230
1.0
 70
     8
 71
     3
 72
    16
 73
    12
 74
     0
 42
0.000000001
 43
0.00000001
 40
0.0
 40
0.0
 40
0.0
 40
0.0
 40
0.0100499196164408
 40
0.194415293191381
 40
0.3893108859643468
 40
0.5079260084952305
 40
0.6313999882925275
 40
0.7423075029163164
 40
0.8528189286834679
 40
0.9771948048227267
 40
1.0
 40
1.0
 40
1.0
 40
1.0
 10
6434.156045732466
 20
5153.137351049695
 30
0.0
 10
6434.160224845629
 20
5153.118702431088
 30
0.0
 10
6434.241069622713
 20
5152.75794564969
 30
0.0
 10
6434.333261177665
 20
5152.018375840234
 30
0.0
 10
6434.241719586859
 20
5151.07055428434
 30
0.0
 10
6433.994106813691
 20
5150.355534959819
 30
0.0
 10
6433.713625545695
 20
5149.924652924318
 30
0.0
 10
6433.415141457466
 20
5149.698413074579
 30
0.0
 10
6433.132885413992
 20
5149.658912367385
 30
0.0
 10
6432.95046227998
 20
5149.758628371166
 30
0.0
 10
6432.858870225203
 20
5149.857035302851
 30
0.0
 10
6432.844678354827
 20
5149.872283114705
 30
0.0
  0
ARC
  5
11B
330
1F
100
AcDbEntity
  8
0
  6
Continuous
 62
     7
370
    25
100
AcDbCircle
 10
6433.1722067772
 20
5150.1086978277
 30
0.0
 40
0.403939084500411
100
AcDbArc
 50
161.5200212645
 51
215.8222913487
  0
SPLINE
  5
11C
330
1F
100
AcDbEntity
  8
0
  6
Continuous
 62
     7
370
    25
100
AcDbSpline
210
0.0
220
0.0
230
1.0
 70
     8
 71
     3
 72
    14
 73
    10
 74
     0
 42
0.000000001
 43
0.00000001
 40
0.0
 40
0.0
 40
0.0
 40
0.0
 40
0.1384396523117343
 40
0.2809976484158618
 40
0.4088905946256566
 40
0.5168162043928277
 40
0.6501748521628115
 40
0.8439587690350542
 40
1.0
 40
1.0
 40
1.0
 40
1.0
 10
6449.978178316173
 20
5139.980251564298
 30
0.0
 10
6449.865695133951
 20
5140.020436101205
 30
0.0
 10
6449.637382586478
 20
5140.102000596527
 30
0.0
 10
6449.527458043051
 20
5140.43435203866
 30
0.0
 10
6449.63069721304
 20
5140.87139991169
 30
0.0
 10
6449.925204326989
 20
5141.35740781547
 30
0.0
 10
6450.465738367679
 20
5141.914919412715
 30
0.0
 10
6451.243338498584
 20
5142.423756708361
 30
0.0
 10
6451.870422181822
 20
5142.648307911126
 30
0.0
 10
6452.1501359487
 20
5142.748470081601
 30
0.0
  0
ARC
  5
11D
330
1F
100
AcDbEntity
  8
0
  6
Continuous
 62
     7
370
    25
100
AcDbCircle
 10
6454.0187552994
 20
5166.7627922366
 30
0.0
 40
27.08562467869773
100
AcDbArc
 50
218.5792883632
 51
261.4207116368
  0
ARC
  5
11E
330
1F
100
AcDbEntity
  8
0
  6
Continuous
 62
     7
370
    25
100
AcDbCircle
 10
6454.0187552994
 20
5166.7627922366
 30
0.0
 40
24.08692089788856
100
AcDbArc
 50
214.4493725849
 51
265.5506274151
  0
SPLINE
  5
11F
330
1F
100
AcDbEntity
  8
0
  6
Continuous
 62
     7
370
    25
100
AcDbSpline
210
0.0
220
0.0
230
1.0
 70
     8
 71
     3
 72
    14
 73
    10
 74
     0
 42
0.000000001
 43
0.00000001
 40
0.0
 40
0.0
 40
0.0
 40
0.0
 40
0.1661266221195674
 40
0.3644962846589335
 40
0.4951027744788246
 40
0.5985761055376079
 40
0.7214946714640567
 40
0.8613634781734747
 40
1.0
 40
1.0
 40
1.0
 40
1.0
 10
6431.963278395501
 20
5156.062627805982
 30
0.0
 10
6431.768956078244
 20
5156.250711701935
 30
0.0
 10
6431.342595981573
 20
5156.663384158669
 30
0.0
 10
6430.65105494653
 20
5157.094791509452
 30
0.0
 10
6430.020957517974
 20
5157.305149748452
 30
0.0
 10
6429.554225202161
 20
5157.33477969061
 30
0.0
 10
6429.208140776695
 20
5157.222037924999
 30
0.0
 10
6429.031021348542
 20
5156.977596234659
 30
0.0
 10
6429.071697578948
 20
5156.75246038274
 30
0.0
 10
6429.091945705381
 20
5156.640390528951
 30
0.0
  0
ARC
  5
120
330
1F
100
AcDbEntity
  8
0
  6
Continuous
 62
     7
370
    25
100
AcDbCircle
 10
6429.1726389951
 20
5157.0362274882
 30
0.0
 40
0.4039781000131408
100
AcDbArc
 50
204.179022331
 51
258.4778532528
  0
LWPOLYLINE
  5
121
330
1F
100
AcDbEntity
  8
0
  6
Continuous
 62
     7
370
    25
100
AcDbPolyline
 90
        9
 70
   128
 43
0.0
 10
6432.2874270802
 20
5156.3738981622
 10
6432.2372343814
 20
5156.3257078069
 10
6432.1880177086
 20
5156.2784413236
 10
6432.1407381868
 20
5156.2330374854
 10
6432.0963122373
 20
5156.1903754609
 10
6432.0556059903
 20
5156.1512897151
 10
6432.0194129324
 20
5156.1165402072
 10
6431.9884352809
 20
5156.0867974894
 10
6431.9632783955
 20
5156.062627806
  0
SPLINE
  5
122
330
1F
100
AcDbEntity
  8
0
  6
Continuous
 62
     7
370
    25
100
AcDbSpline
210
0.0
220
0.0
230
1.0
 70
     8
 71
     3
 72
    14
 73
    10
 74
     0
 42
0.000000001
 43
0.00000001
 40
0.0
 40
0.0
 40
0.0
 40
0.0
 40
0.1661250352915464
 40
0.3644952520714768
 40
0.495102974767746
 40
0.5985764393456793
 40
0.7214953487039537
 40
0.8613645462038049
 40
1.0
 40
1.0
 40
1.0
 40
1.0
 10
6476.074232203332
 20
5177.462945355687
 30
0.0
 10
6476.26855507158
 20
5177.274866381755
 30
0.0
 10
6476.694919241922
 20
5176.862201951661
 30
0.0
 10
6477.386458750801
 20
5176.430806725759
 30
0.0
 10
6478.016550514752
 20
5176.220413268991
 30
0.0
 10
6478.483286101668
 20
5176.190815857861
 30
0.0
 10
6478.829369575
 20
5176.303547018236
 30
0.0
 10
6479.006488943925
 20
5176.547994620815
 30
0.0
 10
6478.965812846792
 20
5176.773119053901
 30
0.0
 10
6478.945564893452
 20
5176.885182632718
 30
0.0
  0
ARC
  5
123
330
1F
100
AcDbEntity
  8
0
  6
Continuous
 62
     7
370
    25
100
AcDbCircle
 10
6478.8649122005
 20
5176.4893856975
 30
0.0
 40
0.4039307748078105
100
AcDbArc
 50
24.1781300111
 51
78.4823616717
  0
LWPOLYLINE
  5
124
330
1F
100
AcDbEntity
  8
0
  6
Continuous
 62
     7
370
    25
100
AcDbPolyline
 90
        9
 70
   128
 43
0.0
 10
6475.7500835186
 20
5177.1516899007
 10
6475.8002762174
 20
5177.199880256
 10
6475.8494928902
 20
5177.2471467393
 10
6475.896772412
 20
5177.2925505774
 10
6475.9411983615
 20
5177.3351977008
 10
6475.9819046086
 20
5177.3742983477
 10
6476.0180976665
 20
5177.4090478556
 10
6476.0490753179
 20
5177.4387905734
 10
6476.0742322033
 20
5177.4629453557
  0
SPLINE
  5
125
330
1F
100
AcDbEntity
  8
0
  6
Continuous
 62
     7
370
    25
100
AcDbSpline
210
0.0
220
0.0
230
1.0
 70
     8
 71
     3
 72
    14
 73
    10
 74
     0
 42
0.000000001
 43
0.00000001
 40
0.0
 40
0.0
 40
0.0
 40
0.0
 40
0.1661254672239378
 40
0.3644949124964855
 40
0.4951029959845886
 40
0.5985757606538122
 40
0.7214949492128397
 40
0.8613642111262875
 40
1.0
 40
1.0
 40
1.0
 40
1.0
 10
6433.724407521454
 20
5180.513317360196
 30
0.0
 10
6433.790130207892
 20
5180.775645543069
 30
0.0
 10
6433.934331968419
 20
5181.351218269272
 30
0.0
 10
6433.962161020999
 20
5182.165808611465
 30
0.0
 10
6433.829308418263
 20
5182.816676868781
 30
0.0
 10
6433.62159075283
 20
5183.235685406983
 30
0.0
 10
6433.35090921951
 20
5183.47903374597
 30
0.0
 10
6433.050652987805
 20
5183.510194293664
 30
0.0
 10
6432.876024540585
 20
5183.362404880342
 30
0.0
 10
6432.789097023574
 20
5183.288837446485
 30
0.0
  0
ARC
  5
126
330
1F
100
AcDbEntity
  8
0
  6
Continuous
 62
     7
370
    25
100
AcDbCircle
 10
6433.1722270399
 20
5183.41688191
 30
0.0
 40
0.4039603867575203
100
AcDbArc
 50
144.1784332685
 51
198.4799523779
  0
LWPOLYLINE
  5
127
330
1F
100
AcDbEntity
  8
0
  6
Continuous
 62
     7
370
    25
100
AcDbPolyline
 90
        9
 70
   128
 43
0.0
 10
6434.1560457325
 20
5180.388222112
 10
6434.0892084366
 20
5180.4075936215
 10
6434.0236731296
 20
5180.426592602
 10
6433.960713861
 20
5180.4448316233
 10
6433.901556251
 20
5180.4619828599
 10
6433.8473532772
 20
5180.4776886838
 10
6433.7991573339
 20
5180.4916510718
 10
6433.7579090571
 20
5180.5036018031
 10
6433.7244075215
 20
5180.5133173602
  0
SPLINE
  5
128
330
1F
100
AcDbEntity
  8
0
  6
Continuous
 62
     7
370
    25
100
AcDbSpline
210
0.0
220
0.0
230
1.0
 70
     8
 71
     3
 72
    14
 73
    10
 74
     0
 42
0.000000001
 43
0.00000001
 40
0.0
 40
0.0
 40
0.0
 40
0.0
 40
0.1661259593069395
 40
0.364495092339025
 40
0.495102052183432
 40
0.59857617020202
 40
0.7214946225951888
 40
0.861364552154204
 40
1.0
 40
1.0
 40
1.0
 40
1.0
 10
6455.779885473107
 20
5191.213468684468
 30
0.0
 10
6456.039929741076
 20
5191.287718211614
 30
0.0
 10
6456.610489934442
 20
5191.450628261106
 30
0.0
 10
6457.32986447642
 20
5191.833816465358
 30
0.0
 10
6457.827103942355
 20
5192.2743020092
 30
0.0
 10
6458.086120387672
 20
5192.663703353537
 30
0.0
 10
6458.161523675456
 20
5193.019785077299
 30
0.0
 10
6458.038386837304
 20
5193.295413790551
 30
0.0
 10
6457.823081753985
 20
5193.372746155333
 30
0.0
 10
6457.715906384778
 20
5193.411240948949
 30
0.0
  0
ARC
  5
129
330
1F
100
AcDbEntity
  8
0
  6
Continuous
 62
     7
370
    25
100
AcDbCircle
 10
6458.0183474395
 20
5193.1434870302
 30
0.0
 40
0.4039340943388935
100
AcDbArc
 50
84.1765090747
 51
138.4812307311
  0
LWPOLYLINE
  5
12A
330
1F
100
AcDbEntity
  8
0
  6
Continuous
 62
     7
370
    25
100
AcDbPolyline
 90
        9
 70
   128
 43
0.0
 10
6455.8873746501
 20
5190.7771179812
 10
6455.8707305187
 20
5190.8446947472
 10
6455.8544104876
 20
5190.9109453099
 10
6455.8387319049
 20
5190.9745881694
 10
6455.8240002444
 20
5191.0343865292
 10
6455.8105020043
 20
5191.0891930001
 10
6455.7984999338
 20
5191.1379048961
 10
6455.7882277951
 20
5191.1796132462
 10
6455.7798854731
 20
5191.2134686845
  0
SPLINE
  5
12B
330
1F
100
AcDbEntity
  8
0
  6
Continuous
 62
     7
370
    25
100
AcDbSpline
210
0.0
220
0.0
230
1.0
 70
     8
 71
     3
 72
    14
 73
    10
 74
     0
 42
0.000000001
 43
0.00000001
 40
0.0
 40
0.0
 40
0.0
 40
0.0
 40
0.1661251874905056
 40
0.3644959460038389
 40
0.4951030320001552
 40
0.5985752562163545
 40
0.721495609136092
 40
0.8613644182476614
 40
0.9999999999999999
 40
0.9999999999999999
 40
0.9999999999999999
 40
0.9999999999999999
 10
6452.257625125726
 20
5142.312104477201
 30
0.0
 10
6451.997580034216
 20
5142.237861829858
 30
0.0
 10
6451.427014046813
 20
5142.074965736943
 30
0.0
 10
6450.707648828935
 20
5141.69175684363
 30
0.0
 10
6450.21041023645
 20
5141.25126873126
 30
0.0
 10
6449.951386466376
 20
5140.861888021089
 30
0.0
 10
6449.875987596852
 20
5140.50578135384
 30
0.0
 10
6449.999124547609
 20
5140.230179371298
 30
0.0
 10
6450.214428783514
 20
5140.152843718011
 30
0.0
 10
6450.321604214055
 20
5140.114347113881
 30
0.0
  0
ARC
  5
12C
330
1F
100
AcDbEntity
  8
0
  6
Continuous
 62
     7
370
    25
100
AcDbCircle
 10
6450.0191631594
 20
5140.3821010326
 30
0.0
 40
0.4039340943395745
100
AcDbArc
 50
264.1765090748
 51
318.4812307312
  0
LWPOLYLINE
  5
12D
330
1F
100
AcDbEntity
  8
0
  6
Continuous
 62
     7
370
    25
100
AcDbPolyline
 90
        9
 70
   128
 43
0.0
 10
6452.1501359487
 20
5142.7484700816
 10
6452.1667800801
 20
5142.6808933156
 10
6452.1831001112
 20
5142.6146427529
 10
6452.1987786939
 20
5142.5509998935
 10
6452.2135103544
 20
5142.4911866324
 10
6452.2270085946
 20
5142.4363950627
 10
6452.239010665
 20
5142.3876682656
 10
6452.2492828038
 20
5142.3459748166
 10
6452.2576251257
 20
5142.3121044772
  0
SPLINE
  5
12E
330
1F
100
AcDbEntity
  8
0
  6
Continuous
 62
     7
370
    25
100
AcDbSpline
210
0.0
220
0.0
230
1.0
 70
     8
 71
     3
 72
    14
 73
    10
 74
     0
 42
0.000000001
 43
0.00000001
 40
0.0
 40
0.0
 40
0.0
 40
0.0
 40
0.1661252926480673
 40
0.3644945294605928
 40
0.4951024756968931
 40
0.5985772809909499
 40
0.7214950918538663
 40
0.8613643568141458
 40
1.0
 40
1.0
 40
1.0
 40
1.0
 10
6474.313103077379
 20
5153.012270702634
 30
0.0
 10
6474.247380464408
 20
5152.749942701276
 30
0.0
 10
6474.103178865073
 20
5152.174370373335
 30
0.0
 10
6474.075348590244
 20
5151.359777011298
 30
0.0
 10
6474.208204961007
 20
5150.708913197379
 30
0.0
 10
6474.415915274792
 20
5150.28988300491
 30
0.0
 10
6474.686604110254
 20
5150.046564811261
 30
0.0
 10
6474.986856988064
 20
5150.015372161601
 30
0.0
 10
6475.161485882472
 20
5150.163166078928
 30
0.0
 10
6475.248413575259
 20
5150.236735715184
 30
0.0
  0
ARC
  5
12F
330
1F
100
AcDbEntity
  8
0
  6
Continuous
 62
     7
370
    25
100
AcDbCircle
 10
6474.8653038216
 20
5150.1086978277
 30
0.0
 40
0.403939084500411
100
AcDbArc
 50
324.1777086513
 51
18.4799787355
  0
LWPOLYLINE
  5
130
330
1F
100
AcDbEntity
  8
0
  6
Continuous
 62
     7
370
    25
100
AcDbPolyline
 90
        9
 70
   128
 43
0.0
 10
6473.8814648664
 20
5153.1373510497
 10
6473.9483021623
 20
5153.1179795401
 10
6474.0138374692
 20
5153.0989954608
 10
6474.0767967379
 20
5153.0807415383
 10
6474.1359543478
 20
5153.0636052029
 10
6474.1901573217
 20
5153.047899379
 10
6474.2383532649
 20
5153.033936991
 10
6474.2796015417
 20
5153.0219713586
 10
6474.3131030774
 20
5153.0122707026
  0
CIRCLE
  5
131
330
1F
100
AcDbEntity
  8
0
  6
Continuous
 62
     7
370
    25
100
AcDbCircle
 10
6454.0187552994
 20
5166.7627922366
 30
0.0
 40
20.5
  0
CIRCLE
  5
132
330
1F
100
AcDbEntity
  8
0
  6
Continuous
 62
     7
370
    25
100
AcDbCircle
 10
6454.0187552994
 20
5166.7627922366
 30
0.0
 40
21.5
  0
ARC
  5
133
330
1F
100
AcDbEntity
  8
0
  6
Continuous
 62
     7
370
    25
100
AcDbCircle
 10
6454.0187552994
 20
5135.1627922366
 30
0.0
 40
7.812434675955133
100
AcDbArc
 50
76.1615403314
 51
103.8384596686
  0
ARC
  5
134
330
1F
100
AcDbEntity
  8
0
  6
Continuous
 62
     7
370
    25
100
AcDbCircle
 10
6454.0187552994
 20
5135.1627922366
 30
0.0
 40
7.363037652806231
100
AcDbArc
 50
76.1615403314
 51
103.8384596686
  0
ARC
  5
135
330
1F
100
AcDbEntity
  8
0
  6
Continuous
 62
     7
370
    25
100
AcDbCircle
 10
6481.385158059
 20
5182.5627922366
 30
0.0
 40
7.812434675954765
100
AcDbArc
 50
196.1615403314
 51
223.8384596686
  0
ARC
  5
136
330
1F
100
AcDbEntity
  8
0
  6
Continuous
 62
     7
370
    25
100
AcDbCircle
 10
6481.385158059
 20
5182.5627922366
 30
0.0
 40
7.363037652805224
100
AcDbArc
 50
196.1615403314
 51
223.8384596686
  0
ARC
  5
137
330
1F
100
AcDbEntity
  8
0
  6
Continuous
 62
     7
370
    25
100
AcDbCircle
 10
6454.0187552994
 20
5198.3627922366
 30
0.0
 40
7.812434675955133
100
AcDbArc
 50
256.1615403314
 51
283.8384596686
  0
ARC
  5
138
330
1F
100
AcDbEntity
  8
0
  6
Continuous
 62
     7
370
    25
100
AcDbCircle
 10
6481.385158059
 20
5150.9627922366
 30
0.0
 40
7.812434675954109
100
AcDbArc
 50
136.1615403314
 51
163.8384596686
  0
ARC
  5
139
330
1F
100
AcDbEntity
  8
0
  6
Continuous
 62
     7
370
    25
100
AcDbCircle
 10
6426.6523525398
 20
5150.9627922366
 30
0.0
 40
7.812434675955024
100
AcDbArc
 50
16.1615403314
 51
43.8384596686
  0
ARC
  5
13A
330
1F
100
AcDbEntity
  8
0
  6
Continuous
 62
     7
370
    25
100
AcDbCircle
 10
6426.6523525398
 20
5182.5627922366
 30
0.0
 40
7.812434675955024
100
AcDbArc
 50
316.1615403314
 51
343.8384596686
  0
ARC
  5
13B
330
1F
100
AcDbEntity
  8
0
  6
Continuous
 62
     7
370
    25
100
AcDbCircle
 10
6426.6523525398
 20
5150.9627922366
 30
0.0
 40
7.363037652805224
100
AcDbArc
 50
16.1615403314
 51
43.8384596686
  0
ARC
  5
13C
330
1F
100
AcDbEntity
  8
0
  6
Continuous
 62
     7
370
    25
100
AcDbCircle
 10
6426.6523525398
 20
5182.5627922366
 30
0.0
 40
7.363037652805224
100
AcDbArc
 50
316.1615403314
 51
343.8384596686
  0
ARC
  5
13D
330
1F
100
AcDbEntity
  8
0
  6
Continuous
 62
     7
370
    25
100
AcDbCircle
 10
6481.385158059
 20
5150.9627922366
 30
0.0
 40
7.363037652804351
100
AcDbArc
 50
136.1615403314
 51
163.8384596686
  0
ARC
  5
13E
330
1F
100
AcDbEntity
  8
0
  6
Continuous
 62
     7
370
    25
100
AcDbCircle
 10
6454.0187552994
 20
5198.3627922366
 30
0.0
 40
7.363037652805348
100
AcDbArc
 50
256.1615403314
 51
283.8384596686
  0
SPLINE
  5
13F
330
1F
100
AcDbEntity
  8
0
  6
Continuous
 62
     7
370
    25
100
AcDbSpline
210
0.0
220
0.0
230
1.0
 70
     8
 71
     3
 72
    15
 73
    11
 74
     0
 42
0.000000001
 43
0.00000001
 40
0.0
 40
0.0
 40
0.0
 40
0.0
 40
0.1413158138552075
 40
0.3627362797542336
 40
0.4449071135017927
 40
0.5029881300855876
 40
0.5610154216404316
 40
0.6443933093332168
 40
0.7607370167125798
 40
0.9999999999999999
 40
0.9999999999999999
 40
0.9999999999999999
 40
0.9999999999999999
 10
6478.945564893452
 20
5176.885182632718
 30
0.0
 10
6478.863236984235
 20
5177.146987177263
 30
0.0
 10
6478.651913716907
 20
5177.818999770336
 30
0.0
 10
6478.310282388463
 20
5178.75159569606
 30
0.0
 10
6477.847034373437
 20
5179.744386529833
 30
0.0
 10
6477.509284006176
 20
5180.365279497993
 30
0.0
 10
6477.138637561814
 20
5180.962978907104
 30
0.0
 10
6476.694966777998
 20
5181.591531760304
 30
0.0
 10
6476.031600200516
 20
5182.432443811531
 30
0.0
 10
6475.563419662532
 20
5182.94438671225
 30
0.0
 10
6475.248413575259
 20
5183.288837446485
 30
0.0
  0
SPLINE
  5
140
330
1F
100
AcDbEntity
  8
0
  6
Continuous
 62
     7
370
    25
100
AcDbSpline
210
0.0
220
0.0
230
1.0
 70
     8
 71
     3
 72
    15
 73
    11
 74
     0
 42
0.000000001
 43
0.00000001
 40
0.0
 40
0.0
 40
0.0
 40
0.0
 40
0.1413156631935639
 40
0.3627357213638739
 40
0.4449062399431224
 40
0.5029876423185862
 40
0.5610152168352971
 40
0.6443928087137619
 40
0.7607364967368704
 40
1.0
 40
1.0
 40
1.0
 40
1.0
 10
6432.789097023574
 20
5183.288837446485
 30
0.0
 10
6432.603533004924
 20
5183.086637003289
 30
0.0
 10
6432.127218514065
 20
5182.567619351845
 30
0.0
 10
6431.490377567141
 20
5181.805469934234
 30
0.0
 10
6430.862220142431
 20
5180.90789252475
 30
0.0
 10
6430.493387825501
 20
5180.304942634826
 30
0.0
 10
6430.161089455263
 20
5179.685101001129
 30
0.0
 10
6429.838580309834
 20
5178.986596993341
 30
0.0
 10
6429.4420210695
 20
5177.991644871013
 30
0.0
 10
6429.232749847849
 20
5177.330213853433
 30
0.0
 10
6429.091945705381
 20
5176.885182632718
 30
0.0
  0
SPLINE
  5
141
330
1F
100
AcDbEntity
  8
0
  6
Continuous
 62
     7
370
    25
100
AcDbSpline
210
0.0
220
0.0
230
1.0
 70
     8
 71
     3
 72
    15
 73
    11
 74
     0
 42
0.000000001
 43
0.00000001
 40
0.0
 40
0.0
 40
0.0
 40
0.0
 40
0.1413157299804513
 40
0.3627362424967471
 40
0.444906898761625
 40
0.5029881181514327
 40
0.5610152742399515
 40
0.6443932818409565
 40
0.7607366873663611
 40
1.0
 40
1.0
 40
1.0
 40
1.0
 10
6457.715906384778
 20
5193.411240948949
 30
0.0
 10
6457.448014039098
 20
5193.470846285441
 30
0.0
 10
6456.760374645529
 20
5193.623844226963
 30
0.0
 10
6455.781904768296
 20
5193.794263946295
 30
0.0
 10
6454.690500948478
 20
5193.889491430837
 30
0.0
 10
6453.983916680753
 20
5193.907421587955
 30
0.0
 10
6453.280969747329
 20
5193.885308978254
 30
0.0
 10
6452.514793062991
 20
5193.815326072255
 30
0.0
 10
6451.454863955053
 20
5193.661300165463
 30
0.0
 10
6450.777413829046
 20
5193.511817534422
 30
0.0
 10
6450.321604214055
 20
5193.411240948949
 30
0.0
  0
SPLINE
  5
142
330
1F
100
AcDbEntity
  8
0
  6
Continuous
 62
     7
370
    25
100
AcDbSpline
210
0.0
220
0.0
230
1.0
 70
     8
 71
     3
 72
    15
 73
    11
 74
     0
 42
0.000000001
 43
0.00000001
 40
0.0
 40
0.0
 40
0.0
 40
0.0
 40
0.1413157111987143
 40
0.3627361942868506
 40
0.4449068396307386
 40
0.5029880834478699
 40
0.5610152713593973
 40
0.6443931680035221
 40
0.7607365580661667
 40
0.9999999999999999
 40
0.9999999999999999
 40
0.9999999999999999
 40
0.9999999999999999
 10
6450.321604214055
 20
5140.114347113881
 30
0.0
 10
6450.589496565328
 20
5140.054742291238
 30
0.0
 10
6451.277135973251
 20
5139.901745668686
 30
0.0
 10
6452.255605732509
 20
5139.731315109488
 30
0.0
 10
6453.347009855669
 20
5139.636106575009
 30
0.0
 10
6454.053594014091
 20
5139.61814062569
 30
0.0
 10
6454.756540007335
 20
5139.640292440751
 30
0.0
 10
6455.522718343579
 20
5139.71023511113
 30
0.0
 10
6456.582646765059
 20
5139.864279140119
 30
0.0
 10
6457.260096758543
 20
5140.013766992901
 30
0.0
 10
6457.715906384778
 20
5140.114347113881
 30
0.0
  0
SPLINE
  5
143
330
1F
100
AcDbEntity
  8
0
  6
Continuous
 62
     7
370
    25
100
AcDbSpline
210
0.0
220
0.0
230
1.0
 70
     8
 71
     3
 72
    15
 73
    11
 74
     0
 42
0.000000001
 43
0.00000001
 40
0.0
 40
0.0
 40
0.0
 40
0.0
 40
0.1413156693038131
 40
0.3627364703502708
 40
0.4449069924824329
 40
0.5029883973692378
 40
0.5610159743949625
 40
0.6443935698785327
 40
0.7607372629321447
 40
1.0
 40
1.0
 40
1.0
 40
1.0
 10
6475.248413575259
 20
5150.236735715184
 30
0.0
 10
6475.433977810735
 20
5150.438935470469
 30
0.0
 10
6475.910293821065
 20
5150.957952405386
 30
0.0
 10
6476.547131349984
 20
5151.720117844845
 30
0.0
 10
6477.175290498843
 20
5152.617695379489
 30
0.0
 10
6477.544122764376
 20
5153.220645458397
 30
0.0
 10
6477.876421144487
 20
5153.840487073197
 30
0.0
 10
6478.198930306326
 20
5154.538990906143
 30
0.0
 10
6478.59548868108
 20
5155.533942748716
 30
0.0
 10
6478.804760499183
 20
5156.19536540591
 30
0.0
 10
6478.945564893452
 20
5156.640390528951
 30
0.0
  0
SPLINE
  5
144
330
1F
100
AcDbEntity
  8
0
  6
Continuous
 62
     7
370
    25
100
AcDbSpline
210
0.0
220
0.0
230
1.0
 70
     8
 71
     3
 72
    15
 73
    11
 74
     0
 42
0.000000001
 43
0.00000001
 40
0.0
 40
0.0
 40
0.0
 40
0.0
 40
0.1413158208978422
 40
0.3627362978316095
 40
0.4449060364633577
 40
0.5029882720103089
 40
0.5610155664570091
 40
0.6443934583050264
 40
0.7607363893441477
 40
1.0
 40
1.0
 40
1.0
 40
1.0
 10
6429.091945705381
 20
5156.640390528951
 30
0.0
 10
6429.174274077404
 20
5156.378586424725
 30
0.0
 10
6429.385598532686
 20
5155.706574961886
 30
0.0
 10
6429.727219253996
 20
5154.773972051566
 30
0.0
 10
6430.190483822184
 20
5153.781197992267
 30
0.0
 10
6430.528222118325
 20
5153.160295634193
 30
0.0
 10
6430.898874029996
 20
5152.562595288723
 30
0.0
 10
6431.342541276478
 20
5151.934040370637
 30
0.0
 10
6432.005915806917
 20
5151.09315162092
 30
0.0
 10
6432.474092539058
 20
5150.581196033154
 30
0.0
 10
6432.789097023574
 20
5150.236735715184
 30
0.0
  0
SPLINE
  5
145
330
1F
100
AcDbEntity
  8
0
  6
Continuous
 62
     7
370
    25
100
AcDbSpline
210
0.0
220
0.0
230
1.0
 70
     8
 71
     3
 72
    15
 73
    11
 74
     0
 42
0.000000001
 43
0.00000001
 40
0.0
 40
0.0
 40
0.0
 40
0.0
 40
0.2331869153271234
 40
0.3491943477633249
 40
0.4351114358991984
 40
0.496801887051918
 40
0.5586679408914335
 40
0.6436056219866505
 40
0.8627718112201952
 40
1.0
 40
1.0
 40
1.0
 40
1.0
 10
6479.233408761588
 20
5156.870762481008
 30
0.0
 10
6479.066021269809
 20
5156.404461574672
 30
0.0
 10
6478.815360695936
 20
5155.706182082359
 30
0.0
 10
6478.34145648139
 20
5154.641307902875
 30
0.0
 10
6477.961870784677
 20
5153.878455835488
 30
0.0
 10
6477.588132127374
 20
5153.199259160028
 30
0.0
 10
6477.187935837386
 20
5152.531832582702
 30
0.0
 10
6476.528809649949
 20
5151.530821881524
 30
0.0
 10
6475.868351491543
 20
5150.664267416632
 30
0.0
 10
6475.380628120981
 20
5150.092456539923
 30
0.0
 10
6475.192832244006
 20
5149.872283114705
 30
0.0
  0
SPLINE
  5
146
330
1F
100
AcDbEntity
  8
0
  6
Continuous
 62
     7
370
    25
100
AcDbSpline
210
0.0
220
0.0
230
1.0
 70
     8
 71
     3
 72
    15
 73
    11
 74
     0
 42
0.000000001
 43
0.00000001
 40
0.0
 40
0.0
 40
0.0
 40
0.0
 40
0.2331865188001088
 40
0.3491945054357743
 40
0.4351115810288915
 40
0.4968021931674215
 40
0.5586679978381334
 40
0.643605355567219
 40
0.8627714655487331
 40
0.9999999999999999
 40
0.9999999999999999
 40
0.9999999999999999
 40
0.9999999999999999
 10
6458.05933228266
 20
5139.980251564298
 30
0.0
 10
6457.571813308999
 20
5139.892066686224
 30
0.0
 10
6456.841758468031
 20
5139.760010703553
 30
0.0
 10
6455.682590380443
 20
5139.637973123387
 30
0.0
 10
6454.832147387248
 20
5139.585271456327
 30
0.0
 10
6454.057076181694
 20
5139.569340095021
 30
0.0
 10
6453.278971245193
 20
5139.582220455178
 30
0.0
 10
6452.082511022903
 20
5139.652534078626
 30
0.0
 10
6451.001825283081
 20
5139.791228522212
 30
0.0
 10
6450.262754849597
 20
5139.927702664342
 30
0.0
 10
6449.978178316173
 20
5139.980251564298
 30
0.0
  0
SPLINE
  5
147
330
1F
100
AcDbEntity
  8
0
  6
Continuous
 62
     7
370
    25
100
AcDbSpline
210
0.0
220
0.0
230
1.0
 70
     8
 71
     3
 72
    15
 73
    11
 74
     0
 42
0.000000001
 43
0.00000001
 40
0.0
 40
0.0
 40
0.0
 40
0.0
 40
0.2331865286651378
 40
0.3491945202085576
 40
0.4351115316437601
 40
0.4968021718794802
 40
0.5586679791674444
 40
0.6436053404898316
 40
0.8627714597432369
 40
1.0
 40
1.0
 40
1.0
 40
1.0
 10
6449.978178316173
 20
5193.545336498532
 30
0.0
 10
6450.465697392666
 20
5193.63351868292
 30
0.0
 10
6451.19575238762
 20
5193.765570631823
 30
0.0
 10
6452.354919624485
 20
5193.887625747003
 30
0.0
 10
6453.205363843519
 20
5193.940290423299
 30
0.0
 10
6453.980434192395
 20
5193.956253932438
 30
0.0
 10
6454.758539401979
 20
5193.94336538392
 30
0.0
 10
6455.95499953454
 20
5193.873055888312
 30
0.0
 10
6457.035685323913
 20
5193.734359165191
 30
0.0
 10
6457.774755751506
 20
5193.597885294119
 30
0.0
 10
6458.05933228266
 20
5193.545336498532
 30
0.0
  0
SPLINE
  5
148
330
1F
100
AcDbEntity
  8
0
  6
Continuous
 62
     7
370
    25
100
AcDbSpline
210
0.0
220
0.0
230
1.0
 70
     8
 71
     3
 72
    15
 73
    11
 74
     0
 42
0.000000001
 43
0.00000001
 40
0.0
 40
0.0
 40
0.0
 40
0.0
 40
0.2331861903612895
 40
0.3491942622385832
 40
0.4351110116462419
 40
0.4968015837662095
 40
0.558668214400169
 40
0.6436048546967088
 40
0.8627717447425642
 40
1.0
 40
1.0
 40
1.0
 40
1.0
 10
6432.844678354827
 20
5149.872283114705
 30
0.0
 10
6432.524547998197
 20
5150.250390304517
 30
0.0
 10
6432.045155614238
 20
5150.816602484531
 30
0.0
 10
6431.359890142869
 20
5151.759457892809
 30
0.0
 10
6430.889031679428
 20
5152.469611296705
 30
0.0
 10
6430.487697008743
 20
5153.132877492621
 30
0.0
 10
6430.109795552652
 20
5153.813175752475
 30
0.0
 10
6429.572451656208
 20
5154.884490607373
 30
0.0
 10
6429.152232889786
 20
5155.889756627626
 30
0.0
 10
6428.900882939776
 20
5156.598040965973
 30
0.0
 10
6428.804101837245
 20
5156.870762481008
 30
0.0
  0
SPLINE
  5
149
330
1F
100
AcDbEntity
  8
0
  6
Continuous
 62
     7
370
    25
100
AcDbSpline
210
0.0
220
0.0
230
1.0
 70
     8
 71
     3
 72
    15
 73
    11
 74
     0
 42
0.000000001
 43
0.00000001
 40
0.0
 40
0.0
 40
0.0
 40
0.0
 40
0.2331861230003865
 40
0.3491944382172252
 40
0.4351115144116908
 40
0.4968019569902041
 40
0.5586680022311067
 40
0.6436056715210413
 40
0.8627718302932086
 40
1.0
 40
1.0
 40
1.0
 40
1.0
 10
6428.804101837245
 20
5176.654825581822
 30
0.0
 10
6428.971490612138
 20
5177.121117978354
 30
0.0
 10
6429.222154024097
 20
5177.81938728082
 30
0.0
 10
6429.696052163504
 20
5178.884279802026
 30
0.0
 10
6430.075639920069
 20
5179.647131867118
 30
0.0
 10
6430.449378447337
 20
5180.326328984844
 30
0.0
 10
6430.849574770443
 20
5180.993755449533
 30
0.0
 10
6431.508700941182
 20
5181.994766207503
 30
0.0
 10
6432.169159108809
 20
5182.861320641032
 30
0.0
 10
6432.656882478275
 20
5183.433131521471
 30
0.0
 10
6432.844678354827
 20
5183.653304948125
 30
0.0
  0
SPLINE
  5
14A
330
1F
100
AcDbEntity
  8
0
  6
Continuous
 62
     7
370
    25
100
AcDbSpline
210
0.0
220
0.0
230
1.0
 70
     8
 71
     3
 72
    15
 73
    11
 74
     0
 42
0.000000001
 43
0.00000001
 40
0.0
 40
0.0
 40
0.0
 40
0.0
 40
0.2331861845806367
 40
0.3491942535821067
 40
0.435111982130348
 40
0.496802552721015
 40
0.558668023611218
 40
0.6436057229806312
 40
0.8627717481444334
 40
1.0
 40
1.0
 40
1.0
 40
1.0
 10
6475.192832244006
 20
5183.653304948125
 30
0.0
 10
6475.51296200258
 20
5183.275196983718
 30
0.0
 10
6475.992353490955
 20
5182.708983643755
 30
0.0
 10
6476.677624405136
 20
5181.766131156975
 30
0.0
 10
6477.148476679353
 20
5181.055963797799
 30
0.0
 10
6477.549809358663
 20
5180.39269810722
 30
0.0
 10
6477.927722808686
 20
5179.712408617549
 30
0.0
 10
6478.465048436138
 20
5178.641079233644
 30
0.0
 10
6478.885280520152
 20
5177.635833012787
 30
0.0
 10
6479.136628272046
 20
5176.927548010265
 30
0.0
 10
6479.233408761588
 20
5176.654825581822
 30
0.0
  0
ARC
  5
14B
330
1F
100
AcDbEntity
  8
0
  6
Continuous
 62
     7
370
    25
100
AcDbCircle
 10
6454.0187552994
 20
5166.7627922366
 30
0.0
 40
27.46962994648015
100
AcDbArc
 50
91.8406956762
 51
148.1593043238
  0
SPLINE
  5
14C
330
1F
100
AcDbEntity
  8
0
  6
Continuous
 62
     7
370
    25
100
AcDbSpline
210
0.0
220
0.0
230
1.0
 70
     8
 71
     3
 72
    17
 73
    13
 74
     0
 42
0.000000001
 43
0.00000001
 40
0.0
 40
0.0
 40
0.0
 40
0.0
 40
0.1072689074190067
 40
0.2146013159961016
 40
0.3219185948542151
 40
0.4292656939943394
 40
0.5366300325337318
 40
0.6439918159891945
 40
0.7513569193484442
 40
0.8587127963800348
 40
0.9660383260996831
 40
1.0
 40
1.0
 40
1.0
 40
1.0
 10
6453.018755251919
 20
5193.964968098912
 30
0.0
 10
6453.029782776502
 20
5193.962080932847
 30
0.0
 10
6453.051844353751
 20
5193.956304891569
 30
0.0
 10
6453.223976677486
 20
5193.953300203549
 30
0.0
 10
6453.47761907154
 20
5193.953068766573
 30
0.0
 10
6453.794429740594
 20
5193.953870278997
 30
0.0
 10
6454.136013803998
 20
5193.954024923753
 30
0.0
 10
6454.464478794319
 20
5193.953319852186
 30
0.0
 10
6454.742920956029
 20
5193.952945617898
 30
0.0
 10
6454.938665522004
 20
5193.955057865094
 30
0.0
 10
6455.012766285574
 20
5193.959797848647
 30
0.0
 10
6455.01759472009
 20
5193.963966150392
 30
0.0
 10
6455.018755346914
 20
5193.964968098912
 30
0.0
  0
ARC
  5
14D
330
1F
100
AcDbEntity
  8
0
  6
Continuous
 62
     7
370
    25
100
AcDbCircle
 10
6454.0187552994
 20
5166.7627922366
 30
0.0
 40
27.46962994648015
100
AcDbArc
 50
31.8406956762
 51
88.1593043238
  0
SPLINE
  5
14E
330
1F
100
AcDbEntity
  8
0
  6
Continuous
 62
     7
370
    25
100
AcDbSpline
210
0.0
220
0.0
230
1.0
 70
     8
 71
     3
 72
    17
 73
    13
 74
     0
 42
0.000000001
 43
0.00000001
 40
0.0
 40
0.0
 40
0.0
 40
0.0
 40
0.1072683464058306
 40
0.2146005868910562
 40
0.3219203392970013
 40
0.4292665150476268
 40
0.5366287368928819
 40
0.6439897896918005
 40
0.7513575738880435
 40
0.8587132260790284
 40
0.9660384028704128
 40
1.0
 40
1.0
 40
1.0
 40
1.0
 10
6477.076525283424
 20
5181.229899300847
 30
0.0
 10
6477.079538087967
 20
5181.218908839101
 30
0.0
 10
6477.08556549162
 20
5181.19692136917
 30
0.0
 10
6477.169037394864
 20
5181.046350996127
 30
0.0
 10
6477.295645908412
 20
5180.826556794724
 30
0.0
 10
6477.454755224442
 20
5180.552601105591
 30
0.0
 10
6477.625684243914
 20
5180.256862470804
 30
0.0
 10
6477.789306654804
 20
5179.972053606205
 30
0.0
 10
6477.928206629424
 20
5179.73072142148
 30
0.0
 10
6478.027886676192
 20
5179.562242560984
 30
0.0
 10
6478.069068093584
 20
5179.500463782367
 30
0.0
 10
6478.07508027759
 20
5179.498354857888
 30
0.0
 10
6478.076525447336
 20
5179.497847928319
 30
0.0
  0
ARC
  5
14F
330
1F
100
AcDbEntity
  8
0
  6
Continuous
 62
     7
370
    25
100
AcDbCircle
 10
6454.0187552994
 20
5166.7627922366
 30
0.0
 40
27.46962994647986
100
AcDbArc
 50
331.8406956762
 51
28.1593043238
  0
SPLINE
  5
150
330
1F
100
AcDbEntity
  8
0
  6
Continuous
 62
     7
370
    25
100
AcDbSpline
210
0.0
220
0.0
230
1.0
 70
     8
 71
     3
 72
    17
 73
    13
 74
     0
 42
0.000000001
 43
0.00000001
 40
0.0
 40
0.0
 40
0.0
 40
0.0
 40
0.1072691110830644
 40
0.2146010548722095
 40
0.3219184395798092
 40
0.4292670915447163
 40
0.5366287168328568
 40
0.6439937385110709
 40
0.7513580035861949
 40
0.8587128926461451
 40
0.9660384953027712
 40
1.0
 40
1.0
 40
1.0
 40
1.0
 10
6478.076525447336
 20
5154.027740134511
 30
0.0
 10
6478.068510843317
 20
5154.019631056991
 30
0.0
 10
6478.052476940739
 20
5154.003408152071
 30
0.0
 10
6477.963814165839
 20
5153.855842345212
 30
0.0
 10
6477.836782512561
 20
5153.636299873433
 30
0.0
 10
6477.679087570358
 20
5153.361523521567
 30
0.0
 10
6477.508419251084
 20
5153.065629855978
 30
0.0
 10
6477.34358477253
 20
5152.781516681312
 30
0.0
 10
6477.204040847213
 20
5152.540563241509
 30
0.0
 10
6477.107977340886
 20
5152.370008904255
 30
0.0
 10
6477.075054372407
 20
5152.303444234332
 30
0.0
 10
6477.076240234938
 20
5152.297191698341
 30
0.0
 10
6477.076525283424
 20
5152.295688761983
 30
0.0
  0
ARC
  5
151
330
1F
100
AcDbEntity
  8
0
  6
Continuous
 62
     7
370
    25
100
AcDbCircle
 10
6454.0187552994
 20
5166.7627922366
 30
0.0
 40
27.46962994648015
100
AcDbArc
 50
271.8406956762
 51
328.1593043238
  0
SPLINE
  5
152
330
1F
100
AcDbEntity
  8
0
  6
Continuous
 62
     7
370
    25
100
AcDbSpline
210
0.0
220
0.0
230
1.0
 70
     8
 71
     3
 72
    17
 73
    13
 74
     0
 42
0.000000001
 43
0.00000001
 40
0.0
 40
0.0
 40
0.0
 40
0.0
 40
0.1072689074190067
 40
0.2146013159961016
 40
0.3219185948542151
 40
0.4292656939943394
 40
0.5366300325337318
 40
0.6439918159891945
 40
0.7513569193484442
 40
0.8587127963800348
 40
0.9660383260996831
 40
1.0
 40
1.0
 40
1.0
 40
1.0
 10
6455.018755346914
 20
5139.560619963918
 30
0.0
 10
6455.007727822332
 20
5139.563507129983
 30
0.0
 10
6454.985666245081
 20
5139.569283171261
 30
0.0
 10
6454.813533921347
 20
5139.572287859281
 30
0.0
 10
6454.559891527292
 20
5139.572519296258
 30
0.0
 10
6454.243080858239
 20
5139.571717783832
 30
0.0
 10
6453.901496794836
 20
5139.571563139077
 30
0.0
 10
6453.573031804514
 20
5139.572268210643
 30
0.0
 10
6453.294589642805
 20
5139.572642444932
 30
0.0
 10
6453.09884507683
 20
5139.570530197736
 30
0.0
 10
6453.02474431326
 20
5139.565790214183
 30
0.0
 10
6453.019915878744
 20
5139.561621912438
 30
0.0
 10
6453.018755251919
 20
5139.560619963918
 30
0.0
  0
ARC
  5
153
330
1F
100
AcDbEntity
  8
0
  6
Continuous
 62
     7
370
    25
100
AcDbCircle
 10
6454.0187552994
 20
5166.7627922366
 30
0.0
 40
27.46962994648015
100
AcDbArc
 50
211.8406956762
 51
268.1593043238
  0
SPLINE
  5
154
330
1F
100
AcDbEntity
  8
0
  6
Continuous
 62
     7
370
    25
100
AcDbSpline
210
0.0
220
0.0
230
1.0
 70
     8
 71
     3
 72
    17
 73
    13
 74
     0
 42
0.000000001
 43
0.00000001
 40
0.0
 40
0.0
 40
0.0
 40
0.0
 40
0.1072685129942757
 40
0.2146009201671742
 40
0.3219177550350939
 40
0.4292679091980441
 40
0.5366302977775335
 40
0.6439915173088709
 40
0.7513561130703825
 40
0.8587119319853991
 40
0.9660383501278297
 40
0.9999999999999999
 40
0.9999999999999999
 40
0.9999999999999999
 40
0.9999999999999999
 10
6430.96098531541
 20
5152.295688761983
 30
0.0
 10
6430.957972343955
 20
5152.306678937109
 30
0.0
 10
6430.951944606377
 20
5152.328665833626
 30
0.0
 10
6430.868476008298
 20
5152.479239066462
 30
0.0
 10
6430.741858306676
 20
5152.699016419978
 30
0.0
 10
6430.582759787888
 20
5152.972986602236
 30
0.0
 10
6430.411825351563
 20
5153.268724129728
 30
0.0
 10
6430.248207271239
 20
5153.553534193809
 30
0.0
 10
6430.109301246785
 20
5153.794852486143
 30
0.0
 10
6430.009623901591
 20
5153.963325970669
 30
0.0
 10
6429.968442582214
 20
5154.025125494505
 30
0.0
 10
6429.962430327295
 20
5154.027233443319
 30
0.0
 10
6429.960985151497
 20
5154.027740134511
 30
0.0
  0
ARC
  5
155
330
1F
100
AcDbEntity
  8
0
  6
Continuous
 62
     7
370
    25
100
AcDbCircle
 10
6454.0187552994
 20
5166.7627922366
 30
0.0
 40
27.46962994647943
100
AcDbArc
 50
151.8406956762
 51
208.1593043238
  0
SPLINE
  5
156
330
1F
100
AcDbEntity
  8
0
  6
Continuous
 62
     7
370
    25
100
AcDbSpline
210
0.0
220
0.0
230
1.0
 70
     8
 71
     3
 72
    17
 73
    13
 74
     0
 42
0.000000001
 43
0.00000001
 40
0.0
 40
0.0
 40
0.0
 40
0.0
 40
0.1072691757156879
 40
0.2146011841753148
 40
0.3219186335446242
 40
0.4292673501900804
 40
0.5366290401665867
 40
0.6439901690365938
 40
0.7513578537724753
 40
0.8587128075167326
 40
0.9660384748400199
 40
1.0
 40
1.0
 40
1.0
 40
1.0
 10
6429.960985151497
 20
5179.497847928319
 30
0.0
 10
6429.968999751479
 20
5179.505957009892
 30
0.0
 10
6429.98503364598
 20
5179.522179922918
 30
0.0
 10
6430.073696481479
 20
5179.669745668954
 30
0.0
 10
6430.200727904466
 20
5179.889288371877
 30
0.0
 10
6430.358423707477
 20
5180.164063859744
 30
0.0
 10
6430.529086716222
 20
5180.459957114905
 30
0.0
 10
6430.693932987369
 20
5180.744057937717
 30
0.0
 10
6430.833466446972
 20
5180.985026003109
 30
0.0
 10
6430.929533894125
 20
5181.155578341617
 30
0.0
 10
6430.962456184814
 20
5181.222143881932
 30
0.0
 10
6430.961270355831
 20
5181.228396374845
 30
0.0
 10
6430.96098531541
 20
5181.229899300847
 30
0.0
  0
LINE
  5
157
330
1F
100
AcDbEntity
  8
0
  6
Continuous
 62
     7
370
    25
100
AcDbLine
 10
6477.3344532078
 20
5181.3788215058
 30
0.0
 11
6477.0765252834
 21
5181.2298993008
 31
0.0
  0
LWPOLYLINE
  5
158
330
1F
100
AcDbEntity
  8
0
  6
Continuous
 62
     7
370
    25
100
AcDbPolyline
 90
        9
 70
   128
 43
0.0
 10
6478.3344533717
 20
5179.6467701333
 10
6478.2963939434
 20
5179.7126928704
 10
6478.1880066222
 20
5179.9004176991
 10
6478.0257963067
 20
5180.1813790934
 10
6477.8344542211
 20
5180.5127958196
 10
6477.6431121355
 20
5180.8442125457
 10
6477.4808999574
 20
5181.1251590388
 10
6477.3725144988
 20
5181.3128987687
 10
6477.3344532078
 20
5181.3788215058
  0
LINE
  5
159
330
1F
100
AcDbEntity
  8
0
  6
Continuous
 62
     7
370
    25
100
AcDbLine
 10
6478.3344533717
 20
5179.6467701333
 30
0.0
 11
6478.0765254473
 21
5179.4978479283
 31
0.0
  0
LINE
  5
15A
330
1F
100
AcDbEntity
  8
0
  6
Continuous
 62
     7
370
    25
100
AcDbLine
 10
6478.3344533717
 20
5153.8788179295
 30
0.0
 11
6478.0765254473
 21
5154.0277401345
 31
0.0
  0
LWPOLYLINE
  5
15B
330
1F
100
AcDbEntity
  8
0
  6
Continuous
 62
     7
370
    25
100
AcDbPolyline
 90
        9
 70
   128
 43
0.0
 10
6477.3344532078
 20
5152.146766557
 10
6477.3725144988
 20
5152.2126892941
 10
6477.4808999574
 20
5152.4004141229
 10
6477.6431121355
 20
5152.6813755172
 10
6477.8344542211
 20
5153.0127922433
 10
6478.0257963067
 20
5153.3442089694
 10
6478.1880066222
 20
5153.6251703637
 10
6478.2963939434
 20
5153.8128951924
 10
6478.3344533717
 20
5153.8788179295
  0
LINE
  5
15C
330
1F
100
AcDbEntity
  8
0
  6
Continuous
 62
     7
370
    25
100
AcDbLine
 10
6477.3344532078
 20
5152.146766557
 30
0.0
 11
6477.0765252834
 21
5152.295688762
 31
0.0
  0
LINE
  5
15D
330
1F
100
AcDbEntity
  8
0
  6
Continuous
 62
     7
370
    25
100
AcDbLine
 10
6430.703057391
 20
5152.146766557
 30
0.0
 11
6430.9609853154
 21
5152.295688762
 31
0.0
  0
LWPOLYLINE
  5
15E
330
1F
100
AcDbEntity
  8
0
  6
Continuous
 62
     7
370
    25
100
AcDbPolyline
 90
        9
 70
   128
 43
0.0
 10
6429.7030572271
 20
5153.8788179295
 10
6429.7411166554
 20
5153.8128951924
 10
6429.8495039767
 20
5153.6251703637
 10
6430.0117142921
 20
5153.3442089694
 10
6430.2030563777
 20
5153.0127922433
 10
6430.3943984633
 20
5152.6813755172
 10
6430.5566106414
 20
5152.4004141229
 10
6430.6649961
 20
5152.2126892941
 10
6430.703057391
 20
5152.146766557
  0
LINE
  5
15F
330
1F
100
AcDbEntity
  8
0
  6
Continuous
 62
     7
370
    25
100
AcDbLine
 10
6429.7030572271
 20
5153.8788179295
 30
0.0
 11
6429.9609851515
 21
5154.0277401345
 31
0.0
  0
LINE
  5
160
330
1F
100
AcDbEntity
  8
0
  6
Continuous
 62
     7
370
    25
100
AcDbLine
 10
6429.7030572271
 20
5179.6467701333
 30
0.0
 11
6429.9609851515
 21
5179.4978479283
 31
0.0
  0
LWPOLYLINE
  5
161
330
1F
100
AcDbEntity
  8
0
  6
Continuous
 62
     7
370
    25
100
AcDbPolyline
 90
        9
 70
   128
 43
0.0
 10
6430.703057391
 20
5181.3788215058
 10
6430.6649961
 20
5181.3128987687
 10
6430.5566106414
 20
5181.1251590388
 10
6430.3943984633
 20
5180.8442125457
 10
6430.2030563777
 20
5180.5127958196
 10
6430.0117142921
 20
5180.1813790934
 10
6429.8495039767
 20
5179.9004176991
 10
6429.7411166554
 20
5179.7126928704
 10
6429.7030572271
 20
5179.6467701333
  0
LINE
  5
162
330
1F
100
AcDbEntity
  8
0
  6
Continuous
 62
     7
370
    25
100
AcDbLine
 10
6430.703057391
 20
5181.3788215058
 30
0.0
 11
6430.9609853154
 21
5181.2298993008
 31
0.0
  0
ARC
  5
163
330
1F
100
AcDbEntity
  8
0
  6
Continuous
 62
     7
370
    25
100
AcDbCircle
 10
6477.8344539035
 20
5153.0127922366
 30
0.0
 40
0.9999999999996882
100
AcDbArc
 50
330.0
 51
60.0
  0
ARC
  5
164
330
1F
100
AcDbEntity
  8
0
  6
Continuous
 62
     7
370
    25
100
AcDbCircle
 10
6477.8344539035
 20
5153.0127922366
 30
0.0
 40
0.9999999999996882
100
AcDbArc
 50
240.0
 51
330.0
  0
ARC
  5
165
330
1F
100
AcDbEntity
  8
0
  6
Continuous
 62
     7
370
    25
100
AcDbCircle
 10
6454.0187552994
 20
5139.2627922366
 30
0.0
 40
1.0
100
AcDbArc
 50
270.0
 51
0.0
  0
ARC
  5
166
330
1F
100
AcDbEntity
  8
0
  6
Continuous
 62
     7
370
    25
100
AcDbCircle
 10
6454.0187552994
 20
5139.2627922366
 30
0.0
 40
1.0
100
AcDbArc
 50
180.0
 51
270.0
  0
LINE
  5
167
330
1F
100
AcDbEntity
  8
0
  6
Continuous
 62
     7
370
    25
100
AcDbLine
 10
6453.0187552519
 20
5139.2627904551
 30
0.0
 11
6455.0187553469
 21
5139.2627904551
 31
0.0
  0
ARC
  5
168
330
1F
100
AcDbEntity
  8
0
  6
Continuous
 62
     7
370
    25
100
AcDbCircle
 10
6430.2030566953
 20
5180.5127922366
 30
0.0
 40
1.000000000001263
100
AcDbArc
 50
150.0
 51
240.0
  0
ARC
  5
169
330
1F
100
AcDbEntity
  8
0
  6
Continuous
 62
     7
370
    25
100
AcDbCircle
 10
6430.2030566953
 20
5180.5127922366
 30
0.0
 40
1.000000000001263
100
AcDbArc
 50
60.0
 51
150.0
  0
LINE
  5
16A
330
1F
100
AcDbEntity
  8
0
  6
Continuous
 62
     7
370
    25
100
AcDbLine
 10
6453.0187552519
 20
5194.2627976077
 30
0.0
 11
6453.0187552519
 21
5193.9649680989
 31
0.0
  0
LINE
  5
16B
330
1F
100
AcDbEntity
  8
0
  6
Continuous
 62
     7
370
    25
100
AcDbLine
 10
6455.0187553469
 20
5194.2627976077
 30
0.0
 11
6453.0187552519
 21
5194.2627976077
 31
0.0
  0
LINE
  5
16C
330
1F
100
AcDbEntity
  8
0
  6
Continuous
 62
     7
370
    25
100
AcDbLine
 10
6455.0187553469
 20
5194.2627976077
 30
0.0
 11
6455.0187553469
 21
5193.9649680989
 31
0.0
  0
LINE
  5
16D
330
1F
100
AcDbEntity
  8
0
  6
Continuous
 62
     7
370
    25
100
AcDbLine
 10
6455.0187553469
 20
5139.2627904551
 30
0.0
 11
6455.0187553469
 21
5139.5606199639
 31
0.0
  0
LINE
  5
16E
330
1F
100
AcDbEntity
  8
0
  6
Continuous
 62
     7
370
    25
100
AcDbLine
 10
6453.0187552519
 20
5139.2627904551
 30
0.0
 11
6453.0187552519
 21
5139.5606199639
 31
0.0
  0
ARC
  5
16F
330
1F
100
AcDbEntity
  8
0
  6
Continuous
 62
     7
370
    25
100
AcDbCircle
 10
6477.8344539035
 20
5180.5127922366
 30
0.0
 40
1.000000000000143
100
AcDbArc
 50
30.0000000001
 51
120.0
  0
ARC
  5
170
330
1F
100
AcDbEntity
  8
0
  6
Continuous
 62
     7
370
    25
100
AcDbCircle
 10
6477.8344539035
 20
5180.5127922366
 30
0.0
 40
1.000000000000143
100
AcDbArc
 50
300.0
 51
30.0000000001
  0
ARC
  5
171
330
1F
100
AcDbEntity
  8
0
  6
Continuous
 62
     7
370
    25
100
AcDbCircle
 10
6430.2030566953
 20
5153.0127922366
 30
0.0
 40
1.000000000000476
100
AcDbArc
 50
210.0
 51
300.0
  0
ARC
  5
172
330
1F
100
AcDbEntity
  8
0
  6
Continuous
 62
     7
370
    25
100
AcDbCircle
 10
6430.2030566953
 20
5153.0127922366
 30
0.0
 40
1.000000000000476
100
AcDbArc
 50
120.0
 51
210.0
  0
ARC
  5
173
330
1F
100
AcDbEntity
  8
0
  6
Continuous
 62
     7
370
    25
100
AcDbCircle
 10
6454.0187552994
 20
5194.2627922366
 30
0.0
 40
1.0
100
AcDbArc
 50
90.0
 51
180.0
  0
ARC
  5
174
330
1F
100
AcDbEntity
  8
0
  6
Continuous
 62
     7
370
    25
100
AcDbCircle
 10
6454.0187552994
 20
5194.2627922366
 30
0.0
 40
1.0
100
AcDbArc
 50
0.0
 51
90.0
  0
LINE
  5
175
330
1F
100
AcDbEntity
  8
0
  6
Continuous
 62
     8
370
    25
100
AcDbLine
 10
6454.0187552994
 20
5236.5758741634
 30
0.0
 11
6461.0187555155
 21
5236.5758741634
 31
0.0
  0
LINE
  5
176
330
1F
100
AcDbEntity
  8
0
  6
Continuous
 62
     8
370
    25
100
AcDbLine
 10
6447.0187550833
 20
5236.5758741634
 30
0.0
 11
6454.0187552994
 21
5236.5758741634
 31
0.0
  0
LINE
  5
177
330
1F
100
AcDbEntity
  8
0
  6
Continuous
 62
     8
370
    25
100
AcDbLine
 10
6375.0775590962
 20
5133.9955428975
 30
0.0
 11
6373.7985775298
 21
5136.6038719552
 31
0.0
  0
LINE
  5
178
330
1F
100
AcDbEntity
  8
0
  6
Continuous
 62
     8
370
    25
100
AcDbLine
 10
6630.715428335
 20
5338.0616536724
 30
0.0
 11
6625.3509656018
 21
5326.7577613132
 31
0.0
  0
SPLINE
  5
179
330
1F
100
AcDbEntity
  8
0
  6
Continuous
 62
     8
370
    25
100
AcDbSpline
210
0.0
220
0.0
230
1.0
 70
     8
 71
     3
 72
    10
 73
     6
 74
     0
 42
0.000000001
 43
0.00000001
 40
0.0
 40
0.0
 40
0.0
 40
0.0
 40
0.0868586046657958
 40
0.6201883476885832
 40
1.0
 40
1.0
 40
1.0
 40
1.0
 10
6622.778533441392
 20
5321.337190120134
 30
0.0
 10
6621.014738442389
 20
5317.62077223394
 30
0.0
 10
6608.420878452329
 20
5291.084782195566
 30
0.0
 10
6588.134993302421
 20
5248.287840571786
 30
0.0
 10
6569.391933185291
 20
5209.313019154516
 30
0.0
 10
6561.595952553121
 20
5193.101848139081
 30
0.0
  0
LINE
  5
17A
330
1F
100
AcDbEntity
  8
0
  6
Continuous
 62
     8
370
    25
100
AcDbLine
 10
6534.2370257204
 20
5136.6047660249
 30
0.0
 11
6532.9586849039
 21
5133.9893440144
 31
0.0
  0
LWPOLYLINE
  5
17B
330
1F
100
AcDbEntity
  8
0
  6
Continuous
 62
     8
370
    25
100
AcDbPolyline
 90
       17
 70
   128
 43
0.0
 10
6471.5064432895
 20
5157.0687840121
 10
6470.2824991619
 20
5157.8613469737
 10
6468.5144447213
 20
5158.7578455346
 10
6466.4983641779
 20
5159.5440457003
 10
6464.2687555825
 20
5160.2064917224
 10
6461.8637659079
 20
5160.7338736194
 10
6459.3245456418
 20
5161.1171612876
 10
6456.6945421467
 20
5161.349783315
 10
6454.0187552994
 20
5161.4277759927
 10
6451.3429684522
 20
5161.349783315
 10
6448.712964957
 20
5161.1171612876
 10
6446.173744691
 20
5160.7338736194
 10
6443.7687550163
 20
5160.2064917224
 10
6441.5391464209
 20
5159.5440457003
 10
6439.5230658775
 20
5158.7578455346
 10
6437.7550114369
 20
5157.8613469737
 10
6436.5527037954
 20
5157.0844749348
  0
SPLINE
  5
17C
330
1F
100
AcDbEntity
  8
0
  6
Continuous
 62
     7
370
    25
100
AcDbSpline
210
0.0
220
0.0
230
1.0
 70
     8
 71
     3
 72
    21
 73
    17
 74
     0
 42
0.000000001
 43
0.00000001
 40
0.0
 40
0.0
 40
0.0
 40
0.0
 40
0.0448774810267992
 40
0.1214370252751307
 40
0.1972682275572233
 40
0.2730130628769862
 40
0.3492825620627156
 40
0.4265477035283711
 40
0.5050706743347149
 40
0.5848806721806478
 40
0.6656994936980931
 40
0.7469889891417241
 40
0.8280316909704389
 40
0.9081236106221066
 40
0.9868474780228741
 40
1.0
 40
1.0
 40
1.0
 40
1.0
 10
5525.412925543141
 20
5323.351804761801
 30
0.0
 10
5525.410501624747
 20
5323.108922266313
 30
0.0
 10
5525.403942579264
 20
5322.451690018233
 30
0.0
 10
5525.74113994804
 20
5321.420133231879
 30
0.0
 10
5526.359901941377
 20
5320.3469911603
 30
0.0
 10
5527.231774289376
 20
5319.456239490254
 30
0.0
 10
5528.293942777756
 20
5318.789580666191
 30
0.0
 10
5529.500230354649
 20
5318.383517680189
 30
0.0
 10
5530.788911425844
 20
5318.268134533183
 30
0.0
 10
5532.08781686488
 20
5318.463145519475
 30
0.0
 10
5533.314535799813
 20
5318.970900873578
 30
0.0
 10
5534.378640746861
 20
5319.768699997399
 30
0.0
 10
5535.210242302758
 20
5320.805948448596
 30
0.0
 10
5535.711133216319
 20
5322.00344161701
 30
0.0
 10
5535.917809288007
 20
5322.93467620624
 30
0.0
 10
5535.858597210041
 20
5323.427224968657
 30
0.0
 10
5535.850120732438
 20
5323.497735558662
 30
0.0
  0
SPLINE
  5
17D
330
1F
100
AcDbEntity
  8
0
  6
Continuous
 62
     7
370
    25
100
AcDbSpline
210
0.0
220
0.0
230
1.0
 70
     8
 71
     3
 72
    21
 73
    17
 74
     0
 42
0.000000001
 43
0.00000001
 40
0.0
 40
0.0
 40
0.0
 40
0.0
 40
0.0448782465554816
 40
0.1214378056062921
 40
0.1972689089860631
 40
0.2730132126802962
 40
0.3492828261752376
 40
0.4265478501232199
 40
0.5050707484469131
 40
0.5848805533137386
 40
0.6656993558708731
 40
0.7469890770271461
 40
0.8280318582249856
 40
0.908123996379449
 40
0.9868470355356346
 40
0.9999999999999999
 40
0.9999999999999999
 40
0.9999999999999999
 40
0.9999999999999999
 10
5525.412925543141
 20
5151.687363757405
 30
0.0
 10
5525.410501325175
 20
5151.444476791605
 30
0.0
 10
5525.403941538806
 20
5150.787239434956
 30
0.0
 10
5525.741139994921
 20
5149.75568107769
 30
0.0
 10
5526.359898584762
 20
5148.682536374595
 30
0.0
 10
5527.231779946689
 20
5147.791797619713
 30
0.0
 10
5528.29393990415
 20
5147.125132668066
 30
0.0
 10
5529.500231426463
 20
5146.7190737624
 30
0.0
 10
5530.78890991879
 20
5146.603701459226
 30
0.0
 10
5532.08781851137
 20
5146.798686540043
 30
0.0
 10
5533.314537804403
 20
5147.306447365389
 30
0.0
 10
5534.378639392173
 20
5148.104253335654
 30
0.0
 10
5535.210243270504
 20
5149.141506546685
 30
0.0
 10
5535.711130734385
 20
5150.338997306876
 30
0.0
 10
5535.917807660196
 20
5151.270230235957
 30
0.0
 10
5535.85859728678
 20
5151.762777749525
 30
0.0
 10
5535.850120732438
 20
5151.833290828977
 30
0.0
  0
LWPOLYLINE
  5
17E
330
1F
100
AcDbEntity
  8
0
  6
Continuous
 62
     7
370
    25
100
AcDbPolyline
 90
        3
 70
   128
 43
0.0
 10
5732.8606043252
 20
5133.48817326
 10
5807.0225063952
 20
5241.7248065012
 10
5879.9480740222
 20
5348.1570166895
  0
LWPOLYLINE
  5
17F
330
1F
100
AcDbEntity
  8
0
  6
Continuous
 62
     7
370
    25
100
AcDbPolyline
 90
        3
 70
   128
 43
0.0
 10
5879.9484018477
 20
5348.1575182067
 10
5878.400201002
 20
5350.1095861556
 10
5876.8520299586
 20
5352.0616541045
  0
ARC
  5
180
330
1F
100
AcDbEntity
  8
0
  6
Continuous
 62
     7
370
    25
100
AcDbCircle
 10
5694.9877346425
 20
5087.060835218
 30
0.0
 40
5.000000000000227
100
AcDbArc
 50
270.1033239989
 51
326.040853736
  0
LINE
  5
181
330
1F
100
AcDbEntity
  8
0
  6
Continuous
 62
     7
370
    25
100
AcDbLine
 10
5512.6234535369
 20
5082.060838713
 30
0.0
 11
5694.9886922034
 21
5082.060838713
 31
0.0
  0
LWPOLYLINE
  5
182
330
1F
100
AcDbEntity
  8
0
  6
Continuous
 62
     7
370
    25
100
AcDbPolyline
 90
        3
 70
   128
 43
0.0
 10
5699.1348210963
 20
5084.2674026625
 10
5715.8784065637
 20
5108.7036827939
 10
5732.8606043252
 20
5133.48817326
  0
LWPOLYLINE
  5
183
330
1F
100
AcDbEntity
  8
0
  6
Continuous
 62
     7
370
    25
100
AcDbPolyline
 90
       19
 70
   128
 43
0.0
 10
5528.0574187877
 20
5323.3926227676
 10
5528.7437290194
 20
5324.1008805471
 10
5529.6567622813
 20
5324.554345234
 10
5530.6863934043
 20
5324.6983221161
 10
5531.7084323856
 20
5324.5154476153
 10
5532.599605644
 20
5324.0277754503
 10
5533.2524273785
 20
5323.2941279548
 10
5533.5881561282
 20
5322.4029956745
 10
5533.5662979874
 20
5321.4618588226
 10
5533.189488599
 20
5320.5842325824
 10
5532.5031783673
 20
5319.8759766655
 10
5531.5901451054
 20
5319.4225119787
 10
5530.5605139824
 20
5319.2785332339
 10
5529.5384750011
 20
5319.4614077347
 10
5528.6473017427
 20
5319.9490817623
 10
5527.9944800081
 20
5320.6827255326
 10
5527.6587512585
 20
5321.5738615381
 10
5527.6806093993
 20
5322.5149965273
 10
5528.0574187877
 20
5323.3926227676
  0
ARC
  5
184
330
1F
100
AcDbEntity
  8
0
  6
Continuous
 62
     7
370
    25
100
AcDbCircle
 10
5530.5719238495
 20
5322.9055681198
 30
0.0
 40
5.332393716609525
100
AcDbArc
 50
6.2476365949
 51
146.3527896003
  0
ARC
  5
185
330
1F
100
AcDbEntity
  8
0
  6
Continuous
 62
     7
370
    25
100
AcDbCircle
 10
5529.7550620852
 20
5323.3948288845
 30
0.0
 40
4.381530752987052
100
AcDbArc
 50
145.7602441257
 51
180.4698892488
  0
LINE
  5
186
330
1F
100
AcDbEntity
  8
0
  6
Continuous
 62
     7
370
    25
100
AcDbLine
 10
5529.427047843
 20
5320.2037202554
 30
0.0
 11
5531.7359399291
 21
5320.1599443691
 31
0.0
  0
LINE
  5
187
330
1F
100
AcDbEntity
  8
0
  6
Continuous
 62
     7
370
    25
100
AcDbLine
 10
5531.7359399291
 20
5320.1599443691
 30
0.0
 11
5532.9323467108
 21
5321.94465272
 31
0.0
  0
LINE
  5
188
330
1F
100
AcDbEntity
  8
0
  6
Continuous
 62
     7
370
    25
100
AcDbLine
 10
5532.9323467108
 20
5321.94465272
 30
0.0
 11
5531.8198595437
 21
5323.7731369572
 31
0.0
  0
LINE
  5
189
330
1F
100
AcDbEntity
  8
0
  6
Continuous
 62
     7
370
    25
100
AcDbLine
 10
5531.8198595437
 20
5323.7731369572
 30
0.0
 11
5529.5109655949
 21
5323.8169109809
 31
0.0
  0
LINE
  5
18A
330
1F
100
AcDbEntity
  8
0
  6
Continuous
 62
     7
370
    25
100
AcDbLine
 10
5529.5109655949
 20
5323.8169109809
 30
0.0
 11
5528.3145606759
 21
5322.03220263
 31
0.0
  0
LINE
  5
18B
330
1F
100
AcDbEntity
  8
0
  6
Continuous
 62
     7
370
    25
100
AcDbLine
 10
5528.3145606759
 20
5322.03220263
 30
0.0
 11
5529.427047843
 21
5320.2037202554
 31
0.0
  0
LINE
  5
18C
330
1F
100
AcDbEntity
  8
0
  6
Continuous
 62
     7
370
    25
100
AcDbLine
 10
5528.7246555331
 20
5322.643953039
 30
0.0
 11
5529.427047843
 21
5321.4895023393
 31
0.0
  0
LINE
  5
18D
330
1F
100
AcDbEntity
  8
0
  6
Continuous
 62
     7
370
    25
100
AcDbLine
 10
5529.427047843
 20
5321.4895023393
 30
0.0
 11
5529.427047843
 21
5320.2037202554
 31
0.0
  0
LINE
  5
18E
330
1F
100
AcDbEntity
  8
0
  6
Continuous
 62
     7
370
    25
100
AcDbLine
 10
5531.7359399291
 20
5321.445726453
 30
0.0
 11
5531.7359399291
 21
5320.1599443691
 31
0.0
  0
LINE
  5
18F
330
1F
100
AcDbEntity
  8
0
  6
Continuous
 62
     7
370
    25
100
AcDbLine
 10
5531.7359399291
 20
5321.445726453
 30
0.0
 11
5532.522249991
 21
5322.6186862575
 31
0.0
  0
LINE
  5
190
330
1F
100
AcDbEntity
  8
0
  6
Continuous
 62
     7
370
    25
100
AcDbLine
 10
5529.427047843
 20
5321.4895023393
 30
0.0
 11
5531.7359399291
 21
5321.445726453
 31
0.0
  0
LWPOLYLINE
  5
191
330
1F
100
AcDbEntity
  8
0
  6
Continuous
 62
     7
370
    25
100
AcDbPolyline
 90
       19
 70
   128
 43
0.0
 10
5528.0574187877
 20
5151.7281780379
 10
5528.7437290194
 20
5152.4364302295
 10
5529.6567622813
 20
5152.8899023669
 10
5530.6863934043
 20
5153.0338773864
 10
5531.7084323856
 20
5152.850995435
 10
5532.599605644
 20
5152.3633251326
 10
5533.2524273785
 20
5151.6296813624
 10
5533.5881561282
 20
5150.7385472195
 10
5533.5662979874
 20
5149.7974047797
 10
5533.189488599
 20
5148.91978599
 10
5532.5031783673
 20
5148.2115337985
 10
5531.5901451054
 20
5147.758061661
 10
5530.5605139824
 20
5147.6140866416
 10
5529.5384750011
 20
5147.7969685929
 10
5528.6473017427
 20
5148.2846388953
 10
5527.9944800081
 20
5149.0182826655
 10
5527.6587512585
 20
5149.9094168084
 10
5527.6806093993
 20
5150.8505443471
 10
5528.0574187877
 20
5151.7281780379
  0
ARC
  5
192
330
1F
100
AcDbEntity
  8
0
  6
Continuous
 62
     7
370
    25
100
AcDbCircle
 10
5530.5719262719
 20
5151.2411231454
 30
0.0
 40
5.332391740603618
100
AcDbArc
 50
6.2476818314
 51
146.3528684765
  0
ARC
  5
193
330
1F
100
AcDbEntity
  8
0
  6
Continuous
 62
     7
370
    25
100
AcDbCircle
 10
5529.7550554124
 20
5151.730378917
 30
0.0
 40
4.381523991585777
100
AcDbArc
 50
145.7602189495
 51
180.469748404
  0
LINE
  5
194
330
1F
100
AcDbEntity
  8
0
  6
Continuous
 62
     7
370
    25
100
AcDbLine
 10
5529.427047843
 20
5148.5392699378
 30
0.0
 11
5531.7359399291
 21
5148.4954903262
 31
0.0
  0
LINE
  5
195
330
1F
100
AcDbEntity
  8
0
  6
Continuous
 62
     7
370
    25
100
AcDbLine
 10
5531.7359399291
 20
5148.4954903262
 30
0.0
 11
5532.9323467108
 21
5150.2802024024
 31
0.0
  0
LINE
  5
196
330
1F
100
AcDbEntity
  8
0
  6
Continuous
 62
     7
370
    25
100
AcDbLine
 10
5532.9323467108
 20
5150.2802024024
 30
0.0
 11
5531.8198595437
 21
5152.1086940902
 31
0.0
  0
LINE
  5
197
330
1F
100
AcDbEntity
  8
0
  6
Continuous
 62
     7
370
    25
100
AcDbLine
 10
5531.8198595437
 20
5152.1086940902
 30
0.0
 11
5529.5109655949
 21
5152.1524588006
 31
0.0
  0
LINE
  5
198
330
1F
100
AcDbEntity
  8
0
  6
Continuous
 62
     7
370
    25
100
AcDbLine
 10
5529.5109655949
 20
5152.1524588006
 30
0.0
 11
5528.3145606759
 21
5150.3677616256
 31
0.0
  0
LINE
  5
199
330
1F
100
AcDbEntity
  8
0
  6
Continuous
 62
     7
370
    25
100
AcDbLine
 10
5528.3145606759
 20
5150.3677616256
 30
0.0
 11
5529.427047843
 21
5148.5392699378
 31
0.0
  0
LINE
  5
19A
330
1F
100
AcDbEntity
  8
0
  6
Continuous
 62
     7
370
    25
100
AcDbLine
 10
5528.7246555331
 20
5150.9794989961
 30
0.0
 11
5529.427047843
 21
5149.8250613349
 31
0.0
  0
LINE
  5
19B
330
1F
100
AcDbEntity
  8
0
  6
Continuous
 62
     7
370
    25
100
AcDbLine
 10
5529.427047843
 20
5149.8250613349
 30
0.0
 11
5529.427047843
 21
5148.5392699378
 31
0.0
  0
LINE
  5
19C
330
1F
100
AcDbEntity
  8
0
  6
Continuous
 62
     7
370
    25
100
AcDbLine
 10
5531.7359399291
 20
5149.7812817233
 30
0.0
 11
5531.7359399291
 21
5148.4954903262
 31
0.0
  0
LINE
  5
19D
330
1F
100
AcDbEntity
  8
0
  6
Continuous
 62
     7
370
    25
100
AcDbLine
 10
5531.7359399291
 20
5149.7812817233
 30
0.0
 11
5532.522249991
 21
5150.9542415278
 31
0.0
  0
LINE
  5
19E
330
1F
100
AcDbEntity
  8
0
  6
Continuous
 62
     7
370
    25
100
AcDbLine
 10
5529.427047843
 20
5149.8250613349
 30
0.0
 11
5531.7359399291
 21
5149.7812817233
 31
0.0
  0
SPLINE
  5
19F
330
1F
100
AcDbEntity
  8
0
  6
Continuous
 62
     7
370
    25
100
AcDbSpline
210
0.0
220
0.0
230
1.0
 70
     8
 71
     3
 72
    16
 73
    12
 74
     0
 42
0.000000001
 43
0.00000001
 40
0.0
 40
0.0
 40
0.0
 40
0.0
 40
0.2499999999999999
 40
0.2499999999999999
 40
0.4999999999999998
 40
0.4999999999999998
 40
0.7499999999999999
 40
0.7499999999999999
 40
0.8749999999999999
 40
0.8749999999999999
 40
1.0
 40
1.0
 40
1.0
 40
1.0
 10
5697.634298720976
 20
5348.670353781156
 30
0.0
 10
5697.69240261047
 20
5330.694009464327
 30
0.0
 10
5697.760210097751
 20
5312.719214795549
 30
0.0
 10
5697.926212162091
 20
5276.778766732426
 30
0.0
 10
5698.024622155855
 20
5258.812751174105
 30
0.0
 10
5698.265692201918
 20
5222.905744129756
 30
0.0
 10
5698.410365043993
 20
5204.964075206745
 30
0.0
 10
5698.654729766313
 20
5178.103642484841
 30
0.0
 10
5698.740475788038
 20
5169.159127543915
 30
0.0
 10
5698.90679096424
 20
5151.298735469562
 30
0.0
 10
5698.987702225147
 20
5142.383166082483
 30
0.0
 10
5699.049663335497
 20
5133.488173514138
 30
0.0
  0
SPLINE
  5
1A0
330
1F
100
AcDbEntity
  8
0
  6
Continuous
 62
     7
370
    25
100
AcDbSpline
210
0.0
220
0.0
230
1.0
 70
     8
 71
     3
 72
    27
 73
    23
 74
     0
 42
0.000000001
 43
0.00000001
 40
0.0
 40
0.0
 40
0.0
 40
0.0
 40
0.0501198701268462
 40
0.1001938772299325
 40
0.149961507060777
 40
0.1997320024985931
 40
0.24981109564455
 40
0.3000321029839302
 40
0.3498703681337408
 40
0.3996188106797378
 40
0.4495814312261714
 40
0.4998776011653554
 40
0.5498204648008083
 40
0.5995808787953192
 40
0.6494634592405321
 40
0.6997424999380318
 40
0.7498257842837457
 40
0.7996253600836324
 40
0.8494542969200543
 40
0.8996192184724333
 40
0.9499258275056768
 40
1.0
 40
1.0
 40
1.0
 40
1.0
 10
5879.947328964126
 20
5348.157520302225
 30
0.0
 10
5879.839007340378
 20
5348.157752419047
 30
0.0
 10
5879.622463214391
 20
5348.15821644029
 30
0.0
 10
5877.873359206904
 20
5348.161966691018
 30
0.0
 10
5875.104222880665
 20
5348.167931652174
 30
0.0
 10
5871.227544922108
 20
5348.176355271511
 30
0.0
 10
5866.277828181778
 20
5348.187219953624
 30
0.0
 10
5860.281040118329
 20
5348.200553026367
 30
0.0
 10
5853.296566095592
 20
5348.216341793543
 30
0.0
 10
5845.372187210731
 20
5348.234585443672
 30
0.0
 10
5836.515309854033
 20
5348.255413518721
 30
0.0
 10
5826.787020319828
 20
5348.278861090108
 30
0.0
 10
5816.273614999674
 20
5348.304904245251
 30
0.0
 10
5805.061150511202
 20
5348.333534269987
 30
0.0
 10
5793.16252063672
 20
5348.364948408815
 30
0.0
 10
5780.645300647232
 20
5348.39925049415
 30
0.0
 10
5767.618587748047
 20
5348.436427347907
 30
0.0
 10
5754.197934067418
 20
5348.476473829836
 30
0.0
 10
5740.419300962106
 20
5348.519601790387
 30
0.0
 10
5726.324831066036
 20
5348.566183873904
 30
0.0
 10
5712.02399691954
 20
5348.61597798498
 30
0.0
 10
5702.423458113976
 20
5348.652256514174
 30
0.0
 10
5697.634303966414
 20
5348.670353776429
 30
0.0
  0
SPLINE
  5
1A1
330
1F
100
AcDbEntity
  8
0
  6
Continuous
 62
     7
370
    25
100
AcDbSpline
210
0.0
220
0.0
230
1.0
 70
    24
 71
     3
 72
    38
 73
    34
 74
     0
 42
0.000000001
 43
0.00000001
 40
0.0120738147448016
 40
0.0120738147448016
 40
0.0120738147448016
 40
0.0120738147448016
 40
0.0312499999999998
 40
0.0312499999999998
 40
0.0625
 40
0.0625
 40
0.0937499999999993
 40
0.0937499999999993
 40
0.125
 40
0.125
 40
0.1562499999999989
 40
0.1562499999999989
 40
0.1875
 40
0.1875
 40
0.2187499999999991
 40
0.2187499999999991
 40
0.25
 40
0.25
 40
0.2812499999999992
 40
0.2812499999999992
 40
0.3125
 40
0.3125
 40
0.3437499999999994
 40
0.3437499999999994
 40
0.375
 40
0.375
 40
0.4062499999999997
 40
0.4062499999999997
 40
0.4375
 40
0.4375
 40
0.46875
 40
0.46875
 40
0.5
 40
0.5
 40
0.5
 40
0.5
 10
5699.049663334824
 20
5133.488173514138
 30
0.0
 10
5699.801164484244
 20
5133.488173514138
 30
0.0
 10
5700.546859705622
 20
5133.488173514138
 30
0.0
 10
5702.490511778236
 20
5133.488173514138
 30
0.0
 10
5703.677609429858
 20
5133.488173514138
 30
0.0
 10
5706.010452676222
 20
5133.488173514138
 30
0.0
 10
5707.156179238424
 20
5133.488173514138
 30
0.0
 10
5709.39940408145
 20
5133.488173514138
 30
0.0
 10
5710.496902362276
 20
5133.488173514138
 30
0.0
 10
5712.636832483141
 20
5133.488173514138
 30
0.0
 10
5713.679240026522
 20
5133.488173514138
 30
0.0
 10
5715.702105961471
 20
5133.488173514138
 30
0.0
 10
5716.682564353038
 20
5133.488173514138
 30
0.0
 10
5718.574697866652
 20
5133.488173514138
 30
0.0
 10
5719.48634510529
 20
5133.488173514138
 30
0.0
 10
5721.234363963605
 20
5133.488173514138
 30
0.0
 10
5722.070735583281
 20
5133.488173514138
 30
0.0
 10
5723.661766621049
 20
5133.488173514138
 30
0.0
 10
5724.416397279947
 20
5133.488173514138
 30
0.0
 10
5725.838277698131
 20
5133.488173514138
 30
0.0
 10
5726.505527457415
 20
5133.488173514138
 30
0.0
 10
5727.747034896725
 20
5133.488173514138
 30
0.0
 10
5728.321266384212
 20
5133.488173514138
 30
0.0
 10
5729.372314773835
 20
5133.488173514138
 30
0.0
 10
5729.849131675967
 20
5133.488173514138
 30
0.0
 10
5730.700980773861
 20
5133.488173514138
 30
0.0
 10
5731.075992936862
 20
5133.488173514138
 30
0.0
 10
5731.721413435918
 20
5133.488173514138
 30
0.0
 10
5731.991821771976
 20
5133.488173514138
 30
0.0
 10
5732.425255562095
 20
5133.488173514138
 30
0.0
 10
5732.588270143924
 20
5133.488173514138
 30
0.0
 10
5732.805940860056
 20
5133.488173514138
 30
0.0
 10
5732.860596994355
 20
5133.488173514138
 30
0.0
 10
5732.860596994352
 20
5133.488173514138
 30
0.0
  0
SPLINE
  5
1A2
330
1F
100
AcDbEntity
  8
0
  6
Continuous
 62
     7
370
    25
100
AcDbSpline
210
0.0
220
0.0
230
1.0
 70
     8
 71
     3
 72
     8
 73
     4
 74
     0
 42
0.000000001
 43
0.00000001
 40
0.0
 40
0.0
 40
0.0
 40
0.0
 40
0.0000215569637174
 40
0.0000215569637174
 40
0.0000215569637174
 40
0.0000215569637174
 10
5697.612742345546
 20
5348.670471479122
 30
0.0
 10
5697.619927779296
 20
5348.670420581922
 30
0.0
 10
5697.627113275628
 20
5348.670381381712
 30
0.0
 10
5697.634298720138
 20
5348.6703536612
 30
0.0
  0
SPLINE
  5
1A3
330
1F
100
AcDbEntity
  8
0
  6
Continuous
 62
     7
370
    25
100
AcDbSpline
210
0.0
220
0.0
230
1.0
 70
     8
 71
     3
 72
    12
 73
     8
 74
     0
 42
0.000000001
 43
0.00000001
 40
0.0
 40
0.0
 40
0.0
 40
0.0
 40
0.1678648221466972
 40
0.335278737184676
 40
0.5022417593764337
 40
0.7498726452047637
 40
0.9999999999999999
 40
0.9999999999999999
 40
0.9999999999999999
 40
0.9999999999999999
 10
5697.612742345557
 20
5348.670471476232
 30
0.0
 10
5687.308534763264
 20
5348.742653089842
 30
0.0
 10
5666.727798062747
 20
5348.886822427705
 30
0.0
 10
5635.898123706049
 20
5349.092568164536
 30
0.0
 10
5600.172007216223
 20
5349.321987238456
 30
0.0
 10
5559.368489769071
 20
5349.571470354487
 30
0.0
 10
5528.813792968774
 20
5349.743588070327
 30
0.0
 10
5513.459822178346
 20
5349.830078549967
 30
0.0
  0
SPLINE
  5
1A4
330
1F
100
AcDbEntity
  8
0
  6
Continuous
 62
     7
370
    25
100
AcDbSpline
210
0.0
220
0.0
230
1.0
 70
     8
 71
     3
 72
    20
 73
    16
 74
     0
 42
0.000000001
 43
0.00000001
 40
0.0
 40
0.0
 40
0.0
 40
0.0
 40
0.125
 40
0.125
 40
0.2500000000000001
 40
0.2500000000000001
 40
0.3750000000000001
 40
0.3750000000000001
 40
0.5000000000000001
 40
0.5000000000000001
 40
0.6250000000000001
 40
0.6250000000000001
 40
0.7500000000000002
 40
0.7500000000000002
 40
1.0
 40
1.0
 40
1.0
 40
1.0
 10
5517.623453537794
 20
5352.061654104505
 30
0.0
 10
5517.368096415918
 20
5352.061654104551
 30
0.0
 10
5517.119721319431
 20
5352.042241144019
 30
0.0
 10
5516.635332319356
 20
5351.969159567014
 30
0.0
 10
5516.396712515946
 20
5351.914428151787
 30
0.0
 10
5515.950647563543
 20
5351.77928377013
 30
0.0
 10
5515.741347038856
 20
5351.699015365596
 30
0.0
 10
5515.34520362115
 20
5351.51777592255
 30
0.0
 10
5515.160809191439
 20
5351.417750097583
 30
0.0
 10
5514.819962851989
 20
5351.206606390451
 30
0.0
 10
5514.662298916473
 20
5351.094873734441
 30
0.0
 10
5514.367978574204
 20
5350.861283038579
 30
0.0
 10
5514.23088774448
 20
5350.738906398512
 30
0.0
 10
5513.85151896022
 20
5350.363056519774
 30
0.0
 10
5513.639937255224
 20
5350.100966486838
 30
0.0
 10
5513.459822171235
 20
5349.830078539274
 30
0.0
  0
SPLINE
  5
1A5
330
1F
100
AcDbEntity
  8
0
  6
Continuous
 62
     7
370
    25
100
AcDbSpline
210
0.0
220
0.0
230
1.0
 70
    24
 71
     3
 72
    32
 73
    28
 74
     0
 42
0.000000001
 43
0.00000001
 40
0.0
 40
0.0
 40
0.0
 40
0.0
 40
0.0979926940701547
 40
0.1973387081782726
 40
0.2959921827907568
 40
0.3946208724669594
 40
0.4284440996460063
 40
0.4623788171706756
 40
0.4961456505293837
 40
0.5213513823338585
 40
0.5465870598319119
 40
0.571959639350722
 40
0.5974464624705023
 40
0.6227549763814332
 40
0.6479669663987775
 40
0.673188639909873
 40
0.6985264004238504
 40
0.7324611770880639
 40
0.7661666947048408
 40
0.799780278680099
 40
0.8335806007324187
 40
0.8674743510770588
 40
0.9011690034371785
 40
0.9263740899690288
 40
0.9516544609855727
 40
0.9771154255700764
 40
1.0
 40
1.0
 40
1.0
 40
1.0
 10
5517.623453425121
 20
5352.061654104505
 30
0.0
 10
5532.710756124252
 20
5352.061654104505
 30
0.0
 10
5563.093723474957
 20
5352.061654104505
 30
0.0
 10
5608.666201210981
 20
5352.061654104505
 30
0.0
 10
5654.334400573043
 20
5352.061654104505
 30
0.0
 10
5689.921091080527
 20
5352.061654104505
 30
0.0
 10
5715.530583851973
 20
5352.061654104505
 30
0.0
 10
5731.010109892582
 20
5352.061654104505
 30
0.0
 10
5744.941947029033
 20
5352.061654104505
 30
0.0
 10
5757.297153227643
 20
5352.061654104505
 30
0.0
 10
5768.167876751631
 20
5352.061654104505
 30
0.0
 10
5778.777526468733
 20
5352.061654104505
 30
0.0
 10
5789.04937419658
 20
5352.061654104505
 30
0.0
 10
5798.908878131608
 20
5352.061654104505
 30
0.0
 10
5808.305450718499
 20
5352.061654104505
 30
0.0
 10
5817.238530878405
 20
5352.061654104505
 30
0.0
 10
5826.635058917816
 20
5352.061654104505
 30
0.0
 10
5836.198430156114
 20
5352.061654104505
 30
0.0
 10
5845.564469635855
 20
5352.061654104505
 30
0.0
 10
5853.80715091615
 20
5352.061654104505
 30
0.0
 10
5860.888421298208
 20
5352.061654104505
 30
0.0
 10
5866.740334986854
 20
5352.061654104505
 30
0.0
 10
5870.925261718037
 20
5352.061654104505
 30
0.0
 10
5873.775944739255
 20
5352.061654104505
 30
0.0
 10
5875.586582277194
 20
5352.061654104505
 30
0.0
 10
5876.674467318952
 20
5352.061654104505
 30
0.0
 10
5876.771681107184
 20
5352.061654104505
 30
0.0
 10
5876.817697683226
 20
5352.061654104505
 30
0.0
  0
SPLINE
  5
1A6
330
1F
100
AcDbEntity
  8
0
  6
Continuous
 62
     7
370
    25
100
AcDbSpline
210
0.0
220
0.0
230
1.0
 70
     8
 71
     3
 72
    14
 73
    10
 74
     0
 42
0.000000001
 43
0.00000001
 40
0.0
 40
0.0
 40
0.0
 40
0.0
 40
0.25
 40
0.25
 40
0.5
 40
0.5
 40
0.75
 40
0.75
 40
1.0
 40
1.0
 40
1.0
 40
1.0
 10
5695.776346470491
 20
5133.488173514138
 30
0.0
 10
5696.138734969612
 20
5151.41784337147
 30
0.0
 10
5696.401326032117
 20
5169.34903187598
 30
0.0
 10
5696.818282660375
 20
5205.212052262413
 30
0.0
 10
5696.972718328318
 20
5223.144005260842
 30
0.0
 10
5697.225820290162
 20
5259.008368211075
 30
0.0
 10
5697.323892249508
 20
5276.940725160934
 30
0.0
 10
5697.488891152664
 20
5312.805521090864
 30
0.0
 10
5697.555497257824
 20
5330.737985905937
 30
0.0
 10
5697.612742345526
 20
5348.670471476233
 30
0.0
  0
LINE
  5
1A7
330
1F
100
AcDbEntity
  8
0
  6
Continuous
 62
     7
370
    25
100
AcDbLine
 10
5695.776352683
 20
5133.48817326
 30
0.0
 11
5512.6234535369
 21
5133.48817326
 31
0.0
  0
LINE
  5
1A8
330
1F
100
AcDbEntity
  8
0
  6
Continuous
 62
     7
370
    25
100
AcDbLine
 10
5512.6234535369
 20
5338.0616536724
 30
0.0
 11
5512.6234535369
 21
5133.48817326
 31
0.0
  0
LINE
  5
1A9
330
1F
100
AcDbEntity
  8
0
  6
Continuous
 62
     7
370
    25
100
AcDbLine
 10
5512.6234535369
 20
5347.0616542163
 30
0.0
 11
5512.6234535369
 21
5338.0616536724
 31
0.0
  0
ARC
  5
1AA
330
1F
100
AcDbEntity
  8
0
  6
Continuous
 62
     7
370
    25
100
AcDbCircle
 10
5517.6234535369
 20
5347.0616541045
 30
0.0
 40
5.0
100
AcDbArc
 50
146.3798187643
 51
180.0
  0
SPLINE
  5
1AB
330
1F
100
AcDbEntity
  8
0
  6
Continuous
 62
     7
370
    25
100
AcDbSpline
210
0.0
220
0.0
230
1.0
 70
     8
 71
     3
 72
     8
 73
     4
 74
     0
 42
0.000000001
 43
0.00000001
 40
0.0
 40
0.0
 40
0.0
 40
0.0
 40
1.0
 40
1.0
 40
1.0
 40
1.0
 10
5699.049682207776
 20
5133.488163761662
 30
0.0
 10
5699.048473030109
 20
5133.486174739049
 30
0.0
 10
5699.047261689708
 20
5133.484183287358
 30
0.0
 10
5699.04604818664
 20
5133.482189406579
 30
0.0
  0
SPLINE
  5
1AC
330
1F
100
AcDbEntity
  8
0
  6
Continuous
 62
     7
370
    25
100
AcDbSpline
210
0.0
220
0.0
230
1.0
 70
     8
 71
     3
 72
    20
 73
    16
 74
     0
 42
0.000000001
 43
0.00000001
 40
0.0
 40
0.0
 40
0.0
 40
0.0
 40
0.4999999999999905
 40
0.4999999999999905
 40
0.7499999999999852
 40
0.7499999999999852
 40
0.8749999999999929
 40
0.8749999999999929
 40
0.9375000000000079
 40
0.9375000000000079
 40
0.9687500000000153
 40
0.9687500000000153
 40
0.9843750000000077
 40
0.9843750000000077
 40
1.0
 40
1.0
 40
1.0
 40
1.0
 10
5699.04604818664
 20
5133.482189406579
 30
0.0
 10
5698.589455883868
 20
5133.374630376115
 30
0.0
 10
5698.075819281049
 20
5133.299510974086
 30
0.0
 10
5697.225150835225
 20
5133.263541614873
 30
0.0
 10
5696.93273834916
 20
5133.264475770319
 30
0.0
 10
5696.488275178486
 20
5133.295621966122
 30
0.0
 10
5696.339074749079
 20
5133.310746578964
 30
0.0
 10
5696.116663856159
 20
5133.347170048409
 30
0.0
 10
5696.04265837853
 20
5133.361445049176
 30
0.0
 10
5695.933716978603
 20
5133.390774582641
 30
0.0
 10
5695.89768254822
 20
5133.401778453103
 30
0.0
 10
5695.845947261319
 20
5133.423272841061
 30
0.0
 10
5695.829006287884
 20
5133.431266875148
 30
0.0
 10
5695.798158976977
 20
5133.451087740694
 30
0.0
 10
5695.782326895503
 20
5133.463382923762
 30
0.0
 10
5695.778202858953
 20
5133.480478153282
 30
0.0
  0
LINE
  5
1AD
330
1F
100
AcDbEntity
  8
0
  6
Continuous
 62
     7
370
    25
100
AcDbLine
 10
5695.7782004269
 20
5133.4804842608
 30
0.0
 11
5695.776352683
 21
5133.48817326
 31
0.0
  0
LINE
  5
1AE
330
1F
100
AcDbEntity
  8
0
  6
Continuous
 62
     7
370
    25
100
AcDbLine
 10
5512.6234535369
 20
5082.0632228988
 30
0.0
 11
5512.6234535369
 21
5133.48817326
 31
0.0
  0
SPLINE
  5
1AF
330
1F
100
AcDbEntity
  8
0
  6
Continuous
 62
     8
370
    25
100
AcDbSpline
210
0.0
220
0.0
230
1.0
 70
     8
 71
     3
 72
    25
 73
    21
 74
     0
 42
0.000000001
 43
0.00000001
 40
0.0
 40
0.0
 40
0.0
 40
0.0
 40
0.0023551782212605
 40
0.0051161023421438
 40
0.0106373882240201
 40
0.0161579190978642
 40
0.0382345191731774
 40
0.1265307038654718
 40
0.2007176929736504
 40
0.2749038292955496
 40
0.3511484914973314
 40
0.4273932521700008
 40
0.5013057414137896
 40
0.5752177883701957
 40
0.6511918653936455
 40
0.7271650248300199
 40
0.8189073143318593
 40
0.9116136790956969
 40
0.985442876511206
 40
1.0
 40
1.0
 40
1.0
 40
1.0
 10
5699.046054879081
 20
5133.482182993207
 30
0.0
 10
5699.046481584679
 20
5133.413058045197
 30
0.0
 10
5699.047408507953
 20
5133.262899426528
 30
0.0
 10
5699.049349334405
 20
5132.95122947921
 30
0.0
 10
5699.051803186477
 20
5132.547735367685
 30
0.0
 10
5699.057553093942
 20
5131.582662564672
 30
0.0
 10
5699.076526530899
 20
5128.232620227717
 30
0.0
 10
5699.098406734855
 20
5123.073353194458
 30
0.0
 10
5699.114078053231
 20
5116.856164283927
 30
0.0
 10
5699.123360391633
 20
5111.336140452449
 30
0.0
 10
5699.129110845739
 20
5106.198068326727
 30
0.0
 10
5699.129474594057
 20
5101.533259544815
 30
0.0
 10
5699.127294384206
 20
5097.41024451857
 30
0.0
 10
5699.125487630145
 20
5093.803620140679
 30
0.0
 10
5699.122763109461
 20
5090.713505273195
 30
0.0
 10
5699.117739471838
 20
5088.003294829782
 30
0.0
 10
5699.115585957437
 20
5085.853811387911
 30
0.0
 10
5699.113982648992
 20
5084.640837035378
 30
0.0
 10
5699.112194862733
 20
5084.178586205382
 30
0.0
 10
5699.11246892094
 20
5084.268021045246
 30
0.0
 10
5699.112514058005
 20
5084.282750858579
 30
0.0
  0
SPLINE
  5
1B0
330
1F
100
AcDbEntity
  8
0
  6
Continuous
 62
     8
370
    25
100
AcDbSpline
210
0.0
220
0.0
230
1.0
 70
     8
 71
     3
 72
    23
 73
    19
 74
     0
 42
0.000000001
 43
0.00000001
 40
0.0
 40
0.0
 40
0.0
 40
0.0
 40
0.088211258730348
 40
0.1802646588329454
 40
0.2723161891793248
 40
0.3717745211087402
 40
0.4715482742423592
 40
0.5710043524695145
 40
0.6704568638102649
 40
0.7702242711903758
 40
0.8696747382463742
 40
0.9570330088322463
 40
0.9788507071321348
 40
0.9843051522966736
 40
0.9897596737146234
 40
0.9924870601363284
 40
0.9979420050797913
 40
1.0
 40
1.0
 40
1.0
 40
1.0
 10
5694.988677302253
 20
5082.125152124677
 30
0.0
 10
5694.989572081073
 20
5082.184453561543
 30
0.0
 10
5694.991400611818
 20
5082.305639376583
 30
0.0
 10
5695.008532390526
 20
5083.775374190182
 30
0.0
 10
5695.037162207712
 20
5086.173053286629
 30
0.0
 10
5695.082014146899
 20
5089.698119626682
 30
0.0
 10
5695.141320854643
 20
5094.329784172077
 30
0.0
 10
5695.218444039994
 20
5099.933016412906
 30
0.0
 10
5695.313425137346
 20
5106.465827542887
 30
0.0
 10
5695.426446054606
 20
5113.811406022184
 30
0.0
 10
5695.556239570185
 20
5121.558709138601
 30
0.0
 10
5695.66617207537
 20
5127.618956895674
 30
0.0
 10
5695.731302068623
 20
5131.058367415533
 30
0.0
 10
5695.750353958131
 20
5132.048025379932
 30
0.0
 10
5695.758348108535
 20
5132.461645132445
 30
0.0
 10
5695.766397104441
 20
5132.876224580431
 30
0.0
 10
5695.77246598047
 20
5133.188208761014
 30
0.0
 10
5695.776967374797
 20
5133.417637578923
 30
0.0
 10
5695.778200426947
 20
5133.480484260831
 30
0.0
  0
ARC
  5
1B1
330
1F
100
AcDbEntity
  8
0
  6
Continuous
 62
     7
370
    25
100
AcDbCircle
 10
4774.1895440424
 20
5324.9432512942
 30
0.0
 40
3.544999999999959
100
AcDbArc
 50
115.3783794048
 51
183.9521333592
  0
ARC
  5
1B2
330
1F
100
AcDbEntity
  8
0
  6
Continuous
 62
     7
370
    25
100
AcDbCircle
 10
4775.6510503625
 20
5321.8623262259
 30
0.0
 40
3.545000000000923
100
AcDbArc
 50
226.8046254503
 51
295.3783794048
  0
ARC
  5
1B3
330
1F
100
AcDbEntity
  8
0
  6
Continuous
 62
     7
370
    25
100
AcDbCircle
 10
4855.6224475109
 20
5153.2788046761
 30
0.0
 40
3.544999999999691
100
AcDbArc
 50
115.3783794047
 51
183.9521333592
  0
ARC
  5
1B4
330
1F
100
AcDbEntity
  8
0
  6
Continuous
 62
     7
370
    25
100
AcDbCircle
 10
4857.0839538311
 20
5150.1978796079
 30
0.0
 40
3.54500000000026
100
AcDbArc
 50
226.8046254503
 51
295.3783794047
  0
ARC
  5
1B5
330
1F
100
AcDbEntity
  8
0
  6
Continuous
 62
     7
370
    25
100
AcDbCircle
 10
5116.9995852467
 20
5321.8623262259
 30
0.0
 40
3.5450000000003
100
AcDbArc
 50
244.6216205952
 51
313.1953745497
  0
ARC
  5
1B6
330
1F
100
AcDbEntity
  8
0
  6
Continuous
 62
     7
370
    25
100
AcDbCircle
 10
5118.4610915668
 20
5324.9432512942
 30
0.0
 40
3.545000000000349
100
AcDbArc
 50
356.0478666408
 51
64.6216205952
  0
ARC
  5
1B7
330
1F
100
AcDbEntity
  8
0
  6
Continuous
 62
     7
370
    25
100
AcDbCircle
 10
5035.5666817781
 20
5150.1978796079
 30
0.0
 40
3.544999999999638
100
AcDbArc
 50
244.6216205952
 51
313.1953745497
  0
ARC
  5
1B8
330
1F
100
AcDbEntity
  8
0
  6
Continuous
 62
     7
370
    25
100
AcDbCircle
 10
5037.0281880983
 20
5153.2788046761
 30
0.0
 40
3.545000000000599
100
AcDbArc
 50
356.0478666408
 51
64.6216205952
  0
LWPOLYLINE
  5
1B9
330
1F
100
AcDbEntity
  8
0
  6
Continuous
 62
     7
370
    25
100
AcDbPolyline
 90
       11
 70
   128
 43
0.0
 10
4770.6529803918
 20
5324.6989181625
 10
4770.6532635138
 20
5324.6983221161
 10
4770.7400031731
 20
5324.5154476153
 10
4770.9713437007
 20
5324.0277754503
 10
4771.3193752215
 20
5323.2941279548
 10
4771.7420913623
 20
5322.4029956745
 10
4772.1885450528
 20
5321.4618588226
 10
4772.6048685954
 20
5320.5842325824
 10
4772.9408450768
 20
5319.8759766655
 10
4773.1559582398
 20
5319.4225119787
 10
4773.2245333836
 20
5319.2779371875
  0
LWPOLYLINE
  5
1BA
330
1F
100
AcDbEntity
  8
0
  6
Continuous
 62
     7
370
    25
100
AcDbPolyline
 90
       11
 70
   128
 43
0.0
 10
4852.085874264
 20
5153.0344734328
 10
4852.0861573861
 20
5153.0338773864
 10
4852.1729119465
 20
5152.850995435
 10
4852.4042524741
 20
5152.3633251326
 10
4852.7522690938
 20
5151.6296813624
 10
4853.1750001357
 20
5150.7385472195
 10
4853.6214538262
 20
5149.7974047797
 10
4854.0377699182
 20
5148.91978599
 10
4854.3737463997
 20
5148.2115337985
 10
4854.5888595627
 20
5147.758061661
 10
4854.657442157
 20
5147.6134905951
  0
LWPOLYLINE
  5
1BB
330
1F
100
AcDbEntity
  8
0
  6
Continuous
 62
     7
370
    25
100
AcDbPolyline
 90
       11
 70
   128
 43
0.0
 10
5119.4261022256
 20
5319.2779371875
 10
5119.46080703
 20
5319.3511056142
 10
5119.637743418
 20
5319.7240965801
 10
5119.9442305014
 20
5320.3702034788
 10
5120.3433134005
 20
5321.2114876496
 10
5120.7868613646
 20
5322.1464852231
 10
5121.2213494227
 20
5323.0624186235
 10
5121.5943999932
 20
5323.8488125043
 10
5121.8609966681
 20
5324.4108172493
 10
5121.9889976428
 20
5324.6806456136
 10
5121.9976552174
 20
5324.6989181625
  0
LWPOLYLINE
  5
1BC
330
1F
100
AcDbEntity
  8
0
  6
Continuous
 62
     7
370
    25
100
AcDbPolyline
 90
       11
 70
   128
 43
0.0
 10
5037.9931934521
 20
5147.6134905951
 10
5038.0278982566
 20
5147.6866552966
 10
5038.2048420952
 20
5148.0596462624
 10
5038.5113366292
 20
5148.7057606118
 10
5038.9104195283
 20
5149.5470354693
 10
5039.3539525912
 20
5150.4820386308
 10
5039.7884480999
 20
5151.3979683059
 10
5040.1614912198
 20
5152.1843621867
 10
5040.4280878947
 20
5152.7463743823
 10
5040.5560888693
 20
5153.0162046092
 10
5040.5647613452
 20
5153.0344734328
  0
SPLINE
  5
1BD
330
1F
100
AcDbEntity
  8
0
  6
Continuous
 62
     7
370
    25
100
AcDbSpline
210
0.0
220
0.0
230
1.0
 70
     8
 71
     3
 72
    16
 73
    12
 74
     0
 42
0.000000001
 43
0.00000001
 40
0.0
 40
0.0
 40
0.0
 40
0.0
 40
0.2499999999999999
 40
0.2499999999999999
 40
0.4999999999999998
 40
0.4999999999999998
 40
0.7499999999999999
 40
0.7499999999999999
 40
0.8749999999999999
 40
0.8749999999999999
 40
1.0
 40
1.0
 40
1.0
 40
1.0
 10
4762.934109062777
 20
5348.670353781156
 30
0.0
 10
4771.462144685895
 20
5330.694009464327
 30
0.0
 10
4779.993395755187
 20
5312.719214795549
 30
0.0
 10
4797.074786704429
 20
5276.778766732426
 30
0.0
 10
4805.624155616717
 20
5258.812751174105
 30
0.0
 10
4822.774948892503
 20
5222.905744129756
 30
0.0
 10
4831.37446272778
 20
5204.964075206745
 30
0.0
 10
4844.381213828463
 20
5178.103642484841
 30
0.0
 10
4848.735460049653
 20
5169.159127543915
 30
0.0
 10
4857.50272191083
 20
5151.298735469562
 30
0.0
 10
4861.915941392223
 20
5142.383166082483
 30
0.0
 10
4866.371059011285
 20
5133.488173514138
 30
0.0
  0
SPLINE
  5
1BE
330
1F
100
AcDbEntity
  8
0
  6
Continuous
 62
     7
370
    25
100
AcDbSpline
210
0.0
220
0.0
230
1.0
 70
     8
 71
     3
 72
    53
 73
    49
 74
     0
 42
0.000000001
 43
0.00000001
 40
0.0
 40
0.0
 40
0.0
 40
0.0
 40
0.0022004343518558
 40
0.004415982980874
 40
0.0066467342620102
 40
0.0088927811993418
 40
0.0111542214319696
 40
0.0134311572377438
 40
0.0157236955348065
 40
0.0203275961515236
 40
0.0313932053154279
 40
0.0508481672612169
 40
0.0626645478051323
 40
0.0961371995704753
 40
0.1253833685339444
 40
0.1572621936942188
 40
0.1877255644167176
 40
0.2192444473413684
 40
0.2502844267799078
 40
0.2817308920821371
 40
0.312794564750051
 40
0.3439971063934781
 40
0.3751289316144946
 40
0.4167224942173376
 40
0.4584527818434227
 40
0.4999518773327549
 40
0.5414763671399846
 40
0.5832391302578828
 40
0.6248711624983445
 40
0.6559008827894237
 40
0.6873361797066225
 40
0.7183113384668476
 40
0.749908902009371
 40
0.7806899424389495
 40
0.812216268860438
 40
0.8430683309406757
 40
0.8748874575762509
 40
0.9044475645206668
 40
0.9372235928068571
 40
0.9491315657336615
 40
0.9686921883407219
 40
0.9733449509169502
 40
0.9779364289303887
 40
0.9824672611578071
 40
0.9869382356207399
 40
0.9913501841814067
 40
0.995703872565767
 40
1.0
 40
1.0
 40
1.0
 40
1.0
 10
5129.716526455322
 20
5348.670353589208
 30
0.0
 10
5129.712911159784
 20
5348.668724183571
 30
0.0
 10
5129.705655736077
 20
5348.665454180283
 30
0.0
 10
5129.683655309545
 20
5348.660582721546
 30
0.0
 10
5129.653261299862
 20
5348.655714548142
 30
0.0
 10
5129.613487416961
 20
5348.650853103518
 30
0.0
 10
5129.564362276456
 20
5348.645998288122
 30
0.0
 10
5129.505637884721
 20
5348.641146990313
 30
0.0
 10
5129.414287780811
 20
5348.634698026144
 30
0.0
 10
5129.198440003252
 20
5348.622075541707
 30
0.0
 10
5128.612702490938
 20
5348.597971939121
 30
0.0
 10
5127.522358078276
 20
5348.570128985359
 30
0.0
 10
5125.259164137836
 20
5348.529337606798
 30
0.0
 10
5121.662523687271
 20
5348.485410667403
 30
0.0
 10
5115.407379476062
 20
5348.434467844803
 30
0.0
 10
5107.805537390002
 20
5348.389683455406
 30
0.0
 10
5098.476862463429
 20
5348.348191353628
 30
0.0
 10
5087.799340856785
 20
5348.311391125461
 30
0.0
 10
5075.653059997936
 20
5348.278367033845
 30
0.0
 10
5062.331393637952
 20
5348.249588571974
 30
0.0
 10
5047.878908303242
 20
5348.224762923387
 30
0.0
 10
5032.510305512952
 20
5348.203978519883
 30
0.0
 10
5014.500287806469
 20
5348.185084329856
 30
0.0
 10
4993.703728287179
 20
5348.169776486551
 30
0.0
 10
4970.221778276026
 20
5348.159787185312
 30
0.0
 10
4946.348041135932
 20
5348.156393142866
 30
0.0
 10
4922.467584863692
 20
5348.15976164515
 30
0.0
 10
4898.966638649564
 20
5348.169753961402
 30
0.0
 10
4878.175166239295
 20
5348.185044719948
 30
0.0
 10
4860.1347576674
 20
5348.204010290364
 30
0.0
 10
4844.759171510033
 20
5348.22479708985
 30
0.0
 10
4830.264298289666
 20
5348.249682529408
 30
0.0
 10
4816.974723716694
 20
5348.278408052331
 30
0.0
 10
4804.844493058999
 20
5348.311404150924
 30
0.0
 10
4794.148447259841
 20
5348.348281588704
 30
0.0
 10
4784.792535935465
 20
5348.389901889715
 30
0.0
 10
4777.152453034468
 20
5348.435082408658
 30
0.0
 10
4770.948985028711
 20
5348.485859235941
 30
0.0
 10
4767.376973937993
 20
5348.529625129886
 30
0.0
 10
4765.128732914964
 20
5348.570097905823
 30
0.0
 10
4764.199147145989
 20
5348.593852869833
 30
0.0
 10
4763.665348461052
 20
5348.613453700899
 30
0.0
 10
4763.447935580392
 20
5348.622943815165
 30
0.0
 10
4763.270302429513
 20
5348.632427676064
 30
0.0
 10
4763.130782965891
 20
5348.64190382778
 30
0.0
 10
4763.028850072961
 20
5348.651375357274
 30
0.0
 10
4762.960029888691
 20
5348.660830954744
 30
0.0
 10
4762.942710921237
 20
5348.667193619313
 30
0.0
 10
4762.934109062795
 20
5348.670353781146
 30
0.0
  0
SPLINE
  5
1BF
330
1F
100
AcDbEntity
  8
0
  6
Continuous
 62
     7
370
    25
100
AcDbSpline
210
0.0
220
0.0
230
1.0
 70
     8
 71
     3
 72
    11
 73
     7
 74
     0
 42
0.000000001
 43
0.00000001
 40
0.0
 40
0.0
 40
0.0
 40
0.0
 40
0.0343726683618704
 40
0.7849018072811039
 40
0.8630874639818472
 40
0.9999999999999999
 40
0.9999999999999999
 40
0.9999999999999999
 40
0.9999999999999999
 10
5109.512881223932
 20
5306.106603367839
 30
0.0
 10
5109.744512207868
 20
5306.594209197215
 30
0.0
 10
5115.033818699872
 20
5317.72871562217
 30
0.0
 10
5120.845931637899
 20
5329.974319017058
 30
0.0
 10
5127.346908731694
 20
5343.675566442122
 30
0.0
 10
5128.794880266093
 20
5346.727660003014
 30
0.0
 10
5129.716531221643
 20
5348.670353543598
 30
0.0
  0
SPLINE
  5
1C0
330
1F
100
AcDbEntity
  8
0
  6
Continuous
 62
     7
370
    25
100
AcDbSpline
210
0.0
220
0.0
230
1.0
 70
    24
 71
     3
 72
    70
 73
    66
 74
     0
 42
0.000000001
 43
0.00000001
 40
0.0120738147448016
 40
0.0120738147448016
 40
0.0120738147448016
 40
0.0120738147448016
 40
0.0312499999999998
 40
0.0312499999999998
 40
0.0625
 40
0.0625
 40
0.0937499999999993
 40
0.0937499999999993
 40
0.125
 40
0.125
 40
0.1562499999999989
 40
0.1562499999999989
 40
0.1875
 40
0.1875
 40
0.2187499999999991
 40
0.2187499999999991
 40
0.25
 40
0.25
 40
0.2812499999999992
 40
0.2812499999999992
 40
0.3125
 40
0.3125
 40
0.3437499999999994
 40
0.3437499999999994
 40
0.375
 40
0.375
 40
0.4062499999999997
 40
0.4062499999999997
 40
0.4375
 40
0.4375
 40
0.46875
 40
0.46875
 40
0.5
 40
0.5
 40
0.5312500000000002
 40
0.5312500000000002
 40
0.5625
 40
0.5625
 40
0.5937500000000003
 40
0.5937500000000003
 40
0.625
 40
0.625
 40
0.6562500000000006
 40
0.6562500000000006
 40
0.6875
 40
0.6875
 40
0.7187500000000007
 40
0.7187500000000007
 40
0.75
 40
0.75
 40
0.7812500000000009
 40
0.7812500000000009
 40
0.8125
 40
0.8125
 40
0.843750000000001
 40
0.843750000000001
 40
0.875
 40
0.875
 40
0.9062500000000008
 40
0.9062500000000008
 40
0.9375
 40
0.9375
 40
0.9687500000000002
 40
0.9687500000000002
 40
0.9879098914314272
 40
0.9879098914314272
 40
0.9879098914314272
 40
0.9879098914314272
 10
4866.371059010631
 20
5133.488173514138
 30
0.0
 10
4867.100731712936
 20
5133.488173514138
 30
0.0
 10
4867.845352226015
 20
5133.488173514138
 30
0.0
 10
4869.84267677034
 20
5133.488173514138
 30
0.0
 10
4871.120094529614
 20
5133.488173514138
 30
0.0
 10
4873.754027545433
 20
5133.488173514138
 30
0.0
 10
4875.110555832985
 20
5133.488173514138
 30
0.0
 10
4877.901224989009
 20
5133.488173514138
 30
0.0
 10
4879.335365857482
 20
5133.488173514138
 30
0.0
 10
4882.27974919698
 20
5133.488173514138
 30
0.0
 10
4883.789999491614
 20
5133.488173514138
 30
0.0
 10
4886.883619895237
 20
5133.488173514138
 30
0.0
 10
4888.466990004224
 20
5133.488173514138
 30
0.0
 10
4891.703852601139
 20
5133.488173514138
 30
0.0
 10
4893.357345463114
 20
5133.488173514138
 30
0.0
 10
4896.729906989374
 20
5133.488173514138
 30
0.0
 10
4898.44897565366
 20
5133.488173514138
 30
0.0
 10
4901.94814145982
 20
5133.488173514138
 30
0.0
 10
4903.728229929559
 20
5133.488173514138
 30
0.0
 10
4907.343381960716
 20
5133.488173514138
 30
0.0
 10
4909.178445522135
 20
5133.488173514138
 30
0.0
 10
4912.897511695022
 20
5133.488173514138
 30
0.0
 10
4914.781496154385
 20
5133.488173514138
 30
0.0
 10
4918.591044513772
 20
5133.488173514138
 30
0.0
 10
4920.516608413796
 20
5133.488173514138
 30
0.0
 10
4924.401992349334
 20
5133.488173514138
 30
0.0
 10
4926.361785826912
 20
5133.488173514138
 30
0.0
 10
4930.307302361219
 20
5133.488173514138
 30
0.0
 10
4932.293025417948
 20
5133.488173514138
 30
0.0
 10
4936.282127670093
 20
5133.488173514138
 30
0.0
 10
4938.285474498113
 20
5133.488173514138
 30
0.0
 10
4942.300981078239
 20
5133.488173514138
 30
0.0
 10
4944.313140830345
 20
5133.488173514138
 30
0.0
 10
4948.337494778835
 20
5133.488173514138
 30
0.0
 10
4950.349654530941
 20
5133.488173514138
 30
0.0
 10
4954.365161111066
 20
5133.488173514138
 30
0.0
 10
4956.368507939086
 20
5133.488173514138
 30
0.0
 10
4960.357610191231
 20
5133.488173514138
 30
0.0
 10
4962.343333247961
 20
5133.488173514138
 30
0.0
 10
4966.288849782268
 20
5133.488173514138
 30
0.0
 10
4968.248643259845
 20
5133.488173514138
 30
0.0
 10
4972.134027195382
 20
5133.488173514138
 30
0.0
 10
4974.059591095408
 20
5133.488173514138
 30
0.0
 10
4977.869139454794
 20
5133.488173514138
 30
0.0
 10
4979.753123914157
 20
5133.488173514138
 30
0.0
 10
4983.472190087044
 20
5133.488173514138
 30
0.0
 10
4985.307253648463
 20
5133.488173514138
 30
0.0
 10
4988.922405679621
 20
5133.488173514138
 30
0.0
 10
4990.702494149358
 20
5133.488173514138
 30
0.0
 10
4994.20165995552
 20
5133.488173514138
 30
0.0
 10
4995.920728619805
 20
5133.488173514138
 30
0.0
 10
4999.293290146066
 20
5133.488173514138
 30
0.0
 10
5000.94678300804
 20
5133.488173514138
 30
0.0
 10
5004.183645604956
 20
5133.488173514138
 30
0.0
 10
5005.767015713944
 20
5133.488173514138
 30
0.0
 10
5008.860636117565
 20
5133.488173514138
 30
0.0
 10
5010.3708864122
 20
5133.488173514138
 30
0.0
 10
5013.315269751699
 20
5133.488173514138
 30
0.0
 10
5014.74941062017
 20
5133.488173514138
 30
0.0
 10
5017.540079776194
 20
5133.488173514138
 30
0.0
 10
5018.896608063746
 20
5133.488173514138
 30
0.0
 10
5021.530541079565
 20
5133.488173514138
 30
0.0
 10
5022.80795883884
 20
5133.488173514138
 30
0.0
 10
5024.80463800311
 20
5133.488173514138
 30
0.0
 10
5025.548638491411
 20
5133.488173514138
 30
0.0
 10
5026.277716578132
 20
5133.488173514138
 30
0.0
  0
LINE
  5
1C1
330
1F
100
AcDbEntity
  8
0
  6
Continuous
 62
     7
370
    25
100
AcDbLine
 10
5129.7165908263
 20
5348.6703849757
 30
0.0
 11
5126.3253398583
 21
5352.0616351581
 31
0.0
  0
LINE
  5
1C2
330
1F
100
AcDbEntity
  8
0
  6
Continuous
 62
     7
370
    25
100
AcDbLine
 10
5129.7165312216
 20
5348.6703537764
 30
0.0
 11
5129.7165908263
 21
5348.6703956859
 31
0.0
  0
SPLINE
  5
1C3
330
1F
100
AcDbEntity
  8
0
  6
Continuous
 62
     7
370
    25
100
AcDbSpline
210
0.0
220
0.0
230
1.0
 70
     8
 71
     3
 72
     8
 73
     4
 74
     0
 42
0.000000001
 43
0.00000001
 40
0.0
 40
0.0
 40
0.0
 40
0.0
 40
0.0000215569637174
 40
0.0000215569637174
 40
0.0000215569637174
 40
0.0000215569637174
 10
4762.934001797214
 20
5348.670471479122
 30
0.0
 10
4762.934025941448
 20
5348.670420581922
 30
0.0
 10
4762.934061681225
 20
5348.670381381712
 30
0.0
 10
4762.934109119678
 20
5348.6703536612
 30
0.0
  0
SPLINE
  5
1C4
330
1F
100
AcDbEntity
  8
0
  6
Continuous
 62
     7
370
    25
100
AcDbSpline
210
0.0
220
0.0
230
1.0
 70
    24
 71
     3
 72
    12
 73
     8
 74
     0
 42
0.000000001
 43
0.00000001
 40
0.0
 40
0.0
 40
0.0
 40
0.0
 40
0.1678648221466972
 40
0.335278737184676
 40
0.5022417593764337
 40
0.7498726452047637
 40
0.9999999999999999
 40
0.9999999999999999
 40
0.9999999999999999
 40
0.9999999999999999
 10
4762.934001798584
 20
5348.670471476232
 30
0.0
 10
4762.899760821555
 20
5348.742653089842
 30
0.0
 10
4762.831370843289
 20
5348.886822427705
 30
0.0
 10
4762.733770710842
 20
5349.092568164536
 30
0.0
 10
4762.624940596812
 20
5349.321987238456
 30
0.0
 10
4762.506592651706
 20
5349.571470354487
 30
0.0
 10
4762.424944729756
 20
5349.743588070327
 30
0.0
 10
4762.383916019279
 20
5349.830078549967
 30
0.0
  0
SPLINE
  5
1C5
330
1F
100
AcDbEntity
  8
0
  6
Continuous
 62
     7
370
    25
100
AcDbSpline
210
0.0
220
0.0
230
1.0
 70
     8
 71
     3
 72
    20
 73
    16
 74
     0
 42
0.000000001
 43
0.00000001
 40
0.0
 40
0.0
 40
0.0
 40
0.0
 40
0.125
 40
0.125
 40
0.2500000000000001
 40
0.2500000000000001
 40
0.3750000000000001
 40
0.3750000000000001
 40
0.5000000000000001
 40
0.5000000000000001
 40
0.6250000000000001
 40
0.6250000000000001
 40
0.7500000000000002
 40
0.7500000000000002
 40
1.0
 40
1.0
 40
1.0
 40
1.0
 10
4765.573324564945
 20
5352.061654104505
 30
0.0
 10
4765.572404556167
 20
5352.061654104551
 30
0.0
 10
4765.544141139742
 20
5352.042241144019
 30
0.0
 10
4765.439125971669
 20
5351.969159567014
 30
0.0
 10
4765.360859558348
 20
5351.914428151787
 30
0.0
 10
4765.167850589366
 20
5351.77928377013
 30
0.0
 10
4765.053309568349
 20
5351.699015365596
 30
0.0
 10
4764.794687237299
 20
5351.51777592255
 30
0.0
 10
4764.65195542693
 20
5351.417750097583
 30
0.0
 10
4764.350590483093
 20
5351.206606390451
 30
0.0
 10
4764.191081345693
 20
5351.094873734441
 30
0.0
 10
4763.857517660505
 20
5350.861283038579
 30
0.0
 10
4763.682722608356
 20
5350.738906398512
 30
0.0
 10
4763.145758836442
 20
5350.363056519774
 30
0.0
 10
4762.771157509621
 20
5350.100966486838
 30
0.0
 10
4762.383915901703
 20
5349.830078539274
 30
0.0
  0
SPLINE
  5
1C6
330
1F
100
AcDbEntity
  8
0
  6
Continuous
 62
     7
370
    25
100
AcDbSpline
210
0.0
220
0.0
230
1.0
 70
    24
 71
     3
 72
    74
 73
    70
 74
     0
 42
0.000000001
 43
0.00000001
 40
0.0
 40
0.0
 40
0.0
 40
0.0
 40
0.0393303542605243
 40
0.0790505333137795
 40
0.1191605386267255
 40
0.1821016038993155
 40
0.2135720254301202
 40
0.2293072096919267
 40
0.2371747953592873
 40
0.2411085865973516
 40
0.2420920337034737
 40
0.2430754425544437
 40
0.24504212638469
 40
0.2607814123673585
 40
0.2765832924325755
 40
0.2923943794871864
 40
0.3080931521524578
 40
0.3237448057132193
 40
0.3394150197571846
 40
0.3551702774380268
 40
0.3709964548913877
 40
0.3867119361269162
 40
0.4023674756379937
 40
0.4180289785811937
 40
0.4337626161043363
 40
0.4495937649221259
 40
0.4653283054355447
 40
0.4809901225831618
 40
0.4888155006014001
 40
0.4966474305710713
 40
0.5123621185194525
 40
0.528187817194558
 40
0.543943676810987
 40
0.559613962729968
 40
0.5752652050171357
 40
0.5909631967198808
 40
0.6067733243337202
 40
0.6225532369223098
 40
0.6382345089535946
 40
0.653884212540515
 40
0.6695681206372116
 40
0.6853532269721105
 40
0.7011590284165033
 40
0.7168541548367964
 40
0.732505005449929
 40
0.7481773892477964
 40
0.7639379583005734
 40
0.7797615014921438
 40
0.7954727645019344
 40
0.8111269178357479
 40
0.8267898782382535
 40
0.8425278595297186
 40
0.8583588514954582
 40
0.8740889864419968
 40
0.8897489418166148
 40
0.9054047917650553
 40
0.921122418702626
 40
0.9369514850797314
 40
0.9448389690611575
 40
0.9527298640601682
 40
0.9605899155571347
 40
0.9684528405408667
 40
0.9763192601024532
 40
0.9841870303670159
 40
0.9873489529652948
 40
0.9905106729282369
 40
0.9936727286685278
 40
0.9968356584273786
 40
0.9999999999999999
 40
0.9999999999999999
 40
0.9999999999999999
 40
0.9999999999999999
 10
4765.573324818876
 20
5352.061654104505
 30
0.0
 10
4765.609020048196
 20
5352.061654104505
 30
0.0
 10
4765.680764301903
 20
5352.061654104505
 30
0.0
 10
4765.7962245877
 20
5352.061654104505
 30
0.0
 10
4765.940764386514
 20
5352.061654104505
 30
0.0
 10
4766.085190180567
 20
5352.061654104505
 30
0.0
 10
4766.208626796518
 20
5352.061654104505
 30
0.0
 10
4766.27220535773
 20
5352.061654104505
 30
0.0
 10
4766.303615995926
 20
5352.061654104505
 30
0.0
 10
4766.31920679715
 20
5352.061654104505
 30
0.0
 10
4766.325406478966
 20
5352.061654104505
 30
0.0
 10
4766.332238180102
 20
5352.061654104505
 30
0.0
 10
4766.394364007906
 20
5352.061654104505
 30
0.0
 10
4766.808508208799
 20
5352.061654104505
 30
0.0
 10
4768.156300235369
 20
5352.061654104505
 30
0.0
 10
4770.260294459814
 20
5352.061654104505
 30
0.0
 10
4773.101471007123
 20
5352.061654104505
 30
0.0
 10
4776.660261783018
 20
5352.061654104505
 30
0.0
 10
4780.934920718984
 20
5352.061654104505
 30
0.0
 10
4785.924127506304
 20
5352.061654104505
 30
0.0
 10
4791.599758217974
 20
5352.061654104505
 30
0.0
 10
4797.918809303156
 20
5352.061654104505
 30
0.0
 10
4804.838873177993
 20
5352.061654104505
 30
0.0
 10
4812.354904839528
 20
5352.061654104505
 30
0.0
 10
4820.464670876996
 20
5352.061654104505
 30
0.0
 10
4829.121685458867
 20
5352.061654104505
 30
0.0
 10
4838.263034954386
 20
5352.061654104505
 30
0.0
 10
4846.233856499721
 20
5352.061654104505
 30
0.0
 10
4852.803899721542
 20
5352.061654104505
 30
0.0
 10
4859.515364200617
 20
5352.061654104505
 30
0.0
 10
4868.174410220198
 20
5352.061654104505
 30
0.0
 10
4878.906951495124
 20
5352.061654104505
 30
0.0
 10
4889.916463014054
 20
5352.061654104505
 30
0.0
 10
4901.122360628924
 20
5352.061654104505
 30
0.0
 10
4912.504454740063
 20
5352.061654104505
 30
0.0
 10
4924.062507545079
 20
5352.061654104505
 30
0.0
 10
4935.746952143843
 20
5352.061654104505
 30
0.0
 10
4947.472087428815
 20
5352.061654104505
 30
0.0
 10
4959.152448363112
 20
5352.061654104505
 30
0.0
 10
4970.755276665152
 20
5352.061654104505
 30
0.0
 10
4982.28085732098
 20
5352.061654104505
 30
0.0
 10
4993.692691820349
 20
5352.061654104505
 30
0.0
 10
5004.905506120995
 20
5352.061654104505
 30
0.0
 10
5015.838792739602
 20
5352.061654104505
 30
0.0
 10
5026.449248098312
 20
5352.061654104505
 30
0.0
 10
5036.737982832045
 20
5352.061654104505
 30
0.0
 10
5046.682369889922
 20
5352.061654104505
 30
0.0
 10
5056.207867789851
 20
5352.061654104505
 30
0.0
 10
5065.246679790162
 20
5352.061654104505
 30
0.0
 10
5073.754970893621
 20
5352.061654104505
 30
0.0
 10
5081.733706846457
 20
5352.061654104505
 30
0.0
 10
5089.170877736079
 20
5352.061654104505
 30
0.0
 10
5096.011578347858
 20
5352.061654104505
 30
0.0
 10
5102.206192171726
 20
5352.061654104505
 30
0.0
 10
5107.722667554226
 20
5352.061654104505
 30
0.0
 10
5112.561385372655
 20
5352.061654104505
 30
0.0
 10
5116.717252536894
 20
5352.061654104505
 30
0.0
 10
5119.586439027876
 20
5352.061654104505
 30
0.0
 10
5121.515289871688
 20
5352.061654104505
 30
0.0
 10
5122.772006901073
 20
5352.061654104505
 30
0.0
 10
5123.840974309493
 20
5352.061654104505
 30
0.0
 10
5124.721490133697
 20
5352.061654104505
 30
0.0
 10
5125.414268831006
 20
5352.061654104505
 30
0.0
 10
5125.817585922341
 20
5352.061654104505
 30
0.0
 10
5126.040596452946
 20
5352.061654104505
 30
0.0
 10
5126.159162849924
 20
5352.061654104505
 30
0.0
 10
5126.246487994406
 20
5352.061654104505
 30
0.0
 10
5126.305356141968
 20
5352.061654104505
 30
0.0
 10
5126.318688187306
 20
5352.061654104505
 30
0.0
 10
5126.325355697375
 20
5352.061654104505
 30
0.0
  0
SPLINE
  5
1C7
330
1F
100
AcDbEntity
  8
0
  6
Continuous
 62
     7
370
    25
100
AcDbSpline
210
0.0
220
0.0
230
1.0
 70
     8
 71
     3
 72
     8
 73
     4
 74
     0
 42
0.000000001
 43
0.00000001
 40
0.0
 40
0.0
 40
0.0
 40
0.0
 40
1.0
 40
1.0
 40
1.0
 40
1.0
 10
4866.371039573241
 20
5133.488163761662
 30
0.0
 10
4866.370863524523
 20
5133.486174739049
 30
0.0
 10
4866.370686599359
 20
5133.484183287358
 30
0.0
 10
4866.370508797801
 20
5133.482189406579
 30
0.0
  0
LWPOLYLINE
  5
1C8
330
1F
100
AcDbEntity
  8
0
  6
Continuous
 62
     7
370
    25
100
AcDbPolyline
 90
        3
 70
   128
 43
0.0
 10
5026.2798898266
 20
5133.4817210572
 10
5026.2788094924
 20
5133.484939708
 10
5026.2777366088
 20
5133.4881583588
  0
SPLINE
  5
1C9
330
1F
100
AcDbEntity
  8
0
  6
Continuous
 62
     7
370
    25
100
AcDbSpline
210
0.0
220
0.0
230
1.0
 70
     8
 71
     3
 72
    62
 73
    58
 74
     0
 42
0.000000001
 43
0.00000001
 40
0.0
 40
0.0
 40
0.0
 40
0.0
 40
0.0312500000000002
 40
0.0312500000000002
 40
0.0625000000000005
 40
0.0625000000000005
 40
0.1250000000000009
 40
0.1250000000000009
 40
0.1875000000000014
 40
0.1875000000000014
 40
0.2031250000000017
 40
0.2031250000000017
 40
0.218750000000002
 40
0.218750000000002
 40
0.2500000000000021
 40
0.2500000000000021
 40
0.3125000000000018
 40
0.3125000000000018
 40
0.3437500000000019
 40
0.3437500000000019
 40
0.3593750000000019
 40
0.3593750000000019
 40
0.375000000000002
 40
0.375000000000002
 40
0.4375000000000023
 40
0.4375000000000023
 40
0.4687500000000024
 40
0.4687500000000024
 40
0.5000000000000026
 40
0.5000000000000026
 40
0.5625000000000029
 40
0.5625000000000029
 40
0.5937500000000031
 40
0.5937500000000031
 40
0.6093750000000032
 40
0.6093750000000032
 40
0.6250000000000033
 40
0.6250000000000033
 40
0.6875000000000037
 40
0.6875000000000037
 40
0.750000000000004
 40
0.750000000000004
 40
0.7656250000000042
 40
0.7656250000000042
 40
0.7812500000000043
 40
0.7812500000000043
 40
0.8125000000000038
 40
0.8125000000000038
 40
0.8750000000000027
 40
0.8750000000000027
 40
0.906250000000002
 40
0.906250000000002
 40
0.9375000000000013
 40
0.9375000000000013
 40
0.9687500000000007
 40
0.9687500000000007
 40
1.0
 40
1.0
 40
1.0
 40
1.0
 10
4866.370508797801
 20
5133.482189406579
 30
0.0
 10
4867.309652786788
 20
5131.63282664594
 30
0.0
 10
4868.313011037318
 20
5129.815473606211
 30
0.0
 10
4870.439315448688
 20
5126.258030021771
 30
0.0
 10
4871.562602107732
 20
5124.516994774925
 30
0.0
 10
4875.11356364376
 20
5119.407391000033
 30
0.0
 10
4877.68726864261
 20
5116.200493576457
 30
0.0
 10
4883.233104803987
 20
5110.177026509889
 30
0.0
 10
4886.205660302613
 20
5107.359986412614
 30
0.0
 10
4890.172943861095
 20
5104.084042275677
 30
0.0
 10
4890.979065915822
 20
5103.441205095211
 30
0.0
 10
4892.617022262944
 20
5102.180606206778
 30
0.0
 10
4893.450492349905
 20
5101.561701128357
 30
0.0
 10
4895.975494870756
 20
5099.753721564559
 30
0.0
 10
4897.691398358791
 20
5098.612895926944
 30
0.0
 10
4902.935289743066
 20
5095.380880391504
 30
0.0
 10
4906.558968608128
 20
5093.479181908197
 30
0.0
 10
4912.183020807964
 20
5090.999980247215
 30
0.0
 10
4914.08929820964
 20
5090.236142427003
 30
0.0
 10
4916.997173326347
 20
5089.186346553874
 30
0.0
 10
4917.974550283356
 20
5088.85242540274
 30
0.0
 10
4919.945771150171
 20
5088.217191789472
 30
0.0
 10
4920.939029312023
 20
5087.916103110731
 30
0.0
 10
4925.915878700674
 20
5086.502051818499
 30
0.0
 10
4929.95469713996
 20
5085.653752577097
 30
0.0
 10
4936.09783802859
 20
5084.800319244341
 30
0.0
 10
4938.165787130894
 20
5084.585825366164
 30
0.0
 10
4942.285892758407
 20
5084.302671713798
 30
0.0
 10
4944.341040626537
 20
5084.233150149009
 30
0.0
 10
4950.491974864514
 20
5084.237733097723
 30
0.0
 10
4954.573339897059
 20
5084.523691453795
 30
0.0
 10
4960.666793820059
 20
5085.372680898899
 30
0.0
 10
4962.693160297803
 20
5085.725968897365
 30
0.0
 10
4965.725348823821
 20
5086.364039510364
 30
0.0
 10
4966.736672871812
 20
5086.595234290028
 30
0.0
 10
4968.747393633547
 20
5087.092029060552
 30
0.0
 10
4969.745644161681
 20
5087.357265818319
 30
0.0
 10
4974.701740865675
 20
5088.766714797215
 30
0.0
 10
4978.554804244731
 20
5090.159101255608
 30
0.0
 10
4986.044642115041
 20
5093.456148164501
 30
0.0
 10
4989.681577529023
 20
5095.360428726867
 30
0.0
 10
4994.086638918527
 20
5098.074987695799
 30
0.0
 10
4994.960823690539
 20
5098.634992661741
 30
0.0
 10
4996.681676268577
 20
5099.779863607538
 30
0.0
 10
4997.530071178267
 20
5100.365736268027
 30
0.0
 10
5000.039664247283
 20
5102.163104527846
 30
0.0
 10
5001.665341114096
 20
5103.414271874948
 30
0.0
 10
5006.403064124045
 20
5107.32335837228
 30
0.0
 10
5009.376865077127
 20
5110.13567460837
 30
0.0
 10
5013.555131746399
 20
5114.669584172845
 30
0.0
 10
5014.900586590951
 20
5116.233714945964
 30
0.0
 10
5017.495066101748
 20
5119.4696728854
 30
0.0
 10
5018.733193479786
 20
5121.127950523923
 30
0.0
 10
5021.092105013564
 20
5124.523429971408
 30
0.0
 10
5022.212979430307
 20
5126.260749516143
 30
0.0
 10
5024.337188764575
 20
5129.814800146708
 30
0.0
 10
5025.340865344268
 20
5131.632626379437
 30
0.0
 10
5026.27988943509
 20
5133.481726324339
 30
0.0
  0
SPLINE
  5
1CA
330
1F
100
AcDbEntity
  8
0
  6
Continuous
 62
     7
370
    25
100
AcDbSpline
210
0.0
220
0.0
230
1.0
 70
     8
 71
     3
 72
    14
 73
    10
 74
     0
 42
0.000000001
 43
0.00000001
 40
0.0
 40
0.0
 40
0.0
 40
0.0
 40
0.25
 40
0.25
 40
0.5
 40
0.5
 40
0.75
 40
0.75
 40
1.0
 40
1.0
 40
1.0
 40
1.0
 10
5026.279889435089
 20
5133.481726324335
 30
0.0
 10
5026.459026177879
 20
5133.399163489648
 30
0.0
 10
5026.617226680954
 20
5133.32692618006
 30
0.0
 10
5026.893507838773
 20
5133.20223978149
 30
0.0
 10
5027.01213682353
 20
5133.149553787923
 30
0.0
 10
5027.204655263323
 20
5133.066101849525
 30
0.0
 10
5027.277085373278
 20
5133.035953243931
 30
0.0
 10
5027.375850795254
 20
5132.998051872035
 30
0.0
 10
5027.402054706194
 20
5132.990416579273
 30
0.0
 10
5027.403983100581
 20
5132.994418467212
 30
0.0
  0
SPLINE
  5
1CB
330
1F
100
AcDbEntity
  8
0
  6
Continuous
 62
     7
370
    25
100
AcDbSpline
210
0.0
220
0.0
230
1.0
 70
     8
 71
     3
 72
    66
 73
    62
 74
     0
 42
0.000000001
 43
0.00000001
 40
0.0
 40
0.0
 40
0.0
 40
0.0
 40
0.03125
 40
0.03125
 40
0.0625000000000001
 40
0.0625000000000001
 40
0.0937500000000001
 40
0.0937500000000001
 40
0.1250000000000002
 40
0.1250000000000002
 40
0.1875000000000007
 40
0.1875000000000007
 40
0.218750000000001
 40
0.218750000000001
 40
0.2343750000000008
 40
0.2343750000000008
 40
0.2500000000000007
 40
0.2500000000000007
 40
0.3125000000000006
 40
0.3125000000000006
 40
0.3750000000000005
 40
0.3750000000000005
 40
0.3906250000000004
 40
0.3906250000000004
 40
0.4062500000000004
 40
0.4062500000000004
 40
0.4375000000000003
 40
0.4375000000000003
 40
0.5000000000000001
 40
0.5000000000000001
 40
0.53125
 40
0.53125
 40
0.546875
 40
0.546875
 40
0.5624999999999999
 40
0.5624999999999999
 40
0.6249999999999998
 40
0.6249999999999998
 40
0.6406249999999998
 40
0.6406249999999998
 40
0.6562499999999997
 40
0.6562499999999997
 40
0.6874999999999996
 40
0.6874999999999996
 40
0.749999999999999
 40
0.749999999999999
 40
0.7812499999999988
 40
0.7812499999999988
 40
0.7968749999999988
 40
0.7968749999999988
 40
0.8124999999999989
 40
0.8124999999999989
 40
0.8749999999999993
 40
0.8749999999999993
 40
0.9062499999999996
 40
0.9062499999999996
 40
0.9374999999999997
 40
0.9374999999999997
 40
0.9687499999999999
 40
0.9687499999999999
 40
1.0
 40
1.0
 40
1.0
 40
1.0
 10
5027.403983100571
 20
5132.99441846719
 30
0.0
 10
5026.481563306993
 20
5131.080172775156
 30
0.0
 10
5025.490325095493
 20
5129.197430557721
 30
0.0
 10
5023.383026695523
 20
5125.515960348922
 30
0.0
 10
5022.2665745186
 20
5123.715970484282
 30
0.0
 10
5019.908608266501
 20
5120.197133962053
 30
0.0
 10
5018.666426349525
 20
5118.477394253458
 30
0.0
 10
5016.05828454575
 20
5115.123659841447
 30
0.0
 10
5014.702665583344
 20
5113.502847156008
 30
0.0
 10
5010.484450468982
 20
5108.804983049462
 30
0.0
 10
5007.471763540031
 20
5105.891143623045
 30
0.0
 10
5002.657797560723
 20
5101.84116483883
 30
0.0
 10
5001.003744240901
 20
5100.544895512071
 30
0.0
 10
4998.447095510027
 20
5098.682679973079
 30
0.0
 10
4997.582269102263
 20
5098.075656601308
 30
0.0
 10
4995.826951952969
 20
5096.889520809194
 30
0.0
 10
4994.934847582478
 20
5096.309458920476
 30
0.0
 10
4990.441713852061
 20
5093.500555664248
 30
0.0
 10
4986.72753473115
 20
5091.531585185982
 30
0.0
 10
4979.070227286688
 20
5088.125867485036
 30
0.0
 10
4975.127077001505
 20
5086.689159327459
 30
0.0
 10
4970.049949267773
 20
5085.237737240942
 30
0.0
 10
4969.027074371988
 20
5084.964767841696
 30
0.0
 10
4966.96625616247
 20
5084.453854518365
 30
0.0
 10
4965.931089718639
 20
5084.216660116472
 30
0.0
 10
4962.826165655546
 20
5083.562455197921
 30
0.0
 10
4960.751033897778
 20
5083.201229230487
 30
0.0
 10
4954.510462896083
 20
5082.3369282208
 30
0.0
 10
4950.329943767263
 20
5082.051829693191
 30
0.0
 10
4944.028622238855
 20
5082.065661040409
 30
0.0
 10
4941.923069653653
 20
5082.144164585746
 30
0.0
 10
4938.756955084366
 20
5082.374458372255
 30
0.0
 10
4937.698726359201
 20
5082.470181143308
 30
0.0
 10
4935.587558109641
 20
5082.6988598303
 30
0.0
 10
4934.535771681557
 20
5082.83162543764
 30
0.0
 10
4929.29566070787
 20
5083.586776545816
 30
0.0
 10
4925.163424027684
 20
5084.481316331524
 30
0.0
 10
4920.074065301427
 20
5085.967900649171
 30
0.0
 10
4919.0583882235
 20
5086.284303283559
 30
0.0
 10
4917.044868088327
 20
5086.950933965544
 30
0.0
 10
4916.046810194716
 20
5087.30114433518
 30
0.0
 10
4913.078283240007
 20
5088.401566798638
 30
0.0
 10
4911.133418570711
 20
5089.201487780988
 30
0.0
 10
4905.399219068907
 20
5091.796158853429
 30
0.0
 10
4901.709621500944
 20
5093.784557626615
 30
0.0
 10
4896.378770319603
 20
5097.162275995894
 30
0.0
 10
4894.635901822197
 20
5098.354340273174
 30
0.0
 10
4892.073692668361
 20
5100.243570416952
 30
0.0
 10
4891.229340987726
 20
5100.889539441732
 30
0.0
 10
4889.571158640973
 20
5102.204977727781
 30
0.0
 10
4888.755713316878
 20
5102.87562069087
 30
0.0
 10
4884.745777699512
 20
5106.292565299589
 30
0.0
 10
4881.751846672915
 20
5109.228825586883
 30
0.0
 10
4877.580147272833
 20
5113.935458469688
 30
0.0
 10
4876.243044063016
 20
5115.55495724402
 30
0.0
 10
4873.676612737591
 20
5118.896011558475
 30
0.0
 10
4872.446068118898
 20
5120.619399912605
 30
0.0
 10
4870.100954087867
 20
5124.163293459854
 30
0.0
 10
4868.992774890969
 20
5125.97386933601
 30
0.0
 10
4866.90497707367
 20
5129.6721557053
 30
0.0
 10
4865.925263155574
 20
5131.560449719391
 30
0.0
 10
4865.014230848834
 20
5133.480478153224
 30
0.0
  0
SPLINE
  5
1CC
330
1F
100
AcDbEntity
  8
0
  6
Continuous
 62
     7
370
    25
100
AcDbSpline
210
0.0
220
0.0
230
1.0
 70
     8
 71
     3
 72
    20
 73
    16
 74
     0
 42
0.000000001
 43
0.00000001
 40
0.0
 40
0.0
 40
0.0
 40
0.0
 40
0.4999999999999905
 40
0.4999999999999905
 40
0.7499999999999852
 40
0.7499999999999852
 40
0.8749999999999929
 40
0.8749999999999929
 40
0.9375000000000079
 40
0.9375000000000079
 40
0.9687500000000153
 40
0.9687500000000153
 40
0.9843750000000077
 40
0.9843750000000077
 40
1.0
 40
1.0
 40
1.0
 40
1.0
 10
4866.370508797801
 20
5133.482189406579
 30
0.0
 10
4865.981159893339
 20
5133.374630376115
 30
0.0
 10
4865.678980586184
 20
5133.299510974086
 30
0.0
 10
4865.345985006721
 20
5133.263541614873
 30
0.0
 10
4865.257825421978
 20
5133.264475770319
 30
0.0
 10
4865.156433545034
 20
5133.295621966122
 30
0.0
 10
4865.127894041287
 20
5133.310746578964
 30
0.0
 10
4865.08990212833
 20
5133.347170048409
 30
0.0
 10
4865.078112432323
 20
5133.361445049176
 30
0.0
 10
4865.059446034726
 20
5133.390774582641
 30
0.0
 10
4865.053106195126
 20
5133.401778453103
 30
0.0
 10
4865.041890030101
 20
5133.423272841061
 30
0.0
 10
4865.037868277219
 20
5133.431266875148
 30
0.0
 10
4865.028201716612
 20
5133.451087740694
 30
0.0
 10
4865.022342346589
 20
5133.463382923762
 30
0.0
 10
4865.014230848807
 20
5133.480478153282
 30
0.0
  0
SPLINE
  5
1CD
330
1F
100
AcDbEntity
  8
0
  6
Continuous
 62
     7
370
    25
100
AcDbSpline
210
0.0
220
0.0
230
1.0
 70
     8
 71
     3
 72
    22
 73
    18
 74
     0
 42
0.000000001
 43
0.00000001
 40
0.0
 40
0.0
 40
0.0
 40
0.0
 40
0.2500000000000001
 40
0.2500000000000001
 40
0.5
 40
0.5
 40
0.7499999999999999
 40
0.7499999999999999
 40
0.8749999999999999
 40
0.8749999999999999
 40
0.9374999999999999
 40
0.9374999999999999
 40
0.9687499999999999
 40
0.9843749999999999
 40
0.9921875
 40
0.9921875
 40
1.0
 40
1.0
 40
1.0
 40
1.0
 10
5129.716590896926
 20
5348.670381012169
 30
0.0
 10
5121.190364114196
 20
5330.696688069209
 30
0.0
 10
5112.664147001357
 20
5312.723015510845
 30
0.0
 10
5095.611775747629
 20
5276.775803141983
 30
0.0
 10
5087.085622622451
 20
5258.80226547266
 30
0.0
 10
5070.033440031716
 20
5222.855450814396
 30
0.0
 10
5061.507469058463
 20
5204.882297130021
 30
0.0
 10
5048.718863003487
 20
5177.923305273721
 30
0.0
 10
5044.456053937669
 20
5168.937100335016
 30
0.0
 10
5038.061963353293
 20
5155.458052247084
 30
0.0
 10
5035.930615327258
 20
5150.96506889692
 30
0.0
 10
5032.733653808369
 20
5144.225721451066
 30
0.0
 10
5031.135187900295
 20
5140.856079035536
 30
0.0
 10
5029.270338835374
 20
5136.924888213148
 30
0.0
 10
5028.471123968349
 20
5135.240105133669
 30
0.0
 10
5027.938315447873
 20
5134.116919346044
 30
0.0
 10
5027.67384756886
 20
5133.554452954148
 30
0.0
 10
5027.403983100571
 20
5132.99441846719
 30
0.0
  0
SPLINE
  5
1CE
330
1F
100
AcDbEntity
  8
0
  6
Continuous
 62
     7
370
    25
100
AcDbSpline
210
0.0
220
0.0
230
1.0
 70
    24
 71
     3
 72
    14
 73
    10
 74
     0
 42
0.000000001
 43
0.00000001
 40
0.0
 40
0.0
 40
0.0
 40
0.0
 40
0.25
 40
0.25
 40
0.5
 40
0.5
 40
0.75
 40
0.75
 40
1.0
 40
1.0
 40
1.0
 40
1.0
 10
4865.010579932882
 20
5133.488173514138
 30
0.0
 10
4856.505236494098
 20
5151.41784337147
 30
0.0
 10
4847.999172650761
 20
5169.34903187598
 30
0.0
 10
4830.986739763497
 20
5205.212052262413
 30
0.0
 10
4822.480313265221
 20
5223.144005260842
 30
0.0
 10
4805.467243502525
 20
5259.008368211075
 30
0.0
 10
4796.960625380774
 20
5276.940725160934
 30
0.0
 10
4779.94735022439
 20
5312.805521090864
 30
0.0
 10
4771.440680934341
 20
5330.737985905937
 30
0.0
 10
4762.934001798584
 20
5348.670471476233
 30
0.0
  0
LINE
  5
1CF
330
1F
100
AcDbEntity
  8
0
  6
Continuous
 62
     7
370
    25
100
AcDbLine
 10
4865.0142334745
 20
5133.4804842608
 30
0.0
 11
4865.01058269
 21
5133.48817326
 31
0.0
  0
SPLINE
  5
1D0
330
1F
100
AcDbEntity
  8
0
  6
Continuous
 62
     8
370
    25
100
AcDbSpline
210
0.0
220
0.0
230
1.0
 70
     8
 71
     3
 72
    14
 73
    10
 74
     0
 42
0.000000001
 43
0.00000001
 40
0.0
 40
0.0
 40
0.0
 40
0.0
 40
0.0000003477253239
 40
0.1067721414637911
 40
0.3345640908318275
 40
0.5623577657854183
 40
0.6244506513876068
 40
0.9783483124766805
 40
1.0
 40
1.0
 40
1.0
 40
1.0
 10
5026.277714257017
 20
5133.488173260007
 30
0.0
 10
5026.277724191124
 20
5133.488193128222
 30
0.0
 10
5029.328079912631
 20
5139.588904545013
 30
0.0
 10
5038.847805848839
 20
5158.72336613095
 30
0.0
 10
5054.574190398409
 20
5191.022047103901
 30
0.0
 10
5068.880980918992
 20
5220.836350996583
 30
0.0
 10
5086.617346135529
 20
5257.940463236563
 30
0.0
 10
5098.625717760996
 20
5283.187248720581
 30
0.0
 10
5108.91941484326
 20
5304.857254398646
 30
0.0
 10
5109.512881223932
 20
5306.106603367839
 30
0.0
  0
ARC
  5
1D1
330
1F
100
AcDbEntity
  8
0
  6
Continuous
 62
     7
370
    25
100
AcDbCircle
 10
4946.3253178046
 20
4509.9326088978
 30
0.0
 40
5.250000000000252
100
AcDbArc
 50
273.4113080701
 51
76.9848866666
  0
LWPOLYLINE
  5
1D2
330
1F
100
AcDbEntity
  8
0
  6
Continuous
 62
     7
370
    25
100
AcDbPolyline
 90
        9
 70
   128
 43
0.0
 10
4946.6377105791
 20
4504.6919128252
 10
4946.7358126357
 20
4505.859716828
 10
4946.8429530616
 20
4507.1351072145
 10
4946.9562573003
 20
4508.4838709188
 10
4947.0726853696
 20
4509.8698279215
 10
4947.1891133807
 20
4511.2557849241
 10
4947.3024176777
 20
4512.6045486284
 10
4947.4095580744
 20
4513.879939015
 10
4947.507660102
 20
4515.0477430178
  0
ARC
  5
1D3
330
1F
100
AcDbEntity
  8
0
  6
Continuous
 62
     7
370
    25
100
AcDbCircle
 10
4946.3253178046
 20
4509.9326088978
 30
0.0
 40
5.250000000000096
100
AcDbArc
 50
93.4113080701
 51
256.9848866667
  0
LWPOLYLINE
  5
1D4
330
1F
100
AcDbEntity
  8
0
  6
Continuous
 62
     7
370
    25
100
AcDbPolyline
 90
        9
 70
   128
 43
0.0
 10
4946.0129250301
 20
4515.173300202
 10
4945.9148229734
 20
4514.0055111004
 10
4945.8076825476
 20
4512.7301058126
 10
4945.6943783088
 20
4511.3813421083
 10
4945.5779502395
 20
4509.9953851057
 10
4945.4615222284
 20
4508.6094430042
 10
4945.3482179315
 20
4507.2606792999
 10
4945.2410775347
 20
4505.9852740122
 10
4945.1429755072
 20
4504.8174849106
  0
ARC
  5
1D5
330
1F
100
AcDbEntity
  8
0
  6
Continuous
 62
     7
370
    25
100
AcDbCircle
 10
4946.3253178046
 20
4509.9326088978
 30
0.0
 40
5.25000000000015
100
AcDbArc
 50
256.9848866667
 51
273.4113080701
  0
ARC
  5
1D6
330
1F
100
AcDbEntity
  8
0
  6
Continuous
 62
     7
370
    25
100
AcDbCircle
 10
4946.3253178046
 20
4509.9326088978
 30
0.0
 40
5.250000000000252
100
AcDbArc
 50
76.9848866666
 51
93.4113080701
  0
CIRCLE
  5
1D7
330
1F
100
AcDbEntity
  8
0
  6
Continuous
 62
     7
370
    25
100
AcDbCircle
 10
4946.3253178046
 20
4509.9326088978
 30
0.0
 40
6.053826642915019
  0
SPLINE
  5
1D8
330
1F
100
AcDbEntity
  8
0
  6
Continuous
 62
     7
370
    25
100
AcDbSpline
210
0.0
220
0.0
230
1.0
 70
    11
 71
     3
 72
    26
 73
    22
 74
     0
 42
0.000000001
 43
0.00000001
 40
0.0
 40
0.0
 40
0.0
 40
0.0
 40
0.0511769452379609
 40
0.1023235959130663
 40
0.1543282121626042
 40
0.2082211947967595
 40
0.2639621936320797
 40
0.320702689249334
 40
0.3770724930073751
 40
0.431842613969576
 40
0.4845744858504229
 40
0.5357827329843221
 40
0.5865786008136501
 40
0.638157026649566
 40
0.6913871604134886
 40
0.7465214374000018
 40
0.8030331857410666
 40
0.8597100648119727
 40
0.9151615505834636
 40
0.9685625035382078
 40
0.9999999999999999
 40
0.9999999999999999
 40
0.9999999999999999
 40
0.9999999999999999
 10
4963.168960844055
 20
4489.238827521888
 30
0.0
 10
4963.442458996396
 20
4489.508694796621
 30
0.0
 10
4963.989293401866
 20
4490.048269596199
 30
0.0
 10
4964.422678791441
 20
4491.134174576474
 30
0.0
 10
4964.508281891477
 20
4492.290914496603
 30
0.0
 10
4964.203380152566
 20
4493.437577237086
 30
0.0
 10
4963.52136075306
 20
4494.440637024471
 30
0.0
 10
4962.521155435457
 20
4495.166501234227
 30
0.0
 10
4961.326519615593
 20
4495.506366359281
 30
0.0
 10
4960.100959245411
 20
4495.417586559587
 30
0.0
 10
4959.001520636897
 20
4494.932977095481
 30
0.0
 10
4958.142190090487
 20
4494.134047248576
 30
0.0
 10
4957.592559576251
 20
4493.11577936349
 30
0.0
 10
4957.396249949633
 20
4491.973614898616
 30
0.0
 10
4957.581080479074
 20
4490.811334162026
 30
0.0
 10
4958.150526367625
 20
4489.75069481163
 30
0.0
 10
4959.062037650056
 20
4488.92688391265
 30
0.0
 10
4960.213723163003
 20
4488.458932807946
 30
0.0
 10
4961.445027614962
 20
4488.419263989798
 30
0.0
 10
4962.464472081972
 20
4488.73249976417
 30
0.0
 10
4962.978488405426
 20
4489.101931821135
 30
0.0
 10
4963.168960844055
 20
4489.238827521888
 30
0.0
  0
SPLINE
  5
1D9
330
1F
100
AcDbEntity
  8
0
  6
Continuous
 62
     7
370
    25
100
AcDbSpline
210
0.0
220
0.0
230
1.0
 70
    11
 71
     3
 72
    26
 73
    22
 74
     0
 42
0.000000001
 43
0.00000001
 40
0.0
 40
0.0
 40
0.0
 40
0.0
 40
0.0533128778354201
 40
0.1066116486354317
 40
0.1602679889358789
 40
0.214425395570065
 40
0.268879356348489
 40
0.3232935549519277
 40
0.3773472241572602
 40
0.4308828610899371
 40
0.4839745081313131
 40
0.5368867355175233
 40
0.5899544311035821
 40
0.6434435412181294
 40
0.6974446144110926
 40
0.7518309588204711
 40
0.8062995493597894
 40
0.8605041748957379
 40
0.9142130119424704
 40
0.9674195157927954
 40
1.0
 40
1.0
 40
1.0
 40
1.0
 10
4953.455384668782
 20
4496.277927453605
 30
0.0
 10
4953.734050525102
 20
4496.556696132693
 30
0.0
 10
4954.291308500415
 20
4497.114159726332
 30
0.0
 10
4954.717620708309
 20
4498.238613201664
 30
0.0
 10
4954.773525266265
 20
4499.426747523935
 30
0.0
 10
4954.425098696636
 20
4500.577242465252
 30
0.0
 10
4953.711611238532
 20
4501.550044127713
 30
0.0
 10
4952.711719036726
 20
4502.230164247127
 30
0.0
 10
4951.544812468232
 20
4502.536454545496
 30
0.0
 10
4950.348968543384
 20
4502.43764376785
 30
0.0
 10
4949.259789759191
 20
4501.952215144431
 30
0.0
 10
4948.394341122095
 20
4501.139244066613
 30
0.0
 10
4947.843462514397
 20
4500.08796115006
 30
0.0
 10
4947.667723578115
 20
4498.909963465247
 30
0.0
 10
4947.891952624673
 20
4497.733073154488
 30
0.0
 10
4948.497951256834
 20
4496.691381063564
 30
0.0
 10
4949.419554967795
 20
4495.909519661827
 30
0.0
 10
4950.54971814608
 20
4495.479970554948
 30
0.0
 10
4951.748426505465
 20
4495.455597990677
 30
0.0
 10
4952.750434566948
 20
4495.76752737839
 30
0.0
 10
4953.261348121239
 20
4496.137440533746
 30
0.0
 10
4953.455384668782
 20
4496.277927453605
 30
0.0
  0
SPLINE
  5
1DA
330
1F
100
AcDbEntity
  8
0
  6
Continuous
 62
     7
370
    25
100
AcDbSpline
210
0.0
220
0.0
230
1.0
 70
    11
 71
     3
 72
    26
 73
    22
 74
     0
 42
0.000000001
 43
0.00000001
 40
0.0
 40
0.0
 40
0.0
 40
0.0
 40
0.0564438866935471
 40
0.1129173841200892
 40
0.1684328635678817
 40
0.2219698407705215
 40
0.2736773553538097
 40
0.3244888880363097
 40
0.3756228740370898
 40
0.4281198278313645
 40
0.4825082061349862
 40
0.5385809786800815
 40
0.5953647585404814
 40
0.6514539737633019
 40
0.7057138067180151
 40
0.7579134771516339
 40
0.8087996478273822
 40
0.8596306390332118
 40
0.9116108943877957
 40
0.9654679100251765
 40
1.0
 40
1.0
 40
1.0
 40
1.0
 10
4930.412226204649
 20
4492.473377878753
 30
0.0
 10
4930.715641685105
 20
4492.746197131404
 30
0.0
 10
4931.322631819232
 20
4493.291978758992
 30
0.0
 10
4931.810779476054
 20
4494.444767113584
 30
0.0
 10
4931.897552458776
 20
4495.67157071717
 30
0.0
 10
4931.562767190566
 20
4496.839388892626
 30
0.0
 10
4930.878863145368
 20
4497.805172726931
 30
0.0
 10
4929.937072184689
 20
4498.485348983676
 30
0.0
 10
4928.832907661249
 20
4498.827544457944
 30
0.0
 10
4927.665172702132
 20
4498.797714622193
 30
0.0
 10
4926.547973896601
 20
4498.380541764419
 30
0.0
 10
4925.612937919694
 20
4497.597231193598
 30
0.0
 10
4924.990865931823
 20
4496.525969337056
 30
0.0
 10
4924.77457061025
 20
4495.304459780875
 30
0.0
 10
4924.985123589011
 20
4494.100105074443
 30
0.0
 10
4925.571248136262
 20
4493.061095666623
 30
0.0
 10
4926.442887812998
 20
4492.287423536121
 30
0.0
 10
4927.506213369194
 20
4491.836286865168
 30
0.0
 10
4928.661671105268
 20
4491.751261477905
 30
0.0
 10
4929.667898873962
 20
4491.997899055541
 30
0.0
 10
4930.203123305582
 20
4492.339802237661
 30
0.0
 10
4930.412226204649
 20
4492.473377878753
 30
0.0
  0
SPLINE
  5
1DB
330
1F
100
AcDbEntity
  8
0
  6
Continuous
 62
     7
370
    25
100
AcDbSpline
210
0.0
220
0.0
230
1.0
 70
    11
 71
     3
 72
    26
 73
    22
 74
     0
 42
0.000000001
 43
0.00000001
 40
0.0
 40
0.0
 40
0.0
 40
0.0
 40
0.056285722374429
 40
0.1126076996982854
 40
0.1678364051209183
 40
0.2210447903617137
 40
0.2725327838334068
 40
0.3233131349618881
 40
0.3746051868629482
 40
0.4273857553762345
 40
0.482078106051898
 40
0.5383472649966184
 40
0.5951162392711588
 40
0.6509715244742151
 40
0.7048890853704892
 40
0.7568077376610614
 40
0.8075959605673924
 40
0.8585376465809882
 40
0.9107858637365696
 40
0.9649624632093925
 40
1.0
 40
1.0
 40
1.0
 40
1.0
 10
4924.013306234851
 20
4502.796336109725
 30
0.0
 10
4924.406059527267
 20
4502.903231739257
 30
0.0
 10
4925.191819093675
 20
4503.117091852294
 30
0.0
 10
4926.145491525903
 20
4503.924947028899
 30
0.0
 10
4926.774570286856
 20
4504.978207863552
 30
0.0
 10
4927.00296037041
 20
4506.166645013867
 30
0.0
 10
4926.831828438082
 20
4507.333200889942
 30
0.0
 10
4926.302734990381
 20
4508.365048242083
 30
0.0
 10
4925.47406863487
 20
4509.172191421359
 30
0.0
 10
4924.416995914496
 20
4509.676971730072
 30
0.0
 10
4923.227559753144
 20
4509.811289471476
 30
0.0
 10
4922.035807985776
 20
4509.533723204241
 30
0.0
 10
4920.996284348053
 20
4508.857015555834
 30
0.0
 10
4920.253600516909
 20
4507.865403594341
 30
0.0
 10
4919.898830578018
 20
4506.699878560366
 30
0.0
 10
4919.950553162588
 20
4505.512986534205
 30
0.0
 10
4920.374673660027
 20
4504.430783927109
 30
0.0
 10
4921.116741098597
 20
4503.545657680866
 30
0.0
 10
4922.109986094704
 20
4502.943805657694
 30
0.0
 10
4923.125271892592
 20
4502.706065098544
 30
0.0
 10
4923.762890806443
 20
4502.770880727133
 30
0.0
 10
4924.013306234851
 20
4502.796336109725
 30
0.0
  0
SPLINE
  5
1DC
330
1F
100
AcDbEntity
  8
0
  6
Continuous
 62
     7
370
    25
100
AcDbSpline
210
0.0
220
0.0
230
1.0
 70
    11
 71
     3
 72
    26
 73
    22
 74
     0
 42
0.000000001
 43
0.00000001
 40
0.0
 40
0.0
 40
0.0
 40
0.0
 40
0.0533272808397288
 40
0.1066677543749373
 40
0.1597160567808487
 40
0.2126290847217667
 40
0.265739367601699
 40
0.3192962131329493
 40
0.3733610534539924
 40
0.427777554514262
 40
0.4822291490189607
 40
0.5363752854880445
 40
0.590010458282772
 40
0.6431609037926742
 40
0.6960683888231369
 40
0.7490762387694494
 40
0.8024800295504743
 40
0.8564042480942916
 40
0.9107490835306514
 40
0.9652268996738591
 40
1.0
 40
1.0
 40
1.0
 40
1.0
 10
4936.566889134124
 20
4508.4179928852
 30
0.0
 10
4936.849340045384
 20
4508.69146044202
 30
0.0
 10
4937.414311743752
 20
4509.238463209105
 30
0.0
 10
4937.859832543136
 20
4510.357154522397
 30
0.0
 10
4937.933772522863
 20
4511.541000238549
 30
0.0
 10
4937.609769557163
 20
4512.684494655529
 30
0.0
 10
4936.930330629756
 20
4513.657497967162
 30
0.0
 10
4935.964710321723
 20
4514.356341432444
 30
0.0
 10
4934.815626898952
 20
4514.698970685068
 30
0.0
 10
4933.611264226739
 20
4514.639781972758
 30
0.0
 10
4932.492791843762
 20
4514.180553349897
 30
0.0
 10
4931.59336444779
 20
4513.375093312917
 30
0.0
 10
4931.016405410584
 20
4512.32138799859
 30
0.0
 10
4930.821902349427
 20
4511.143698510395
 30
0.0
 10
4931.024507407192
 20
4509.973325862151
 30
0.0
 10
4931.598949539033
 20
4508.93518586484
 30
0.0
 10
4932.484555437774
 20
4508.140930045352
 30
0.0
 10
4933.59008630618
 20
4507.679341929303
 30
0.0
 10
4934.788962933208
 20
4507.614558245175
 30
0.0
 10
4935.821634129898
 20
4507.900210981319
 30
0.0
 10
4936.357939063806
 20
4508.272820340753
 30
0.0
 10
4936.566889134124
 20
4508.4179928852
 30
0.0
  0
SPLINE
  5
1DD
330
1F
100
AcDbEntity
  8
0
  6
Continuous
 62
     7
370
    25
100
AcDbSpline
210
0.0
220
0.0
230
1.0
 70
    11
 71
     3
 72
    26
 73
    22
 74
     0
 42
0.000000001
 43
0.00000001
 40
0.0
 40
0.0
 40
0.0
 40
0.0
 40
0.0536646788506259
 40
0.1072711005789339
 40
0.1623360320993172
 40
0.2188187671241894
 40
0.275515967818604
 40
0.331031689221418
 40
0.3845095501767931
 40
0.436104044350379
 40
0.4868176717577607
 40
0.5379487787344102
 40
0.5905676251383487
 40
0.6451524004109835
 40
0.7013763097216841
 40
0.7581539407492591
 40
0.8140781744928711
 40
0.868138702914459
 40
0.9202422327902879
 40
0.9711680645742776
 40
0.9999999999999999
 40
0.9999999999999999
 40
0.9999999999999999
 40
0.9999999999999999
 10
4944.854738388099
 20
4530.108972485153
 30
0.0
 10
4945.13640759307
 20
4530.389857576529
 30
0.0
 10
4945.699440229499
 20
4530.951322836984
 30
0.0
 10
4946.126053587348
 20
4532.07936391965
 30
0.0
 10
4946.181999713845
 20
4533.279328405512
 30
0.0
 10
4945.817835614775
 20
4534.454004862691
 30
0.0
 10
4945.067393757526
 20
4535.442707152055
 30
0.0
 10
4944.027240534379
 20
4536.110718308531
 30
0.0
 10
4942.845372438162
 20
4536.381089376921
 30
0.0
 10
4941.670960103901
 20
4536.248880540008
 30
0.0
 10
4940.622374702089
 20
4535.754506183091
 30
0.0
 10
4939.78928175176
 20
4534.954991883776
 30
0.0
 10
4939.249560607244
 20
4533.918346762719
 30
0.0
 10
4939.073743478876
 20
4532.736476013217
 30
0.0
 10
4939.30836356419
 20
4531.536763575093
 30
0.0
 10
4939.947281214627
 20
4530.473822887413
 30
0.0
 10
4940.911917061204
 20
4529.695863805731
 30
0.0
 10
4942.066839679983
 20
4529.298465913659
 30
0.0
 10
4943.254777457928
 20
4529.311799571152
 30
0.0
 10
4944.205703639487
 20
4529.635563978794
 30
0.0
 10
4944.682411477656
 20
4529.983276556773
 30
0.0
 10
4944.854738388099
 20
4530.108972485153
 30
0.0
  0
SPLINE
  5
1DE
330
1F
100
AcDbEntity
  8
0
  6
Continuous
 62
     7
370
    25
100
AcDbSpline
210
0.0
220
0.0
230
1.0
 70
    11
 71
     3
 72
    26
 73
    22
 74
     0
 42
0.000000001
 43
0.00000001
 40
0.0
 40
0.0
 40
0.0
 40
0.0
 40
0.0563806850764025
 40
0.1127945893774105
 40
0.1681740730886973
 40
0.2214953242916039
 40
0.2729831765793852
 40
0.3236816682010006
 40
0.3748882883008775
 40
0.4276410316652087
 40
0.4823642301334713
 40
0.538670134414227
 40
0.5954310458552099
 40
0.6512424228488599
 40
0.705149634207559
 40
0.7571315348342926
 40
0.8080148852083
 40
0.8590049671320097
 40
0.9112014977347072
 40
0.9652445915076517
 40
1.0
 40
1.0
 40
1.0
 40
1.0
 10
4957.842357304767
 20
4530.331387217132
 30
0.0
 10
4957.950657671668
 20
4530.724357843838
 30
0.0
 10
4958.167322215519
 20
4531.510530633626
 30
0.0
 10
4957.95736909031
 20
4532.743745926824
 30
0.0
 10
4957.370225557172
 20
4533.822578503956
 30
0.0
 10
4956.461839316118
 20
4534.624521355972
 30
0.0
 10
4955.369882322712
 20
4535.0700283709
 30
0.0
 10
4954.213545946986
 20
4535.138849004652
 30
0.0
 10
4953.098718589308
 20
4534.836548788984
 30
0.0
 10
4952.126921128392
 20
4534.184382011855
 30
0.0
 10
4951.405578265369
 20
4533.229190990512
 30
0.0
 10
4951.037502155541
 20
4532.061630104858
 30
0.0
 10
4951.090914127281
 20
4530.822048665793
 30
0.0
 10
4951.566392535391
 20
4529.67817108626
 30
0.0
 10
4952.388957666033
 20
4528.779447536813
 30
0.0
 10
4953.437772371167
 20
4528.219326051702
 30
0.0
 10
4954.587121499764
 20
4528.033781256611
 30
0.0
 10
4955.728125728718
 20
4528.223500891056
 30
0.0
 10
4956.751238013235
 20
4528.773662268069
 30
0.0
 10
4957.469843236929
 20
4529.525641128302
 30
0.0
 10
4957.737570021892
 20
4530.104732841834
 30
0.0
 10
4957.842357304767
 20
4530.331387217132
 30
0.0
  0
SPLINE
  5
1DF
330
1F
100
AcDbEntity
  8
0
  6
Continuous
 62
     7
370
    25
100
AcDbSpline
210
0.0
220
0.0
230
1.0
 70
    11
 71
     3
 72
    26
 73
    22
 74
     0
 42
0.000000001
 43
0.00000001
 40
0.0
 40
0.0
 40
0.0
 40
0.0
 40
0.0544577558730957
 40
0.1089166501524446
 40
0.1633087544112638
 40
0.21731078770778
 40
0.2707844131125166
 40
0.3238277754754304
 40
0.3767294423326661
 40
0.4298337176000875
 40
0.4833945974330193
 40
0.5374693645360713
 40
0.5918921057011698
 40
0.6463402398419572
 40
0.7004774776673273
 40
0.7541086510654859
 40
0.8072658759232264
 40
0.8601860412124855
 40
0.9132012941745102
 40
0.966600217194183
 40
0.9999999999999999
 40
0.9999999999999999
 40
0.9999999999999999
 40
0.9999999999999999
 10
4955.581846495047
 20
4516.95880203971
 30
0.0
 10
4955.863188223531
 20
4517.242074568521
 30
0.0
 10
4956.425877561778
 20
4517.808625547784
 30
0.0
 10
4956.848562291601
 20
4518.95363656028
 30
0.0
 10
4956.888296348937
 20
4520.15739716244
 30
0.0
 10
4956.518296165424
 20
4521.306721506255
 30
0.0
 10
4955.793157255249
 20
4522.261020096002
 30
0.0
 10
4954.799329992037
 20
4522.918483103417
 30
0.0
 10
4953.649367854971
 20
4523.211863621483
 30
0.0
 10
4952.466574266392
 20
4523.112185975611
 30
0.0
 10
4951.377769033867
 20
4522.627491575624
 30
0.0
 10
4950.504830736195
 20
4521.8052766791
 30
0.0
 10
4949.951838514497
 20
4520.733606339252
 30
0.0
 10
4949.788084477964
 20
4519.535629580308
 30
0.0
 10
4950.033690565157
 20
4518.353595517427
 30
0.0
 10
4950.6558414316
 20
4517.32588008672
 30
0.0
 10
4951.576897228458
 20
4516.567024244496
 30
0.0
 10
4952.692102223457
 20
4516.154293364955
 30
0.0
 10
4953.875239596723
 20
4516.133867215553
 30
0.0
 10
4954.872700148745
 20
4516.44401750802
 30
0.0
 10
4955.384794650106
 20
4516.815757882117
 30
0.0
 10
4955.581846495047
 20
4516.95880203971
 30
0.0
  0
SPLINE
  5
1E0
330
1F
100
AcDbEntity
  8
0
  6
Continuous
 62
     7
370
    25
100
AcDbSpline
210
0.0
220
0.0
230
1.0
 70
    11
 71
     3
 72
    26
 73
    22
 74
     0
 42
0.000000001
 43
0.00000001
 40
0.0
 40
0.0
 40
0.0
 40
0.0
 40
0.0512097645402427
 40
0.1024487521191489
 40
0.1531535819676077
 40
0.2043007107781035
 40
0.2569509229472033
 40
0.3115684674405597
 40
0.367811392622632
 40
0.4245820414541812
 40
0.4804745285666647
 40
0.5344924876393402
 40
0.5865611971914297
 40
0.637472405811743
 40
0.6884241806700159
 40
0.7405330581169159
 40
0.7944696809315072
 40
0.8502109034057762
 40
0.9069463933212729
 40
0.9633192663315635
 40
1.0
 40
1.0
 40
1.0
 40
1.0
 10
4970.17945799686
 20
4498.949705655662
 30
0.0
 10
4970.453435765075
 20
4499.21563995717
 30
0.0
 10
4971.001547647918
 20
4499.747660316561
 30
0.0
 10
4971.445913241402
 20
4500.832690721614
 30
0.0
 10
4971.538118034387
 20
4501.981324401384
 30
0.0
 10
4971.254512657016
 20
4503.102168024681
 30
0.0
 10
4970.620552221728
 20
4504.083999263325
 30
0.0
 10
4969.679760338893
 20
4504.821696970774
 30
0.0
 10
4968.520484673074
 20
4505.210977426493
 30
0.0
 10
4967.280569834981
 20
4505.180987083759
 30
0.0
 10
4966.127355295669
 20
4504.726929844249
 30
0.0
 10
4965.21246458839
 20
4503.920161731513
 30
0.0
 10
4964.632800191495
 20
4502.880307143087
 30
0.0
 10
4964.42677677657
 20
4501.733147167673
 30
0.0
 10
4964.596857476573
 20
4500.590116347297
 30
0.0
 10
4965.127212277737
 20
4499.553945435202
 30
0.0
 10
4965.980619786096
 20
4498.73054870565
 30
0.0
 10
4967.085091252773
 20
4498.224000371466
 30
0.0
 10
4968.312834966663
 20
4498.1248351039
 30
0.0
 10
4969.393672453575
 20
4498.403716605575
 30
0.0
 10
4969.957287134799
 20
4498.795334200283
 30
0.0
 10
4970.17945799686
 20
4498.949705655662
 30
0.0
  0
CIRCLE
  5
1E1
330
1F
100
AcDbEntity
  8
0
  6
Continuous
 62
     7
370
    25
100
AcDbCircle
 10
4946.3253178046
 20
4509.9326088978
 30
0.0
 40
31.99999999999977
  0
SPLINE
  5
1E2
330
1F
100
AcDbEntity
  8
0
  6
Continuous
 62
     7
370
    25
100
AcDbSpline
210
0.0
220
0.0
230
1.0
 70
    11
 71
     3
 72
    26
 73
    22
 74
     0
 42
0.000000001
 43
0.00000001
 40
0.0
 40
0.0
 40
0.0
 40
0.0
 40
0.0533244984651527
 40
0.1066625867962769
 40
0.1597014032772148
 40
0.2126026445106291
 40
0.2657108901822795
 40
0.3192772889404518
 40
0.3733573851364103
 40
0.4277819340534756
 40
0.4822275262293537
 40
0.5363582578019254
 40
0.5899823080652234
 40
0.6431340259395527
 40
0.696052302664416
 40
0.7490700439658673
 40
0.8024745349200607
 40
0.8563914165653739
 40
0.9107289809239983
 40
0.9652080301312045
 40
1.0
 40
1.0
 40
1.0
 40
1.0
 10
4960.44859554328
 20
4505.974753792373
 30
0.0
 10
4960.73032400564
 20
4506.248908310628
 30
0.0
 10
4961.293852729478
 20
4506.797287216024
 30
0.0
 10
4961.736538937304
 20
4507.916983724483
 30
0.0
 10
4961.807546053875
 20
4509.100835231586
 30
0.0
 10
4961.480858312369
 20
4510.243314850709
 30
0.0
 10
4960.799268419238
 20
4511.214615504971
 30
0.0
 10
4959.832001171965
 20
4511.911237466735
 30
0.0
 10
4958.681941068309
 20
4512.251217966483
 30
0.0
 10
4957.477527720947
 20
4512.189115218071
 30
0.0
 10
4956.360155685854
 20
4511.727106639294
 30
0.0
 10
4955.462777141273
 20
4510.919541953969
 30
0.0
 10
4954.888406972337
 20
4509.864580783501
 30
0.0
 10
4954.69667492631
 20
4508.686436339912
 30
0.0
 10
4954.902103179008
 20
4507.516382162963
 30
0.0
 10
4955.47920502609
 20
4506.479468147953
 30
0.0
 10
4956.366897285695
 20
4505.687376080359
 30
0.0
 10
4957.473539367549
 20
4505.2285720062
 30
0.0
 10
4958.672462248419
 20
4505.166778333705
 30
0.0
 10
4959.704447507836
 20
4505.454979971051
 30
0.0
 10
4960.239908196254
 20
4505.828989489225
 30
0.0
 10
4960.44859554328
 20
4505.974753792373
 30
0.0
  0
SPLINE
  5
1E3
330
1F
100
AcDbEntity
  8
0
  6
Continuous
 62
     7
370
    25
100
AcDbSpline
210
0.0
220
0.0
230
1.0
 70
    11
 71
     3
 72
    26
 73
    22
 74
     0
 42
0.000000001
 43
0.00000001
 40
0.0
 40
0.0
 40
0.0
 40
0.0
 40
0.0537247637925829
 40
0.1075114450991282
 40
0.159812422565306
 40
0.2107441138553089
 40
0.2615385608671483
 40
0.3134177591643686
 40
0.3671479971916342
 40
0.4227607367346801
 40
0.4794659997749315
 40
0.5359150779789095
 40
0.5908400880825768
 40
0.6437246175134831
 40
0.6950170538742935
 40
0.7457981551544797
 40
0.7972733217623186
 40
0.850350332291787
 40
0.9053393289822266
 40
0.9617761647072023
 40
1.0
 40
1.0
 40
1.0
 40
1.0
 10
4971.456619758978
 20
4510.93029886016
 30
0.0
 10
4971.732717852499
 20
4511.210351574519
 30
0.0
 10
4972.285232241174
 20
4511.770779762548
 30
0.0
 10
4972.705879100283
 20
4512.907906146179
 30
0.0
 10
4972.74616324484
 20
4514.092905815361
 30
0.0
 10
4972.399433400185
 20
4515.208683535366
 30
0.0
 10
4971.723231328436
 20
4516.14356844193
 30
0.0
 10
4970.778514172616
 20
4516.818126121713
 30
0.0
 10
4969.645388193058
 20
4517.157356505913
 30
0.0
 10
4968.435448165994
 20
4517.101336712193
 30
0.0
 10
4967.294470779297
 20
4516.630215826312
 30
0.0
 10
4966.378734386201
 20
4515.790754209786
 30
0.0
 10
4965.811596528663
 20
4514.698770496155
 30
0.0
 10
4965.648971427924
 20
4513.505887379702
 30
0.0
 10
4965.88134814275
 20
4512.353814322976
 30
0.0
 10
4966.462995879425
 20
4511.352621899092
 30
0.0
 10
4967.333594774153
 20
4510.589418064887
 30
0.0
 10
4968.420222381516
 20
4510.139202575868
 30
0.0
 10
4969.616265582273
 20
4510.073439424907
 30
0.0
 10
4970.676522677906
 20
4510.366960539864
 30
0.0
 10
4971.232227140402
 20
4510.768256258152
 30
0.0
 10
4971.456619758978
 20
4510.93029886016
 30
0.0
  0
SPLINE
  5
1E4
330
1F
100
AcDbEntity
  8
0
  6
Continuous
 62
     7
370
    25
100
AcDbSpline
210
0.0
220
0.0
230
1.0
 70
    11
 71
     3
 72
    26
 73
    22
 74
     0
 42
0.000000001
 43
0.00000001
 40
0.0
 40
0.0
 40
0.0
 40
0.0
 40
0.0562064788356522
 40
0.1124517484719529
 40
0.1675299371636564
 40
0.220516038724203
 40
0.271794085390206
 40
0.3224880899084657
 40
0.3738839206038651
 40
0.4269416787600568
 40
0.4819647701525652
 40
0.5384338058687305
 40
0.5951340733520584
 40
0.6506845907900896
 40
0.704260206289495
 40
0.7559946122134612
 40
0.8068117085747482
 40
0.8579287181019742
 40
0.9103927352489573
 40
0.9647447519426023
 40
1.0
 40
1.0
 40
1.0
 40
1.0
 10
4966.651384566799
 20
4521.970137055007
 30
0.0
 10
4966.924172370445
 20
4522.271580112675
 30
0.0
 10
4967.469936241754
 20
4522.874674268397
 30
0.0
 10
4967.837640298559
 20
4524.067952833074
 30
0.0
 10
4967.800381182117
 20
4525.29232327718
 30
0.0
 10
4967.354704173827
 20
4526.413847682167
 30
0.0
 10
4966.586502106528
 20
4527.302896906389
 30
0.0
 10
4965.589357147494
 20
4527.88881286133
 30
0.0
 10
4964.457653659918
 20
4528.126502018278
 30
0.0
 10
4963.292022796495
 20
4527.985945618117
 30
0.0
 10
4962.212310373916
 20
4527.458684017941
 30
0.0
 10
4961.354239418654
 20
4526.580465093103
 30
0.0
 10
4960.842702722048
 20
4525.448952682055
 30
0.0
 10
4960.751427074437
 20
4524.21572073277
 30
0.0
 10
4961.07786950959
 20
4523.04655009586
 30
0.0
 10
4961.756323234804
 20
4522.075684925414
 30
0.0
 10
4962.693854412742
 20
4521.389868445857
 30
0.0
 10
4963.796707949607
 20
4521.040115044122
 30
0.0
 10
4964.960954389795
 20
4521.065871021973
 30
0.0
 10
4965.948614997636
 20
4521.412729404342
 30
0.0
 10
4966.452955791574
 20
4521.812751587174
 30
0.0
 10
4966.651384566799
 20
4521.970137055007
 30
0.0
  0
SPLINE
  5
1E5
330
1F
100
AcDbEntity
  8
0
  6
Continuous
 62
     7
370
    25
100
AcDbSpline
210
0.0
220
0.0
230
1.0
 70
    11
 71
     3
 72
    26
 73
    22
 74
     0
 42
0.000000001
 43
0.00000001
 40
0.0
 40
0.0
 40
0.0
 40
0.0
 40
0.0533138593904413
 40
0.1066141095698499
 40
0.1602642187471222
 40
0.2144105015402583
 40
0.2688603138367949
 40
0.3232810749758611
 40
0.3773454770464491
 40
0.4308853850876754
 40
0.4839705332391621
 40
0.5368708307361126
 40
0.5899324017094589
 40
0.6434273743153146
 40
0.6974421831542291
 40
0.7518362653467737
 40
0.8063012131940395
 40
0.8604932189331329
 40
0.9141919572280577
 40
0.9673997727270021
 40
1.0
 40
1.0
 40
1.0
 40
1.0
 10
4943.641229846403
 20
4518.180518443672
 30
0.0
 10
4943.919648513282
 20
4518.459556451763
 30
0.0
 10
4944.476414776245
 20
4519.017561239051
 30
0.0
 10
4944.901677214248
 20
4520.142489804551
 30
0.0
 10
4944.956424257448
 20
4521.330659037477
 30
0.0
 10
4944.606944964587
 20
4522.480697781536
 30
0.0
 10
4943.892670112389
 20
4523.452757825595
 30
0.0
 10
4942.892201399878
 20
4524.132019817826
 30
0.0
 10
4941.72493394013
 20
4524.437265883683
 30
0.0
 10
4940.529127368332
 20
4524.337375828112
 30
0.0
 10
4939.440500107092
 20
4523.850950389075
 30
0.0
 10
4938.575913129085
 20
4523.03739627187
 30
0.0
 10
4938.025952609671
 20
4521.985852753418
 30
0.0
 10
4937.851108630822
 20
4520.80774822994
 30
0.0
 10
4938.076267782872
 20
4519.630892009304
 30
0.0
 10
4938.683247736234
 20
4518.589565873155
 30
0.0
 10
4939.60557930903
 20
4517.808482593484
 30
0.0
 10
4940.736034833576
 20
4517.379933883258
 30
0.0
 10
4941.934648660067
 20
4517.356564267208
 30
0.0
 10
4942.936487900802
 20
4517.669305466407
 30
0.0
 10
4943.447199922761
 20
4518.039771017522
 30
0.0
 10
4943.641229846403
 20
4518.180518443672
 30
0.0
  0
SPLINE
  5
1E6
330
1F
100
AcDbEntity
  8
0
  6
Continuous
 62
     7
370
    25
100
AcDbSpline
210
0.0
220
0.0
230
1.0
 70
    11
 71
     3
 72
    26
 73
    22
 74
     0
 42
0.000000001
 43
0.00000001
 40
0.0
 40
0.0
 40
0.0
 40
0.0
 40
0.0512330776982244
 40
0.1024380849157009
 40
0.1544536149152495
 40
0.2082798784824282
 40
0.2639337257128641
 40
0.3206478186957584
 40
0.3770827588483687
 40
0.4319444158383347
 40
0.4847025505516626
 40
0.5358510311295055
 40
0.5865629061965888
 40
0.6381080600620839
 40
0.6913861323017684
 40
0.7466139410736419
 40
0.8031792141507631
 40
0.8598153374682647
 40
0.9151696318151685
 40
0.9685140811539341
 40
1.0
 40
1.0
 40
1.0
 40
1.0
 10
4933.900554512516
 20
4525.197445447532
 30
0.0
 10
4934.174331730641
 20
4525.467634546112
 30
0.0
 10
4934.721736165008
 20
4526.007864707311
 30
0.0
 10
4935.155034388899
 20
4527.09535447355
 30
0.0
 10
4935.23956808415
 20
4528.25301266176
 30
0.0
 10
4934.933514873267
 20
4529.399040966978
 30
0.0
 10
4934.251404456902
 20
4530.400614046679
 30
0.0
 10
4933.251730130189
 20
4531.125536386603
 30
0.0
 10
4932.057005288315
 20
4531.465195808768
 30
0.0
 10
4930.830663323429
 20
4531.375869190845
 30
0.0
 10
4929.731220580652
 20
4530.890296373488
 30
0.0
 10
4928.873047678027
 20
4530.091406293189
 30
0.0
 10
4928.324416733261
 20
4529.074518966427
 30
0.0
 10
4928.127925463643
 20
4527.933694771323
 30
0.0
 10
4928.312104606672
 20
4526.771359775369
 30
0.0
 10
4928.881663923709
 20
4525.709578802993
 30
0.0
 10
4929.794142279055
 20
4524.885053720454
 30
0.0
 10
4930.94629272751
 20
4524.417398863407
 30
0.0
 10
4932.176907243712
 20
4524.37806810947
 30
0.0
 10
4933.195788819592
 20
4524.690976875122
 30
0.0
 10
4933.709779892904
 20
4525.060348324025
 30
0.0
 10
4933.900554512516
 20
4525.197445447532
 30
0.0
  0
SPLINE
  5
1E7
330
1F
100
AcDbEntity
  8
0
  6
Continuous
 62
     7
370
    25
100
AcDbSpline
210
0.0
220
0.0
230
1.0
 70
    11
 71
     3
 72
    26
 73
    22
 74
     0
 42
0.000000001
 43
0.00000001
 40
0.0
 40
0.0
 40
0.0
 40
0.0
 40
0.051248665895127
 40
0.102524062627491
 40
0.1533114441262656
 40
0.2045351467461206
 40
0.257198649585405
 40
0.3117682234068732
 40
0.367960136817799
 40
0.4247380466767008
 40
0.4806893556448827
 40
0.5347436417354632
 40
0.5867710196922858
 40
0.6375935293769907
 40
0.6884853400267167
 40
0.7406222358030432
 40
0.7946693183783049
 40
0.8505266104863944
 40
0.9072882972482669
 40
0.9635685241445663
 40
1.0
 40
1.0
 40
1.0
 40
1.0
 10
4926.867588271275
 20
4515.468372995941
 30
0.0
 10
4927.140431230417
 20
4515.736141094118
 30
0.0
 10
4927.6862594611
 20
4516.27181695587
 30
0.0
 10
4928.124625841622
 20
4517.360551812203
 30
0.0
 10
4928.209805854334
 20
4518.511218279519
 30
0.0
 10
4927.918216307517
 20
4519.631733271625
 30
0.0
 10
4927.276728414122
 20
4520.60974394559
 30
0.0
 10
4926.330774439165
 20
4521.340464396765
 30
0.0
 10
4925.169543278525
 20
4521.721341260642
 30
0.0
 10
4923.930341294846
 20
4521.68297294496
 30
0.0
 10
4922.780006909243
 20
4521.221062249479
 30
0.0
 10
4921.870516080317
 20
4520.407748197781
 30
0.0
 10
4921.2984120859
 20
4519.364408860427
 30
0.0
 10
4921.100249660433
 20
4518.217545508435
 30
0.0
 10
4921.276927857559
 20
4517.077219654589
 30
0.0
 10
4921.812841041316
 20
4516.044539971629
 30
0.0
 10
4922.671590419974
 20
4515.225331613799
 30
0.0
 10
4923.780773061154
 20
4514.724930711493
 30
0.0
 10
4925.010386402622
 20
4514.633924714552
 30
0.0
 10
4926.088045109009
 20
4514.919996105294
 30
0.0
 10
4926.647678027462
 20
4515.313675088806
 30
0.0
 10
4926.867588271275
 20
4515.468372995941
 30
0.0
  0
SPLINE
  5
1E8
330
1F
100
AcDbEntity
  8
0
  6
Continuous
 62
     7
370
    25
100
AcDbSpline
210
0.0
220
0.0
230
1.0
 70
    11
 71
     3
 72
    26
 73
    22
 74
     0
 42
0.000000001
 43
0.00000001
 40
0.0
 40
0.0
 40
0.0
 40
0.0
 40
0.0544582328921902
 40
0.10891743490941
 40
0.1633034605348229
 40
0.2172992389732355
 40
0.2707735591018477
 40
0.3238273036162716
 40
0.3767403891992914
 40
0.429846426571213
 40
0.4833957392907274
 40
0.537454271376515
 40
0.5918681132269529
 40
0.6463225506981066
 40
0.7004761526918423
 40
0.754120209386497
 40
0.8072776471825126
 40
0.8601871142841718
 40
0.9131913470977102
 40
0.9665878337626276
 40
1.0
 40
1.0
 40
1.0
 40
1.0
 10
4941.514304221496
 20
4497.499271328536
 30
0.0
 10
4941.796629787022
 20
4497.781554329114
 30
0.0
 10
4942.361285942267
 20
4498.346125353704
 30
0.0
 10
4942.7879924294
 20
4499.489660252898
 30
0.0
 10
4942.831930708557
 20
4500.693262456876
 30
0.0
 10
4942.465994811178
 20
4501.843834412804
 30
0.0
 10
4941.744207396447
 20
4502.80070552908
 30
0.0
 10
4940.752551573379
 20
4503.461740869486
 30
0.0
 10
4939.603362435636
 20
4503.75914536552
 30
0.0
 10
4938.420089392803
 20
4503.663396344392
 30
0.0
 10
4937.329699763215
 20
4503.182388825409
 30
0.0
 10
4936.454149930227
 20
4502.363257530405
 30
0.0
 10
4935.897536997079
 20
4501.293700471121
 30
0.0
 10
4935.729584799727
 20
4500.09635325498
 30
0.0
 10
4935.971086192726
 20
4498.913343652548
 30
0.0
 10
4936.589797081911
 20
4497.883364944034
 30
0.0
 10
4937.508286410372
 20
4497.12136972861
 30
0.0
 10
4938.621926125835
 20
4496.704883175683
 30
0.0
 10
4939.804761776254
 20
4496.680337460746
 30
0.0
 10
4940.80324025408
 20
4496.986924920706
 30
0.0
 10
4941.316682980394
 20
4497.356878326458
 30
0.0
 10
4941.514304221496
 20
4497.499271328536
 30
0.0
  0
SPLINE
  5
1E9
330
1F
100
AcDbEntity
  8
0
  6
Continuous
 62
     7
370
    25
100
AcDbSpline
210
0.0
220
0.0
230
1.0
 70
    11
 71
     3
 72
    26
 73
    22
 74
     0
 42
0.000000001
 43
0.00000001
 40
0.0
 40
0.0
 40
0.0
 40
0.0
 40
0.0562592195469213
 40
0.1124894237654329
 40
0.1692733959725868
 40
0.2253909473257311
 40
0.2797357076613726
 40
0.3320773925533524
 40
0.3830978421066325
 40
0.4339662120933833
 40
0.4858381704344157
 40
0.5394742494415099
 40
0.5949711598366952
 40
0.6516361865852421
 40
0.7081640290972928
 40
0.7632221795357145
 40
0.8161821310775806
 40
0.8674452203339944
 40
0.9181420445232681
 40
0.9695573955794906
 40
1.0
 40
1.0
 40
1.0
 40
1.0
 10
4940.246742066815
 20
4485.527097280113
 30
0.0
 10
4940.539825328483
 20
4485.812676800321
 30
0.0
 10
4941.125840696024
 20
4486.383688554947
 30
0.0
 10
4941.565879808673
 20
4487.549646331259
 30
0.0
 10
4941.60804257108
 20
4488.783992309763
 30
0.0
 10
4941.216184359792
 20
4489.96304852264
 30
0.0
 10
4940.457638953018
 20
4490.922867468627
 30
0.0
 10
4939.445577037077
 20
4491.558782956246
 30
0.0
 10
4938.307473262415
 20
4491.823957507776
 30
0.0
 10
4937.156939694572
 20
4491.711958840948
 30
0.0
 10
4936.09731970731
 20
4491.236200008653
 30
0.0
 10
4935.233330362824
 20
4490.429361979669
 30
0.0
 10
4934.671681343011
 20
4489.358087803859
 30
0.0
 10
4934.501930821171
 20
4488.136773640641
 30
0.0
 10
4934.763334075995
 20
4486.922369159328
 30
0.0
 10
4935.419809094641
 20
4485.880162227822
 30
0.0
 10
4936.368011463866
 20
4485.137123638071
 30
0.0
 10
4937.480396850546
 20
4484.755577146543
 30
0.0
 10
4938.63380232652
 20
4484.754825448798
 30
0.0
 10
4939.5805736249
 20
4485.057250225173
 30
0.0
 10
4940.066156125185
 20
4485.399730434882
 30
0.0
 10
4940.246742066815
 20
4485.527097280113
 30
0.0
  0
SPLINE
  5
1EA
330
1F
100
AcDbEntity
  8
0
  6
Continuous
 62
     7
370
    25
100
AcDbSpline
210
0.0
220
0.0
230
1.0
 70
    11
 71
     3
 72
    26
 73
    22
 74
     0
 42
0.000000001
 43
0.00000001
 40
0.0
 40
0.0
 40
0.0
 40
0.0
 40
0.0537579477364751
 40
0.107456717843417
 40
0.1626486605072499
 40
0.2192029072634883
 40
0.275851312415486
 40
0.3312360970357168
 40
0.3846151242847758
 40
0.4362147207611322
 40
0.4870092971080907
 40
0.5382182165574553
 40
0.5908533829758852
 40
0.6453916879477275
 40
0.7015651337062513
 40
0.7583484823307269
 40
0.8143301861140769
 40
0.8684266227938976
 40
0.9204895015880514
 40
0.9713255671105961
 40
1.0
 40
1.0
 40
1.0
 40
1.0
 10
4952.237138372734
 20
4484.345614011375
 30
0.0
 10
4952.517546255839
 20
4484.62832586708
 30
0.0
 10
4953.078053344458
 20
4485.193438364647
 30
0.0
 10
4953.498473388485
 20
4486.325073130019
 30
0.0
 10
4953.547080112063
 20
4487.526987575229
 30
0.0
 10
4953.174469846703
 20
4488.700695961982
 30
0.0
 10
4952.41674129663
 20
4489.684355156386
 30
0.0
 10
4951.372786794014
 20
4490.344552101631
 30
0.0
 10
4950.190441271648
 20
4490.60695060736
 30
0.0
 10
4949.01702606833
 20
4490.467451428355
 30
0.0
 10
4947.970513900031
 20
4489.96581165646
 30
0.0
 10
4947.141813311237
 20
4489.159349975003
 30
0.0
 10
4946.609369550557
 20
4488.117895104237
 30
0.0
 10
4946.442430535705
 20
4486.934917104148
 30
0.0
 10
4946.685609460955
 20
4485.737701077242
 30
0.0
 10
4947.331709195058
 20
4484.679674910244
 30
0.0
 10
4948.301927044793
 20
4483.908354229384
 30
0.0
 10
4949.459956966964
 20
4483.519171628607
 30
0.0
 10
4950.647174283615
 20
4483.541049734144
 30
0.0
 10
4951.593577873778
 20
4483.870567331606
 30
0.0
 10
4952.066562562262
 20
4484.219702814922
 30
0.0
 10
4952.237138372734
 20
4484.345614011375
 30
0.0
  0
LINE
  5
1EB
330
1F
100
AcDbEntity
  8
0
  6
Continuous
 62
     7
370
    25
100
AcDbLine
 10
5129.7165908263
 20
4509.9326065136
 30
0.0
 11
5126.3253398583
 21
4509.948640163
 31
0.0
  0
LWPOLYLINE
  5
1EC
330
1F
100
AcDbEntity
  8
0
  6
Continuous
 62
     7
370
    25
100
AcDbPolyline
 90
        3
 70
   128
 43
0.0
 10
5129.7165312216
 20
4509.9217584682
 10
5129.716561024
 20
4509.9271973921
 10
5129.7165908263
 20
4509.9326065136
  0
SPLINE
  5
1ED
330
1F
100
AcDbEntity
  8
0
  6
Continuous
 62
     7
370
    25
100
AcDbSpline
210
0.0
220
0.0
230
1.0
 70
     8
 71
     3
 72
    53
 73
    49
 74
     0
 42
0.000000001
 43
0.00000001
 40
0.0
 40
0.0
 40
0.0
 40
0.0
 40
0.0022004343518558
 40
0.004415982980874
 40
0.0066467342620102
 40
0.0088927811993418
 40
0.0111542214319696
 40
0.0134311572377438
 40
0.0157236955348065
 40
0.0203275961515236
 40
0.0313932053154279
 40
0.0508481672612169
 40
0.0626645478051323
 40
0.0961371995704753
 40
0.1253833685339444
 40
0.1572621936942188
 40
0.1877255644167176
 40
0.2192444473413684
 40
0.2502844267799078
 40
0.2817308920821371
 40
0.312794564750051
 40
0.3439971063934781
 40
0.3751289316144946
 40
0.4167224942173376
 40
0.4584527818434227
 40
0.4999518773327549
 40
0.5414763671399846
 40
0.5832391302578828
 40
0.6248711624983445
 40
0.6559008827894237
 40
0.6873361797066225
 40
0.7183113384668476
 40
0.749908902009371
 40
0.7806899424389495
 40
0.812216268860438
 40
0.8430683309406757
 40
0.8748874575762509
 40
0.9044475645206668
 40
0.9372235928068571
 40
0.9491315657336615
 40
0.9686921883407219
 40
0.9733449509169502
 40
0.9779364289303887
 40
0.9824672611578071
 40
0.9869382356207399
 40
0.9913501841814067
 40
0.995703872565767
 40
1.0
 40
1.0
 40
1.0
 40
1.0
 10
5129.716526455322
 20
4509.921763708828
 30
0.0
 10
5129.712911159784
 20
4509.500983792872
 30
0.0
 10
5129.705655736077
 20
4508.656533720556
 30
0.0
 10
5129.683655309545
 20
4507.385639318391
 30
0.0
 10
5129.653261299862
 20
4506.106200016397
 30
0.0
 10
5129.613487416961
 20
4504.818234194206
 30
0.0
 10
5129.564362276456
 20
4503.521753723159
 30
0.0
 10
5129.505637884721
 20
4502.216771627547
 30
0.0
 10
5129.414287780811
 20
4500.464893192299
 30
0.0
 10
5129.198440003252
 20
4497.03663791567
 30
0.0
 10
5128.612702490938
 20
4490.344135516723
 30
0.0
 10
5127.522358078276
 20
4482.315661499957
 30
0.0
 10
5125.259164137836
 20
4470.14164559217
 30
0.0
 10
5121.662523687271
 20
4456.318196717996
 30
0.0
 10
5115.407379476062
 20
4439.319302674358
 30
0.0
 10
5107.805537390002
 20
4423.506764914537
 30
0.0
 10
5098.476862463429
 20
4408.140970296836
 30
0.0
 10
5087.799340856785
 20
4393.87638684882
 30
0.0
 10
5075.653059997936
 20
4380.58551716182
 30
0.0
 10
5062.331393637952
 20
4368.601190123847
 30
0.0
 10
5047.878908303242
 20
4357.957287667535
 30
0.0
 10
5032.510305512952
 20
4348.800344925871
 30
0.0
 10
5014.500287806469
 20
4340.326225171017
 30
0.0
 10
4993.703728287179
 20
4333.296628873155
 30
0.0
 10
4970.221778276026
 20
4328.64776405421
 30
0.0
 10
4946.348041135932
 20
4327.090516190537
 30
0.0
 10
4922.467584863692
 20
4328.641968754497
 30
0.0
 10
4898.966638649564
 20
4333.290447421225
 30
0.0
 10
4878.175166239295
 20
4340.316999095698
 30
0.0
 10
4860.1347576674
 20
4348.801894484563
 30
0.0
 10
4844.759171510033
 20
4357.963978859363
 30
0.0
 10
4830.264298289666
 20
4368.645228540913
 30
0.0
 10
4816.974723716694
 20
4380.609605979494
 30
0.0
 10
4804.844493058999
 20
4393.888319908985
 30
0.0
 10
4794.148447259841
 20
4408.1718513245
 30
0.0
 10
4784.792535935465
 20
4423.59747136191
 30
0.0
 10
4777.152453034468
 20
4439.527923738287
 30
0.0
 10
4770.948985028711
 20
4456.456400091321
 30
0.0
 10
4767.376973937993
 20
4470.227171516073
 30
0.0
 10
4765.128732914964
 20
4482.306797395577
 30
0.0
 10
4764.199147145989
 20
4489.157093521831
 30
0.0
 10
4763.665348461052
 20
4494.63962838849
 30
0.0
 10
4763.447935580392
 20
4497.264991830989
 30
0.0
 10
4763.270302429513
 20
4499.858469794258
 30
0.0
 10
4763.130782965891
 20
4502.419907358538
 30
0.0
 10
4763.028850072961
 20
4504.94918339448
 30
0.0
 10
4762.960029888691
 20
4507.446181597382
 30
0.0
 10
4762.942710921237
 20
4509.100238695311
 30
0.0
 10
4762.934109062795
 20
4509.921763711015
 30
0.0
  0
SPLINE
  5
1EE
330
1F
100
AcDbEntity
  8
0
  6
Continuous
 62
     7
370
    25
100
AcDbSpline
210
0.0
220
0.0
230
1.0
 70
     8
 71
     3
 72
     8
 73
     4
 74
     0
 42
0.000000001
 43
0.00000001
 40
0.0
 40
0.0
 40
0.0
 40
0.0
 40
0.0000215569637174
 40
0.0000215569637174
 40
0.0000215569637174
 40
0.0000215569637174
 10
4762.934001797214
 20
4509.943320089106
 30
0.0
 10
4762.934025941448
 20
4509.936134655357
 30
0.0
 10
4762.934061681225
 20
4509.928949159023
 30
0.0
 10
4762.934109119678
 20
4509.921763714514
 30
0.0
  0
SPLINE
  5
1EF
330
1F
100
AcDbEntity
  8
0
  6
Continuous
 62
     7
370
    25
100
AcDbSpline
210
0.0
220
0.0
230
1.0
 70
     8
 71
     3
 72
    12
 73
     8
 74
     0
 42
0.000000001
 43
0.00000001
 40
0.0
 40
0.0
 40
0.0
 40
0.0
 40
0.1678648221466972
 40
0.335278737184676
 40
0.5022417593764337
 40
0.7498726452047637
 40
0.9999999999999999
 40
0.9999999999999999
 40
0.9999999999999999
 40
0.9999999999999999
 10
4762.934001798584
 20
4509.943320089095
 30
0.0
 10
4762.899760821555
 20
4520.247527671389
 30
0.0
 10
4762.831370843289
 20
4540.828264371906
 30
0.0
 10
4762.733770710842
 20
4571.657938728604
 30
0.0
 10
4762.624940596812
 20
4607.384055218429
 30
0.0
 10
4762.506592651706
 20
4648.187572665583
 30
0.0
 10
4762.424944729756
 20
4678.74226946588
 30
0.0
 10
4762.383916019279
 20
4694.096240256306
 30
0.0
  0
SPLINE
  5
1F0
330
1F
100
AcDbEntity
  8
0
  6
Continuous
 62
     7
370
    25
100
AcDbSpline
210
0.0
220
0.0
230
1.0
 70
     8
 71
     3
 72
    20
 73
    16
 74
     0
 42
0.000000001
 43
0.00000001
 40
0.0
 40
0.0
 40
0.0
 40
0.0
 40
0.125
 40
0.125
 40
0.2500000000000001
 40
0.2500000000000001
 40
0.3750000000000001
 40
0.3750000000000001
 40
0.5000000000000001
 40
0.5000000000000001
 40
0.6250000000000001
 40
0.6250000000000001
 40
0.7500000000000002
 40
0.7500000000000002
 40
1.0
 40
1.0
 40
1.0
 40
1.0
 10
4765.573324564945
 20
4689.932608896859
 30
0.0
 10
4765.572404556167
 20
4690.187966018734
 30
0.0
 10
4765.544141139742
 20
4690.436341115222
 30
0.0
 10
4765.439125971669
 20
4690.920730115297
 30
0.0
 10
4765.360859558348
 20
4691.159349918707
 30
0.0
 10
4765.167850589366
 20
4691.60541487111
 30
0.0
 10
4765.053309568349
 20
4691.814715395797
 30
0.0
 10
4764.794687237299
 20
4692.210858813503
 30
0.0
 10
4764.65195542693
 20
4692.395253243214
 30
0.0
 10
4764.350590483093
 20
4692.736099582665
 30
0.0
 10
4764.191081345693
 20
4692.893763518181
 30
0.0
 10
4763.857517660505
 20
4693.188083860449
 30
0.0
 10
4763.682722608356
 20
4693.325174690173
 30
0.0
 10
4763.145758836442
 20
4693.704543474432
 30
0.0
 10
4762.771157509621
 20
4693.916125179428
 30
0.0
 10
4762.383915901703
 20
4694.096240263417
 30
0.0
  0
SPLINE
  5
1F1
330
1F
100
AcDbEntity
  8
0
  6
Continuous
 62
     7
370
    25
100
AcDbSpline
210
0.0
220
0.0
230
1.0
 70
     8
 71
     3
 72
    74
 73
    70
 74
     0
 42
0.000000001
 43
0.00000001
 40
0.0
 40
0.0
 40
0.0
 40
0.0
 40
0.0393303542605243
 40
0.0790505333137795
 40
0.1191605386267255
 40
0.1821016038993155
 40
0.2135720254301202
 40
0.2293072096919267
 40
0.2371747953592873
 40
0.2411085865973516
 40
0.2420920337034737
 40
0.2430754425544437
 40
0.24504212638469
 40
0.2607814123673585
 40
0.2765832924325755
 40
0.2923943794871864
 40
0.3080931521524578
 40
0.3237448057132193
 40
0.3394150197571846
 40
0.3551702774380268
 40
0.3709964548913877
 40
0.3867119361269162
 40
0.4023674756379937
 40
0.4180289785811937
 40
0.4337626161043363
 40
0.4495937649221259
 40
0.4653283054355447
 40
0.4809901225831618
 40
0.4888155006014001
 40
0.4966474305710713
 40
0.5123621185194525
 40
0.528187817194558
 40
0.543943676810987
 40
0.559613962729968
 40
0.5752652050171357
 40
0.5909631967198808
 40
0.6067733243337202
 40
0.6225532369223098
 40
0.6382345089535946
 40
0.653884212540515
 40
0.6695681206372116
 40
0.6853532269721105
 40
0.7011590284165033
 40
0.7168541548367964
 40
0.732505005449929
 40
0.7481773892477964
 40
0.7639379583005734
 40
0.7797615014921438
 40
0.7954727645019344
 40
0.8111269178357479
 40
0.8267898782382535
 40
0.8425278595297186
 40
0.8583588514954582
 40
0.8740889864419968
 40
0.8897489418166148
 40
0.9054047917650553
 40
0.921122418702626
 40
0.9369514850797314
 40
0.9448389690611575
 40
0.9527298640601682
 40
0.9605899155571347
 40
0.9684528405408667
 40
0.9763192601024532
 40
0.9841870303670159
 40
0.9873489529652948
 40
0.9905106729282369
 40
0.9936727286685278
 40
0.9968356584273786
 40
0.9999999999999999
 40
0.9999999999999999
 40
0.9999999999999999
 40
0.9999999999999999
 10
4765.573324818876
 20
4689.932608897774
 30
0.0
 10
4765.609020048196
 20
4680.180779591755
 30
0.0
 10
4765.680764301903
 20
4660.580465231011
 30
0.0
 10
4765.7962245877
 20
4631.035037183297
 30
0.0
 10
4765.940764386514
 20
4595.635443043223
 30
0.0
 10
4766.085190180567
 20
4562.281379404016
 30
0.0
 10
4766.208626796518
 20
4534.970978287206
 30
0.0
 10
4766.27220535773
 20
4521.315821608165
 30
0.0
 10
4766.303615995926
 20
4514.488250667928
 30
0.0
 10
4766.31920679715
 20
4511.318312911868
 30
0.0
 10
4766.325406478966
 20
4509.855271036359
 30
0.0
 10
4766.332238180102
 20
4508.879976080698
 30
0.0
 10
4766.394364007906
 20
4504.246405259289
 30
0.0
 10
4766.808508208799
 20
4495.941752260193
 30
0.0
 10
4768.156300235369
 20
4484.270413865662
 30
0.0
 10
4770.260294459814
 20
4472.721203573084
 30
0.0
 10
4773.101471007123
 20
4461.369579650313
 30
0.0
 10
4776.660261783018
 20
4450.258795286293
 30
0.0
 10
4780.934920718984
 20
4439.38822179529
 30
0.0
 10
4785.924127506304
 20
4428.778529035036
 30
0.0
 10
4791.599758217974
 20
4418.506691702037
 30
0.0
 10
4797.918809303156
 20
4408.647189008727
 30
0.0
 10
4804.838873177993
 20
4399.250587688994
 30
0.0
 10
4812.354904839528
 20
4390.31759565557
 30
0.0
 10
4820.464670876996
 20
4381.859398423569
 30
0.0
 10
4829.121685458867
 20
4373.935057913384
 30
0.0
 10
4838.263034954386
 20
4366.603743256
 30
0.0
 10
4846.233856499721
 20
4361.019420556324
 30
0.0
 10
4852.803899721542
 20
4356.877439216676
 30
0.0
 10
4859.515364200617
 20
4352.942769710577
 30
0.0
 10
4868.174410220198
 20
4348.418495885438
 30
0.0
 10
4878.906951495124
 20
4343.672139301697
 30
0.0
 10
4889.916463014054
 20
4339.640895242018
 30
0.0
 10
4901.122360628924
 20
4336.343678118119
 30
0.0
 10
4912.504454740063
 20
4333.783167046673
 30
0.0
 10
4924.062507545079
 20
4331.957893124033
 30
0.0
 10
4935.746952143843
 20
4330.887743059291
 30
0.0
 10
4947.472087428815
 20
4330.580478377613
 30
0.0
 10
4959.152448363112
 20
4331.03624728117
 30
0.0
 10
4970.755276665152
 20
4332.242760220391
 30
0.0
 10
4982.28085732098
 20
4334.203654157608
 30
0.0
 10
4993.692691820349
 20
4336.917249815367
 30
0.0
 10
5004.905506120995
 20
4340.371631905771
 30
0.0
 10
5015.838792739602
 20
4344.535644680573
 30
0.0
 10
5026.449248098312
 20
4349.38539585945
 30
0.0
 10
5036.737982832045
 20
4354.919189181342
 30
0.0
 10
5046.682369889922
 20
4361.131733732079
 30
0.0
 10
5056.207867789851
 20
4367.985887612684
 30
0.0
 10
5065.246679790162
 20
4375.428475260967
 30
0.0
 10
5073.754970893621
 20
4383.414006299468
 30
0.0
 10
5081.733706846457
 20
4391.93774392182
 30
0.0
 10
5089.170877736079
 20
4400.994859153992
 30
0.0
 10
5096.011578347858
 20
4410.531167665253
 30
0.0
 10
5102.206192171726
 20
4420.476327325449
 30
0.0
 10
5107.722667554226
 20
4430.763672281736
 30
0.0
 10
5112.561385372655
 20
4441.383307370388
 30
0.0
 10
5116.717252536894
 20
4452.332974603648
 30
0.0
 10
5119.586439027876
 20
4461.688126098537
 30
0.0
 10
5121.515289871688
 20
4469.285230874619
 30
0.0
 10
5122.772006901073
 20
4475.011138693023
 30
0.0
 10
5123.840974309493
 20
4480.768777147995
 30
0.0
 10
5124.721490133697
 20
4486.552121317532
 30
0.0
 10
5125.414268831006
 20
4492.362829040758
 30
0.0
 10
5125.817585922341
 20
4497.031616240018
 30
0.0
 10
5126.040596452946
 20
4500.543348784854
 30
0.0
 10
5126.159162849924
 20
4502.892398554364
 30
0.0
 10
5126.246487994406
 20
4505.243039930274
 30
0.0
 10
5126.305356141968
 20
4507.595267535065
 30
0.0
 10
5126.318688187306
 20
4509.164069230264
 30
0.0
 10
5126.325355697375
 20
4509.94864510243
 30
0.0
  0
LINE
  5
1F2
330
1F
100
AcDbEntity
  8
0
  6
Continuous
 62
     7
370
    25
100
AcDbLine
 10
5129.7165908263
 20
4509.9433204485
 30
0.0
 11
5129.7165908263
 21
4509.9326065136
 31
0.0
  0
LINE
  5
1F3
330
1F
100
AcDbEntity
  8
0
  6
Continuous
 62
     7
370
    25
100
AcDbLine
 10
5126.3253249571
 20
4509.948640163
 30
0.0
 11
5126.3253249571
 21
4689.9326090095
 31
0.0
  0
ARC
  5
1F4
330
1F
100
AcDbEntity
  8
0
  6
Continuous
 62
     7
370
    25
100
AcDbCircle
 10
5131.3253178046
 20
4689.9326088978
 30
0.0
 40
5.0
100
AcDbArc
 50
108.7685110493
 51
180.0
  0
LINE
  5
1F5
330
1F
100
AcDbEntity
  8
0
  6
Continuous
 62
     7
370
    25
100
AcDbLine
 10
5129.7165908263
 20
4694.6667400514
 30
0.0
 11
5129.7165908263
 21
4509.9433204485
 31
0.0
  0
LINE
  5
1F6
330
1F
100
AcDbEntity
  8
0
  6
Continuous
 62
     7
370
    25
100
AcDbLine
 10
5126.3253249571
 20
4689.9326090095
 30
0.0
 11
4765.5733235524
 21
4689.9326090095
 31
0.0
  0
CIRCLE
  5
1F7
330
1F
100
AcDbEntity
  8
0
  6
Continuous
 62
     7
370
    25
100
AcDbCircle
 10
4946.3253178046
 20
4509.9326088978
 30
0.0
 40
152.7129242947767
  0
ELLIPSE
  5
1F8
330
1F
100
AcDbEntity
  8
0
  6
Continuous
 62
     7
370
    25
100
AcDbEllipse
 10
4763.6971806181
 20
4689.9326088978
 30
0.0
 11
0.0
 21
4.999999999999091
 31
0.0
210
0.0
220
0.0
230
1.0
 40
0.4743725627
 41
0.0
 42
0.5867828576801888
  0
LINE
  5
1F9
330
1F
100
AcDbEntity
  8
0
  6
Continuous
 62
     7
370
    25
100
AcDbLine
 10
4763.6971779511
 20
4694.9326088978
 30
0.0
 11
5128.9534576581
 21
4694.9326088978
 31
0.0
  0
SPLINE
  5
1FA
330
1F
100
AcDbEntity
  8
0
  6
Continuous
 62
     7
370
    25
100
AcDbSpline
210
0.0
220
0.0
230
1.0
 70
     8
 71
     3
 72
     8
 73
     4
 74
     0
 42
0.000000001
 43
0.00000001
 40
0.0
 40
0.0
 40
0.0
 40
0.0
 40
1.0
 40
1.0
 40
1.0
 40
1.0
 10
5128.953454991035
 20
4694.932608897773
 30
0.0
 10
5129.213505210901
 20
4694.932608897773
 30
0.0
 10
5129.467939790697
 20
4694.844860124078
 30
0.0
 10
5129.716590896926
 20
4694.66674004684
 30
0.0
  0
CIRCLE
  5
1FB
330
1F
100
AcDbEntity
  8
0
  6
Continuous
 62
     7
370
    25
100
AcDbCircle
 10
4946.3253178046
 20
4509.9326088978
 30
0.0
 40
148.5314680727206
  0
ARC
  5
1FC
330
1F
100
AcDbEntity
  8
0
  6
Continuous
 62
     7
370
    25
100
AcDbCircle
 10
4946.3253178046
 20
4509.9326088978
 30
0.0
 40
22.50000000000014
100
AcDbArc
 50
90.0
 51
107.6183332758
  0
ARC
  5
1FD
330
1F
100
AcDbEntity
  8
0
  6
Continuous
 62
     7
370
    25
100
AcDbCircle
 10
4946.3253178046
 20
4509.9326088978
 30
0.0
 40
22.50000000000051
100
AcDbArc
 50
120.6172005036
 51
137.6988253941
  0
ARC
  5
1FE
330
1F
100
AcDbEntity
  8
0
  6
Continuous
 62
     7
370
    25
100
AcDbCircle
 10
4946.3253178046
 20
4509.9326088978
 30
0.0
 40
22.50000000000022
100
AcDbArc
 50
150.7119895362
 51
167.5704828365
  0
ARC
  5
1FF
330
1F
100
AcDbEntity
  8
0
  6
Continuous
 62
     7
370
    25
100
AcDbCircle
 10
4946.3253178046
 20
4509.9326088978
 30
0.0
 40
22.50000000000033
100
AcDbArc
 50
180.6936203382
 51
197.6510531905
  0
ARC
  5
200
330
1F
100
AcDbEntity
  8
0
  6
Continuous
 62
     7
370
    25
100
AcDbCircle
 10
4946.3253178046
 20
4509.9326088978
 30
0.0
 40
22.50000000000043
100
AcDbArc
 50
210.721540083
 51
227.660922137
  0
ARC
  5
201
330
1F
100
AcDbEntity
  8
0
  6
Continuous
 62
     7
370
    25
100
AcDbCircle
 10
4946.3253178046
 20
4509.9326088978
 30
0.0
 40
22.50000000000009
100
AcDbArc
 50
240.6300229379
 51
257.5608564461
  0
ARC
  5
202
330
1F
100
AcDbEntity
  8
0
  6
Continuous
 62
     7
370
    25
100
AcDbCircle
 10
4946.3253178046
 20
4509.9326088978
 30
0.0
 40
22.49999999999972
100
AcDbArc
 50
270.7021151869
 51
287.6820074545
  0
ARC
  5
203
330
1F
100
AcDbEntity
  8
0
  6
Continuous
 62
     7
370
    25
100
AcDbCircle
 10
4946.3253178046
 20
4509.9326088978
 30
0.0
 40
22.50000000000025
100
AcDbArc
 50
300.6259909703
 51
317.6012948309
  0
ARC
  5
204
330
1F
100
AcDbEntity
  8
0
  6
Continuous
 62
     7
370
    25
100
AcDbCircle
 10
4946.3253178046
 20
4509.9326088978
 30
0.0
 40
22.50000000000013
100
AcDbArc
 50
330.6226580555
 51
347.6819056064
  0
ARC
  5
205
330
1F
100
AcDbEntity
  8
0
  6
Continuous
 62
     7
370
    25
100
AcDbCircle
 10
4946.3253178046
 20
4509.9326088978
 30
0.0
 40
22.50000000000039
100
AcDbArc
 50
0.6398233337
 51
17.6296620941
  0
ARC
  5
206
330
1F
100
AcDbEntity
  8
0
  6
Continuous
 62
     7
370
    25
100
AcDbCircle
 10
4946.3253178046
 20
4509.9326088978
 30
0.0
 40
22.50000000000074
100
AcDbArc
 50
30.6440519536
 51
47.7109657018
  0
ARC
  5
207
330
1F
100
AcDbEntity
  8
0
  6
Continuous
 62
     7
370
    25
100
AcDbCircle
 10
4946.3253178046
 20
4509.9326088978
 30
0.0
 40
22.50000000000039
100
AcDbArc
 50
60.6476951628
 51
77.6200584006
  0
LWPOLYLINE
  5
208
330
1F
100
AcDbEntity
  8
0
  6
Continuous
 62
     7
370
    25
100
AcDbPolyline
 90
        3
 70
   128
 43
0.0
 10
4932.1288213477
 20
4524.4959285808
 10
4932.8136749909
 20
4525.1334747625
 10
4934.7489567817
 20
4526.6544064833
  0
LWPOLYLINE
  5
209
330
1F
100
AcDbEntity
  8
0
  6
Continuous
 62
     7
370
    25
100
AcDbPolyline
 90
        3
 70
   128
 43
0.0
 10
4941.3874087267
 20
4529.6619674517
 10
4942.3212249175
 20
4529.8724761558
 10
4944.7288122837
 20
4530.2077671839
  0
LWPOLYLINE
  5
20A
330
1F
100
AcDbEntity
  8
0
  6
Continuous
 62
     7
370
    25
100
AcDbPolyline
 90
        3
 70
   128
 43
0.0
 10
4966.0509124742
 20
4514.8855587793
 10
4966.3214598195
 20
4513.6454394413
 10
4966.5985413239
 20
4511.5534654213
  0
LWPOLYLINE
  5
20B
330
1F
100
AcDbEntity
  8
0
  6
Continuous
 62
     7
370
    25
100
AcDbPolyline
 90
        3
 70
   128
 43
0.0
 10
4965.8763267443
 20
4504.3300381256
 10
4965.4656954453
 20
4503.0568084074
 10
4964.7094112233
 20
4501.2345603062
  0
LWPOLYLINE
  5
20C
330
1F
100
AcDbEntity
  8
0
  6
Continuous
 62
     7
370
    25
100
AcDbPolyline
 90
        3
 70
   128
 43
0.0
 10
4960.4639195249
 20
4495.3130772663
 10
4959.3878303067
 20
4494.3440994574
 10
4957.8818835662
 20
4493.1971272779
  0
LWPOLYLINE
  5
20D
330
1F
100
AcDbEntity
  8
0
  6
Continuous
 62
     7
370
    25
100
AcDbPolyline
 90
        3
 70
   128
 43
0.0
 10
4951.3015759521
 20
4490.2128866268
 10
4949.7460977518
 20
4489.8844352318
 10
4947.7854108781
 20
4489.6471789432
  0
ENDSEC
  0
SECTION
  2
OBJECTS
  0
DICTIONARY
  5
C
330
0
100
AcDbDictionary
281
     1
  3
ACAD_GROUP
350
D
  3
ACAD_LAYOUT
350
1A
  3
ACAD_MLINESTYLE
350
17
  3
ACAD_PLOTSETTINGS
350
19
  3
ACAD_PLOTSTYLENAME
350
E
  3
ACAD_SCALELIST
350
47
  0
DICTIONARY
  5
D
102
{ACAD_REACTORS
330
C
102
}
330
C
100
AcDbDictionary
281
     1
  0
DICTIONARY
  5
1A
102
{ACAD_REACTORS
330
C
102
}
330
C
100
AcDbDictionary
281
     1
  3
Layout1
350
1E
  3
Layout2
350
26
  3
Model
350
22
  0
DICTIONARY
  5
17
102
{ACAD_REACTORS
330
C
102
}
330
C
100
AcDbDictionary
281
     1
  3
Standard
350
18
  0
DICTIONARY
  5
19
102
{ACAD_REACTORS
330
C
102
}
330
C
100
AcDbDictionary
281
     1
  0
ACDBDICTIONARYWDFLT
  5
E
102
{ACAD_REACTORS
330
C
102
}
330
C
100
AcDbDictionary
281
     1
  3
Normal
350
F
100
AcDbDictionaryWithDefault
340
F
  0
DICTIONARY
  5
47
102
{ACAD_REACTORS
330
C
102
}
330
C
100
AcDbDictionary
281
     1
  3
A0
350
48
  3
A1
350
49
  3
A2
350
4A
  3
A3
350
4B
  3
A4
350
4C
  3
A5
350
4D
  3
A6
350
4E
  3
A7
350
4F
  3
A8
350
50
  3
A9
350
51
  3
B0
350
52
  3
B1
350
53
  3
B2
350
54
  3
B3
350
55
  3
B4
350
56
  3
B5
350
57
  3
B6
350
58
  3
B7
350
59
  3
B8
350
5A
  3
B9
350
5B
  3
C0
350
5C
  3
C1
350
5D
  3
C2
350
5E
  3
C3
350
5F
  3
C4
350
60
  3
C5
350
61
  3
C6
350
62
  3
C7
350
63
  3
C8
350
64
  3
C9
350
65
  3
D0
350
66
  3
D1
350
67
  3
D2
350
68
  0
LAYOUT
  5
1E
102
{ACAD_REACTORS
330
1A
102
}
330
1A
100
AcDbPlotSettings
  1

  2
none_device
  4

  6

 40
0.0
 41
0.0
 42
0.0
 43
0.0
 44
0.0
 45
0.0
 46
0.0
 47
0.0
 48
0.0
 49
0.0
140
0.0
141
0.0
142
1.0
143
1.0
 70
   688
 72
     1
 73
     0
 74
     5
  7

 75
    16
147
1.0
148
0.0
149
0.0
100
AcDbLayout
  1
Layout1
 70
     1
 71
     1
 10
0.0
 20
0.0
 11
420.0
 21
297.0
 12
0.0
 22
0.0
 32
0.0
 14
1.0000000000E+20
 24
1.0000000000E+20
 34
1.0000000000E+20
 15
-1.0000000000E+20
 25
-1.0000000000E+20
 35
-1.0000000000E+20
146
0.0
 13
0.0
 23
0.0
 33
0.0
 16
1.0
 26
0.0
 36
0.0
 17
0.0
 27
1.0
 37
0.0
 76
     0
330
1B
  0
LAYOUT
  5
26
102
{ACAD_REACTORS
330
1A
102
}
330
1A
100
AcDbPlotSettings
  1

  2
none_device
  4

  6

 40
0.0
 41
0.0
 42
0.0
 43
0.0
 44
0.0
 45
0.0
 46
0.0
 47
0.0
 48
0.0
 49
0.0
140
0.0
141
0.0
142
1.0
143
1.0
 70
   688
 72
     1
 73
     0
 74
     5
  7

 75
    16
147
1.0
148
0.0
149
0.0
100
AcDbLayout
  1
Layout2
 70
     1
 71
     2
 10
0.0
 20
0.0
 11
0.0
 21
0.0
 12
0.0
 22
0.0
 32
0.0
 14
0.0
 24
0.0
 34
0.0
 15
0.0
 25
0.0
 35
0.0
146
0.0
 13
0.0
 23
0.0
 33
0.0
 16
1.0
 26
0.0
 36
0.0
 17
0.0
 27
1.0
 37
0.0
 76
     0
330
23
  0
LAYOUT
  5
22
102
{ACAD_REACTORS
330
1A
102
}
330
1A
100
AcDbPlotSettings
  1

  2
none_device
  4
Letter_(8.50_x_11.00_Inches)
  6

 40
6.35
 41
6.35
 42
6.35000508
 43
6.35000508
 44
215.9
 45
279.4
 46
0.0
 47
0.0
 48
0.0
 49
0.0
140
0.0
141
0.0
142
1.0
143
1.0
 70
  1712
 72
     1
 73
     0
 74
     0
  7

 75
     0
147
1.0
148
0.0
149
0.0
100
AcDbLayout
  1
Model
 70
     1
 71
     0
 10
0.0
 20
0.0
 11
20000.0
 21
10000.0
 12
0.0
 22
0.0
 32
0.0
 14
0.0
 24
0.0
 34
0.0
 15
20000.0
 25
10000.0
 35
0.0
146
0.0
 13
0.0
 23
0.0
 33
0.0
 16
1.0
 26
0.0
 36
0.0
 17
0.0
 27
1.0
 37
0.0
 76
     0
330
1F
331
29
  0
MLINESTYLE
  5
18
102
{ACAD_REACTORS
330
17
102
}
330
17
100
AcDbMlineStyle
  2
Standard
 70
     0
  3

 62
   256
 51
90.0
 52
90.0
 71
     2
 49
0.5
 62
   256
  6
BYLAYER
 49
-0.5
 62
   256
  6
BYLAYER
  0
ACDBPLACEHOLDER
  5
F
102
{ACAD_REACTORS
330
E
102
}
330
E
  0
SCALE
  5
48
102
{ACAD_REACTORS
330
47
102
}
330
47
100
AcDbScale
 70
     0
300
1:1
140
1.0
141
1.0
290
     1
  0
SCALE
  5
49
102
{ACAD_REACTORS
330
47
102
}
330
47
100
AcDbScale
 70
     0
300
1:2
140
1.0
141
2.0
290
     0
  0
SCALE
  5
4A
102
{ACAD_REACTORS
330
47
102
}
330
47
100
AcDbScale
 70
     0
300
1:4
140
1.0
141
4.0
290
     0
  0
SCALE
  5
4B
102
{ACAD_REACTORS
330
47
102
}
330
47
100
AcDbScale
 70
     0
300
1:5
140
1.0
141
5.0
290
     0
  0
SCALE
  5
4C
102
{ACAD_REACTORS
330
47
102
}
330
47
100
AcDbScale
 70
     0
300
1:8
140
1.0
141
8.0
290
     0
  0
SCALE
  5
4D
102
{ACAD_REACTORS
330
47
102
}
330
47
100
AcDbScale
 70
     0
300
1:10
140
1.0
141
10.0
290
     0
  0
SCALE
  5
4E
102
{ACAD_REACTORS
330
47
102
}
330
47
100
AcDbScale
 70
     0
300
1:16
140
1.0
141
16.0
290
     0
  0
SCALE
  5
4F
102
{ACAD_REACTORS
330
47
102
}
330
47
100
AcDbScale
 70
     0
300
1:20
140
1.0
141
20.0
290
     0
  0
SCALE
  5
50
102
{ACAD_REACTORS
330
47
102
}
330
47
100
AcDbScale
 70
     0
300
1:30
140
1.0
141
30.0
290
     0
  0
SCALE
  5
51
102
{ACAD_REACTORS
330
47
102
}
330
47
100
AcDbScale
 70
     0
300
1:40
140
1.0
141
40.0
290
     0
  0
SCALE
  5
52
102
{ACAD_REACTORS
330
47
102
}
330
47
100
AcDbScale
 70
     0
300
1:50
140
1.0
141
50.0
290
     0
  0
SCALE
  5
53
102
{ACAD_REACTORS
330
47
102
}
330
47
100
AcDbScale
 70
     0
300
1:100
140
1.0
141
100.0
290
     0
  0
SCALE
  5
54
102
{ACAD_REACTORS
330
47
102
}
330
47
100
AcDbScale
 70
     0
300
2:1
140
2.0
141
1.0
290
     0
  0
SCALE
  5
55
102
{ACAD_REACTORS
330
47
102
}
330
47
100
AcDbScale
 70
     0
300
4:1
140
4.0
141
1.0
290
     0
  0
SCALE
  5
56
102
{ACAD_REACTORS
330
47
102
}
330
47
100
AcDbScale
 70
     0
300
8:1
140
8.0
141
1.0
290
     0
  0
SCALE
  5
57
102
{ACAD_REACTORS
330
47
102
}
330
47
100
AcDbScale
 70
     0
300
10:1
140
10.0
141
1.0
290
     0
  0
SCALE
  5
58
102
{ACAD_REACTORS
330
47
102
}
330
47
100
AcDbScale
 70
     0
300
100:1
140
100.0
141
1.0
290
     0
  0
SCALE
  5
59
102
{ACAD_REACTORS
330
47
102
}
330
47
100
AcDbScale
 70
     0
300
1/128" = 1'-0"
140
0.0078125
141
12.0
290
     0
  0
SCALE
  5
5A
102
{ACAD_REACTORS
330
47
102
}
330
47
100
AcDbScale
 70
     0
300
1/64" = 1'-0"
140
0.015625
141
12.0
290
     0
  0
SCALE
  5
5B
102
{ACAD_REACTORS
330
47
102
}
330
47
100
AcDbScale
 70
     0
300
1/32" = 1'-0"
140
0.03125
141
12.0
290
     0
  0
SCALE
  5
5C
102
{ACAD_REACTORS
330
47
102
}
330
47
100
AcDbScale
 70
     0
300
1/16" = 1'-0"
140
0.0625
141
12.0
290
     0
  0
SCALE
  5
5D
102
{ACAD_REACTORS
330
47
102
}
330
47
100
AcDbScale
 70
     0
300
3/32" = 1'-0"
140
0.09375
141
12.0
290
     0
  0
SCALE
  5
5E
102
{ACAD_REACTORS
330
47
102
}
330
47
100
AcDbScale
 70
     0
300
1/8" = 1'-0"
140
0.125
141
12.0
290
     0
  0
SCALE
  5
5F
102
{ACAD_REACTORS
330
47
102
}
330
47
100
AcDbScale
 70
     0
300
3/16" = 1'-0"
140
0.1875
141
12.0
290
     0
  0
SCALE
  5
60
102
{ACAD_REACTORS
330
47
102
}
330
47
100
AcDbScale
 70
     0
300
1/4" = 1'-0"
140
0.25
141
12.0
290
     0
  0
SCALE
  5
61
102
{ACAD_REACTORS
330
47
102
}
330
47
100
AcDbScale
 70
     0
300
3/8" = 1'-0"
140
0.375
141
12.0
290
     0
  0
SCALE
  5
62
102
{ACAD_REACTORS
330
47
102
}
330
47
100
AcDbScale
 70
     0
300
1/2" = 1'-0"
140
0.5
141
12.0
290
     0
  0
SCALE
  5
63
102
{ACAD_REACTORS
330
47
102
}
330
47
100
AcDbScale
 70
     0
300
3/4" = 1'-0"
140
0.75
141
12.0
290
     0
  0
SCALE
  5
64
102
{ACAD_REACTORS
330
47
102
}
330
47
100
AcDbScale
 70
     0
300
1" = 1'-0"
140
1.0
141
12.0
290
     0
  0
SCALE
  5
65
102
{ACAD_REACTORS
330
47
102
}
330
47
100
AcDbScale
 70
     0
300
1-1/2" = 1'-0"
140
1.5
141
12.0
290
     0
  0
SCALE
  5
66
102
{ACAD_REACTORS
330
47
102
}
330
47
100
AcDbScale
 70
     0
300
3" = 1'-0"
140
3.0
141
12.0
290
     0
  0
SCALE
  5
67
102
{ACAD_REACTORS
330
47
102
}
330
47
100
AcDbScale
 70
     0
300
6" = 1'-0"
140
6.0
141
12.0
290
     0
  0
SCALE
  5
68
102
{ACAD_REACTORS
330
47
102
}
330
47
100
AcDbScale
 70
     0
300
1'-0" = 1'-0"
140
12.0
141
12.0
290
     0
  0
ENDSEC
  0
EOF
