  0
SECTION
  2
HEADER
  9
$ACADVER
  1
AC1015
  9
$ACADMAINTVER
 70
     6
  9
$DWGCODEPAGE
  3
ANSI_1250
  9
$INSBASE
 10
0.0
 20
0.0
 30
0.0
  9
$EXTMIN
 10
0.0
 20
0.0
 30
0.0
  9
$EXTMAX
 10
20000.0
 20
10000.0
 30
0.0
  9
$LIMMIN
 10
0.0
 20
0.0
  9
$LIMMAX
 10
20000.0
 20
10000.0
  9
$ORTHOMODE
 70
     0
  9
$REGENMODE
 70
     1
  9
$FILLMODE
 70
     1
  9
$QTEXTMODE
 70
     0
  9
$MIRRTEXT
 70
     1
  9
$LTSCALE
 40
1.0
  9
$ATTMODE
 70
     1
  9
$TEXTSIZE
 40
2.0
  9
$TRACEWID
 40
1.0
  9
$TEXTSTYLE
  7
Standard
  9
$CLAYER
  8
0
  9
$CELTYPE
  6
ByLayer
  9
$CECOLOR
 62
   256
  9
$CELTSCALE
 40
1.0
  9
$DISPSILH
 70
     0
  9
$DIMSCALE
 40
1.0
  9
$DIMASZ
 40
2.0
  9
$DIMEXO
 40
1.0
  9
$DIMDLI
 40
3.75
  9
$DIMRND
 40
0.0
  9
$DIMDLE
 40
0.0
  9
$DIMEXE
 40
1.0
  9
$DIMTP
 40
0.0
  9
$DIMTM
 40
0.0
  9
$DIMTXT
 40
2.0
  9
$DIMCEN
 40
2.5
  9
$DIMTSZ
 40
0.0
  9
$DIMTOL
 70
     0
  9
$DIMLIM
 70
     0
  9
$DIMTIH
 70
     1
  9
$DIMTOH
 70
     1
  9
$DIMSE1
 70
     0
  9
$DIMSE2
 70
     0
  9
$DIMTAD
 70
     1
  9
$DIMZIN
 70
     0
  9
$DIMBLK
  1

  9
$DIMASO
 70
     1
  9
$DIMSHO
 70
     1
  9
$DIMPOST
  1

  9
$DIMAPOST
  1

  9
$DIMALT
 70
     0
  9
$DIMALTD
 70
     3
  9
$DIMALTF
 40
0.0393700787
  9
$DIMLFAC
 40
1.0
  9
$DIMTOFL
 70
     1
  9
$DIMTVP
 40
0.0
  9
$DIMTIX
 70
     0
  9
$DIMSOXD
 70
     0
  9
$DIMSAH
 70
     0
  9
$DIMBLK1
  1

  9
$DIMBLK2
  1

  9
$DIMSTYLE
  2
ISO-25
  9
$DIMCLRD
 70
     0
  9
$DIMCLRE
 70
     0
  9
$DIMCLRT
 70
     0
  9
$DIMTFAC
 40
1.0
  9
$DIMGAP
 40
1.524
  9
$DIMJUST
 70
     0
  9
$DIMSD1
 70
     0
  9
$DIMSD2
 70
     0
  9
$DIMTOLJ
 70
     0
  9
$DIMTZIN
 70
     0
  9
$DIMALTZ
 70
     0
  9
$DIMALTTZ
 70
     0
  9
$DIMUPT
 70
     0
  9
$DIMDEC
 70
     2
  9
$DIMTDEC
 70
     0
  9
$DIMALTU
 70
     2
  9
$DIMALTTD
 70
     3
  9
$DIMTXSTY
  7
Standard
  9
$DIMAUNIT
 70
     0
  9
$DIMADEC
 70
     2
  9
$DIMALTRND
 40
0.0
  9
$DIMAZIN
 70
     0
  9
$DIMDSEP
 70
    44
  9
$DIMATFIT
 70
     3
  9
$DIMFRAC
 70
     0
  9
$DIMLDRBLK
  1

  9
$DIMLUNIT
 70
     2
  9
$DIMLWD
 70
    -2
  9
$DIMLWE
 70
    -2
  9
$DIMTMOVE
 70
     0
  9
$LUNITS
 70
     2
  9
$LUPREC
 70
     3
  9
$SKETCHINC
 40
1.0
  9
$FILLETRAD
 40
10.0
  9
$AUNITS
 70
     0
  9
$AUPREC
 70
     2
  9
$MENU
  1
.
  9
$ELEVATION
 40
0.0
  9
$PELEVATION
 40
0.0
  9
$THICKNESS
 40
0.0
  9
$LIMCHECK
 70
     0
  9
$CHAMFERA
 40
0.0
  9
$CHAMFERB
 40
0.0
  9
$CHAMFERC
 40
0.0
  9
$CHAMFERD
 40
0.0
  9
$SKPOLY
 70
     0
  9
$TDCREATE
 40
2458704.626713056
  9
$TDUCREATE
 40
2458704.543379722
  9
$TDUPDATE
 40
2458704.626713229
  9
$TDUUPDATE
 40
2458704.543379896
  9
$TDINDWG
 40
0.0000000116
  9
$TDUSRTIMER
 40
0.0000000116
  9
$USRTIMER
 70
     1
  9
$ANGBASE
 50
0.0
  9
$ANGDIR
 70
     0
  9
$PDMODE
 70
     0
  9
$PDSIZE
 40
-1.0
  9
$PLINEWID
 40
0.0
  9
$SPLFRAME
 70
     0
  9
$SPLINETYPE
 70
     6
  9
$SPLINESEGS
 70
     8
  9
$HANDSEED
  5
AF
  9
$SURFTAB1
 70
     6
  9
$SURFTAB2
 70
     6
  9
$SURFTYPE
 70
     6
  9
$SURFU
 70
     6
  9
$SURFV
 70
     6
  9
$UCSBASE
  2

  9
$UCSNAME
  2

  9
$UCSORG
 10
0.0
 20
0.0
 30
0.0
  9
$UCSXDIR
 10
1.0
 20
0.0
 30
0.0
  9
$UCSYDIR
 10
0.0
 20
1.0
 30
0.0
  9
$UCSORTHOREF
  2

  9
$UCSORTHOVIEW
 70
     0
  9
$UCSORGTOP
 10
0.0
 20
0.0
 30
0.0
  9
$UCSORGBOTTOM
 10
0.0
 20
0.0
 30
0.0
  9
$UCSORGLEFT
 10
0.0
 20
0.0
 30
0.0
  9
$UCSORGRIGHT
 10
0.0
 20
0.0
 30
0.0
  9
$UCSORGFRONT
 10
0.0
 20
0.0
 30
0.0
  9
$UCSORGBACK
 10
0.0
 20
0.0
 30
0.0
  9
$PUCSBASE
  2

  9
$PUCSNAME
  2

  9
$PUCSORG
 10
0.0
 20
0.0
 30
0.0
  9
$PUCSXDIR
 10
1.0
 20
0.0
 30
0.0
  9
$PUCSYDIR
 10
0.0
 20
1.0
 30
0.0
  9
$PUCSORTHOREF
  2

  9
$PUCSORTHOVIEW
 70
     0
  9
$PUCSORGTOP
 10
0.0
 20
0.0
 30
0.0
  9
$PUCSORGBOTTOM
 10
0.0
 20
0.0
 30
0.0
  9
$PUCSORGLEFT
 10
0.0
 20
0.0
 30
0.0
  9
$PUCSORGRIGHT
 10
0.0
 20
0.0
 30
0.0
  9
$PUCSORGFRONT
 10
0.0
 20
0.0
 30
0.0
  9
$PUCSORGBACK
 10
0.0
 20
0.0
 30
0.0
  9
$USERI1
 70
     0
  9
$USERI2
 70
     0
  9
$USERI3
 70
     0
  9
$USERI4
 70
     0
  9
$USERI5
 70
     0
  9
$USERR1
 40
0.0
  9
$USERR2
 40
0.0
  9
$USERR3
 40
0.0
  9
$USERR4
 40
0.0
  9
$USERR5
 40
0.0
  9
$WORLDVIEW
 70
     1
  9
$SHADEDGE
 70
     3
  9
$SHADEDIF
 70
    70
  9
$TILEMODE
 70
     1
  9
$MAXACTVP
 70
    64
  9
$PINSBASE
 10
0.0
 20
0.0
 30
0.0
  9
$PLIMCHECK
 70
     0
  9
$PEXTMIN
 10
1.0000000000E+20
 20
1.0000000000E+20
 30
1.0000000000E+20
  9
$PEXTMAX
 10
-1.0000000000E+20
 20
-1.0000000000E+20
 30
-1.0000000000E+20
  9
$PLIMMIN
 10
0.0
 20
0.0
  9
$PLIMMAX
 10
420.0
 20
297.0
  9
$UNITMODE
 70
     0
  9
$VISRETAIN
 70
     1
  9
$PLINEGEN
 70
     0
  9
$PSLTSCALE
 70
     1
  9
$TREEDEPTH
 70
  3020
  9
$CMLSTYLE
  2
Standard
  9
$CMLJUST
 70
     0
  9
$CMLSCALE
 40
20.0
  9
$PROXYGRAPHICS
 70
     1
  9
$MEASUREMENT
 70
     1
  9
$CELWEIGHT
370
    -1
  9
$ENDCAPS
280
     0
  9
$JOINSTYLE
280
     0
  9
$LWDISPLAY
290
     1
  9
$INSUNITS
 70
     4
  9
$HYPERLINKBASE
  1

  9
$STYLESHEET
  1

  9
$XEDIT
290
     1
  9
$CEPSNTYPE
380
     0
  9
$PSTYLEMODE
290
     1
  9
$FINGERPRINTGUID
  2
{4D5CF8EC-460B-423A-A765-8464B4357D82}
  9
$VERSIONGUID
  2
{FAEB1C32-E019-11D5-929B-00C0DF256EC4}
  9
$EXTNAMES
290
     1
  9
$PSVPSCALE
 40
0.0
  9
$OLESTARTUP
290
     0
  0
ENDSEC
  0
SECTION
  2
CLASSES
  0
CLASS
  1
ACDBDICTIONARYWDFLT
  2
AcDbDictionaryWithDefault
  3
ObjectDBX Classes
 90
        0
280
     0
281
     0
  0
CLASS
  1
VISUALSTYLE
  2
AcDbVisualStyle
  3
ObjectDBX Classes
 90
     4095
280
     0
281
     0
  0
CLASS
  1
MATERIAL
  2
AcDbMaterial
  3
ObjectDBX Classes
 90
     1153
280
     0
281
     0
  0
CLASS
  1
SCALE
  2
AcDbScale
  3
ObjectDBX Classes
 90
     1153
280
     0
281
     0
  0
CLASS
  1
TABLESTYLE
  2
AcDbTableStyle
  3
ObjectDBX Classes
 90
     4095
280
     0
281
     0
  0
CLASS
  1
MLEADERSTYLE
  2
AcDbMLeaderStyle
  3
ACDB_MLEADERSTYLE_CLASS
 90
     4095
280
     0
281
     0
  0
CLASS
  1
SUN
  2
AcDbSun
  3
SCENEOE
 90
     1153
280
     0
281
     0
  0
CLASS
  1
ACDBPLACEHOLDER
  2
AcDbPlaceHolder
  3
ObjectDBX Classes
 90
        0
280
     0
281
     0
  0
CLASS
  1
LAYOUT
  2
AcDbLayout
  3
ObjectDBX Classes
 90
        0
280
     0
281
     0
  0
ENDSEC
  0
SECTION
  2
TABLES
  0
TABLE
  2
VPORT
  5
8
330
0
100
AcDbSymbolTable
 70
     1
  0
VPORT
  5
29
330
8
100
AcDbSymbolTableRecord
100
AcDbViewportTableRecord
  2
*Active
 70
     0
 10
0.0
 20
0.0
 11
1.0
 21
1.0
 12
10000.0
 22
5000.0
 13
0.0
 23
0.0
 14
10.0
 24
10.0
 15
10.0
 25
10.0
 16
0.0
 26
0.0
 36
1.0
 17
0.0
 27
0.0
 37
0.0
 40
10000.0
 41
2.0
 42
50.0
 43
0.0
 44
0.0
 50
0.0
 51
0.0
 71
     0
 72
  2000
 73
     1
 74
     3
 75
     0
 76
     0
 77
     0
 78
     0
281
     0
 65
     1
110
0.0
120
0.0
130
0.0
111
1.0
121
0.0
131
0.0
112
0.0
122
1.0
132
0.0
 79
     0
146
0.0
  0
ENDTAB
  0
TABLE
  2
LTYPE
  5
5
330
0
100
AcDbSymbolTable
 70
     6
  0
LTYPE
  5
14
330
5
100
AcDbSymbolTableRecord
100
AcDbLinetypeTableRecord
  2
ByBlock
 70
     0
  3

 72
    65
 73
     0
 40
0.0
  0
LTYPE
  5
15
330
5
100
AcDbSymbolTableRecord
100
AcDbLinetypeTableRecord
  2
ByLayer
 70
     0
  3

 72
    65
 73
     0
 40
0.0
  0
LTYPE
  5
16
330
5
100
AcDbSymbolTableRecord
100
AcDbLinetypeTableRecord
  2
Continuous
 70
     0
  3
Solid line
 72
    65
 73
     0
 40
0.0
  0
LTYPE
  5
6E
330
5
100
AcDbSymbolTableRecord
100
AcDbLinetypeTableRecord
  2
HIDDEN
 70
     0
  3
Hidden __ __ __ __ __ __ __ __ __ __ __ __ __ __
 72
    65
 73
     2
 40
1.905
 49
1.27
 74
     0
 49
-0.635
 74
     0
  0
LTYPE
  5
6F
330
5
100
AcDbSymbolTableRecord
100
AcDbLinetypeTableRecord
  2
PHANTOM
 70
     0
  3
Phantom ______  __  __  ______  __  __  ______
 72
    65
 73
     6
 40
12.7
 49
6.35
 74
     0
 49
-1.27
 74
     0
 49
1.27
 74
     0
 49
-1.27
 74
     0
 49
1.27
 74
     0
 49
-1.27
 74
     0
  0
LTYPE
  5
70
330
5
100
AcDbSymbolTableRecord
100
AcDbLinetypeTableRecord
  2
CENTER
 70
     0
  3
Center ____ _ ____ _ ____ _ ____ _ ____ _ ____
 72
    65
 73
     4
 40
10.16
 49
6.35
 74
     0
 49
-1.27
 74
     0
 49
1.27
 74
     0
 49
-1.27
 74
     0
  0
LTYPE
  5
71
330
5
100
AcDbSymbolTableRecord
100
AcDbLinetypeTableRecord
  2
CENTERX2
 70
     0
  3
Center (2x) ________  __  ________  __  _____
 72
    65
 73
     4
 40
20.32
 49
12.7
 74
     0
 49
-2.54
 74
     0
 49
2.54
 74
     0
 49
-2.54
 74
     0
  0
LTYPE
  5
72
330
5
100
AcDbSymbolTableRecord
100
AcDbLinetypeTableRecord
  2
DOT2
 70
     0
  3
Dot (.5x) ........................................
 72
    65
 73
     2
 40
0.635
 49
0.0
 74
     0
 49
-0.635
 74
     0
  0
ENDTAB
  0
TABLE
  2
LAYER
  5
2
330
0
100
AcDbSymbolTable
 70
    13
  0
LAYER
  5
10
330
2
100
AcDbSymbolTableRecord
100
AcDbLayerTableRecord
  2
0
 70
     0
 62
     7
  6
Continuous
370
    -3
390
F
  0
LAYER
  5
73
330
2
100
AcDbSymbolTableRecord
100
AcDbLayerTableRecord
  2
FORMAT
 70
     0
 62
     7
  6
Continuous
370
    -3
390
F
  0
LAYER
  5
74
330
2
100
AcDbSymbolTableRecord
100
AcDbLayerTableRecord
  2
OSA
 70
     0
 62
     7
  6
CENTER
370
    -3
390
F
  0
LAYER
  5
75
330
2
100
AcDbSymbolTableRecord
100
AcDbLayerTableRecord
  2
0_35
 70
     0
 62
     7
  6
Continuous
370
    35
390
F
  0
LAYER
  5
76
330
2
100
AcDbSymbolTableRecord
100
AcDbLayerTableRecord
  2
0_5
 70
     0
 62
     7
  6
Continuous
370
    50
390
F
  0
LAYER
  5
77
330
2
100
AcDbSymbolTableRecord
100
AcDbLayerTableRecord
  2
0_25
 70
     0
 62
     7
  6
Continuous
370
    25
390
F
  0
LAYER
  5
78
330
2
100
AcDbSymbolTableRecord
100
AcDbLayerTableRecord
  2
0_18
 70
     0
 62
     7
  6
Continuous
370
    -3
390
F
  0
LAYER
  5
79
330
2
100
AcDbSymbolTableRecord
100
AcDbLayerTableRecord
  2
SLD-0
 70
     0
 62
   179
  6
Continuous
370
    -3
390
F
  0
LAYER
  5
7A
330
2
100
AcDbSymbolTableRecord
100
AcDbLayerTableRecord
  2
KOTY
 70
     0
 62
     7
  6
Continuous
370
    -3
390
F
  0
LAYER
  5
7B
330
2
100
AcDbSymbolTableRecord
100
AcDbLayerTableRecord
  2
SILNA
 70
     0
 62
   179
  6
Continuous
370
    -3
390
F
  0
LAYER
  5
7C
330
2
100
AcDbSymbolTableRecord
100
AcDbLayerTableRecord
  2
0_18_1
 70
     0
 62
   179
  6
Continuous
370
    -3
390
F
  0
LAYER
  5
7D
330
2
100
AcDbSymbolTableRecord
100
AcDbLayerTableRecord
  2
0_35_1
 70
     0
 62
   179
  6
Continuous
370
    35
390
F
  0
LAYER
  5
7E
330
2
100
AcDbSymbolTableRecord
100
AcDbLayerTableRecord
  2
0_5_1
 70
     0
 62
   179
  6
Continuous
370
    50
390
F
  0
ENDTAB
  0
TABLE
  2
STYLE
  5
3
330
0
100
AcDbSymbolTable
 70
     1
  0
STYLE
  5
11
330
3
100
AcDbSymbolTableRecord
100
AcDbTextStyleTableRecord
  2
Standard
 70
     0
 40
0.0
 41
1.0
 50
0.0
 71
     0
 42
2.0
  3
txt
  4

  0
ENDTAB
  0
TABLE
  2
VIEW
  5
6
330
0
100
AcDbSymbolTable
 70
     0
  0
ENDTAB
  0
TABLE
  2
UCS
  5
7
330
0
100
AcDbSymbolTable
 70
     0
  0
ENDTAB
  0
TABLE
  2
APPID
  5
9
330
0
100
AcDbSymbolTable
 70
     1
  0
APPID
  5
12
330
9
100
AcDbSymbolTableRecord
100
AcDbRegAppTableRecord
  2
ACAD
 70
     0
  0
ENDTAB
  0
TABLE
  2
DIMSTYLE
  5
A
330
0
100
AcDbSymbolTable
 70
     1
100
AcDbDimStyleTable
  0
DIMSTYLE
105
27
330
A
100
AcDbSymbolTableRecord
100
AcDbDimStyleTableRecord
  2
ISO-25
 70
     0
 41
2.5
 42
0.625
 43
3.75
 44
1.25
 73
     0
 74
     0
 77
     1
 78
     8
140
2.5
141
2.5
143
0.0393700787
147
0.625
171
     3
172
     1
178
     0
271
     2
272
     2
274
     3
278
    44
283
     0
284
     8
340
11
  0
ENDTAB
  0
TABLE
  2
BLOCK_RECORD
  5
1
330
0
100
AcDbSymbolTable
 70
     1
  0
BLOCK_RECORD
  5
1F
330
1
100
AcDbSymbolTableRecord
100
AcDbBlockTableRecord
  2
*Model_Space
340
22
  0
BLOCK_RECORD
  5
1B
330
1
100
AcDbSymbolTableRecord
100
AcDbBlockTableRecord
  2
*Paper_Space
340
1E
  0
BLOCK_RECORD
  5
23
330
1
100
AcDbSymbolTableRecord
100
AcDbBlockTableRecord
  2
*Paper_Space0
340
26
  0
ENDTAB
  0
ENDSEC
  0
SECTION
  2
BLOCKS
  0
BLOCK
  5
20
330
1F
100
AcDbEntity
  8
0
100
AcDbBlockBegin
  2
*Model_Space
 70
     0
 10
0.0
 20
0.0
 30
0.0
  3
*Model_Space
  1

  0
ENDBLK
  5
21
330
1F
100
AcDbEntity
  8
0
100
AcDbBlockEnd
  0
BLOCK
  5
1C
330
1B
100
AcDbEntity
 67
     1
  8
0
100
AcDbBlockBegin
  2
*Paper_Space
 70
     0
 10
0.0
 20
0.0
 30
0.0
  3
*Paper_Space
  1

  0
ENDBLK
  5
1D
330
1B
100
AcDbEntity
 67
     1
  8
0
100
AcDbBlockEnd
  0
BLOCK
  5
24
330
23
100
AcDbEntity
  8
0
100
AcDbBlockBegin
  2
*Paper_Space0
 70
     0
 10
0.0
 20
0.0
 30
0.0
  3
*Paper_Space0
  1

  0
ENDBLK
  5
25
330
23
100
AcDbEntity
  8
0
100
AcDbBlockEnd
  0
ENDSEC
  0
SECTION
  2
ENTITIES
  0
LINE
  5
7F
330
1F
100
AcDbEntity
  8
0
  6
Continuous
 62
     7
370
    25
100
AcDbLine
 10
6320.5187553361
 20
5279.8994545927
 30
0.0
 11
6320.5187553361
 21
5285.6994545927
 31
0.0
  0
LINE
  5
80
330
1F
100
AcDbEntity
  8
0
  6
Continuous
 62
     7
370
    25
100
AcDbLine
 10
6227.5187553361
 20
5285.6994545927
 30
0.0
 11
6227.5187553361
 21
5279.8994545927
 31
0.0
  0
LINE
  5
81
330
1F
100
AcDbEntity
  8
0
  6
Continuous
 62
     7
370
    25
100
AcDbLine
 10
6281.7187553361
 20
5285.6994545927
 30
0.0
 11
6281.7187553361
 21
5402.6994545927
 31
0.0
  0
LINE
  5
82
330
1F
100
AcDbEntity
  8
0
  6
Continuous
 62
     7
370
    25
100
AcDbLine
 10
6266.3187553361
 20
5402.6994545927
 30
0.0
 11
6266.3187553361
 21
5285.6994545927
 31
0.0
  0
LINE
  5
83
330
1F
100
AcDbEntity
  8
0
  6
Continuous
 62
     7
370
    25
100
AcDbLine
 10
6318.0187553361
 20
5279.6994545927
 30
0.0
 11
6318.0187553361
 21
5279.8994545927
 31
0.0
  0
LINE
  5
84
330
1F
100
AcDbEntity
  8
0
  6
Continuous
 62
     7
370
    25
100
AcDbLine
 10
6230.0187553361
 20
5279.8994545927
 30
0.0
 11
6230.0187553361
 21
5279.6994545927
 31
0.0
  0
LINE
  5
85
330
1F
100
AcDbEntity
  8
0
  6
Continuous
 62
     7
370
    25
100
AcDbLine
 10
6228.6187553361
 20
5028.6994545927
 30
0.0
 11
6228.6187553361
 21
5024.6994545927
 31
0.0
  0
LINE
  5
86
330
1F
100
AcDbEntity
  8
0
  6
Continuous
 62
     7
370
    25
100
AcDbLine
 10
6319.4187553361
 20
5024.6994545927
 30
0.0
 11
6319.4187553361
 21
5028.6994545927
 31
0.0
  0
LINE
  5
87
330
1F
100
AcDbEntity
  8
0
  6
Continuous
 62
     7
370
    25
100
AcDbLine
 10
6229.6187553361
 20
5279.6994545927
 30
0.0
 11
6229.6187553361
 21
5028.6994545927
 31
0.0
  0
LINE
  5
88
330
1F
100
AcDbEntity
  8
0
  6
Continuous
 62
     7
370
    25
100
AcDbLine
 10
6318.4187553361
 20
5028.6994545927
 30
0.0
 11
6318.4187553361
 21
5279.6994545927
 31
0.0
  0
LINE
  5
89
330
1F
100
AcDbEntity
  8
0
  6
Continuous
 62
     7
370
    25
100
AcDbLine
 10
6320.5187553361
 20
5285.6994545927
 30
0.0
 11
6227.5187553361
 21
5285.6994545927
 31
0.0
  0
LINE
  5
8A
330
1F
100
AcDbEntity
  8
0
  6
Continuous
 62
     7
370
    25
100
AcDbLine
 10
6320.5187553361
 20
5279.8994545927
 30
0.0
 11
6227.5187553361
 21
5279.8994545927
 31
0.0
  0
LINE
  5
8B
330
1F
100
AcDbEntity
  8
0
  6
Continuous
 62
     7
370
    25
100
AcDbLine
 10
6281.7187553361
 20
5402.6994545927
 30
0.0
 11
6266.3187553361
 21
5402.6994545927
 31
0.0
  0
LINE
  5
8C
330
1F
100
AcDbEntity
  8
0
  6
Continuous
 62
     7
370
    25
100
AcDbLine
 10
6274.0187553361
 20
5028.6994545927
 30
0.0
 11
6319.4187553361
 21
5028.6994545927
 31
0.0
  0
LINE
  5
8D
330
1F
100
AcDbEntity
  8
0
  6
Continuous
 62
     7
370
    25
100
AcDbLine
 10
6228.6187553361
 20
5028.6994545927
 30
0.0
 11
6274.0187553361
 21
5028.6994545927
 31
0.0
  0
LINE
  5
8E
330
1F
100
AcDbEntity
  8
0
  6
Continuous
 62
     7
370
    25
100
AcDbLine
 10
6274.0187553361
 20
5024.6994545927
 30
0.0
 11
6319.4187553361
 21
5024.6994545927
 31
0.0
  0
LINE
  5
8F
330
1F
100
AcDbEntity
  8
0
  6
Continuous
 62
     7
370
    25
100
AcDbLine
 10
6228.6187553361
 20
5024.6994545927
 30
0.0
 11
6274.0187553361
 21
5024.6994545927
 31
0.0
  0
LINE
  5
90
330
1F
100
AcDbEntity
  8
0
  6
Continuous
 62
     7
370
    25
100
AcDbLine
 10
6274.0187553361
 20
5279.6994545927
 30
0.0
 11
6318.4187553361
 21
5279.6994545927
 31
0.0
  0
LINE
  5
91
330
1F
100
AcDbEntity
  8
0
  6
Continuous
 62
     7
370
    25
100
AcDbLine
 10
6229.6187553361
 20
5279.6994545927
 30
0.0
 11
6274.0187553361
 21
5279.6994545927
 31
0.0
  0
CIRCLE
  5
92
330
1F
100
AcDbEntity
  8
0
  6
Continuous
 62
     7
370
    25
100
AcDbCircle
 10
6274.0187553361
 20
4750.6604988786
 30
0.0
 40
7.700000000000182
  0
CIRCLE
  5
93
330
1F
100
AcDbEntity
  8
0
  6
Continuous
 62
     7
370
    25
100
AcDbCircle
 10
6274.0187553361
 20
4750.6604988786
 30
0.0
 40
46.5000000000005
  0
LINE
  5
94
330
1F
100
AcDbEntity
  8
0
  6
Continuous
 62
     7
370
    25
100
AcDbLine
 10
6618.4704016011
 20
5279.8994545927
 30
0.0
 11
6618.4704016011
 21
5285.6994545927
 31
0.0
  0
LINE
  5
95
330
1F
100
AcDbEntity
  8
0
  6
Continuous
 62
     7
370
    25
100
AcDbLine
 10
6525.4704016011
 20
5285.6994545927
 30
0.0
 11
6525.4704016011
 21
5279.8994545927
 31
0.0
  0
LINE
  5
96
330
1F
100
AcDbEntity
  8
0
  6
Continuous
 62
     7
370
    25
100
AcDbLine
 10
6579.6704016011
 20
5285.6994545927
 30
0.0
 11
6579.6704016011
 21
5402.6994545927
 31
0.0
  0
LINE
  5
97
330
1F
100
AcDbEntity
  8
0
  6
Continuous
 62
     7
370
    25
100
AcDbLine
 10
6564.2704016011
 20
5402.6994545927
 30
0.0
 11
6564.2704016011
 21
5285.6994545927
 31
0.0
  0
LINE
  5
98
330
1F
100
AcDbEntity
  8
0
  6
Continuous
 62
     7
370
    25
100
AcDbLine
 10
6615.9704016011
 20
5279.6994545927
 30
0.0
 11
6615.9704016011
 21
5279.8994545927
 31
0.0
  0
LINE
  5
99
330
1F
100
AcDbEntity
  8
0
  6
Continuous
 62
     7
370
    25
100
AcDbLine
 10
6527.9704016011
 20
5279.8994545927
 30
0.0
 11
6527.9704016011
 21
5279.6994545927
 31
0.0
  0
LINE
  5
9A
330
1F
100
AcDbEntity
  8
0
  6
Continuous
 62
     7
370
    25
100
AcDbLine
 10
6526.5704016011
 20
5028.6994545927
 30
0.0
 11
6526.5704016011
 21
5024.6994545927
 31
0.0
  0
LINE
  5
9B
330
1F
100
AcDbEntity
  8
0
  6
Continuous
 62
     7
370
    25
100
AcDbLine
 10
6617.3704016011
 20
5024.6994545927
 30
0.0
 11
6617.3704016011
 21
5028.6994545927
 31
0.0
  0
LINE
  5
9C
330
1F
100
AcDbEntity
  8
0
  6
Continuous
 62
     7
370
    25
100
AcDbLine
 10
6527.5704016011
 20
5279.6994545927
 30
0.0
 11
6527.5704016011
 21
5028.6994545927
 31
0.0
  0
LINE
  5
9D
330
1F
100
AcDbEntity
  8
0
  6
Continuous
 62
     7
370
    25
100
AcDbLine
 10
6616.3704016011
 20
5028.6994545927
 30
0.0
 11
6616.3704016011
 21
5279.6994545927
 31
0.0
  0
LINE
  5
9E
330
1F
100
AcDbEntity
  8
0
  6
Continuous
 62
     7
370
    25
100
AcDbLine
 10
6565.4959737643
 20
5285.6994545927
 30
0.0
 11
6525.4704016011
 21
5285.6994545927
 31
0.0
  0
LINE
  5
9F
330
1F
100
AcDbEntity
  8
0
  6
Continuous
 62
     7
370
    25
100
AcDbLine
 10
6618.4704016011
 20
5285.6994545927
 30
0.0
 11
6565.4959737643
 21
5285.6994545927
 31
0.0
  0
LINE
  5
A0
330
1F
100
AcDbEntity
  8
0
  6
Continuous
 62
     7
370
    25
100
AcDbLine
 10
6565.4959737643
 20
5279.8994545927
 30
0.0
 11
6525.4704016011
 21
5279.8994545927
 31
0.0
  0
LINE
  5
A1
330
1F
100
AcDbEntity
  8
0
  6
Continuous
 62
     7
370
    25
100
AcDbLine
 10
6618.4704016011
 20
5279.8994545927
 30
0.0
 11
6565.4959737643
 21
5279.8994545927
 31
0.0
  0
LINE
  5
A2
330
1F
100
AcDbEntity
  8
0
  6
Continuous
 62
     7
370
    25
100
AcDbLine
 10
6570.8982920453
 20
5402.6994545927
 30
0.0
 11
6564.2704016011
 21
5402.6994545927
 31
0.0
  0
LINE
  5
A3
330
1F
100
AcDbEntity
  8
0
  6
Continuous
 62
     7
370
    25
100
AcDbLine
 10
6579.6704016011
 20
5402.6994545927
 30
0.0
 11
6570.8982920453
 21
5402.6994545927
 31
0.0
  0
LINE
  5
A4
330
1F
100
AcDbEntity
  8
0
  6
Continuous
 62
     7
370
    25
100
AcDbLine
 10
6526.5704016011
 20
5028.6994545927
 30
0.0
 11
6617.3704016011
 21
5028.6994545927
 31
0.0
  0
LINE
  5
A5
330
1F
100
AcDbEntity
  8
0
  6
Continuous
 62
     7
370
    25
100
AcDbLine
 10
6526.5704016011
 20
5024.6994545927
 30
0.0
 11
6617.3704016011
 21
5024.6994545927
 31
0.0
  0
LINE
  5
A6
330
1F
100
AcDbEntity
  8
0
  6
Continuous
 62
     7
370
    25
100
AcDbLine
 10
6527.5704016011
 20
5279.6994545927
 30
0.0
 11
6616.3704016011
 21
5279.6994545927
 31
0.0
  0
LINE
  5
A7
330
1F
100
AcDbEntity
  8
0
  6
Continuous
 62
     7
370
    25
100
AcDbLine
 10
6568.7204016011
 20
5220.7430148432
 30
0.0
 11
6568.7204016011
 21
5223.4494545927
 31
0.0
  0
SPLINE
  5
A8
330
1F
100
AcDbEntity
  8
0
  6
Continuous
 62
     7
370
    25
100
AcDbSpline
210
0.0
220
0.0
230
1.0
 70
     8
 71
     3
 72
    68
 73
    64
 74
     0
 42
0.000000001
 43
0.00000001
 40
0.0
 40
0.0
 40
0.0
 40
0.0
 40
0.0625
 40
0.0625
 40
0.09375
 40
0.09375
 40
0.1249999999999999
 40
0.1249999999999999
 40
0.1562499999999999
 40
0.1562499999999999
 40
0.1874999999999999
 40
0.1874999999999999
 40
0.2187499999999999
 40
0.2187499999999999
 40
0.2499999999999998
 40
0.2499999999999998
 40
0.2812499999999998
 40
0.2812499999999998
 40
0.3124999999999998
 40
0.3124999999999998
 40
0.3437499999999998
 40
0.3437499999999998
 40
0.3749999999999998
 40
0.3749999999999998
 40
0.4062499999999998
 40
0.4062499999999998
 40
0.4374999999999998
 40
0.4374999999999998
 40
0.4687499999999999
 40
0.4687499999999999
 40
0.4999999999999999
 40
0.4999999999999999
 40
0.5312499999999999
 40
0.5312499999999999
 40
0.5624999999999999
 40
0.5624999999999999
 40
0.5937499999999999
 40
0.5937499999999999
 40
0.6249999999999999
 40
0.6249999999999999
 40
0.6562499999999999
 40
0.6562499999999999
 40
0.6874999999999999
 40
0.6874999999999999
 40
0.7187499999999999
 40
0.7187499999999999
 40
0.7499999999999999
 40
0.7499999999999999
 40
0.7812499999999999
 40
0.7812499999999999
 40
0.8124999999999999
 40
0.8124999999999999
 40
0.8437499999999999
 40
0.8437499999999999
 40
0.8749999999999999
 40
0.8749999999999999
 40
0.9062499999999999
 40
0.9062499999999999
 40
0.9374999999999999
 40
0.9374999999999999
 40
0.9687499999999999
 40
0.9687499999999999
 40
1.0
 40
1.0
 40
1.0
 40
1.0
 10
6575.220401601097
 20
5220.743014843167
 30
0.0
 10
6575.765016121093
 20
5220.392072829571
 30
0.0
 10
6576.239336219412
 20
5219.96482426193
 30
0.0
 10
6576.846837235911
 20
5219.210105643034
 30
0.0
 10
6577.028088931926
 20
5218.943198373319
 30
0.0
 10
6577.343961618952
 20
5218.387749142267
 30
0.0
 10
6577.479590037284
 20
5218.097970025856
 30
0.0
 10
6577.70497179719
 20
5217.493538808833
 30
0.0
 10
6577.793392301362
 20
5217.181087914024
 30
0.0
 10
6577.917978249134
 20
5216.553146580451
 30
0.0
 10
6577.9551127455
 20
5216.23521198087
 30
0.0
 10
6577.978071305305
 20
5215.591250221042
 30
0.0
 10
6577.9632672364
 20
5215.265565501047
 30
0.0
 10
6577.88295543597
 20
5214.629685731515
 30
0.0
 10
6577.817682947172
 20
5214.316461476307
 30
0.0
 10
6577.636408433757
 20
5213.69952067569
 30
0.0
 10
6577.519479361823
 20
5213.395029423265
 30
0.0
 10
6577.242534616987
 20
5212.817224064295
 30
0.0
 10
6577.081897336394
 20
5212.54106084218
 30
0.0
 10
6576.716120710132
 20
5212.01421513326
 30
0.0
 10
6576.509278304711
 20
5211.762291811619
 30
0.0
 10
6576.064181166471
 20
5211.301316194985
 30
0.0
 10
6575.824792309482
 20
5211.090093958726
 30
0.0
 10
6575.312311435148
 20
5210.706041746962
 30
0.0
 10
6575.036615571158
 20
5210.532112558837
 30
0.0
 10
6574.46764183475
 20
5210.23439438987
 30
0.0
 10
6574.173506417559
 20
5210.109387053812
 30
0.0
 10
6573.566047416549
 20
5209.906662489294
 30
0.0
 10
6573.249708046979
 20
5209.828582161809
 30
0.0
 10
6572.613770276945
 20
5209.725356767153
 30
0.0
 10
6572.294664507596
 20
5209.6996715472
 30
0.0
 10
6571.654217853406
 20
5209.699240357917
 30
0.0
 10
6571.330258441911
 20
5209.72497530345
 30
0.0
 10
6570.692996527983
 20
5209.828132567712
 30
0.0
 10
6570.382007882512
 20
5209.904687081321
 30
0.0
 10
6569.774880660569
 20
5210.106422059638
 30
0.0
 10
6569.477031209721
 20
5210.232518241565
 30
0.0
 10
6568.904641644659
 20
5210.531727348984
 30
0.0
 10
6568.633905900876
 20
5210.702474734859
 30
0.0
 10
6568.122266118948
 20
5211.084927036352
 30
0.0
 10
6567.880800382874
 20
5211.297212033466
 30
0.0
 10
6567.43132680948
 20
5211.762275690168
 30
0.0
 10
6567.228174176415
 20
5212.009842539366
 30
0.0
 10
6566.863360540077
 20
5212.5340020733
 30
0.0
 10
6566.701699391611
 20
5212.810594133796
 30
0.0
 10
6566.421529199978
 20
5213.394079829377
 30
0.0
 10
6566.306195609881
 20
5213.694710125857
 30
0.0
 10
6566.125217329543
 20
5214.30803419618
 30
0.0
 10
6566.059175546179
 20
5214.62155548104
 30
0.0
 10
6565.977590458897
 20
5215.262791586267
 30
0.0
 10
6565.962925896901
 20
5215.586678818264
 30
0.0
 10
6565.98503215958
 20
5216.226555494225
 30
0.0
 10
6566.02149475132
 20
5216.544748944589
 30
0.0
 10
6566.146383483909
 20
5217.177571035794
 30
0.0
 10
6566.235000208391
 20
5217.490434541057
 30
0.0
 10
6566.458079297533
 20
5218.090425343777
 30
0.0
 10
6566.593013927388
 20
5218.380334385907
 30
0.0
 10
6566.910370542149
 20
5218.939747842002
 30
0.0
 10
6567.093289398073
 20
5219.208885337605
 30
0.0
 10
6567.494082811083
 20
5219.707558593888
 30
0.0
 10
6567.713305167888
 20
5219.939748266976
 30
0.0
 10
6568.189827142734
 20
5220.369595623817
 30
0.0
 10
6568.448096132081
 20
5220.567544990451
 30
0.0
 10
6568.720401601097
 20
5220.743014843167
 30
0.0
  0
LINE
  5
A9
330
1F
100
AcDbEntity
  8
0
  6
Continuous
 62
     7
370
    25
100
AcDbLine
 10
6575.2204016011
 20
5223.4494545927
 30
0.0
 11
6575.2204016011
 21
5220.7430148432
 31
0.0
  0
SPLINE
  5
AA
330
1F
100
AcDbEntity
  8
0
  6
Continuous
 62
     7
370
    25
100
AcDbSpline
210
0.0
220
0.0
230
1.0
 70
     8
 71
     3
 72
    38
 73
    34
 74
     0
 42
0.000000001
 43
0.00000001
 40
0.0
 40
0.0
 40
0.0
 40
0.0
 40
0.0625
 40
0.0625
 40
0.125
 40
0.125
 40
0.1875
 40
0.1875
 40
0.25
 40
0.25
 40
0.3125
 40
0.3125
 40
0.375
 40
0.375
 40
0.4375
 40
0.4375
 40
0.5
 40
0.5
 40
0.5625
 40
0.5625
 40
0.625
 40
0.625
 40
0.6875
 40
0.6875
 40
0.75
 40
0.75
 40
0.8125
 40
0.8125
 40
0.875
 40
0.875
 40
0.9375
 40
0.9375
 40
1.0
 40
1.0
 40
1.0
 40
1.0
 10
6568.720401601097
 20
5223.449454592708
 30
0.0
 10
6568.720401601097
 20
5223.664221038329
 30
0.0
 10
6568.741480428688
 20
5223.87538454007
 30
0.0
 10
6568.824057990284
 20
5224.290804781621
 30
0.0
 10
6568.886563569017
 20
5224.497218313173
 30
0.0
 10
6569.049685896121
 20
5224.890733744271
 30
0.0
 10
6569.149496838812
 20
5225.077362813708
 30
0.0
 10
6569.385295225599
 20
5225.430568895628
 30
0.0
 10
6569.522498005376
 20
5225.597750674111
 30
0.0
 10
6569.822197006582
 20
5225.897438474889
 30
0.0
 10
6569.985737701655
 20
5226.031945369875
 30
0.0
 10
6570.340906923835
 20
5226.269542624077
 30
0.0
 10
6570.529946558106
 20
5226.370477912612
 30
0.0
 10
6570.92092368751
 20
5226.532615969476
 30
0.0
 10
6571.125744779432
 20
5226.595054083014
 30
0.0
 10
6571.545247527427
 20
5226.678616297152
 30
0.0
 10
6571.756141010705
 20
5226.699306756894
 30
0.0
 10
6572.180153595582
 20
5226.699600864873
 30
0.0
 10
6572.395506617219
 20
5226.678532410876
 30
0.0
 10
6572.812360952173
 20
5226.595684444714
 30
0.0
 10
6573.014976150009
 20
5226.534369113121
 30
0.0
 10
6573.408523828581
 20
5226.371720502119
 30
0.0
 10
6573.598781965286
 20
5226.270039053014
 30
0.0
 10
6573.950935425065
 20
5226.034953592962
 30
0.0
 10
6574.115097352802
 20
5225.900737969371
 30
0.0
 10
6574.418659268227
 20
5225.597603669339
 30
0.0
 10
6574.553290026246
 20
5225.433386029878
 30
0.0
 10
6574.788784588654
 20
5225.081635311748
 30
0.0
 10
6574.890617435756
 20
5224.891759331639
 30
0.0
 10
6575.053934689156
 20
5224.498133368968
 30
0.0
 10
6575.115499815165
 20
5224.295591812963
 30
0.0
 10
6575.198860014609
 20
5223.879160589715
 30
0.0
 10
6575.220401601097
 20
5223.664220769418
 30
0.0
 10
6575.220401601097
 20
5223.449454592708
 30
0.0
  0
LINE
  5
AB
330
1F
100
AcDbEntity
  8
0
  6
Continuous
 62
     7
370
    25
100
AcDbLine
 10
6568.7204016011
 20
5242.7430148432
 30
0.0
 11
6568.7204016011
 21
5245.4494545927
 31
0.0
  0
SPLINE
  5
AC
330
1F
100
AcDbEntity
  8
0
  6
Continuous
 62
     7
370
    25
100
AcDbSpline
210
0.0
220
0.0
230
1.0
 70
     8
 71
     3
 72
    68
 73
    64
 74
     0
 42
0.000000001
 43
0.00000001
 40
0.0
 40
0.0
 40
0.0
 40
0.0
 40
0.0625
 40
0.0625
 40
0.09375
 40
0.09375
 40
0.125
 40
0.125
 40
0.1562499999999999
 40
0.1562499999999999
 40
0.1874999999999999
 40
0.1874999999999999
 40
0.2187499999999999
 40
0.2187499999999999
 40
0.2499999999999999
 40
0.2499999999999999
 40
0.2812499999999999
 40
0.2812499999999999
 40
0.3124999999999999
 40
0.3124999999999999
 40
0.3437499999999999
 40
0.3437499999999999
 40
0.3749999999999999
 40
0.3749999999999999
 40
0.4062499999999999
 40
0.4062499999999999
 40
0.4374999999999999
 40
0.4374999999999999
 40
0.4687499999999999
 40
0.4687499999999999
 40
0.4999999999999999
 40
0.4999999999999999
 40
0.5312499999999999
 40
0.5312499999999999
 40
0.5624999999999999
 40
0.5624999999999999
 40
0.5937499999999999
 40
0.5937499999999999
 40
0.6249999999999999
 40
0.6249999999999999
 40
0.6562499999999999
 40
0.6562499999999999
 40
0.6874999999999999
 40
0.6874999999999999
 40
0.7187499999999999
 40
0.7187499999999999
 40
0.7499999999999999
 40
0.7499999999999999
 40
0.78125
 40
0.78125
 40
0.8125
 40
0.8125
 40
0.84375
 40
0.84375
 40
0.875
 40
0.875
 40
0.90625
 40
0.90625
 40
0.9375
 40
0.9375
 40
0.96875
 40
0.96875
 40
1.0
 40
1.0
 40
1.0
 40
1.0
 10
6575.220401601097
 20
5242.743014843166
 30
0.0
 10
6575.765016121093
 20
5242.392072829571
 30
0.0
 10
6576.239336219412
 20
5241.964824261931
 30
0.0
 10
6576.846837235911
 20
5241.210105643035
 30
0.0
 10
6577.028088931926
 20
5240.943198373319
 30
0.0
 10
6577.343961618952
 20
5240.387749142267
 30
0.0
 10
6577.479590037284
 20
5240.097970025856
 30
0.0
 10
6577.70497179719
 20
5239.493538808833
 30
0.0
 10
6577.793392301362
 20
5239.181087914024
 30
0.0
 10
6577.917978249134
 20
5238.553146580451
 30
0.0
 10
6577.9551127455
 20
5238.235211980869
 30
0.0
 10
6577.978071305305
 20
5237.591250221042
 30
0.0
 10
6577.9632672364
 20
5237.265565501047
 30
0.0
 10
6577.88295543597
 20
5236.629685731514
 30
0.0
 10
6577.817682947172
 20
5236.316461476307
 30
0.0
 10
6577.636408433757
 20
5235.69952067569
 30
0.0
 10
6577.519479361823
 20
5235.395029423265
 30
0.0
 10
6577.242534616987
 20
5234.817224064295
 30
0.0
 10
6577.081897336394
 20
5234.541060842181
 30
0.0
 10
6576.716120710132
 20
5234.01421513326
 30
0.0
 10
6576.509278304711
 20
5233.762291811619
 30
0.0
 10
6576.064181166472
 20
5233.301316194985
 30
0.0
 10
6575.824792309482
 20
5233.090093958727
 30
0.0
 10
6575.312311435148
 20
5232.706041746963
 30
0.0
 10
6575.036615571158
 20
5232.532112558837
 30
0.0
 10
6574.46764183475
 20
5232.23439438987
 30
0.0
 10
6574.173506417559
 20
5232.109387053812
 30
0.0
 10
6573.566047416549
 20
5231.906662489294
 30
0.0
 10
6573.249708046979
 20
5231.828582161808
 30
0.0
 10
6572.613770276945
 20
5231.725356767152
 30
0.0
 10
6572.294664507596
 20
5231.6996715472
 30
0.0
 10
6571.654217853406
 20
5231.699240357917
 30
0.0
 10
6571.330258441911
 20
5231.724975303449
 30
0.0
 10
6570.692996527983
 20
5231.828132567712
 30
0.0
 10
6570.382007882512
 20
5231.90468708132
 30
0.0
 10
6569.774880660569
 20
5232.106422059639
 30
0.0
 10
6569.477031209721
 20
5232.232518241565
 30
0.0
 10
6568.904641644659
 20
5232.531727348984
 30
0.0
 10
6568.633905900876
 20
5232.70247473486
 30
0.0
 10
6568.122266118948
 20
5233.084927036352
 30
0.0
 10
6567.880800382874
 20
5233.297212033467
 30
0.0
 10
6567.43132680948
 20
5233.762275690169
 30
0.0
 10
6567.228174176415
 20
5234.009842539366
 30
0.0
 10
6566.863360540077
 20
5234.5340020733
 30
0.0
 10
6566.701699391611
 20
5234.810594133797
 30
0.0
 10
6566.421529199978
 20
5235.394079829377
 30
0.0
 10
6566.306195609881
 20
5235.694710125857
 30
0.0
 10
6566.125217329543
 20
5236.30803419618
 30
0.0
 10
6566.059175546179
 20
5236.621555481041
 30
0.0
 10
6565.977590458897
 20
5237.262791586266
 30
0.0
 10
6565.962925896901
 20
5237.586678818263
 30
0.0
 10
6565.98503215958
 20
5238.226555494224
 30
0.0
 10
6566.02149475132
 20
5238.544748944588
 30
0.0
 10
6566.146383483909
 20
5239.177571035793
 30
0.0
 10
6566.235000208391
 20
5239.490434541058
 30
0.0
 10
6566.458079297533
 20
5240.090425343777
 30
0.0
 10
6566.593013927388
 20
5240.380334385906
 30
0.0
 10
6566.910370542149
 20
5240.939747842002
 30
0.0
 10
6567.093289398073
 20
5241.208885337605
 30
0.0
 10
6567.494082811083
 20
5241.707558593888
 30
0.0
 10
6567.713305167888
 20
5241.939748266976
 30
0.0
 10
6568.189827142734
 20
5242.369595623817
 30
0.0
 10
6568.448096132081
 20
5242.567544990451
 30
0.0
 10
6568.720401601097
 20
5242.743014843166
 30
0.0
  0
LINE
  5
AD
330
1F
100
AcDbEntity
  8
0
  6
Continuous
 62
     7
370
    25
100
AcDbLine
 10
6575.2204016011
 20
5245.4494545927
 30
0.0
 11
6575.2204016011
 21
5242.7430148432
 31
0.0
  0
SPLINE
  5
AE
330
1F
100
AcDbEntity
  8
0
  6
Continuous
 62
     7
370
    25
100
AcDbSpline
210
0.0
220
0.0
230
1.0
 70
     8
 71
     3
 72
    38
 73
    34
 74
     0
 42
0.000000001
 43
0.00000001
 40
0.0
 40
0.0
 40
0.0
 40
0.0
 40
0.0625
 40
0.0625
 40
0.125
 40
0.125
 40
0.1875000000000001
 40
0.1875000000000001
 40
0.2500000000000001
 40
0.2500000000000001
 40
0.3125000000000001
 40
0.3125000000000001
 40
0.375
 40
0.375
 40
0.4375
 40
0.4375
 40
0.4999999999999999
 40
0.4999999999999999
 40
0.5624999999999999
 40
0.5624999999999999
 40
0.6249999999999999
 40
0.6249999999999999
 40
0.6874999999999999
 40
0.6874999999999999
 40
0.7499999999999999
 40
0.7499999999999999
 40
0.8125
 40
0.8125
 40
0.875
 40
0.875
 40
0.9375
 40
0.9375
 40
1.0
 40
1.0
 40
1.0
 40
1.0
 10
6568.720401601097
 20
5245.449454592708
 30
0.0
 10
6568.720401601097
 20
5245.66422103833
 30
0.0
 10
6568.741480428688
 20
5245.87538454007
 30
0.0
 10
6568.824057990284
 20
5246.290804781621
 30
0.0
 10
6568.886563569017
 20
5246.497218313173
 30
0.0
 10
6569.049685896121
 20
5246.890733744272
 30
0.0
 10
6569.149496838812
 20
5247.077362813707
 30
0.0
 10
6569.385295225599
 20
5247.430568895629
 30
0.0
 10
6569.522498005376
 20
5247.597750674111
 30
0.0
 10
6569.822197006582
 20
5247.897438474889
 30
0.0
 10
6569.985737701655
 20
5248.031945369874
 30
0.0
 10
6570.340906923835
 20
5248.269542624078
 30
0.0
 10
6570.529946558106
 20
5248.370477912611
 30
0.0
 10
6570.92092368751
 20
5248.532615969476
 30
0.0
 10
6571.125744779432
 20
5248.595054083014
 30
0.0
 10
6571.545247527427
 20
5248.678616297151
 30
0.0
 10
6571.756141010705
 20
5248.699306756894
 30
0.0
 10
6572.180153595582
 20
5248.699600864873
 30
0.0
 10
6572.395506617219
 20
5248.678532410876
 30
0.0
 10
6572.812360952173
 20
5248.595684444714
 30
0.0
 10
6573.014976150009
 20
5248.534369113122
 30
0.0
 10
6573.408523828581
 20
5248.37172050212
 30
0.0
 10
6573.598781965286
 20
5248.270039053013
 30
0.0
 10
6573.950935425065
 20
5248.034953592961
 30
0.0
 10
6574.115097352802
 20
5247.900737969371
 30
0.0
 10
6574.418659268227
 20
5247.597603669339
 30
0.0
 10
6574.553290026246
 20
5247.433386029877
 30
0.0
 10
6574.788784588654
 20
5247.081635311748
 30
0.0
 10
6574.890617435756
 20
5246.891759331639
 30
0.0
 10
6575.053934689156
 20
5246.498133368968
 30
0.0
 10
6575.115499815165
 20
5246.295591812963
 30
0.0
 10
6575.198860014609
 20
5245.879160589715
 30
0.0
 10
6575.220401601097
 20
5245.664220769418
 30
0.0
 10
6575.220401601097
 20
5245.449454592708
 30
0.0
  0
ENDSEC
  0
SECTION
  2
OBJECTS
  0
DICTIONARY
  5
C
330
0
100
AcDbDictionary
281
     1
  3
ACAD_GROUP
350
D
  3
ACAD_LAYOUT
350
1A
  3
ACAD_MLINESTYLE
350
17
  3
ACAD_PLOTSETTINGS
350
19
  3
ACAD_PLOTSTYLENAME
350
E
  3
ACAD_SCALELIST
350
47
  0
DICTIONARY
  5
D
102
{ACAD_REACTORS
330
C
102
}
330
C
100
AcDbDictionary
281
     1
  0
DICTIONARY
  5
1A
102
{ACAD_REACTORS
330
C
102
}
330
C
100
AcDbDictionary
281
     1
  3
Layout1
350
1E
  3
Layout2
350
26
  3
Model
350
22
  0
DICTIONARY
  5
17
102
{ACAD_REACTORS
330
C
102
}
330
C
100
AcDbDictionary
281
     1
  3
Standard
350
18
  0
DICTIONARY
  5
19
102
{ACAD_REACTORS
330
C
102
}
330
C
100
AcDbDictionary
281
     1
  0
ACDBDICTIONARYWDFLT
  5
E
102
{ACAD_REACTORS
330
C
102
}
330
C
100
AcDbDictionary
281
     1
  3
Normal
350
F
100
AcDbDictionaryWithDefault
340
F
  0
DICTIONARY
  5
47
102
{ACAD_REACTORS
330
C
102
}
330
C
100
AcDbDictionary
281
     1
  3
A0
350
48
  3
A1
350
49
  3
A2
350
4A
  3
A3
350
4B
  3
A4
350
4C
  3
A5
350
4D
  3
A6
350
4E
  3
A7
350
4F
  3
A8
350
50
  3
A9
350
51
  3
B0
350
52
  3
B1
350
53
  3
B2
350
54
  3
B3
350
55
  3
B4
350
56
  3
B5
350
57
  3
B6
350
58
  3
B7
350
59
  3
B8
350
5A
  3
B9
350
5B
  3
C0
350
5C
  3
C1
350
5D
  3
C2
350
5E
  3
C3
350
5F
  3
C4
350
60
  3
C5
350
61
  3
C6
350
62
  3
C7
350
63
  3
C8
350
64
  3
C9
350
65
  3
D0
350
66
  3
D1
350
67
  3
D2
350
68
  0
LAYOUT
  5
1E
102
{ACAD_REACTORS
330
1A
102
}
330
1A
100
AcDbPlotSettings
  1

  2
none_device
  4

  6

 40
0.0
 41
0.0
 42
0.0
 43
0.0
 44
0.0
 45
0.0
 46
0.0
 47
0.0
 48
0.0
 49
0.0
140
0.0
141
0.0
142
1.0
143
1.0
 70
   688
 72
     1
 73
     0
 74
     5
  7

 75
    16
147
1.0
148
0.0
149
0.0
100
AcDbLayout
  1
Layout1
 70
     1
 71
     1
 10
0.0
 20
0.0
 11
420.0
 21
297.0
 12
0.0
 22
0.0
 32
0.0
 14
1.0000000000E+20
 24
1.0000000000E+20
 34
1.0000000000E+20
 15
-1.0000000000E+20
 25
-1.0000000000E+20
 35
-1.0000000000E+20
146
0.0
 13
0.0
 23
0.0
 33
0.0
 16
1.0
 26
0.0
 36
0.0
 17
0.0
 27
1.0
 37
0.0
 76
     0
330
1B
  0
LAYOUT
  5
26
102
{ACAD_REACTORS
330
1A
102
}
330
1A
100
AcDbPlotSettings
  1

  2
none_device
  4

  6

 40
0.0
 41
0.0
 42
0.0
 43
0.0
 44
0.0
 45
0.0
 46
0.0
 47
0.0
 48
0.0
 49
0.0
140
0.0
141
0.0
142
1.0
143
1.0
 70
   688
 72
     1
 73
     0
 74
     5
  7

 75
    16
147
1.0
148
0.0
149
0.0
100
AcDbLayout
  1
Layout2
 70
     1
 71
     2
 10
0.0
 20
0.0
 11
0.0
 21
0.0
 12
0.0
 22
0.0
 32
0.0
 14
0.0
 24
0.0
 34
0.0
 15
0.0
 25
0.0
 35
0.0
146
0.0
 13
0.0
 23
0.0
 33
0.0
 16
1.0
 26
0.0
 36
0.0
 17
0.0
 27
1.0
 37
0.0
 76
     0
330
23
  0
LAYOUT
  5
22
102
{ACAD_REACTORS
330
1A
102
}
330
1A
100
AcDbPlotSettings
  1

  2
none_device
  4
Letter_(8.50_x_11.00_Inches)
  6

 40
6.35
 41
6.35
 42
6.35000508
 43
6.35000508
 44
215.9
 45
279.4
 46
0.0
 47
0.0
 48
0.0
 49
0.0
140
0.0
141
0.0
142
1.0
143
1.0
 70
  1712
 72
     1
 73
     0
 74
     0
  7

 75
     0
147
1.0
148
0.0
149
0.0
100
AcDbLayout
  1
Model
 70
     1
 71
     0
 10
0.0
 20
0.0
 11
20000.0
 21
10000.0
 12
0.0
 22
0.0
 32
0.0
 14
0.0
 24
0.0
 34
0.0
 15
20000.0
 25
10000.0
 35
0.0
146
0.0
 13
0.0
 23
0.0
 33
0.0
 16
1.0
 26
0.0
 36
0.0
 17
0.0
 27
1.0
 37
0.0
 76
     0
330
1F
331
29
  0
MLINESTYLE
  5
18
102
{ACAD_REACTORS
330
17
102
}
330
17
100
AcDbMlineStyle
  2
Standard
 70
     0
  3

 62
   256
 51
90.0
 52
90.0
 71
     2
 49
0.5
 62
   256
  6
BYLAYER
 49
-0.5
 62
   256
  6
BYLAYER
  0
ACDBPLACEHOLDER
  5
F
102
{ACAD_REACTORS
330
E
102
}
330
E
  0
SCALE
  5
48
102
{ACAD_REACTORS
330
47
102
}
330
47
100
AcDbScale
 70
     0
300
1:1
140
1.0
141
1.0
290
     1
  0
SCALE
  5
49
102
{ACAD_REACTORS
330
47
102
}
330
47
100
AcDbScale
 70
     0
300
1:2
140
1.0
141
2.0
290
     0
  0
SCALE
  5
4A
102
{ACAD_REACTORS
330
47
102
}
330
47
100
AcDbScale
 70
     0
300
1:4
140
1.0
141
4.0
290
     0
  0
SCALE
  5
4B
102
{ACAD_REACTORS
330
47
102
}
330
47
100
AcDbScale
 70
     0
300
1:5
140
1.0
141
5.0
290
     0
  0
SCALE
  5
4C
102
{ACAD_REACTORS
330
47
102
}
330
47
100
AcDbScale
 70
     0
300
1:8
140
1.0
141
8.0
290
     0
  0
SCALE
  5
4D
102
{ACAD_REACTORS
330
47
102
}
330
47
100
AcDbScale
 70
     0
300
1:10
140
1.0
141
10.0
290
     0
  0
SCALE
  5
4E
102
{ACAD_REACTORS
330
47
102
}
330
47
100
AcDbScale
 70
     0
300
1:16
140
1.0
141
16.0
290
     0
  0
SCALE
  5
4F
102
{ACAD_REACTORS
330
47
102
}
330
47
100
AcDbScale
 70
     0
300
1:20
140
1.0
141
20.0
290
     0
  0
SCALE
  5
50
102
{ACAD_REACTORS
330
47
102
}
330
47
100
AcDbScale
 70
     0
300
1:30
140
1.0
141
30.0
290
     0
  0
SCALE
  5
51
102
{ACAD_REACTORS
330
47
102
}
330
47
100
AcDbScale
 70
     0
300
1:40
140
1.0
141
40.0
290
     0
  0
SCALE
  5
52
102
{ACAD_REACTORS
330
47
102
}
330
47
100
AcDbScale
 70
     0
300
1:50
140
1.0
141
50.0
290
     0
  0
SCALE
  5
53
102
{ACAD_REACTORS
330
47
102
}
330
47
100
AcDbScale
 70
     0
300
1:100
140
1.0
141
100.0
290
     0
  0
SCALE
  5
54
102
{ACAD_REACTORS
330
47
102
}
330
47
100
AcDbScale
 70
     0
300
2:1
140
2.0
141
1.0
290
     0
  0
SCALE
  5
55
102
{ACAD_REACTORS
330
47
102
}
330
47
100
AcDbScale
 70
     0
300
4:1
140
4.0
141
1.0
290
     0
  0
SCALE
  5
56
102
{ACAD_REACTORS
330
47
102
}
330
47
100
AcDbScale
 70
     0
300
8:1
140
8.0
141
1.0
290
     0
  0
SCALE
  5
57
102
{ACAD_REACTORS
330
47
102
}
330
47
100
AcDbScale
 70
     0
300
10:1
140
10.0
141
1.0
290
     0
  0
SCALE
  5
58
102
{ACAD_REACTORS
330
47
102
}
330
47
100
AcDbScale
 70
     0
300
100:1
140
100.0
141
1.0
290
     0
  0
SCALE
  5
59
102
{ACAD_REACTORS
330
47
102
}
330
47
100
AcDbScale
 70
     0
300
1/128" = 1'-0"
140
0.0078125
141
12.0
290
     0
  0
SCALE
  5
5A
102
{ACAD_REACTORS
330
47
102
}
330
47
100
AcDbScale
 70
     0
300
1/64" = 1'-0"
140
0.015625
141
12.0
290
     0
  0
SCALE
  5
5B
102
{ACAD_REACTORS
330
47
102
}
330
47
100
AcDbScale
 70
     0
300
1/32" = 1'-0"
140
0.03125
141
12.0
290
     0
  0
SCALE
  5
5C
102
{ACAD_REACTORS
330
47
102
}
330
47
100
AcDbScale
 70
     0
300
1/16" = 1'-0"
140
0.0625
141
12.0
290
     0
  0
SCALE
  5
5D
102
{ACAD_REACTORS
330
47
102
}
330
47
100
AcDbScale
 70
     0
300
3/32" = 1'-0"
140
0.09375
141
12.0
290
     0
  0
SCALE
  5
5E
102
{ACAD_REACTORS
330
47
102
}
330
47
100
AcDbScale
 70
     0
300
1/8" = 1'-0"
140
0.125
141
12.0
290
     0
  0
SCALE
  5
5F
102
{ACAD_REACTORS
330
47
102
}
330
47
100
AcDbScale
 70
     0
300
3/16" = 1'-0"
140
0.1875
141
12.0
290
     0
  0
SCALE
  5
60
102
{ACAD_REACTORS
330
47
102
}
330
47
100
AcDbScale
 70
     0
300
1/4" = 1'-0"
140
0.25
141
12.0
290
     0
  0
SCALE
  5
61
102
{ACAD_REACTORS
330
47
102
}
330
47
100
AcDbScale
 70
     0
300
3/8" = 1'-0"
140
0.375
141
12.0
290
     0
  0
SCALE
  5
62
102
{ACAD_REACTORS
330
47
102
}
330
47
100
AcDbScale
 70
     0
300
1/2" = 1'-0"
140
0.5
141
12.0
290
     0
  0
SCALE
  5
63
102
{ACAD_REACTORS
330
47
102
}
330
47
100
AcDbScale
 70
     0
300
3/4" = 1'-0"
140
0.75
141
12.0
290
     0
  0
SCALE
  5
64
102
{ACAD_REACTORS
330
47
102
}
330
47
100
AcDbScale
 70
     0
300
1" = 1'-0"
140
1.0
141
12.0
290
     0
  0
SCALE
  5
65
102
{ACAD_REACTORS
330
47
102
}
330
47
100
AcDbScale
 70
     0
300
1-1/2" = 1'-0"
140
1.5
141
12.0
290
     0
  0
SCALE
  5
66
102
{ACAD_REACTORS
330
47
102
}
330
47
100
AcDbScale
 70
     0
300
3" = 1'-0"
140
3.0
141
12.0
290
     0
  0
SCALE
  5
67
102
{ACAD_REACTORS
330
47
102
}
330
47
100
AcDbScale
 70
     0
300
6" = 1'-0"
140
6.0
141
12.0
290
     0
  0
SCALE
  5
68
102
{ACAD_REACTORS
330
47
102
}
330
47
100
AcDbScale
 70
     0
300
1'-0" = 1'-0"
140
12.0
141
12.0
290
     0
  0
ENDSEC
  0
EOF
