  0
SECTION
  2
HEADER
  9
$ACADVER
  1
AC1015
  9
$ACADMAINTVER
 70
     6
  9
$DWGCODEPAGE
  3
ANSI_1250
  9
$INSBASE
 10
0.0
 20
0.0
 30
0.0
  9
$EXTMIN
 10
6154.4702015184
 20
4774.3456649375
 30
0.0
  9
$EXTMAX
 10
6736.2588964609
 20
5312.6994537881
 30
0.0
  9
$LIMMIN
 10
0.0
 20
0.0
  9
$LIMMAX
 10
420.0
 20
297.0
  9
$ORTHOMODE
 70
     0
  9
$REGENMODE
 70
     1
  9
$FILLMODE
 70
     1
  9
$QTEXTMODE
 70
     0
  9
$MIRRTEXT
 70
     1
  9
$LTSCALE
 40
1.0
  9
$ATTMODE
 70
     1
  9
$TEXTSIZE
 40
3.5
  9
$TRACEWID
 40
1.0
  9
$TEXTSTYLE
  7
Standard
  9
$CLAYER
  8
0
  9
$CELTYPE
  6
ByLayer
  9
$CECOLOR
 62
   256
  9
$CELTSCALE
 40
1.0
  9
$DISPSILH
 70
     0
  9
$DIMSCALE
 40
1.0
  9
$DIMASZ
 40
3.302
  9
$DIMEXO
 40
0.0
  9
$DIMDLI
 40
3.75
  9
$DIMRND
 40
0.0
  9
$DIMDLE
 40
0.0
  9
$DIMEXE
 40
1.0
  9
$DIMTP
 40
0.0
  9
$DIMTM
 40
0.0
  9
$DIMTXT
 40
3.5
  9
$DIMCEN
 40
2.5
  9
$DIMTSZ
 40
0.0
  9
$DIMTOL
 70
     0
  9
$DIMLIM
 70
     0
  9
$DIMTIH
 70
     1
  9
$DIMTOH
 70
     1
  9
$DIMSE1
 70
     0
  9
$DIMSE2
 70
     0
  9
$DIMTAD
 70
     1
  9
$DIMZIN
 70
     0
  9
$DIMBLK
  1

  9
$DIMASO
 70
     1
  9
$DIMSHO
 70
     1
  9
$DIMPOST
  1

  9
$DIMAPOST
  1

  9
$DIMALT
 70
     0
  9
$DIMALTD
 70
     3
  9
$DIMALTF
 40
0.0393700787
  9
$DIMLFAC
 40
1.0
  9
$DIMTOFL
 70
     1
  9
$DIMTVP
 40
0.0
  9
$DIMTIX
 70
     0
  9
$DIMSOXD
 70
     0
  9
$DIMSAH
 70
     0
  9
$DIMBLK1
  1

  9
$DIMBLK2
  1

  9
$DIMSTYLE
  2
ISO-25
  9
$DIMCLRD
 70
     0
  9
$DIMCLRE
 70
     0
  9
$DIMCLRT
 70
     0
  9
$DIMTFAC
 40
1.0
  9
$DIMGAP
 40
1.524
  9
$DIMJUST
 70
     0
  9
$DIMSD1
 70
     0
  9
$DIMSD2
 70
     0
  9
$DIMTOLJ
 70
     0
  9
$DIMTZIN
 70
     0
  9
$DIMALTZ
 70
     0
  9
$DIMALTTZ
 70
     0
  9
$DIMUPT
 70
     0
  9
$DIMDEC
 70
     2
  9
$DIMTDEC
 70
     2
  9
$DIMALTU
 70
     2
  9
$DIMALTTD
 70
     3
  9
$DIMTXSTY
  7
Standard
  9
$DIMAUNIT
 70
     0
  9
$DIMADEC
 70
     2
  9
$DIMALTRND
 40
0.0
  9
$DIMAZIN
 70
     0
  9
$DIMDSEP
 70
    44
  9
$DIMATFIT
 70
     3
  9
$DIMFRAC
 70
     0
  9
$DIMLDRBLK
  1

  9
$DIMLUNIT
 70
     2
  9
$DIMLWD
 70
    -2
  9
$DIMLWE
 70
    -2
  9
$DIMTMOVE
 70
     0
  9
$LUNITS
 70
     2
  9
$LUPREC
 70
     2
  9
$SKETCHINC
 40
1.0
  9
$FILLETRAD
 40
10.0
  9
$AUNITS
 70
     0
  9
$AUPREC
 70
     2
  9
$MENU
  1
.
  9
$ELEVATION
 40
0.0
  9
$PELEVATION
 40
0.0
  9
$THICKNESS
 40
0.0
  9
$LIMCHECK
 70
     0
  9
$CHAMFERA
 40
0.0
  9
$CHAMFERB
 40
0.0
  9
$CHAMFERC
 40
0.0
  9
$CHAMFERD
 40
0.0
  9
$SKPOLY
 70
     0
  9
$TDCREATE
 40
2459103.459102338
  9
$TDUCREATE
 40
2459103.375769005
  9
$TDUPDATE
 40
2459103.459151574
  9
$TDUUPDATE
 40
2459103.375818241
  9
$TDINDWG
 40
0.0000000116
  9
$TDUSRTIMER
 40
0.0000000116
  9
$USRTIMER
 70
     1
  9
$ANGBASE
 50
0.0
  9
$ANGDIR
 70
     0
  9
$PDMODE
 70
     0
  9
$PDSIZE
 40
-1.0
  9
$PLINEWID
 40
0.0
  9
$SPLFRAME
 70
     0
  9
$SPLINETYPE
 70
     6
  9
$SPLINESEGS
 70
     8
  9
$HANDSEED
  5
4C1
  9
$SURFTAB1
 70
     6
  9
$SURFTAB2
 70
     6
  9
$SURFTYPE
 70
     6
  9
$SURFU
 70
     6
  9
$SURFV
 70
     6
  9
$UCSBASE
  2

  9
$UCSNAME
  2

  9
$UCSORG
 10
0.0
 20
0.0
 30
0.0
  9
$UCSXDIR
 10
1.0
 20
0.0
 30
0.0
  9
$UCSYDIR
 10
0.0
 20
1.0
 30
0.0
  9
$UCSORTHOREF
  2

  9
$UCSORTHOVIEW
 70
     0
  9
$UCSORGTOP
 10
0.0
 20
0.0
 30
0.0
  9
$UCSORGBOTTOM
 10
0.0
 20
0.0
 30
0.0
  9
$UCSORGLEFT
 10
0.0
 20
0.0
 30
0.0
  9
$UCSORGRIGHT
 10
0.0
 20
0.0
 30
0.0
  9
$UCSORGFRONT
 10
0.0
 20
0.0
 30
0.0
  9
$UCSORGBACK
 10
0.0
 20
0.0
 30
0.0
  9
$PUCSBASE
  2

  9
$PUCSNAME
  2

  9
$PUCSORG
 10
0.0
 20
0.0
 30
0.0
  9
$PUCSXDIR
 10
1.0
 20
0.0
 30
0.0
  9
$PUCSYDIR
 10
0.0
 20
1.0
 30
0.0
  9
$PUCSORTHOREF
  2

  9
$PUCSORTHOVIEW
 70
     0
  9
$PUCSORGTOP
 10
0.0
 20
0.0
 30
0.0
  9
$PUCSORGBOTTOM
 10
0.0
 20
0.0
 30
0.0
  9
$PUCSORGLEFT
 10
0.0
 20
0.0
 30
0.0
  9
$PUCSORGRIGHT
 10
0.0
 20
0.0
 30
0.0
  9
$PUCSORGFRONT
 10
0.0
 20
0.0
 30
0.0
  9
$PUCSORGBACK
 10
0.0
 20
0.0
 30
0.0
  9
$USERI1
 70
     0
  9
$USERI2
 70
     0
  9
$USERI3
 70
     0
  9
$USERI4
 70
     0
  9
$USERI5
 70
     0
  9
$USERR1
 40
0.0
  9
$USERR2
 40
0.0
  9
$USERR3
 40
0.0
  9
$USERR4
 40
0.0
  9
$USERR5
 40
0.0
  9
$WORLDVIEW
 70
     1
  9
$SHADEDGE
 70
     3
  9
$SHADEDIF
 70
    70
  9
$TILEMODE
 70
     1
  9
$MAXACTVP
 70
    64
  9
$PINSBASE
 10
0.0
 20
0.0
 30
0.0
  9
$PLIMCHECK
 70
     0
  9
$PEXTMIN
 10
1.0000000000E+20
 20
1.0000000000E+20
 30
1.0000000000E+20
  9
$PEXTMAX
 10
-1.0000000000E+20
 20
-1.0000000000E+20
 30
-1.0000000000E+20
  9
$PLIMMIN
 10
0.0
 20
0.0
  9
$PLIMMAX
 10
420.0
 20
297.0
  9
$UNITMODE
 70
     0
  9
$VISRETAIN
 70
     1
  9
$PLINEGEN
 70
     0
  9
$PSLTSCALE
 70
     1
  9
$TREEDEPTH
 70
  3020
  9
$CMLSTYLE
  2
Standard
  9
$CMLJUST
 70
     0
  9
$CMLSCALE
 40
20.0
  9
$PROXYGRAPHICS
 70
     1
  9
$MEASUREMENT
 70
     1
  9
$CELWEIGHT
370
    -1
  9
$ENDCAPS
280
     0
  9
$JOINSTYLE
280
     0
  9
$LWDISPLAY
290
     1
  9
$INSUNITS
 70
     4
  9
$HYPERLINKBASE
  1

  9
$STYLESHEET
  1

  9
$XEDIT
290
     1
  9
$CEPSNTYPE
380
     0
  9
$PSTYLEMODE
290
     1
  9
$FINGERPRINTGUID
  2
{12aa527c-80a2-407b-b4d9-9de8c937fde0}
  9
$VERSIONGUID
  2
{FAEB1C32-E019-11D5-929B-00C0DF256EC4}
  9
$EXTNAMES
290
     1
  9
$PSVPSCALE
 40
0.0
  9
$OLESTARTUP
290
     0
  0
ENDSEC
  0
SECTION
  2
CLASSES
  0
CLASS
  1
ACDBDICTIONARYWDFLT
  2
AcDbDictionaryWithDefault
  3
ObjectDBX Classes
 90
        0
280
     0
281
     0
  0
CLASS
  1
VISUALSTYLE
  2
AcDbVisualStyle
  3
ObjectDBX Classes
 90
     4095
280
     0
281
     0
  0
CLASS
  1
MATERIAL
  2
AcDbMaterial
  3
ObjectDBX Classes
 90
     1153
280
     0
281
     0
  0
CLASS
  1
SCALE
  2
AcDbScale
  3
ObjectDBX Classes
 90
     1153
280
     0
281
     0
  0
CLASS
  1
TABLESTYLE
  2
AcDbTableStyle
  3
ObjectDBX Classes
 90
     4095
280
     0
281
     0
  0
CLASS
  1
MLEADERSTYLE
  2
AcDbMLeaderStyle
  3
ACDB_MLEADERSTYLE_CLASS
 90
     4095
280
     0
281
     0
  0
CLASS
  1
SUN
  2
AcDbSun
  3
SCENEOE
 90
     1153
280
     0
281
     0
  0
CLASS
  1
ACDBPLACEHOLDER
  2
AcDbPlaceHolder
  3
ObjectDBX Classes
 90
        0
280
     0
281
     0
  0
CLASS
  1
LAYOUT
  2
AcDbLayout
  3
ObjectDBX Classes
 90
        0
280
     0
281
     0
  0
ENDSEC
  0
SECTION
  2
TABLES
  0
TABLE
  2
VPORT
  5
8
330
0
100
AcDbSymbolTable
 70
     1
  0
VPORT
  5
29
330
8
100
AcDbSymbolTableRecord
100
AcDbViewportTableRecord
  2
*Active
 70
     0
 10
0.0
 20
0.0
 11
1.0
 21
1.0
 12
6445.3645489897
 22
5043.5225593628
 13
0.0
 23
0.0
 14
10.0
 24
10.0
 15
10.0
 25
10.0
 16
0.0
 26
0.0
 36
1.0
 17
0.0
 27
0.0
 37
0.0
 40
549.1208646276
 41
1.0806809704
 42
50.0
 43
0.0
 44
0.0
 50
0.0
 51
0.0
 71
     0
 72
   100
 73
     1
 74
     3
 75
     0
 76
     0
 77
     0
 78
     0
281
     0
 65
     1
110
0.0
120
0.0
130
0.0
111
1.0
121
0.0
131
0.0
112
0.0
122
1.0
132
0.0
 79
     0
146
0.0
  0
ENDTAB
  0
TABLE
  2
LTYPE
  5
5
330
0
100
AcDbSymbolTable
 70
     6
  0
LTYPE
  5
14
330
5
100
AcDbSymbolTableRecord
100
AcDbLinetypeTableRecord
  2
ByBlock
 70
     0
  3

 72
    65
 73
     0
 40
0.0
  0
LTYPE
  5
15
330
5
100
AcDbSymbolTableRecord
100
AcDbLinetypeTableRecord
  2
ByLayer
 70
     0
  3

 72
    65
 73
     0
 40
0.0
  0
LTYPE
  5
16
330
5
100
AcDbSymbolTableRecord
100
AcDbLinetypeTableRecord
  2
Continuous
 70
     0
  3
Solid line
 72
    65
 73
     0
 40
0.0
  0
LTYPE
  5
6E
330
5
100
AcDbSymbolTableRecord
100
AcDbLinetypeTableRecord
  2
HIDDEN
 70
     0
  3
Hidden __ __ __ __ __ __ __ __ __ __ __ __ __ __
 72
    65
 73
     2
 40
1.905
 49
1.27
 74
     0
 49
-0.635
 74
     0
  0
LTYPE
  5
6F
330
5
100
AcDbSymbolTableRecord
100
AcDbLinetypeTableRecord
  2
PHANTOM
 70
     0
  3
Phantom ______  __  __  ______  __  __  ______
 72
    65
 73
     6
 40
12.7
 49
6.35
 74
     0
 49
-1.27
 74
     0
 49
1.27
 74
     0
 49
-1.27
 74
     0
 49
1.27
 74
     0
 49
-1.27
 74
     0
  0
LTYPE
  5
70
330
5
100
AcDbSymbolTableRecord
100
AcDbLinetypeTableRecord
  2
CENTER
 70
     0
  3
Center ____ _ ____ _ ____ _ ____ _ ____ _ ____
 72
    65
 73
     4
 40
10.16
 49
6.35
 74
     0
 49
-1.27
 74
     0
 49
1.27
 74
     0
 49
-1.27
 74
     0
  0
LTYPE
  5
71
330
5
100
AcDbSymbolTableRecord
100
AcDbLinetypeTableRecord
  2
CENTERX2
 70
     0
  3
Center (2x) ________  __  ________  __  _____
 72
    65
 73
     4
 40
20.32
 49
12.7
 74
     0
 49
-2.54
 74
     0
 49
2.54
 74
     0
 49
-2.54
 74
     0
  0
LTYPE
  5
72
330
5
100
AcDbSymbolTableRecord
100
AcDbLinetypeTableRecord
  2
DOT2
 70
     0
  3
Dot (.5x) ........................................
 72
    65
 73
     2
 40
0.635
 49
0.0
 74
     0
 49
-0.635
 74
     0
  0
ENDTAB
  0
TABLE
  2
LAYER
  5
2
330
0
100
AcDbSymbolTable
 70
     1
  0
LAYER
  5
10
330
2
100
AcDbSymbolTableRecord
100
AcDbLayerTableRecord
  2
0
 70
     0
 62
     7
  6
Continuous
370
    -3
390
F
  0
ENDTAB
  0
TABLE
  2
STYLE
  5
3
330
0
100
AcDbSymbolTable
 70
     1
  0
STYLE
  5
11
330
3
100
AcDbSymbolTableRecord
100
AcDbTextStyleTableRecord
  2
Standard
 70
     0
 40
0.0
 41
1.0
 50
0.0
 71
     0
 42
3.5
  3
txt
  4

  0
ENDTAB
  0
TABLE
  2
VIEW
  5
6
330
0
100
AcDbSymbolTable
 70
     0
  0
ENDTAB
  0
TABLE
  2
UCS
  5
7
330
0
100
AcDbSymbolTable
 70
     0
  0
ENDTAB
  0
TABLE
  2
APPID
  5
9
330
0
100
AcDbSymbolTable
 70
     1
  0
APPID
  5
12
330
9
100
AcDbSymbolTableRecord
100
AcDbRegAppTableRecord
  2
ACAD
 70
     0
  0
ENDTAB
  0
TABLE
  2
DIMSTYLE
  5
A
330
0
100
AcDbSymbolTable
 70
     1
100
AcDbDimStyleTable
  0
DIMSTYLE
105
27
330
A
100
AcDbSymbolTableRecord
100
AcDbDimStyleTableRecord
  2
ISO-25
 70
     0
 41
2.5
 42
0.625
 43
3.75
 44
1.25
 73
     0
 74
     0
 77
     1
 78
     8
140
2.5
141
2.5
143
0.0393700787
147
0.625
171
     3
172
     1
178
     0
271
     2
272
     2
274
     3
278
    44
283
     0
284
     8
340
11
  0
ENDTAB
  0
TABLE
  2
BLOCK_RECORD
  5
1
330
0
100
AcDbSymbolTable
 70
     1
  0
BLOCK_RECORD
  5
1F
330
1
100
AcDbSymbolTableRecord
100
AcDbBlockTableRecord
  2
*Model_Space
340
22
  0
BLOCK_RECORD
  5
1B
330
1
100
AcDbSymbolTableRecord
100
AcDbBlockTableRecord
  2
*Paper_Space
340
1E
  0
BLOCK_RECORD
  5
23
330
1
100
AcDbSymbolTableRecord
100
AcDbBlockTableRecord
  2
*Paper_Space0
340
26
  0
ENDTAB
  0
ENDSEC
  0
SECTION
  2
BLOCKS
  0
BLOCK
  5
20
330
1F
100
AcDbEntity
  8
0
100
AcDbBlockBegin
  2
*Model_Space
 70
     0
 10
0.0
 20
0.0
 30
0.0
  3
*Model_Space
  1

  0
ENDBLK
  5
21
330
1F
100
AcDbEntity
  8
0
100
AcDbBlockEnd
  0
BLOCK
  5
1C
330
1B
100
AcDbEntity
 67
     1
  8
0
100
AcDbBlockBegin
  2
*Paper_Space
 70
     0
 10
0.0
 20
0.0
 30
0.0
  3
*Paper_Space
  1

  0
ENDBLK
  5
1D
330
1B
100
AcDbEntity
 67
     1
  8
0
100
AcDbBlockEnd
  0
BLOCK
  5
24
330
23
100
AcDbEntity
  8
0
100
AcDbBlockBegin
  2
*Paper_Space0
 70
     0
 10
0.0
 20
0.0
 30
0.0
  3
*Paper_Space0
  1

  0
ENDBLK
  5
25
330
23
100
AcDbEntity
  8
0
100
AcDbBlockEnd
  0
ENDSEC
  0
SECTION
  2
ENTITIES
  0
ARC
  5
73
330
1F
100
AcDbEntity
  8
0
  6
Continuous
 62
     7
100
AcDbCircle
 10
6243.9701976441
 20
5257.7731200589
 30
0.0
 40
0.4999999999999702
100
AcDbArc
 50
0.0001882475
 51
76.6578818951
  0
ARC
  5
74
330
1F
100
AcDbEntity
  8
0
  6
Continuous
 62
     7
100
AcDbCircle
 10
6234.9701922797
 20
5257.7731197762
 30
0.0
 40
0.5000000000009789
100
AcDbArc
 50
103.3419777227
 51
179.9997793573
  0
ARC
  5
75
330
1F
100
AcDbEntity
  8
0
  6
Continuous
 62
     7
100
AcDbCircle
 10
6239.4701955579
 20
5238.7994545927
 30
0.0
 40
20.00000000000011
100
AcDbArc
 50
76.6576362029
 51
103.3423637971
  0
CIRCLE
  5
76
330
1F
100
AcDbEntity
  8
0
  6
Continuous
 62
     7
100
AcDbCircle
 10
6239.4701955579
 20
5164.6994545927
 30
0.0
 40
12.5
  0
CIRCLE
  5
77
330
1F
100
AcDbEntity
  8
0
  6
Continuous
 62
     7
100
AcDbCircle
 10
6239.4701955579
 20
5164.6994545927
 30
0.0
 40
13.99999999999909
  0
ARC
  5
78
330
1F
100
AcDbEntity
  8
0
  6
Continuous
 62
     7
100
AcDbCircle
 10
6237.3873181331
 20
5173.4237911874
 30
0.0
 40
1.617045725179601
100
AcDbArc
 50
0.4980268255
 51
180.4980268254
  0
ARC
  5
79
330
1F
100
AcDbEntity
  8
0
  6
Continuous
 62
     7
100
AcDbCircle
 10
6234.0064185061
 20
5164.0679754011
 30
0.0
 40
2.569012885870581
100
AcDbArc
 50
44.5924157672
 51
105.9921569633
  0
ARC
  5
7A
330
1F
100
AcDbEntity
  8
0
  6
Continuous
 62
     7
100
AcDbCircle
 10
6239.6680458613
 20
5161.1716101632
 30
0.0
 40
6.322526570209546
100
AcDbArc
 50
180.4979949123
 51
270.4979809481
  0
ARC
  5
7B
330
1F
100
AcDbEntity
  8
0
  6
Continuous
 62
     7
100
AcDbCircle
 10
6242.0505340328
 20
5159.4253180776
 30
0.0
 40
4.555589310419519
100
AcDbArc
 50
270.4980774038
 51
0.4980296784
  0
ARC
  5
7C
330
1F
100
AcDbEntity
  8
0
  6
Continuous
 62
     7
100
AcDbCircle
 10
6245.1842778348
 20
5167.2896292401
 30
0.0
 40
1.353611246209259
100
AcDbArc
 50
0.4975819625
 51
90.4974098305
  0
ARC
  5
7D
330
1F
100
AcDbEntity
  8
0
  6
Continuous
 62
     7
100
AcDbCircle
 10
6244.6900874698
 20
5167.2853303776
 30
0.0
 40
1.353611246210434
100
AcDbArc
 50
90.4980065325
 51
119.2345604515
  0
ARC
  5
7E
330
1F
100
AcDbEntity
  8
0
  6
Continuous
 62
     7
100
AcDbCircle
 10
6242.6986574962
 20
5168.2166380376
 30
0.0
 40
1.353611246208448
100
AcDbArc
 50
10.6384281928
 51
90.4979414006
  0
ARC
  5
7F
330
1F
100
AcDbEntity
  8
0
  6
Continuous
 62
     7
100
AcDbCircle
 10
6242.1193625386
 20
5168.2116014676
 30
0.0
 40
1.353611246207624
100
AcDbArc
 50
90.4980508205
 51
125.2420146343
  0
ARC
  5
80
330
1F
100
AcDbEntity
  8
0
  6
Continuous
 62
     7
100
AcDbCircle
 10
6240.1317531414
 20
5168.7034962221
 30
0.0
 40
1.353611246207911
100
AcDbArc
 50
26.9573792256
 51
90.497919169
  0
ARC
  5
81
330
1F
100
AcDbEntity
  8
0
  6
Continuous
 62
     7
100
AcDbCircle
 10
6239.6751605968
 20
5168.6995325254
 30
0.0
 40
1.353611246209559
100
AcDbArc
 50
90.4979778422
 51
118.2188383631
  0
ARC
  5
82
330
1F
100
AcDbEntity
  8
0
  6
Continuous
 62
     7
100
AcDbCircle
 10
6238.7090063952
 20
5165.7641510239
 30
0.0
 40
0.6676196024473282
100
AcDbArc
 50
180.4981115351
 51
0.4981115352
  0
ARC
  5
83
330
1F
100
AcDbEntity
  8
0
  6
Continuous
 62
     7
100
AcDbCircle
 10
6239.5911388676
 20
5168.7129655741
 30
0.0
 40
0.240110116288153
100
AcDbArc
 50
90.4992637362
 51
180.4981489106
  0
ARC
  5
84
330
1F
100
AcDbEntity
  8
0
  6
Continuous
 62
     7
100
AcDbCircle
 10
6240.2155300381
 20
5168.7183895555
 30
0.0
 40
0.2401101162885965
100
AcDbArc
 50
0.4974858957
 51
90.498133446
  0
ARC
  5
85
330
1F
100
AcDbEntity
  8
0
  6
Continuous
 62
     7
100
AcDbCircle
 10
6241.1487846934
 20
5165.7853591016
 30
0.0
 40
0.6676158449614261
100
AcDbArc
 50
180.4977946116
 51
0.4977946116
  0
ARC
  5
86
330
1F
100
AcDbEntity
  8
0
  6
Continuous
 62
     7
100
AcDbCircle
 10
6242.0353390859
 20
5168.2250344366
 30
0.0
 40
0.2401101162877028
100
AcDbArc
 50
90.4974859191
 51
180.4981334465
  0
ARC
  5
87
330
1F
100
AcDbEntity
  8
0
  6
Continuous
 62
     7
100
AcDbCircle
 10
6242.7824339324
 20
5168.2315239164
 30
0.0
 40
0.2401101162872436
100
AcDbArc
 50
0.4992637119
 51
90.4981489106
  0
ARC
  5
88
330
1F
100
AcDbEntity
  8
0
  6
Continuous
 62
     7
100
AcDbCircle
 10
6243.7112666033
 20
5165.8076326123
 30
0.0
 40
0.6676196024469013
100
AcDbArc
 50
180.4981115309
 51
0.4981115309
  0
ARC
  5
89
330
1F
100
AcDbEntity
  8
0
  6
Continuous
 62
     7
100
AcDbCircle
 10
6244.6057893912
 20
5167.3309946321
 30
0.0
 40
0.2401101162878885
100
AcDbArc
 50
90.4992637118
 51
180.4981489102
  0
ARC
  5
8A
330
1F
100
AcDbEntity
  8
0
  6
Continuous
 62
     7
100
AcDbCircle
 10
6245.2677910604
 20
5167.3367464388
 30
0.0
 40
0.2401101162877013
100
AcDbArc
 50
0.4957003661
 51
90.4981257828
  0
ARC
  5
8B
330
1F
100
AcDbEntity
  8
0
  6
Continuous
 62
     7
100
AcDbCircle
 10
6242.0505340328
 20
5159.4253180776
 30
0.0
 40
3.526006846695315
100
AcDbArc
 50
270.4979897891
 51
0.4979291803
  0
ARC
  5
8C
330
1F
100
AcDbEntity
  8
0
  6
Continuous
 62
     7
100
AcDbCircle
 10
6239.6680458613
 20
5161.1716101632
 30
0.0
 40
5.292929270611196
100
AcDbArc
 50
180.4980824985
 51
270.4979858703
  0
ARC
  5
8D
330
1F
100
AcDbEntity
  8
0
  6
Continuous
 62
     7
100
AcDbCircle
 10
6234.0064185061
 20
5164.0679754011
 30
0.0
 40
1.539412573336582
100
AcDbArc
 50
0.4977239375
 51
77.6119788108
  0
ARC
  5
8E
330
1F
100
AcDbEntity
  8
0
  6
Continuous
 62
     7
100
AcDbCircle
 10
6236.2303509674
 20
5162.1328050961
 30
0.0
 40
0.667615877337398
100
AcDbArc
 50
180.4981143102
 51
0.4981143103
  0
ARC
  5
8F
330
1F
100
AcDbEntity
  8
0
  6
Continuous
 62
     7
100
AcDbCircle
 10
6237.3873181331
 20
5173.4237911874
 30
0.0
 40
0.5874408459595557
100
AcDbArc
 50
0.4981515842
 51
180.4974249302
  0
ARC
  5
90
330
1F
100
AcDbEntity
  8
0
  6
Continuous
 62
     7
100
AcDbCircle
 10
6164.4702015184
 20
5286.6994544251
 30
0.0
 40
10.0
100
AcDbArc
 50
90.0000546418
 51
179.9999987195
  0
ARC
  5
91
330
1F
100
AcDbEntity
  8
0
  6
Continuous
 62
     7
100
AcDbCircle
 10
6164.4702015184
 20
5136.6994605532
 30
0.0
 40
10.0
100
AcDbArc
 50
180.0000546418
 51
269.9999453582
  0
ARC
  5
92
330
1F
100
AcDbEntity
  8
0
  6
Continuous
 62
     7
100
AcDbCircle
 10
6314.4701953903
 20
5286.6994544251
 30
0.0
 40
10.0
100
AcDbArc
 50
0.0000012806
 51
89.9999987194
  0
ARC
  5
93
330
1F
100
AcDbEntity
  8
0
  6
Continuous
 62
     7
100
AcDbCircle
 10
6314.4701953903
 20
5136.6994605532
 30
0.0
 40
10.00000000000091
100
AcDbArc
 50
270.0000012805
 51
359.9999453582
  0
ARC
  5
94
330
1F
100
AcDbEntity
  8
0
  6
Continuous
 62
     7
100
AcDbCircle
 10
6239.4701986871
 20
5216.9994535301
 30
0.0
 40
13.00000000000024
100
AcDbArc
 50
196.7463742109
 51
343.2536257891
  0
ARC
  5
95
330
1F
100
AcDbEntity
  8
0
  6
Continuous
 62
     7
100
AcDbCircle
 10
6239.4701986871
 20
5216.9994535301
 30
0.0
 40
15.00000036469201
100
AcDbArc
 50
196.7463788407
 51
343.2536211593
  0
ARC
  5
96
330
1F
100
AcDbEntity
  8
0
  6
Continuous
 62
     7
100
AcDbCircle
 10
6239.4701930993
 20
5234.6994491829
 30
0.0
 40
18.10000000000005
100
AcDbArc
 50
343.2536421595
 51
196.7463578405
  0
ARC
  5
97
330
1F
100
AcDbEntity
  8
0
  6
Continuous
 62
     7
100
AcDbCircle
 10
6239.4701930993
 20
5234.6994491829
 30
0.0
 40
20.09999929129932
100
AcDbArc
 50
343.2536472443
 51
196.7463527557
  0
ARC
  5
98
330
1F
100
AcDbEntity
  8
0
  6
Continuous
 62
     7
100
AcDbCircle
 10
6239.4701930993
 20
5234.6994491829
 30
0.0
 40
23.49999954664617
100
AcDbArc
 50
102.2844851928
 51
228.1316894345
  0
ARC
  5
99
330
1F
100
AcDbEntity
  8
0
  6
Continuous
 62
     7
100
AcDbCircle
 10
6239.4701930993
 20
5234.6994491829
 30
0.0
 40
23.50000171928637
100
AcDbArc
 50
312.0486545861
 51
77.7155030928
  0
ARC
  5
9A
330
1F
100
AcDbEntity
  8
0
  6
Continuous
 62
     7
100
AcDbCircle
 10
6239.4701930993
 20
5234.6994491829
 30
0.0
 40
28.49999570496585
100
AcDbArc
 50
296.7987286049
 51
309.044692359
  0
ARC
  5
9B
330
1F
100
AcDbEntity
  8
0
  6
Continuous
 62
     7
100
AcDbCircle
 10
6239.4701930993
 20
5234.6994491829
 30
0.0
 40
28.49999570496585
100
AcDbArc
 50
309.044692359
 51
243.201280219
  0
ARC
  5
9C
330
1F
100
AcDbEntity
  8
0
  6
Continuous
 62
     7
100
AcDbCircle
 10
6239.4701930993
 20
5234.6994491829
 30
0.0
 40
23.24999956194819
100
AcDbArc
 50
102.4186727216
 51
226.9188655413
  0
ARC
  5
9D
330
1F
100
AcDbEntity
  8
0
  6
Continuous
 62
     7
100
AcDbCircle
 10
6239.4701930993
 20
5234.6994491829
 30
0.0
 40
23.2500017700306
100
AcDbArc
 50
313.0811433094
 51
77.581315444
  0
ARC
  5
9E
330
1F
100
AcDbEntity
  8
0
  6
Continuous
 62
     7
100
AcDbCircle
 10
6239.4701930993
 20
5234.6994491829
 30
0.0
 40
28.29999570649617
100
AcDbArc
 50
297.4312122875
 51
309.0446924345
  0
ARC
  5
9F
330
1F
100
AcDbEntity
  8
0
  6
Continuous
 62
     7
100
AcDbCircle
 10
6239.4701930993
 20
5234.6994491829
 30
0.0
 40
28.29999570649603
100
AcDbArc
 50
309.0446924345
 51
242.5687965487
  0
ARC
  5
A0
330
1F
100
AcDbEntity
  8
0
  6
Continuous
 62
     7
100
AcDbCircle
 10
6734.2588964609
 20
5252.7994534245
 30
0.0
 40
1.99999999999956
100
AcDbArc
 50
359.9999906062
 51
90.0001161157
  0
ARC
  5
A1
330
1F
100
AcDbEntity
  8
0
  6
Continuous
 62
     7
100
AcDbCircle
 10
6728.0588955549
 20
5211.599450933
 30
0.0
 40
2.999999999999666
100
AcDbArc
 50
0.0000698951
 51
90.0000724009
  0
ARC
  5
A2
330
1F
100
AcDbEntity
  8
0
  6
Continuous
 62
     7
100
AcDbCircle
 10
6731.5588978437
 20
5202.4994537106
 30
0.0
 40
0.5000000000001174
100
AcDbArc
 50
179.9998838795
 51
269.9992623399
  0
ARC
  5
A3
330
1F
100
AcDbEntity
  8
0
  6
Continuous
 62
     7
100
AcDbCircle
 10
6734.2588964609
 20
5203.9994537106
 30
0.0
 40
2.000000000000469
100
AcDbArc
 50
269.9998838843
 51
0.0001161129
  0
ARC
  5
A4
330
1F
100
AcDbEntity
  8
0
  6
Continuous
 62
     7
100
AcDbCircle
 10
6727.7588951496
 20
5257.7731206498
 30
0.0
 40
0.5000000000011063
100
AcDbArc
 50
0.0001205347
 51
76.6575884701
  0
ARC
  5
A5
330
1F
100
AcDbEntity
  8
0
  6
Continuous
 62
     7
100
AcDbCircle
 10
6718.7588897851
 20
5257.7731191853
 30
0.0
 40
0.5000000000008752
100
AcDbArc
 50
103.3416842865
 51
179.9997116438
  0
ARC
  5
A6
330
1F
100
AcDbEntity
  8
0
  6
Continuous
 62
     7
100
AcDbCircle
 10
6723.2588955549
 20
5238.7994545927
 30
0.0
 40
20.00000000000011
100
AcDbArc
 50
76.6576362029
 51
103.3423637971
  0
ARC
  5
A7
330
1F
100
AcDbEntity
  8
0
  6
Continuous
 62
     7
100
AcDbCircle
 10
6682.4588955549
 20
5206.3994577518
 30
0.0
 40
0.19999999999974
100
AcDbArc
 50
180.0009050149
 51
269.9997609408
  0
ARC
  5
A8
330
1F
100
AcDbEntity
  8
0
  6
Continuous
 62
     7
100
AcDbCircle
 10
6682.4588955549
 20
5262.9994540563
 30
0.0
 40
0.1999999999997401
100
AcDbArc
 50
90.0002390665
 51
179.9998463333
  0
ARC
  5
A9
330
1F
100
AcDbEntity
  8
0
  6
Continuous
 62
     7
100
AcDbCircle
 10
6685.0588974145
 20
5206.3994577518
 30
0.0
 40
0.199999999999369
100
AcDbArc
 50
269.9990301136
 51
359.9988354434
  0
ARC
  5
AA
330
1F
100
AcDbEntity
  8
0
  6
Continuous
 62
     7
100
AcDbCircle
 10
6685.0588974145
 20
5262.9994540563
 30
0.0
 40
0.2000000000002778
100
AcDbArc
 50
0.0000973088
 51
90.0009698744
  0
ARC
  5
AB
330
1F
100
AcDbEntity
  8
0
  6
Continuous
 62
     7
100
AcDbCircle
 10
6670.7292167405
 20
5235.8994545922
 30
0.0
 40
0.4999999999999569
100
AcDbArc
 50
147.7243556854
 51
263.1064438746
  0
ARC
  5
AC
330
1F
100
AcDbEntity
  8
0
  6
Continuous
 62
     7
100
AcDbCircle
 10
6671.2088969854
 20
5173.9294573536
 30
0.0
 40
0.5000000000001174
100
AcDbArc
 50
180.0007376601
 51
270.0001161205
  0
ARC
  5
AD
330
1F
100
AcDbEntity
  8
0
  6
Continuous
 62
     7
100
AcDbCircle
 10
6669.5588955549
 20
5191.1794545927
 30
0.0
 40
1.150000000000543
100
AcDbArc
 50
290.3544063982
 51
69.6455936018
  0
ARC
  5
AE
330
1F
100
AcDbEntity
  8
0
  6
Continuous
 62
     7
100
AcDbCircle
 10
6669.5588969854
 20
5180.879454062
 30
0.0
 40
1.150000000001357
100
AcDbArc
 50
0.0001366731
 51
69.6456696195
  0
ARC
  5
AF
330
1F
100
AcDbEntity
  8
0
  6
Continuous
 62
     7
100
AcDbCircle
 10
6660.8088955549
 20
5133.9994545927
 30
0.0
 40
0.1999999999998181
100
AcDbArc
 50
89.9999999995
 51
212.7790806686
  0
ARC
  5
B0
330
1F
100
AcDbEntity
  8
0
  6
Continuous
 62
     7
100
AcDbCircle
 10
6667.1088955549
 20
5133.9994545927
 30
0.0
 40
0.2000000000007276
100
AcDbArc
 50
327.2209193319
 51
89.9999999997
  0
ARC
  5
B1
330
1F
100
AcDbEntity
  8
0
  6
Continuous
 62
     7
100
AcDbCircle
 10
6662.4588913022
 20
5135.0619611969
 30
0.0
 40
2.162500000000454
100
AcDbArc
 50
212.7792887873
 51
270.0002011118
  0
ARC
  5
B2
330
1F
100
AcDbEntity
  8
0
  6
Continuous
 62
     7
100
AcDbCircle
 10
6665.4588998076
 20
5135.0619611969
 30
0.0
 40
2.162500000000662
100
AcDbArc
 50
269.9999394368
 51
327.2207112123
  0
ARC
  5
B3
330
1F
100
AcDbEntity
  8
0
  6
Continuous
 62
     7
100
AcDbCircle
 10
6667.1088955549
 20
5289.3994545927
 30
0.0
 40
0.1999999999998181
100
AcDbArc
 50
270.0
 51
32.7790806688
  0
ARC
  5
B4
330
1F
100
AcDbEntity
  8
0
  6
Continuous
 62
     7
100
AcDbCircle
 10
6660.8088955549
 20
5289.3994545927
 30
0.0
 40
0.2000000000005886
100
AcDbArc
 50
147.2209193326
 51
270.0
  0
ARC
  5
B5
330
1F
100
AcDbEntity
  8
0
  6
Continuous
 62
     7
100
AcDbCircle
 10
6665.4588955526
 20
5288.3369545963
 30
0.0
 40
2.162500000000451
100
AcDbArc
 50
32.7790805547
 51
89.9999478252
  0
ARC
  5
B6
330
1F
100
AcDbEntity
  8
0
  6
Continuous
 62
     7
100
AcDbCircle
 10
6662.4588955572
 20
5288.3369545963
 30
0.0
 40
2.162500000000555
100
AcDbArc
 50
89.9999116259
 51
147.2209194455
  0
ARC
  5
B7
330
1F
100
AcDbEntity
  8
0
  6
Continuous
 62
     7
100
AcDbCircle
 10
6672.2588987854
 20
5136.6994605532
 30
0.0
 40
10.00000000000091
100
AcDbArc
 50
269.9999692642
 51
359.9999453582
  0
ARC
  5
B8
330
1F
100
AcDbEntity
  8
0
  6
Continuous
 62
     7
100
AcDbCircle
 10
6672.2588987854
 20
5286.6994544251
 30
0.0
 40
10.0
100
AcDbArc
 50
0.0000012806
 51
90.0000307357
  0
ARC
  5
B9
330
1F
100
AcDbEntity
  8
0
  6
Continuous
 62
     7
100
AcDbCircle
 10
6670.5146886845
 20
5235.5632616666
 30
0.0
 40
0.5009424738379389
100
AcDbArc
 50
153.7832378273
 51
266.9488188904
  0
ARC
  5
BA
330
1F
100
AcDbEntity
  8
0
  6
Continuous
 62
     7
100
AcDbCircle
 10
6670.4588937667
 20
5237.3441293512
 30
0.0
 40
0.500000000000209
100
AcDbArc
 50
327.724458333
 51
359.999947598
  0
ARC
  5
BB
330
1F
100
AcDbEntity
  8
0
  6
Continuous
 62
     7
100
AcDbCircle
 10
6671.2598354072
 20
5236.8398471232
 30
0.0
 40
0.4464724293289581
100
AcDbArc
 50
147.895201459
 51
183.815346458
  0
ARC
  5
BC
330
1F
100
AcDbEntity
  8
0
  6
Continuous
 62
     7
100
AcDbCircle
 10
6671.335424163
 20
5236.9920708555
 30
0.0
 40
0.4445920270029044
100
AcDbArc
 50
158.1466085658
 51
182.7169445732
  0
ARC
  5
BD
330
1F
100
AcDbEntity
  8
0
  6
Continuous
 62
     7
100
AcDbCircle
 10
6619.9588955549
 20
5154.1994545927
 30
0.0
 40
3.999999999999086
100
AcDbArc
 50
94.8568559989
 51
115.331600629
  0
ARC
  5
BE
330
1F
100
AcDbEntity
  8
0
  6
Continuous
 62
     7
100
AcDbCircle
 10
6619.9588955549
 20
5154.1994545927
 30
0.0
 40
4.000000000001311
100
AcDbArc
 50
177.7259759781
 51
282.2605667908
  0
ARC
  5
BF
330
1F
100
AcDbEntity
  8
0
  6
Continuous
 62
     7
100
AcDbCircle
 10
6619.9588955549
 20
5154.1994545927
 30
0.0
 40
4.750000000000846
100
AcDbArc
 50
169.8484146344
 51
281.1110537714
  0
CIRCLE
  5
C0
330
1F
100
AcDbEntity
  8
0
  6
Continuous
 62
     7
100
AcDbCircle
 10
6619.9588955549
 20
5269.1994545927
 30
0.0
 40
5.0
  0
CIRCLE
  5
C1
330
1F
100
AcDbEntity
  8
0
  6
Continuous
 62
     7
100
AcDbCircle
 10
6619.9588955549
 20
5154.1994545927
 30
0.0
 40
5.0
  0
ARC
  5
C2
330
1F
100
AcDbEntity
  8
0
  6
Continuous
 62
     7
100
AcDbCircle
 10
6669.9588924077
 20
5137.2065666666
 30
0.0
 40
1.800000000001139
100
AcDbArc
 50
270.0002159096
 51
0.0000212508
  0
ARC
  5
C3
330
1F
100
AcDbEntity
  8
0
  6
Continuous
 62
     7
100
AcDbCircle
 10
6669.9588924077
 20
5137.2065666666
 30
0.0
 40
0.8000042199571967
100
AcDbArc
 50
270.0002254
 51
359.9996209406
  0
ARC
  5
C4
330
1F
100
AcDbEntity
  8
0
  6
Continuous
 62
     7
100
AcDbCircle
 10
6669.9588955549
 20
5286.1923478115
 30
0.0
 40
0.8000000000010914
100
AcDbArc
 50
0.0000000001
 51
90.0
  0
ARC
  5
C5
330
1F
100
AcDbEntity
  8
0
  6
Continuous
 62
     7
100
AcDbCircle
 10
6669.9588955549
 20
5286.1923478115
 30
0.0
 40
1.799998443652839
100
AcDbArc
 50
0.0
 51
89.9998842687
  0
ARC
  5
C6
330
1F
100
AcDbEntity
  8
0
  6
Continuous
 62
     7
100
AcDbCircle
 10
6257.5701962076
 20
4776.3456649375
 30
0.0
 40
1.999999999999117
100
AcDbArc
 50
269.9999906091
 51
0.0001161128
  0
ARC
  5
C7
330
1F
100
AcDbEntity
  8
0
  6
Continuous
 62
     7
100
AcDbCircle
 10
6221.3701974414
 20
4776.3456649375
 30
0.0
 40
2.000000000001066
100
AcDbArc
 50
179.9998838872
 51
269.9999026718
  0
ARC
  5
C8
330
1F
100
AcDbEntity
  8
0
  6
Continuous
 62
     7
100
AcDbCircle
 10
6211.1701968096
 20
4828.1456658435
 30
0.0
 40
0.200000000000097
100
AcDbArc
 50
90.0003585844
 51
179.999760934
  0
ARC
  5
C9
330
1F
100
AcDbEntity
  8
0
  6
Continuous
 62
     7
100
AcDbCircle
 10
6267.7701968394
 20
4828.1456658435
 30
0.0
 40
0.2000000000006496
100
AcDbArc
 50
0.000239066
 51
90.0003671232
  0
ARC
  5
CA
330
1F
100
AcDbEntity
  8
0
  6
Continuous
 62
     7
100
AcDbCircle
 10
6211.1701968096
 20
4825.5456639838
 30
0.0
 40
0.2000000000011103
100
AcDbArc
 50
179.9990300855
 51
269.9988354716
  0
ARC
  5
CB
330
1F
100
AcDbEntity
  8
0
  6
Continuous
 62
     7
100
AcDbCircle
 10
6267.7701968394
 20
4825.5456639838
 30
0.0
 40
0.200000000001189
100
AcDbArc
 50
270.0000973377
 51
0.0009699028
  0
ARC
  5
CC
330
1F
100
AcDbEntity
  8
0
  6
Continuous
 62
     7
100
AcDbCircle
 10
6196.1807795885
 20
4840.1456683544
 30
0.0
 40
0.4999999999994853
100
AcDbArc
 50
269.9991227758
 51
322.6488179455
  0
ARC
  5
CD
330
1F
100
AcDbEntity
  8
0
  6
Continuous
 62
     7
100
AcDbCircle
 10
6217.4701942873
 20
4841.3431608644
 30
0.0
 40
2.000000000000404
100
AcDbArc
 50
272.8660553055
 51
339.5892736157
  0
ARC
  5
CE
330
1F
100
AcDbEntity
  8
0
  6
Continuous
 62
     7
100
AcDbCircle
 10
6317.8701955804
 20
4884.8456667137
 30
0.0
 40
0.8000000000004267
100
AcDbArc
 50
269.9999972784
 51
359.9999026689
  0
ARC
  5
CF
330
1F
100
AcDbEntity
  8
0
  6
Continuous
 62
     7
100
AcDbCircle
 10
6317.8701955804
 20
4896.4456666422
 30
0.0
 40
0.8000000000012499
100
AcDbArc
 50
359.9999639252
 51
90.0000027215
  0
ARC
  5
D0
330
1F
100
AcDbEntity
  8
0
  6
Continuous
 62
     7
100
AcDbCircle
 10
6262.0198323613
 20
4887.9650299753
 30
0.0
 40
0.3999999999999423
100
AcDbArc
 50
355.5802766621
 51
85.580647897
  0
ARC
  5
D1
330
1F
100
AcDbEntity
  8
0
  6
Continuous
 62
     7
100
AcDbCircle
 10
6261.6210217255
 20
4887.9958532907
 30
0.0
 40
0.4000000000013932
100
AcDbArc
 50
85.580158245
 51
175.5803822147
  0
ARC
  5
D2
330
1F
100
AcDbEntity
  8
0
  6
Continuous
 62
     7
100
AcDbCircle
 10
6262.633459311
 20
4888.1181972219
 30
0.0
 40
0.2000000000003776
100
AcDbArc
 50
85.5799296931
 51
175.5800966929
  0
CIRCLE
  5
D3
330
1F
100
AcDbEntity
  8
0
  6
Continuous
 62
     7
100
AcDbCircle
 10
6304.9701955579
 20
4846.6456658435
 30
0.0
 40
3.350000000000364
  0
CIRCLE
  5
D4
330
1F
100
AcDbEntity
  8
0
  6
Continuous
 62
     7
100
AcDbCircle
 10
6173.9701955579
 20
4846.6456658435
 30
0.0
 40
3.350000000000364
  0
ARC
  5
D5
330
1F
100
AcDbEntity
  8
0
  6
Continuous
 62
     7
100
AcDbCircle
 10
6314.4701953903
 20
4838.3456626129
 30
0.0
 40
10.00000000000091
100
AcDbArc
 50
270.0000012806
 51
0.0000307357
  0
ARC
  5
D6
330
1F
100
AcDbEntity
  8
0
  6
Continuous
 62
     7
100
AcDbCircle
 10
6164.4702015184
 20
4838.3456626129
 30
0.0
 40
10.00000000000091
100
AcDbArc
 50
179.9999692642
 51
269.9999453582
  0
CIRCLE
  5
D7
330
1F
100
AcDbEntity
  8
0
  6
Continuous
 62
     7
100
AcDbCircle
 10
6239.4701955579
 20
4787.3456658435
 30
0.0
 40
4.615384615385665
  0
CIRCLE
  5
D8
330
1F
100
AcDbEntity
  8
0
  6
Continuous
 62
     7
100
AcDbCircle
 10
6239.4701955579
 20
4787.3456658435
 30
0.0
 40
5.0
  0
ARC
  5
D9
330
1F
100
AcDbEntity
  8
0
  6
Continuous
 62
     7
100
AcDbCircle
 10
6239.4701930556
 20
4906.6456642073
 30
0.0
 40
13.22050000000038
100
AcDbArc
 50
33.1797476098
 51
123.1797239496
  0
CIRCLE
  5
DA
330
1F
100
AcDbEntity
  8
0
  6
Continuous
 62
     7
100
AcDbCircle
 10
6239.4701930556
 20
4906.6456642073
 30
0.0
 40
11.72050250230507
  0
CIRCLE
  5
DB
330
1F
100
AcDbEntity
  8
0
  6
Continuous
 62
     7
100
AcDbCircle
 10
6239.4701930556
 20
4906.6456642073
 30
0.0
 40
9.750002502305643
  0
ARC
  5
DC
330
1F
100
AcDbEntity
  8
0
  6
Continuous
 62
     7
100
AcDbCircle
 10
6184.4703955204
 20
4846.894803997
 30
0.0
 40
6.999140446195486
100
AcDbArc
 50
270.4019435134
 51
296.7672162725
  0
ARC
  5
DD
330
1F
100
AcDbEntity
  8
0
  6
Continuous
 62
     7
100
AcDbCircle
 10
6184.4701955579
 20
4846.8956658435
 30
0.0
 40
7.000000000001203
100
AcDbArc
 50
260.4008593349
 51
296.7655005768
  0
ARC
  5
DE
330
1F
100
AcDbEntity
  8
0
  6
Continuous
 62
     7
100
AcDbCircle
 10
6191.7310545271
 20
4840.2916279873
 30
0.0
 40
1.000000000000485
100
AcDbArc
 50
287.7122510718
 51
347.7122871559
  0
ARC
  5
DF
330
1F
100
AcDbEntity
  8
0
  6
Continuous
 62
     7
100
AcDbCircle
 10
6196.1546169255
 20
4840.1220977886
 30
0.0
 40
0.4771468224538081
100
AcDbArc
 50
273.142267699
 51
2.8312078185
  0
CIRCLE
  5
E0
330
1F
100
AcDbEntity
  8
0
  6
Continuous
 62
     7
100
AcDbCircle
 10
6239.4701930556
 20
4906.6456642073
 30
0.0
 40
9.500002502306556
  0
CIRCLE
  5
E1
330
1F
100
AcDbEntity
  8
0
  6
Continuous
 62
     7
100
AcDbCircle
 10
6239.4701930556
 20
4906.6456642073
 30
0.0
 40
7.500002502305684
  0
CIRCLE
  5
E2
330
1F
100
AcDbEntity
  8
0
  6
Continuous
 62
     7
100
AcDbCircle
 10
6239.4701930556
 20
4906.6456642073
 30
0.0
 40
4.500002502305803
  0
CIRCLE
  5
E3
330
1F
100
AcDbEntity
  8
0
  6
Continuous
 62
     7
100
AcDbCircle
 10
6304.9701955579
 20
4846.6456658435
 30
0.0
 40
1.500000000000909
  0
CIRCLE
  5
E4
330
1F
100
AcDbEntity
  8
0
  6
Continuous
 62
     7
100
AcDbCircle
 10
6304.9701955579
 20
4846.6456658435
 30
0.0
 40
3.318152866242599
  0
CIRCLE
  5
E5
330
1F
100
AcDbEntity
  8
0
  6
Continuous
 62
     7
100
AcDbCircle
 10
6304.9701955579
 20
4846.6456658435
 30
0.0
 40
1.250000000000909
  0
CIRCLE
  5
E6
330
1F
100
AcDbEntity
  8
0
  6
Continuous
 62
     7
100
AcDbCircle
 10
6304.9701955579
 20
4846.6456658435
 30
0.0
 40
1.050000000000182
  0
CIRCLE
  5
E7
330
1F
100
AcDbEntity
  8
0
  6
Continuous
 62
     7
100
AcDbCircle
 10
6173.9701955579
 20
4846.6456658435
 30
0.0
 40
1.5
  0
CIRCLE
  5
E8
330
1F
100
AcDbEntity
  8
0
  6
Continuous
 62
     7
100
AcDbCircle
 10
6173.9701955579
 20
4846.6456658435
 30
0.0
 40
3.318152866241689
  0
CIRCLE
  5
E9
330
1F
100
AcDbEntity
  8
0
  6
Continuous
 62
     7
100
AcDbCircle
 10
6173.9701955579
 20
4846.6456658435
 30
0.0
 40
1.25
  0
CIRCLE
  5
EA
330
1F
100
AcDbEntity
  8
0
  6
Continuous
 62
     7
100
AcDbCircle
 10
6173.9701955579
 20
4846.6456658435
 30
0.0
 40
1.049999999999272
  0
CIRCLE
  5
EB
330
1F
100
AcDbEntity
  8
0
  6
Continuous
 62
     7
100
AcDbCircle
 10
6261.9701955579
 20
4890.6456658435
 30
0.0
 40
5.0
  0
CIRCLE
  5
EC
330
1F
100
AcDbEntity
  8
0
  6
Continuous
 62
     7
100
AcDbCircle
 10
6216.9701955579
 20
4890.6456658435
 30
0.0
 40
5.0
  0
ARC
  5
ED
330
1F
100
AcDbEntity
  8
0
  6
Continuous
 62
     7
100
AcDbCircle
 10
6163.7701943658
 20
4840.6456689906
 30
0.0
 40
1.800000000000306
100
AcDbArc
 50
180.0002159096
 51
270.0000212508
  0
ARC
  5
EE
330
1F
100
AcDbEntity
  8
0
  6
Continuous
 62
     7
100
AcDbCircle
 10
6163.7701943658
 20
4840.6456689906
 30
0.0
 40
0.7999979734167724
100
AcDbArc
 50
180.0004857978
 51
270.0000853784
  0
ARC
  5
EF
330
1F
100
AcDbEntity
  8
0
  6
Continuous
 62
     7
100
AcDbCircle
 10
6315.1701971077
 20
4840.6456658435
 30
0.0
 40
0.7999984027020078
100
AcDbArc
 50
270.0000034014
 51
359.9997395976
  0
ARC
  5
F0
330
1F
100
AcDbEntity
  8
0
  6
Continuous
 62
     7
100
AcDbCircle
 10
6315.1701971077
 20
4840.6456658435
 30
0.0
 40
1.799998450198473
100
AcDbArc
 50
270.0
 51
359.9998842657
  0
ARC
  5
F1
330
1F
100
AcDbEntity
  8
0
  6
Continuous
 62
     7
100
AcDbCircle
 10
6196.294868983
 20
4840.0480621144
 30
0.0
 40
0.3501892233856762
100
AcDbArc
 50
324.0187907909
 51
16.1836589727
  0
ELLIPSE
  5
F2
330
1F
100
AcDbEntity
  8
0
  6
Continuous
 62
     7
100
AcDbEllipse
 10
6663.7088955549
 20
5212.2827879256
 30
0.0
 11
0.0
 21
12.42857142857338
 31
0.0
210
0.0
220
0.0
230
1.0
 40
0.5833333333
 41
4.712388980384698
 42
4.956175918852967
  0
ELLIPSE
  5
F3
330
1F
100
AcDbEntity
  8
0
  6
Continuous
 62
     7
100
AcDbEllipse
 10
6663.7088955549
 20
5212.2827879256
 30
0.0
 11
0.0
 21
12.77142857142917
 31
0.0
210
0.0
220
0.0
230
1.0
 40
0.5833333333
 41
4.712388980384698
 42
4.944624290647621
  0
ELLIPSE
  5
F4
330
1F
100
AcDbEntity
  8
0
  6
Continuous
 62
     7
100
AcDbEllipse
 10
6663.7088955549
 20
5205.6994545922
 30
0.0
 11
0.0
 21
87.0
 31
0.0
210
0.0
220
0.0
230
1.0
 40
0.0833333333
 41
4.822766224096855
 42
4.885668616802209
  0
ELLIPSE
  5
F5
330
1F
100
AcDbEntity
  8
0
  6
Continuous
 62
     7
100
AcDbEllipse
 10
6663.7088955549
 20
5205.6994545922
 30
0.0
 11
0.0
 21
89.39999999999964
 31
0.0
210
0.0
220
0.0
230
1.0
 40
0.0833333333
 41
4.813230946486221
 42
4.880971603876448
  0
ELLIPSE
  5
F6
330
1F
100
AcDbEntity
  8
0
  6
Continuous
 62
     7
100
AcDbEllipse
 10
6663.708895552
 20
5214.2619545917
 30
0.0
 11
7.450000000000728
 21
0.0
 31
0.0
210
0.0
220
0.0
230
1.0
 40
0.5833333333
 41
0.1008419662227933
 42
0.2322353102630508
  0
ELLIPSE
  5
F7
330
1F
100
AcDbEntity
  8
0
  6
Continuous
 62
     7
100
AcDbEllipse
 10
6184.4701962804
 20
4843.710723907
 30
0.0
 11
13.49999999999909
 21
0.0
 31
0.0
210
0.0
220
0.0
230
1.0
 40
0.6081871345
 41
5.834028881449072
 42
5.900612677494975
  0
LINE
  5
F8
330
1F
100
AcDbEntity
  8
0
  6
Continuous
 62
     7
100
AcDbLine
 10
6244.4701976441
 20
5254.1743757894
 30
0.0
 11
6244.4701976441
 21
5257.7731217017
 31
0.0
  0
LINE
  5
F9
330
1F
100
AcDbEntity
  8
0
  6
Continuous
 62
     7
100
AcDbLine
 10
6234.4701922797
 20
5257.7731217017
 30
0.0
 11
6234.4701922797
 21
5254.1826533845
 31
0.0
  0
LINE
  5
FA
330
1F
100
AcDbEntity
  8
0
  6
Continuous
 62
     7
100
AcDbLine
 10
6252.0048654936
 20
5311.885287868
 30
0.0
 11
6251.1906958483
 21
5312.6994537881
 31
0.0
  0
LINE
  5
FB
330
1F
100
AcDbEntity
  8
0
  6
Continuous
 62
     7
100
AcDbLine
 10
6227.7496940754
 20
5312.6994537881
 30
0.0
 11
6226.4095879458
 21
5311.3593495211
 31
0.0
  0
LINE
  5
FC
330
1F
100
AcDbEntity
  8
0
  6
Continuous
 62
     7
100
AcDbLine
 10
6251.8235705159
 20
5311.7397314629
 30
0.0
 11
6251.9951499365
 21
5311.8388558498
 31
0.0
  0
LINE
  5
FD
330
1F
100
AcDbEntity
  8
0
  6
Continuous
 62
     7
100
AcDbLine
 10
6252.6906988881
 20
5310.6572980752
 30
0.0
 11
6252.6906988881
 21
5311.0543730428
 31
0.0
  0
LINE
  5
FE
330
1F
100
AcDbEntity
  8
0
  6
Continuous
 62
     7
100
AcDbLine
 10
6252.6906988881
 20
5309.0697972795
 30
0.0
 11
6252.6906988881
 21
5309.4668722471
 31
0.0
  0
LINE
  5
FF
330
1F
100
AcDbEntity
  8
0
  6
Continuous
 62
     7
100
AcDbLine
 10
6252.6906988881
 20
5307.4822983464
 30
0.0
 11
6252.6906988881
 21
5307.8793714514
 31
0.0
  0
LINE
  5
100
330
1F
100
AcDbEntity
  8
0
  6
Continuous
 62
     7
100
AcDbLine
 10
6252.6906988881
 20
5305.8947975507
 30
0.0
 11
6252.6906988881
 21
5306.2918725183
 31
0.0
  0
LINE
  5
101
330
1F
100
AcDbEntity
  8
0
  6
Continuous
 62
     7
100
AcDbLine
 10
6252.6906988881
 20
5304.3072976863
 30
0.0
 11
6252.6906988881
 21
5304.7043726539
 31
0.0
  0
LINE
  5
102
330
1F
100
AcDbEntity
  8
0
  6
Continuous
 62
     7
100
AcDbLine
 10
6226.2496984862
 20
5303.9105226045
 30
0.0
 11
6226.2496984862
 21
5303.6994541755
 31
0.0
  0
LINE
  5
103
330
1F
100
AcDbEntity
  8
0
  6
Continuous
 62
     7
100
AcDbLine
 10
6226.2496984862
 20
5305.4980224689
 30
0.0
 11
6226.2496984862
 21
5305.1010424962
 31
0.0
  0
LINE
  5
104
330
1F
100
AcDbEntity
  8
0
  6
Continuous
 62
     7
100
AcDbLine
 10
6226.2496984862
 20
5307.0855232647
 30
0.0
 11
6226.2496984862
 21
5306.6885432919
 31
0.0
  0
LINE
  5
105
330
1F
100
AcDbEntity
  8
0
  6
Continuous
 62
     7
100
AcDbLine
 10
6226.2496984862
 20
5308.6730221977
 30
0.0
 11
6226.2496984862
 21
5308.276042225
 31
0.0
  0
LINE
  5
106
330
1F
100
AcDbEntity
  8
0
  6
Continuous
 62
     7
100
AcDbLine
 10
6226.2496984862
 20
5310.2605229935
 30
0.0
 11
6226.2496984862
 21
5309.8635430207
 31
0.0
  0
LINE
  5
107
330
1F
100
AcDbEntity
  8
0
  6
Continuous
 62
     7
100
AcDbLine
 10
6227.108981397
 20
5309.3681818565
 30
0.0
 11
6227.108981397
 21
5309.1738502255
 31
0.0
  0
LINE
  5
108
330
1F
100
AcDbEntity
  8
0
  6
Continuous
 62
     7
100
AcDbLine
 10
6227.108981397
 20
5307.7806810608
 30
0.0
 11
6227.108981397
 21
5307.5863512924
 31
0.0
  0
LINE
  5
109
330
1F
100
AcDbEntity
  8
0
  6
Continuous
 62
     7
100
AcDbLine
 10
6227.108981397
 20
5306.1931821277
 30
0.0
 11
6227.108981397
 21
5305.9988504967
 31
0.0
  0
LINE
  5
10A
330
1F
100
AcDbEntity
  8
0
  6
Continuous
 62
     7
100
AcDbLine
 10
6227.108981397
 20
5304.605681332
 30
0.0
 11
6227.108981397
 21
5304.4113506323
 31
0.0
  0
LINE
  5
10B
330
1F
100
AcDbEntity
  8
0
  6
Continuous
 62
     7
100
AcDbLine
 10
6251.8314085267
 20
5309.9634944221
 30
0.0
 11
6251.8314085267
 21
5310.1567606201
 31
0.0
  0
LINE
  5
10C
330
1F
100
AcDbEntity
  8
0
  6
Continuous
 62
     7
100
AcDbLine
 10
6251.8314085267
 20
5308.3759936264
 30
0.0
 11
6251.8314085267
 21
5308.5692616871
 31
0.0
  0
LINE
  5
10D
330
1F
100
AcDbEntity
  8
0
  6
Continuous
 62
     7
100
AcDbLine
 10
6251.8314085267
 20
5306.7884946933
 30
0.0
 11
6251.8314085267
 21
5306.9817608913
 31
0.0
  0
LINE
  5
10E
330
1F
100
AcDbEntity
  8
0
  6
Continuous
 62
     7
100
AcDbLine
 10
6251.8314085267
 20
5305.2009938976
 30
0.0
 11
6251.8314085267
 21
5305.3942619583
 31
0.0
  0
LINE
  5
10F
330
1F
100
AcDbEntity
  8
0
  6
Continuous
 62
     7
100
AcDbLine
 10
6251.8314085267
 20
5303.6994541755
 30
0.0
 11
6251.8314085267
 21
5303.8067611625
 31
0.0
  0
LINE
  5
110
330
1F
100
AcDbEntity
  8
0
  6
Continuous
 62
     7
100
AcDbLine
 10
6251.8314085267
 20
5311.5509933552
 30
0.0
 11
6251.8314085267
 21
5311.7442614159
 31
0.0
  0
LINE
  5
111
330
1F
100
AcDbEntity
  8
0
  6
Continuous
 62
     7
100
AcDbLine
 10
6227.108981397
 20
5310.9556807896
 30
0.0
 11
6227.108981397
 21
5310.7613510212
 31
0.0
  0
LINE
  5
112
330
1F
100
AcDbEntity
  8
0
  6
Continuous
 62
     7
100
AcDbLine
 10
6179.0865025781
 20
5115.8626506796
 30
0.0
 11
6180.249702122
 21
5114.6994511357
 31
0.0
  0
LINE
  5
113
330
1F
100
AcDbEntity
  8
0
  6
Continuous
 62
     7
100
AcDbLine
 10
6204.9010581635
 20
5115.9098128548
 30
0.0
 11
6205.1906920336
 21
5116.1994616261
 31
0.0
  0
LINE
  5
114
330
1F
100
AcDbEntity
  8
0
  6
Continuous
 62
     7
100
AcDbLine
 10
6203.6906964443
 20
5114.6994511357
 30
0.0
 11
6204.3415568136
 21
5115.3503189554
 31
0.0
  0
LINE
  5
115
330
1F
100
AcDbEntity
  8
0
  6
Continuous
 62
     7
100
AcDbLine
 10
6178.8751445077
 20
5123.6994544735
 30
0.0
 11
6178.7561587356
 21
5123.6307154169
 31
0.0
  0
LINE
  5
116
330
1F
100
AcDbEntity
  8
0
  6
Continuous
 62
     7
100
AcDbLine
 10
6204.3245247863
 20
5123.5159019699
 30
0.0
 11
6204.6106419824
 21
5123.6811856499
 31
0.0
  0
LINE
  5
117
330
1F
100
AcDbEntity
  8
0
  6
Continuous
 62
     7
100
AcDbLine
 10
6178.7496916316
 20
5117.2732244005
 30
0.0
 11
6178.7496916316
 21
5116.8762723675
 31
0.0
  0
LINE
  5
118
330
1F
100
AcDbEntity
  8
0
  6
Continuous
 62
     7
100
AcDbLine
 10
6178.7496916316
 20
5118.8607196083
 30
0.0
 11
6178.7496916316
 21
5118.4637824764
 31
0.0
  0
LINE
  5
119
330
1F
100
AcDbEntity
  8
0
  6
Continuous
 62
     7
100
AcDbLine
 10
6178.7496916316
 20
5120.4482148161
 30
0.0
 11
6178.7496916316
 21
5120.0512776842
 31
0.0
  0
LINE
  5
11A
330
1F
100
AcDbEntity
  8
0
  6
Continuous
 62
     7
100
AcDbLine
 10
6178.7496916316
 20
5122.0357249251
 30
0.0
 11
6178.7496916316
 21
5121.638772892
 31
0.0
  0
LINE
  5
11B
330
1F
100
AcDbEntity
  8
0
  6
Continuous
 62
     7
100
AcDbLine
 10
6178.7496916316
 20
5123.6994544735
 30
0.0
 11
6178.7496916316
 21
5123.226283001
 31
0.0
  0
LINE
  5
11C
330
1F
100
AcDbEntity
  8
0
  6
Continuous
 62
     7
100
AcDbLine
 10
6205.1906920336
 20
5122.4324236384
 30
0.0
 11
6205.1906920336
 21
5122.8292862644
 31
0.0
  0
LINE
  5
11D
330
1F
100
AcDbEntity
  8
0
  6
Continuous
 62
     7
100
AcDbLine
 10
6205.1906920336
 20
5120.8449135294
 30
0.0
 11
6205.1906920336
 21
5121.2417910566
 31
0.0
  0
LINE
  5
11E
330
1F
100
AcDbEntity
  8
0
  6
Continuous
 62
     7
100
AcDbLine
 10
6205.1906920336
 20
5119.2574183216
 30
0.0
 11
6205.1906920336
 21
5119.6542958489
 31
0.0
  0
LINE
  5
11F
330
1F
100
AcDbEntity
  8
0
  6
Continuous
 62
     7
100
AcDbLine
 10
6205.1906920336
 20
5117.6699231138
 30
0.0
 11
6205.1906920336
 21
5118.0667857399
 31
0.0
  0
LINE
  5
120
330
1F
100
AcDbEntity
  8
0
  6
Continuous
 62
     7
100
AcDbLine
 10
6205.1906920336
 20
5116.1994616261
 30
0.0
 11
6205.1906920336
 21
5116.4792905321
 31
0.0
  0
LINE
  5
121
330
1F
100
AcDbEntity
  8
0
  6
Continuous
 62
     7
100
AcDbLine
 10
6204.3314389251
 20
5116.9754842987
 30
0.0
 11
6204.3314389251
 21
5117.1698848477
 31
0.0
  0
LINE
  5
122
330
1F
100
AcDbEntity
  8
0
  6
Continuous
 62
     7
100
AcDbLine
 10
6204.3314389251
 20
5118.5629795065
 30
0.0
 11
6204.3314389251
 21
5118.7573949566
 31
0.0
  0
LINE
  5
123
330
1F
100
AcDbEntity
  8
0
  6
Continuous
 62
     7
100
AcDbLine
 10
6204.3314389251
 20
5120.1504747143
 30
0.0
 11
6204.3314389251
 21
5120.3448901644
 31
0.0
  0
LINE
  5
124
330
1F
100
AcDbEntity
  8
0
  6
Continuous
 62
     7
100
AcDbLine
 10
6204.3314389251
 20
5121.7379848232
 30
0.0
 11
6204.3314389251
 21
5121.9323853722
 31
0.0
  0
LINE
  5
125
330
1F
100
AcDbEntity
  8
0
  6
Continuous
 62
     7
100
AcDbLine
 10
6204.3314389251
 20
5123.325480031
 30
0.0
 11
6204.3314389251
 21
5123.5198954811
 31
0.0
  0
LINE
  5
126
330
1F
100
AcDbEntity
  8
0
  6
Continuous
 62
     7
100
AcDbLine
 10
6179.6089521907
 20
5117.9676632157
 30
0.0
 11
6179.6089521907
 21
5117.7733520737
 31
0.0
  0
LINE
  5
127
330
1F
100
AcDbEntity
  8
0
  6
Continuous
 62
     7
100
AcDbLine
 10
6179.6089521907
 20
5119.5551733246
 30
0.0
 11
6179.6089521907
 21
5119.3608472815
 31
0.0
  0
LINE
  5
128
330
1F
100
AcDbEntity
  8
0
  6
Continuous
 62
     7
100
AcDbLine
 10
6179.6089521907
 20
5121.1426685324
 30
0.0
 11
6179.6089521907
 21
5120.9483573904
 31
0.0
  0
LINE
  5
129
330
1F
100
AcDbEntity
  8
0
  6
Continuous
 62
     7
100
AcDbLine
 10
6179.6089521907
 20
5122.7301637402
 30
0.0
 11
6179.6089521907
 21
5122.5358525982
 31
0.0
  0
LINE
  5
12A
330
1F
100
AcDbEntity
  8
0
  6
Continuous
 62
     7
100
AcDbLine
 10
6179.6089521907
 20
5116.3801680079
 30
0.0
 11
6179.6089521907
 21
5116.1858568659
 31
0.0
  0
LINE
  5
12B
330
1F
100
AcDbEntity
  8
0
  6
Continuous
 62
     7
100
AcDbLine
 10
6204.3314389251
 20
5115.3879741898
 30
0.0
 11
6204.3314389251
 21
5115.5823896399
 31
0.0
  0
LINE
  5
12C
330
1F
100
AcDbEntity
  8
0
  6
Continuous
 62
     7
100
AcDbLine
 10
6274.2629013322
 20
5115.6862507334
 30
0.0
 11
6275.2496972047
 21
5114.6994511357
 31
0.0
  0
LINE
  5
12D
330
1F
100
AcDbEntity
  8
0
  6
Continuous
 62
     7
100
AcDbLine
 10
6298.6906952523
 20
5114.6994511357
 30
0.0
 11
6300.1906964294
 21
5116.1994616261
 31
0.0
  0
LINE
  5
12E
330
1F
100
AcDbEntity
  8
0
  6
Continuous
 62
     7
100
AcDbLine
 10
6274.61679646
 20
5115.9271876087
 30
0.0
 11
6274.2584123574
 21
5115.7201508751
 31
0.0
  0
LINE
  5
12F
330
1F
100
AcDbEntity
  8
0
  6
Continuous
 62
     7
100
AcDbLine
 10
6273.7496941648
 20
5117.0092354288
 30
0.0
 11
6273.7496941648
 21
5116.6125516167
 31
0.0
  0
LINE
  5
130
330
1F
100
AcDbEntity
  8
0
  6
Continuous
 62
     7
100
AcDbLine
 10
6273.7496941648
 20
5118.5967306366
 30
0.0
 11
6273.7496941648
 21
5118.2000468245
 31
0.0
  0
LINE
  5
131
330
1F
100
AcDbEntity
  8
0
  6
Continuous
 62
     7
100
AcDbLine
 10
6273.7496941648
 20
5120.1842407456
 30
0.0
 11
6273.7496941648
 21
5119.7875569334
 31
0.0
  0
LINE
  5
132
330
1F
100
AcDbEntity
  8
0
  6
Continuous
 62
     7
100
AcDbLine
 10
6273.7496941648
 20
5121.7717359533
 30
0.0
 11
6273.7496941648
 21
5121.3750521412
 31
0.0
  0
LINE
  5
133
330
1F
100
AcDbEntity
  8
0
  6
Continuous
 62
     7
100
AcDbLine
 10
6273.7496941648
 20
5123.3592311611
 30
0.0
 11
6273.7496941648
 21
5122.962547349
 31
0.0
  0
LINE
  5
134
330
1F
100
AcDbEntity
  8
0
  6
Continuous
 62
     7
100
AcDbLine
 10
6300.1906964294
 20
5122.1687624922
 30
0.0
 11
6300.1906964294
 21
5122.5656400194
 31
0.0
  0
LINE
  5
135
330
1F
100
AcDbEntity
  8
0
  6
Continuous
 62
     7
100
AcDbLine
 10
6300.1906964294
 20
5120.5812672844
 30
0.0
 11
6300.1906964294
 21
5120.9781448116
 31
0.0
  0
LINE
  5
136
330
1F
100
AcDbEntity
  8
0
  6
Continuous
 62
     7
100
AcDbLine
 10
6300.1906964294
 20
5118.9937720766
 30
0.0
 11
6300.1906964294
 21
5119.3906347027
 31
0.0
  0
LINE
  5
137
330
1F
100
AcDbEntity
  8
0
  6
Continuous
 62
     7
100
AcDbLine
 10
6300.1906964294
 20
5117.4062619677
 30
0.0
 11
6300.1906964294
 21
5117.8031394949
 31
0.0
  0
LINE
  5
138
330
1F
100
AcDbEntity
  8
0
  6
Continuous
 62
     7
100
AcDbLine
 10
6299.2434705905
 20
5116.7421470156
 30
0.0
 11
6299.2434705905
 21
5116.9405857792
 31
0.0
  0
LINE
  5
139
330
1F
100
AcDbEntity
  8
0
  6
Continuous
 62
     7
100
AcDbLine
 10
6299.2434705905
 20
5118.3296422234
 30
0.0
 11
6299.2434705905
 21
5118.528080987
 31
0.0
  0
LINE
  5
13A
330
1F
100
AcDbEntity
  8
0
  6
Continuous
 62
     7
100
AcDbLine
 10
6299.2434705905
 20
5119.9171523323
 30
0.0
 11
6299.2434705905
 21
5120.1155910959
 31
0.0
  0
LINE
  5
13B
330
1F
100
AcDbEntity
  8
0
  6
Continuous
 62
     7
100
AcDbLine
 10
6299.2434705905
 20
5121.5046475401
 30
0.0
 11
6299.2434705905
 21
5121.7030863037
 31
0.0
  0
LINE
  5
13C
330
1F
100
AcDbEntity
  8
0
  6
Continuous
 62
     7
100
AcDbLine
 10
6299.2434705905
 20
5123.0921427479
 30
0.0
 11
6299.2434705905
 21
5123.2905815115
 31
0.0
  0
LINE
  5
13D
330
1F
100
AcDbEntity
  8
0
  6
Continuous
 62
     7
100
AcDbLine
 10
6274.6089808009
 20
5117.7045236101
 30
0.0
 11
6274.6089808009
 21
5117.5101826658
 31
0.0
  0
LINE
  5
13E
330
1F
100
AcDbEntity
  8
0
  6
Continuous
 62
     7
100
AcDbLine
 10
6274.6089808009
 20
5119.2920337191
 30
0.0
 11
6274.6089808009
 21
5119.0976778736
 31
0.0
  0
LINE
  5
13F
330
1F
100
AcDbEntity
  8
0
  6
Continuous
 62
     7
100
AcDbLine
 10
6274.6089808009
 20
5120.8795289269
 30
0.0
 11
6274.6089808009
 21
5120.6851730814
 31
0.0
  0
LINE
  5
140
330
1F
100
AcDbEntity
  8
0
  6
Continuous
 62
     7
100
AcDbLine
 10
6274.6089808009
 20
5122.4670241347
 30
0.0
 11
6274.6089808009
 21
5122.2726831904
 31
0.0
  0
LINE
  5
141
330
1F
100
AcDbEntity
  8
0
  6
Continuous
 62
     7
100
AcDbLine
 10
6274.6089808009
 20
5116.1170284023
 30
0.0
 11
6274.6089808009
 21
5115.9226725569
 31
0.0
  0
LINE
  5
142
330
1F
100
AcDbEntity
  8
0
  6
Continuous
 62
     7
100
AcDbLine
 10
6239.0351183725
 20
5169.8922644135
 30
0.0
 11
6239.0043027712
 21
5173.437846708
 31
0.0
  0
LINE
  5
143
330
1F
100
AcDbEntity
  8
0
  6
Continuous
 62
     7
100
AcDbLine
 10
6235.7703334951
 20
5173.4097356668
 30
0.0
 11
6235.8358613514
 21
5165.8715734949
 31
0.0
  0
LINE
  5
144
330
1F
100
AcDbEntity
  8
0
  6
Continuous
 62
     7
100
AcDbLine
 10
6233.298640635
 20
5166.5375659933
 30
0.0
 11
6233.3457581066
 21
5161.1166576615
 31
0.0
  0
LINE
  5
145
330
1F
100
AcDbEntity
  8
0
  6
Continuous
 62
     7
100
AcDbLine
 10
6239.7229968221
 20
5154.8493223951
 30
0.0
 11
6242.0901356847
 21
5154.8699008987
 31
0.0
  0
LINE
  5
146
330
1F
100
AcDbEntity
  8
0
  6
Continuous
 62
     7
100
AcDbLine
 10
6246.6059512447
 20
5159.4649159351
 30
0.0
 11
6246.5378380369
 21
5167.3013844528
 31
0.0
  0
LINE
  5
147
330
1F
100
AcDbEntity
  8
0
  6
Continuous
 62
     7
100
AcDbLine
 10
6245.1725266886
 20
5168.6431894776
 30
0.0
 11
6244.6783222271
 21
5168.6388904926
 31
0.0
  0
LINE
  5
148
330
1F
100
AcDbEntity
  8
0
  6
Continuous
 62
     7
100
AcDbLine
 10
6242.6868937922
 20
5169.570198166
 30
0.0
 11
6242.1075962496
 21
5169.5651615735
 31
0.0
  0
LINE
  5
149
330
1F
100
AcDbEntity
  8
0
  6
Continuous
 62
     7
100
AcDbLine
 10
6240.1199899626
 20
5170.0570563551
 30
0.0
 11
6239.6633960319
 21
5170.0530926463
 31
0.0
  0
LINE
  5
14A
330
1F
100
AcDbEntity
  8
0
  6
Continuous
 62
     7
100
AcDbLine
 10
6239.3510378264
 20
5168.7108780017
 30
0.0
 11
6239.3766007684
 21
5165.7699550262
 31
0.0
  0
LINE
  5
14B
330
1F
100
AcDbEntity
  8
0
  6
Continuous
 62
     7
100
AcDbLine
 10
6240.2134425305
 20
5168.9584905973
 30
0.0
 11
6239.5890466235
 21
5168.9530665746
 31
0.0
  0
LINE
  5
14C
330
1F
100
AcDbEntity
  8
0
  6
Continuous
 62
     7
100
AcDbLine
 10
6240.4811940454
 20
5165.7795588246
 30
0.0
 11
6240.4556311034
 21
5168.7204743495
 31
0.0
  0
LINE
  5
14D
330
1F
100
AcDbEntity
  8
0
  6
Continuous
 62
     7
100
AcDbLine
 10
6241.7952380441
 20
5168.222946929
 30
0.0
 11
6241.8163753413
 21
5165.7911593785
 31
0.0
  0
LINE
  5
14E
330
1F
100
AcDbEntity
  8
0
  6
Continuous
 62
     7
100
AcDbLine
 10
6242.78034636
 20
5168.4716249576
 30
0.0
 11
6242.0332542918
 21
5168.4651355019
 31
0.0
  0
LINE
  5
14F
330
1F
100
AcDbEntity
  8
0
  6
Continuous
 62
     7
100
AcDbLine
 10
6243.0436722301
 20
5165.80182861
 30
0.0
 11
6243.0225349329
 21
5168.2336161604
 31
0.0
  0
LINE
  5
150
330
1F
100
AcDbEntity
  8
0
  6
Continuous
 62
     7
100
AcDbLine
 10
6244.36568835
 20
5167.3289070597
 30
0.0
 11
6244.3788609765
 21
5165.8134366145
 31
0.0
  0
LINE
  5
151
330
1F
100
AcDbEntity
  8
0
  6
Continuous
 62
     7
100
AcDbLine
 10
6245.265703585
 20
5167.5768474808
 30
0.0
 11
6244.6036971472
 21
5167.5710956326
 31
0.0
  0
LINE
  5
152
330
1F
100
AcDbEntity
  8
0
  6
Continuous
 62
     7
100
AcDbLine
 10
6245.5764077297
 20
5159.4559604673
 30
0.0
 11
6245.5078921906
 21
5167.3388237504
 31
0.0
  0
LINE
  5
153
330
1F
100
AcDbEntity
  8
0
  6
Continuous
 62
     7
100
AcDbLine
 10
6239.7140487401
 20
5155.8788808107
 30
0.0
 11
6242.0811801521
 21
5155.8994444131
 31
0.0
  0
LINE
  5
154
330
1F
100
AcDbEntity
  8
0
  6
Continuous
 62
     7
100
AcDbLine
 10
6234.3366704249
 20
5165.571546065
 30
0.0
 11
6234.3753165864
 21
5161.1255983583
 31
0.0
  0
LINE
  5
155
330
1F
100
AcDbEntity
  8
0
  6
Continuous
 62
     7
100
AcDbLine
 10
6235.5627603195
 20
5162.1270010939
 30
0.0
 11
6235.5457729958
 21
5164.0813479891
 31
0.0
  0
LINE
  5
156
330
1F
100
AcDbEntity
  8
0
  6
Continuous
 62
     7
100
AcDbLine
 10
6236.7998994253
 20
5173.4186912646
 30
0.0
 11
6236.8979416154
 21
5162.1386090984
 31
0.0
  0
LINE
  5
157
330
1F
100
AcDbEntity
  8
0
  6
Continuous
 62
     7
100
AcDbLine
 10
6238.041412022
 20
5165.7583470216
 30
0.0
 11
6237.9747367762
 21
5173.4288985601
 31
0.0
  0
LINE
  5
158
330
1F
100
AcDbEntity
  8
0
  6
Continuous
 62
     7
100
AcDbLine
 10
6164.4701919816
 20
5296.6994544251
 30
0.0
 11
6164.4702015184
 21
5286.6994544251
 31
0.0
  0
LINE
  5
159
330
1F
100
AcDbEntity
  8
0
  6
Continuous
 62
     7
100
AcDbLine
 10
6154.4702015184
 20
5286.6994546486
 30
0.0
 11
6164.4702015184
 21
5286.6994544251
 31
0.0
  0
LINE
  5
15A
330
1F
100
AcDbEntity
  8
0
  6
Continuous
 62
     7
100
AcDbLine
 10
6314.4701953903
 20
5136.6994605532
 30
0.0
 11
6314.4701953903
 21
5286.6994544251
 31
0.0
  0
LINE
  5
15B
330
1F
100
AcDbEntity
  8
0
  6
Continuous
 62
     7
100
AcDbLine
 10
6314.4701953903
 20
5286.6994544251
 30
0.0
 11
6324.4701953903
 21
5286.6994546486
 31
0.0
  0
LINE
  5
15C
330
1F
100
AcDbEntity
  8
0
  6
Continuous
 62
     7
100
AcDbLine
 10
6324.4701953903
 20
5136.6994510164
 30
0.0
 11
6324.4701953903
 21
5286.6994546486
 31
0.0
  0
LINE
  5
15D
330
1F
100
AcDbEntity
  8
0
  6
Continuous
 62
     7
100
AcDbLine
 10
6314.4701953903
 20
5136.6994605532
 30
0.0
 11
6324.4701953903
 21
5136.6994510164
 31
0.0
  0
LINE
  5
15E
330
1F
100
AcDbEntity
  8
0
  6
Continuous
 62
     7
100
AcDbLine
 10
6164.4702015184
 20
5136.6994605532
 30
0.0
 11
6164.4701919816
 21
5126.6994605532
 31
0.0
  0
LINE
  5
15F
330
1F
100
AcDbEntity
  8
0
  6
Continuous
 62
     7
100
AcDbLine
 10
6154.4702015184
 20
5136.6994510164
 30
0.0
 11
6164.4702015184
 21
5136.6994605532
 31
0.0
  0
LINE
  5
160
330
1F
100
AcDbEntity
  8
0
  6
Continuous
 62
     7
100
AcDbLine
 10
6314.4701956138
 20
5296.6994544251
 30
0.0
 11
6164.4701919816
 21
5296.6994544251
 31
0.0
  0
LINE
  5
161
330
1F
100
AcDbEntity
  8
0
  6
Continuous
 62
     7
100
AcDbLine
 10
6314.4701956138
 20
5296.6994544251
 30
0.0
 11
6314.4701953903
 21
5286.6994544251
 31
0.0
  0
LINE
  5
162
330
1F
100
AcDbEntity
  8
0
  6
Continuous
 62
     7
100
AcDbLine
 10
6314.4701953903
 20
5286.6994544251
 30
0.0
 11
6164.4702015184
 21
5286.6994544251
 31
0.0
  0
LINE
  5
163
330
1F
100
AcDbEntity
  8
0
  6
Continuous
 62
     7
100
AcDbLine
 10
6164.4702015184
 20
5136.6994605532
 30
0.0
 11
6314.4701953903
 21
5136.6994605532
 31
0.0
  0
LINE
  5
164
330
1F
100
AcDbEntity
  8
0
  6
Continuous
 62
     7
100
AcDbLine
 10
6314.4701953903
 20
5136.6994605532
 30
0.0
 11
6314.4701956138
 21
5126.6994605532
 31
0.0
  0
LINE
  5
165
330
1F
100
AcDbEntity
  8
0
  6
Continuous
 62
     7
100
AcDbLine
 10
6164.4701919816
 20
5126.6994605532
 30
0.0
 11
6314.4701956138
 21
5126.6994605532
 31
0.0
  0
LINE
  5
166
330
1F
100
AcDbEntity
  8
0
  6
Continuous
 62
     7
100
AcDbLine
 10
6164.4702015184
 20
5286.6994544251
 30
0.0
 11
6164.4702015184
 21
5136.6994605532
 31
0.0
  0
LINE
  5
167
330
1F
100
AcDbEntity
  8
0
  6
Continuous
 62
     7
100
AcDbLine
 10
6154.4702015184
 20
5286.6994546486
 30
0.0
 11
6154.4702015184
 21
5136.6994510164
 31
0.0
  0
LINE
  5
168
330
1F
100
AcDbEntity
  8
0
  6
Continuous
 62
     7
100
AcDbLine
 10
6251.9188634418
 20
5213.2536898127
 30
0.0
 11
6252.2924951576
 21
5213.141268002
 31
0.0
  0
LINE
  5
169
330
1F
100
AcDbEntity
  8
0
  6
Continuous
 62
     7
100
AcDbLine
 10
6252.2924951576
 20
5213.141268002
 30
0.0
 11
6252.6517696045
 21
5213.0331600776
 31
0.0
  0
LINE
  5
16A
330
1F
100
AcDbEntity
  8
0
  6
Continuous
 62
     7
100
AcDbLine
 10
6252.6517696045
 20
5213.0331600776
 30
0.0
 11
6252.9828808568
 21
5212.9335309138
 31
0.0
  0
LINE
  5
16B
330
1F
100
AcDbEntity
  8
0
  6
Continuous
 62
     7
100
AcDbLine
 10
6252.9828808568
 20
5212.9335309138
 30
0.0
 11
6253.2730958722
 21
5212.8462101092
 31
0.0
  0
LINE
  5
16C
330
1F
100
AcDbEntity
  8
0
  6
Continuous
 62
     7
100
AcDbLine
 10
6253.2730958722
 20
5212.8462101092
 30
0.0
 11
6253.5112760328
 21
5212.7745429745
 31
0.0
  0
LINE
  5
16D
330
1F
100
AcDbEntity
  8
0
  6
Continuous
 62
     7
100
AcDbLine
 10
6253.5112760328
 20
5212.7745429745
 30
0.0
 11
6253.6882571243
 21
5212.7212862244
 31
0.0
  0
LINE
  5
16E
330
1F
100
AcDbEntity
  8
0
  6
Continuous
 62
     7
100
AcDbLine
 10
6253.6882571243
 20
5212.7212862244
 30
0.0
 11
6253.7972367667
 21
5212.6884962192
 31
0.0
  0
LINE
  5
16F
330
1F
100
AcDbEntity
  8
0
  6
Continuous
 62
     7
100
AcDbLine
 10
6253.7972367667
 20
5212.6884962192
 30
0.0
 11
6253.8340426348
 21
5212.6774172058
 31
0.0
  0
LINE
  5
170
330
1F
100
AcDbEntity
  8
0
  6
Continuous
 62
     7
100
AcDbLine
 10
6227.0215339325
 20
5213.2536898127
 30
0.0
 11
6226.6478947662
 21
5213.141268002
 31
0.0
  0
LINE
  5
171
330
1F
100
AcDbEntity
  8
0
  6
Continuous
 62
     7
100
AcDbLine
 10
6226.6478947662
 20
5213.141268002
 30
0.0
 11
6226.2886203192
 21
5213.0331600776
 31
0.0
  0
LINE
  5
172
330
1F
100
AcDbEntity
  8
0
  6
Continuous
 62
     7
100
AcDbLine
 10
6226.2886203192
 20
5213.0331600776
 30
0.0
 11
6225.9575165175
 21
5212.9335309138
 31
0.0
  0
LINE
  5
173
330
1F
100
AcDbEntity
  8
0
  6
Continuous
 62
     7
100
AcDbLine
 10
6225.9575165175
 20
5212.9335309138
 30
0.0
 11
6225.6672940515
 21
5212.8462101092
 31
0.0
  0
LINE
  5
174
330
1F
100
AcDbEntity
  8
0
  6
Continuous
 62
     7
100
AcDbLine
 10
6225.6672940515
 20
5212.8462101092
 30
0.0
 11
6225.429113891
 21
5212.7745429745
 31
0.0
  0
LINE
  5
175
330
1F
100
AcDbEntity
  8
0
  6
Continuous
 62
     7
100
AcDbLine
 10
6225.429113891
 20
5212.7745429745
 30
0.0
 11
6225.2521327995
 21
5212.7212862244
 31
0.0
  0
LINE
  5
176
330
1F
100
AcDbEntity
  8
0
  6
Continuous
 62
     7
100
AcDbLine
 10
6225.2521327995
 20
5212.7212862244
 30
0.0
 11
6225.1431531571
 21
5212.6884962192
 31
0.0
  0
LINE
  5
177
330
1F
100
AcDbEntity
  8
0
  6
Continuous
 62
     7
100
AcDbLine
 10
6225.1431531571
 20
5212.6884962192
 30
0.0
 11
6225.1063547395
 21
5212.6774172058
 31
0.0
  0
LINE
  5
178
330
1F
100
AcDbEntity
  8
0
  6
Continuous
 62
     7
100
AcDbLine
 10
6222.1378199123
 20
5229.4841984978
 30
0.0
 11
6227.0215339325
 21
5213.2536898127
 31
0.0
  0
LINE
  5
179
330
1F
100
AcDbEntity
  8
0
  6
Continuous
 62
     7
100
AcDbLine
 10
6225.1063547395
 20
5212.6774172058
 30
0.0
 11
6220.2226407193
 21
5228.9079296162
 31
0.0
  0
LINE
  5
17A
330
1F
100
AcDbEntity
  8
0
  6
Continuous
 62
     7
100
AcDbLine
 10
6220.2226407193
 20
5228.9079296162
 30
0.0
 11
6220.2594465874
 21
5228.919001179
 31
0.0
  0
LINE
  5
17B
330
1F
100
AcDbEntity
  8
0
  6
Continuous
 62
     7
100
AcDbLine
 10
6220.2594465874
 20
5228.919001179
 30
0.0
 11
6220.3684262298
 21
5228.9517949095
 31
0.0
  0
LINE
  5
17C
330
1F
100
AcDbEntity
  8
0
  6
Continuous
 62
     7
100
AcDbLine
 10
6220.3684262298
 20
5228.9517949095
 30
0.0
 11
6220.5454073213
 21
5229.0050479343
 31
0.0
  0
LINE
  5
17D
330
1F
100
AcDbEntity
  8
0
  6
Continuous
 62
     7
100
AcDbLine
 10
6220.5454073213
 20
5229.0050479343
 30
0.0
 11
6220.7835874818
 21
5229.0767150691
 31
0.0
  0
LINE
  5
17E
330
1F
100
AcDbEntity
  8
0
  6
Continuous
 62
     7
100
AcDbLine
 10
6220.7835874818
 20
5229.0767150691
 30
0.0
 11
6221.0738099478
 21
5229.164039599
 31
0.0
  0
LINE
  5
17F
330
1F
100
AcDbEntity
  8
0
  6
Continuous
 62
     7
100
AcDbLine
 10
6221.0738099478
 20
5229.164039599
 30
0.0
 11
6221.4049137495
 21
5229.263672488
 31
0.0
  0
LINE
  5
180
330
1F
100
AcDbEntity
  8
0
  6
Continuous
 62
     7
100
AcDbLine
 10
6221.4049137495
 20
5229.263672488
 30
0.0
 11
6221.7641881965
 21
5229.3717766872
 31
0.0
  0
LINE
  5
181
330
1F
100
AcDbEntity
  8
0
  6
Continuous
 62
     7
100
AcDbLine
 10
6221.7641881965
 20
5229.3717766872
 30
0.0
 11
6222.1378199123
 21
5229.4841984978
 31
0.0
  0
LINE
  5
182
330
1F
100
AcDbEntity
  8
0
  6
Continuous
 62
     7
100
AcDbLine
 10
6251.9188634418
 20
5213.2536898127
 30
0.0
 11
6256.8025662862
 21
5229.4841984978
 31
0.0
  0
LINE
  5
183
330
1F
100
AcDbEntity
  8
0
  6
Continuous
 62
     7
100
AcDbLine
 10
6258.7177454792
 20
5228.9079296162
 30
0.0
 11
6258.6809470616
 21
5228.919001179
 31
0.0
  0
LINE
  5
184
330
1F
100
AcDbEntity
  8
0
  6
Continuous
 62
     7
100
AcDbLine
 10
6258.6809470616
 20
5228.919001179
 30
0.0
 11
6258.5719636939
 21
5228.9517949095
 31
0.0
  0
LINE
  5
185
330
1F
100
AcDbEntity
  8
0
  6
Continuous
 62
     7
100
AcDbLine
 10
6258.5719636939
 20
5228.9517949095
 30
0.0
 11
6258.3949826024
 21
5229.0050479343
 31
0.0
  0
LINE
  5
186
330
1F
100
AcDbEntity
  8
0
  6
Continuous
 62
     7
100
AcDbLine
 10
6258.3949826024
 20
5229.0050479343
 30
0.0
 11
6258.1568024419
 21
5229.0767150691
 31
0.0
  0
LINE
  5
187
330
1F
100
AcDbEntity
  8
0
  6
Continuous
 62
     7
100
AcDbLine
 10
6258.1568024419
 20
5229.0767150691
 30
0.0
 11
6257.8665837012
 21
5229.164039599
 31
0.0
  0
LINE
  5
188
330
1F
100
AcDbEntity
  8
0
  6
Continuous
 62
     7
100
AcDbLine
 10
6257.8665837012
 20
5229.164039599
 30
0.0
 11
6257.5354761742
 21
5229.263672488
 31
0.0
  0
LINE
  5
189
330
1F
100
AcDbEntity
  8
0
  6
Continuous
 62
     7
100
AcDbLine
 10
6257.5354761742
 20
5229.263672488
 30
0.0
 11
6257.1762017272
 21
5229.3717766872
 31
0.0
  0
LINE
  5
18A
330
1F
100
AcDbEntity
  8
0
  6
Continuous
 62
     7
100
AcDbLine
 10
6257.1762017272
 20
5229.3717766872
 30
0.0
 11
6256.8025662862
 21
5229.4841984978
 31
0.0
  0
LINE
  5
18B
330
1F
100
AcDbEntity
  8
0
  6
Continuous
 62
     7
100
AcDbLine
 10
6258.7177454792
 20
5228.9079296162
 30
0.0
 11
6253.8340426348
 21
5212.6774172058
 31
0.0
  0
LINE
  5
18C
330
1F
100
AcDbEntity
  8
0
  6
Continuous
 62
     7
100
AcDbLine
 10
6231.6759637855
 20
5303.6994541755
 30
0.0
 11
6247.2644261382
 21
5303.6994541755
 31
0.0
  0
LINE
  5
18D
330
1F
100
AcDbEntity
  8
0
  6
Continuous
 62
     7
100
AcDbLine
 10
6247.2644261382
 20
5303.6994541755
 30
0.0
 11
6247.2644261382
 21
5296.6994544251
 31
0.0
  0
LINE
  5
18E
330
1F
100
AcDbEntity
  8
0
  6
Continuous
 62
     7
100
AcDbLine
 10
6231.6759637855
 20
5303.6994541755
 30
0.0
 11
6231.6759637855
 21
5296.6994544251
 31
0.0
  0
LINE
  5
18F
330
1F
100
AcDbEntity
  8
0
  6
Continuous
 62
     7
100
AcDbLine
 10
6227.7496940754
 20
5312.6994537881
 30
0.0
 11
6251.1906958483
 21
5312.6994537881
 31
0.0
  0
LINE
  5
190
330
1F
100
AcDbEntity
  8
0
  6
Continuous
 62
     7
100
AcDbLine
 10
6255.0586535893
 20
5303.6994541755
 30
0.0
 11
6255.0586535893
 21
5296.6994544251
 31
0.0
  0
LINE
  5
191
330
1F
100
AcDbEntity
  8
0
  6
Continuous
 62
     7
100
AcDbLine
 10
6247.2644261382
 20
5303.6994541755
 30
0.0
 11
6255.0586535893
 21
5303.6994541755
 31
0.0
  0
LINE
  5
192
330
1F
100
AcDbEntity
  8
0
  6
Continuous
 62
     7
100
AcDbLine
 10
6223.8817400597
 20
5303.6994541755
 30
0.0
 11
6223.8817400597
 21
5296.6994544251
 31
0.0
  0
LINE
  5
193
330
1F
100
AcDbEntity
  8
0
  6
Continuous
 62
     7
100
AcDbLine
 10
6223.8817400597
 20
5303.6994541755
 30
0.0
 11
6231.6759637855
 21
5303.6994541755
 31
0.0
  0
LINE
  5
194
330
1F
100
AcDbEntity
  8
0
  6
Continuous
 62
     7
100
AcDbLine
 10
6197.8448442481
 20
5116.1994616261
 30
0.0
 11
6205.1906920336
 21
5116.1994616261
 31
0.0
  0
LINE
  5
195
330
1F
100
AcDbEntity
  8
0
  6
Continuous
 62
     7
100
AcDbLine
 10
6191.8806097768
 20
5114.6994511357
 30
0.0
 11
6180.249702122
 21
5114.6994511357
 31
0.0
  0
LINE
  5
196
330
1F
100
AcDbEntity
  8
0
  6
Continuous
 62
     7
100
AcDbLine
 10
6203.6906964443
 20
5114.6994511357
 30
0.0
 11
6191.8806097768
 21
5114.6994511357
 31
0.0
  0
LINE
  5
197
330
1F
100
AcDbEntity
  8
0
  6
Continuous
 62
     7
100
AcDbLine
 10
6198.8225764893
 20
5123.6994544735
 30
0.0
 11
6198.8225764893
 21
5126.6994605532
 31
0.0
  0
LINE
  5
198
330
1F
100
AcDbEntity
  8
0
  6
Continuous
 62
     7
100
AcDbLine
 10
6206.7197672389
 20
5123.6994544735
 30
0.0
 11
6206.7197672389
 21
5126.6994605532
 31
0.0
  0
LINE
  5
199
330
1F
100
AcDbEntity
  8
0
  6
Continuous
 62
     7
100
AcDbLine
 10
6206.7197672389
 20
5123.6994544735
 30
0.0
 11
6203.691590514
 21
5123.6994544735
 31
0.0
  0
LINE
  5
19A
330
1F
100
AcDbEntity
  8
0
  6
Continuous
 62
     7
100
AcDbLine
 10
6201.8269411586
 20
5123.6994544735
 30
0.0
 11
6198.8225764893
 21
5123.6994544735
 31
0.0
  0
LINE
  5
19B
330
1F
100
AcDbEntity
  8
0
  6
Continuous
 62
     7
100
AcDbLine
 10
6184.9114409946
 20
5123.6994544735
 30
0.0
 11
6184.9114409946
 21
5126.6994605532
 31
0.0
  0
LINE
  5
19C
330
1F
100
AcDbEntity
  8
0
  6
Continuous
 62
     7
100
AcDbLine
 10
6198.8225764893
 20
5123.6994544735
 30
0.0
 11
6184.9114409946
 21
5123.6994544735
 31
0.0
  0
LINE
  5
19D
330
1F
100
AcDbEntity
  8
0
  6
Continuous
 62
     7
100
AcDbLine
 10
6177.2206238769
 20
5123.6994544735
 30
0.0
 11
6177.2206238769
 21
5126.6994605532
 31
0.0
  0
LINE
  5
19E
330
1F
100
AcDbEntity
  8
0
  6
Continuous
 62
     7
100
AcDbLine
 10
6179.2151592038
 20
5123.6994544735
 30
0.0
 11
6177.2206238769
 21
5123.6994544735
 31
0.0
  0
LINE
  5
19F
330
1F
100
AcDbEntity
  8
0
  6
Continuous
 62
     7
100
AcDbLine
 10
6184.9114409946
 20
5123.6994544735
 30
0.0
 11
6182.5402490161
 21
5123.6994544735
 31
0.0
  0
LINE
  5
1A0
330
1F
100
AcDbEntity
  8
0
  6
Continuous
 62
     7
100
AcDbLine
 10
6179.3543509506
 20
5123.6994544735
 30
0.0
 11
6179.2151592038
 21
5123.6994544735
 31
0.0
  0
LINE
  5
1A1
330
1F
100
AcDbEntity
  8
0
  6
Continuous
 62
     7
100
AcDbLine
 10
6182.5402490161
 20
5123.6994544735
 30
0.0
 11
6179.3543509506
 21
5123.6994544735
 31
0.0
  0
LINE
  5
1A2
330
1F
100
AcDbEntity
  8
0
  6
Continuous
 62
     7
100
AcDbLine
 10
6279.4977761172
 20
5123.6994544735
 30
0.0
 11
6279.4977761172
 21
5126.6994605532
 31
0.0
  0
LINE
  5
1A3
330
1F
100
AcDbEntity
  8
0
  6
Continuous
 62
     7
100
AcDbLine
 10
6295.0857765339
 20
5123.6994544735
 30
0.0
 11
6295.0857765339
 21
5126.6994605532
 31
0.0
  0
LINE
  5
1A4
330
1F
100
AcDbEntity
  8
0
  6
Continuous
 62
     7
100
AcDbLine
 10
6295.0857765339
 20
5123.6994544735
 30
0.0
 11
6290.279768344
 21
5123.6994544735
 31
0.0
  0
LINE
  5
1A5
330
1F
100
AcDbEntity
  8
0
  6
Continuous
 62
     7
100
AcDbLine
 10
6283.5403568409
 20
5123.6994544735
 30
0.0
 11
6279.4977761172
 21
5123.6994544735
 31
0.0
  0
LINE
  5
1A6
330
1F
100
AcDbEntity
  8
0
  6
Continuous
 62
     7
100
AcDbLine
 10
6300.1643511765
 20
5116.1994616261
 30
0.0
 11
6300.1906964294
 21
5116.1994616261
 31
0.0
  0
LINE
  5
1A7
330
1F
100
AcDbEntity
  8
0
  6
Continuous
 62
     7
100
AcDbLine
 10
6297.0753572248
 20
5114.6994511357
 30
0.0
 11
6275.2496972047
 21
5114.6994511357
 31
0.0
  0
LINE
  5
1A8
330
1F
100
AcDbEntity
  8
0
  6
Continuous
 62
     7
100
AcDbLine
 10
6298.6906952523
 20
5114.6994511357
 30
0.0
 11
6297.0753572248
 21
5114.6994511357
 31
0.0
  0
LINE
  5
1A9
330
1F
100
AcDbEntity
  8
0
  6
Continuous
 62
     7
100
AcDbLine
 10
6284.0852066241
 20
5123.6994544735
 30
0.0
 11
6283.5403568409
 21
5123.6994544735
 31
0.0
  0
LINE
  5
1AA
330
1F
100
AcDbEntity
  8
0
  6
Continuous
 62
     7
100
AcDbLine
 10
6290.279768344
 20
5123.6994544735
 30
0.0
 11
6284.0852066241
 21
5123.6994544735
 31
0.0
  0
LINE
  5
1AB
330
1F
100
AcDbEntity
  8
0
  6
Continuous
 62
     7
100
AcDbLine
 10
6302.1334306635
 20
5123.6994544735
 30
0.0
 11
6302.1334306635
 21
5126.6994605532
 31
0.0
  0
LINE
  5
1AC
330
1F
100
AcDbEntity
  8
0
  6
Continuous
 62
     7
100
AcDbLine
 10
6302.1334306635
 20
5123.6994544735
 30
0.0
 11
6295.0857765339
 21
5123.6994544735
 31
0.0
  0
LINE
  5
1AD
330
1F
100
AcDbEntity
  8
0
  6
Continuous
 62
     7
100
AcDbLine
 10
6271.8069589995
 20
5123.6994544735
 30
0.0
 11
6271.8069589995
 21
5126.6994605532
 31
0.0
  0
LINE
  5
1AE
330
1F
100
AcDbEntity
  8
0
  6
Continuous
 62
     7
100
AcDbLine
 10
6275.3348908685
 20
5123.6994544735
 30
0.0
 11
6271.8069589995
 21
5123.6994544735
 31
0.0
  0
LINE
  5
1AF
330
1F
100
AcDbEntity
  8
0
  6
Continuous
 62
     7
100
AcDbLine
 10
6279.4977761172
 20
5123.6994544735
 30
0.0
 11
6276.824302908
 21
5123.6994544735
 31
0.0
  0
LINE
  5
1B0
330
1F
100
AcDbEntity
  8
0
  6
Continuous
 62
     7
100
AcDbLine
 10
6244.4701976441
 20
5257.7731217017
 30
0.0
 11
6234.4701922797
 21
5257.7731217017
 31
0.0
  0
LINE
  5
1B1
330
1F
100
AcDbEntity
  8
0
  6
Continuous
 62
     7
100
AcDbLine
 10
6234.8548109425
 20
5258.2596248091
 30
0.0
 11
6244.0855801733
 21
5258.2596248091
 31
0.0
  0
LINE
  5
1B2
330
1F
100
AcDbEntity
  8
0
  6
Continuous
 62
     7
100
AcDbLine
 10
6682.2588987854
 20
5150.6994495859
 30
0.0
 11
6682.7588923481
 21
5150.6994495859
 31
0.0
  0
LINE
  5
1B3
330
1F
100
AcDbEntity
  8
0
  6
Continuous
 62
     7
100
AcDbLine
 10
6682.7588923481
 20
5178.6994541755
 30
0.0
 11
6682.2588987854
 21
5178.6994541755
 31
0.0
  0
LINE
  5
1B4
330
1F
100
AcDbEntity
  8
0
  6
Continuous
 62
     7
100
AcDbLine
 10
6682.7588923481
 20
5150.6994495859
 30
0.0
 11
6684.258895388
 21
5152.1994600763
 31
0.0
  0
LINE
  5
1B5
330
1F
100
AcDbEntity
  8
0
  6
Continuous
 62
     7
100
AcDbLine
 10
6684.258895388
 20
5177.1994511357
 30
0.0
 11
6682.7588923481
 21
5178.6994541755
 31
0.0
  0
LINE
  5
1B6
330
1F
100
AcDbEntity
  8
0
  6
Continuous
 62
     7
100
AcDbLine
 10
6671.5043582228
 20
5175.6449172964
 30
0.0
 11
6671.258898845
 21
5175.3994579187
 31
0.0
  0
LINE
  5
1B7
330
1F
100
AcDbEntity
  8
0
  6
Continuous
 62
     7
100
AcDbLine
 10
6672.1587054637
 20
5153.5748968592
 30
0.0
 11
6672.258893421
 21
5153.7474821081
 31
0.0
  0
LINE
  5
1B8
330
1F
100
AcDbEntity
  8
0
  6
Continuous
 62
     7
100
AcDbLine
 10
6672.258893421
 20
5175.4771302214
 30
0.0
 11
6672.0295645502
 21
5175.0802005401
 31
0.0
  0
LINE
  5
1B9
330
1F
100
AcDbEntity
  8
0
  6
Continuous
 62
     7
100
AcDbLine
 10
6671.2632723359
 20
5154.3713192215
 30
0.0
 11
6671.3629611042
 21
5154.1994492283
 31
0.0
  0
LINE
  5
1BA
330
1F
100
AcDbEntity
  8
0
  6
Continuous
 62
     7
100
AcDbLine
 10
6671.7588924077
 20
5153.4994522801
 30
0.0
 11
6672.1318535713
 21
5153.4994522801
 31
0.0
  0
LINE
  5
1BB
330
1F
100
AcDbEntity
  8
0
  6
Continuous
 62
     7
100
AcDbLine
 10
6671.258898845
 20
5175.0994528403
 30
0.0
 11
6670.7088969854
 21
5175.0994528403
 31
0.0
  0
LINE
  5
1BC
330
1F
100
AcDbEntity
  8
0
  6
Continuous
 62
     7
100
AcDbLine
 10
6669.9588991907
 20
5154.2994509211
 30
0.0
 11
6671.0938014296
 21
5154.2994509211
 31
0.0
  0
LINE
  5
1BD
330
1F
100
AcDbEntity
  8
0
  6
Continuous
 62
     7
100
AcDbLine
 10
6672.0382146743
 20
5175.0875542631
 30
0.0
 11
6671.8549825457
 21
5175.0875542631
 31
0.0
  0
LINE
  5
1BE
330
1F
100
AcDbEntity
  8
0
  6
Continuous
 62
     7
100
AcDbLine
 10
6671.0563026574
 20
5154.4968615046
 30
0.0
 11
6671.2438039688
 21
5154.4968615046
 31
0.0
  0
LINE
  5
1BF
330
1F
100
AcDbEntity
  8
0
  6
Continuous
 62
     7
100
AcDbLine
 10
6695.2588953284
 20
5214.599450933
 30
0.0
 11
6728.058891764
 21
5214.599450933
 31
0.0
  0
LINE
  5
1C0
330
1F
100
AcDbEntity
  8
0
  6
Continuous
 62
     7
100
AcDbLine
 10
6718.2588897851
 20
5254.7994534245
 30
0.0
 11
6695.2588953284
 21
5254.7994534245
 31
0.0
  0
LINE
  5
1C1
330
1F
100
AcDbEntity
  8
0
  6
Continuous
 62
     7
100
AcDbLine
 10
6734.2588924077
 20
5254.7994534245
 30
0.0
 11
6728.192286959
 21
5254.7994534245
 31
0.0
  0
LINE
  5
1C2
330
1F
100
AcDbEntity
  8
0
  6
Continuous
 62
     7
100
AcDbLine
 10
6731.5588914064
 20
5201.9994537106
 30
0.0
 11
6734.2588924077
 21
5201.9994537106
 31
0.0
  0
LINE
  5
1C3
330
1F
100
AcDbEntity
  8
0
  6
Continuous
 62
     7
100
AcDbLine
 10
6728.2588951496
 20
5254.7830174437
 30
0.0
 11
6728.2588951496
 21
5257.7731217017
 31
0.0
  0
LINE
  5
1C4
330
1F
100
AcDbEntity
  8
0
  6
Continuous
 62
     7
100
AcDbLine
 10
6718.2588897851
 20
5257.7731217017
 30
0.0
 11
6718.2588897851
 21
5254.7994534245
 31
0.0
  0
LINE
  5
1C5
330
1F
100
AcDbEntity
  8
0
  6
Continuous
 62
     7
100
AcDbLine
 10
6682.4588947204
 20
5206.1994577518
 30
0.0
 11
6685.058894029
 21
5206.1994577518
 31
0.0
  0
LINE
  5
1C6
330
1F
100
AcDbEntity
  8
0
  6
Continuous
 62
     7
100
AcDbLine
 10
6685.058894029
 20
5263.1994540563
 30
0.0
 11
6682.4588947204
 21
5263.1994540563
 31
0.0
  0
LINE
  5
1C7
330
1F
100
AcDbEntity
  8
0
  6
Continuous
 62
     7
100
AcDbLine
 10
6616.751164591
 20
5311.6276859065
 30
0.0
 11
6615.6793948469
 21
5312.6994537881
 31
0.0
  0
LINE
  5
1C8
330
1F
100
AcDbEntity
  8
0
  6
Continuous
 62
     7
100
AcDbLine
 10
6591.3555638256
 20
5311.8166233173
 30
0.0
 11
6590.7383955493
 21
5311.1994544735
 31
0.0
  0
LINE
  5
1C9
330
1F
100
AcDbEntity
  8
0
  6
Continuous
 62
     7
100
AcDbLine
 10
6592.2383955187
 20
5312.6994537881
 30
0.0
 11
6591.602886838
 21
5312.0639453402
 31
0.0
  0
LINE
  5
1CA
330
1F
100
AcDbEntity
  8
0
  6
Continuous
 62
     7
100
AcDbLine
 10
6617.1793960241
 20
5310.2604037842
 30
0.0
 11
6617.1793960241
 21
5310.6574526748
 31
0.0
  0
LINE
  5
1CB
330
1F
100
AcDbEntity
  8
0
  6
Continuous
 62
     7
100
AcDbLine
 10
6617.1793960241
 20
5308.6729029884
 30
0.0
 11
6617.1793960241
 21
5309.0699537417
 31
0.0
  0
LINE
  5
1CC
330
1F
100
AcDbEntity
  8
0
  6
Continuous
 62
     7
100
AcDbLine
 10
6617.1793960241
 20
5307.0854021927
 30
0.0
 11
6617.1793960241
 21
5307.482452946
 31
0.0
  0
LINE
  5
1CD
330
1F
100
AcDbEntity
  8
0
  6
Continuous
 62
     7
100
AcDbLine
 10
6617.1793960241
 20
5305.4979032597
 30
0.0
 11
6617.1793960241
 21
5305.8949540129
 31
0.0
  0
LINE
  5
1CE
330
1F
100
AcDbEntity
  8
0
  6
Continuous
 62
     7
100
AcDbLine
 10
6617.1793960241
 20
5303.9104024639
 30
0.0
 11
6617.1793960241
 21
5304.3074532172
 31
0.0
  0
LINE
  5
1CF
330
1F
100
AcDbEntity
  8
0
  6
Continuous
 62
     7
100
AcDbLine
 10
6590.7383955493
 20
5305.101090925
 30
0.0
 11
6590.7383955493
 21
5304.704217123
 31
0.0
  0
LINE
  5
1D0
330
1F
100
AcDbEntity
  8
0
  6
Continuous
 62
     7
100
AcDbLine
 10
6590.7383955493
 20
5306.6885917207
 30
0.0
 11
6590.7383955493
 21
5306.2917160561
 31
0.0
  0
LINE
  5
1D1
330
1F
100
AcDbEntity
  8
0
  6
Continuous
 62
     7
100
AcDbLine
 10
6590.7383955493
 20
5308.2760925164
 30
0.0
 11
6590.7383955493
 21
5307.8792168518
 31
0.0
  0
LINE
  5
1D2
330
1F
100
AcDbEntity
  8
0
  6
Continuous
 62
     7
100
AcDbLine
 10
6590.7383955493
 20
5309.8635914495
 30
0.0
 11
6590.7383955493
 21
5309.4667157849
 31
0.0
  0
LINE
  5
1D3
330
1F
100
AcDbEntity
  8
0
  6
Continuous
 62
     7
100
AcDbLine
 10
6590.7383955493
 20
5311.1994544735
 30
0.0
 11
6590.7383955493
 21
5311.0542165806
 31
0.0
  0
LINE
  5
1D4
330
1F
100
AcDbEntity
  8
0
  6
Continuous
 62
     7
100
AcDbLine
 10
6616.821345335
 20
5303.6994541755
 30
0.0
 11
6617.1720516142
 21
5303.9020540884
 31
0.0
  0
LINE
  5
1D5
330
1F
100
AcDbEntity
  8
0
  6
Continuous
 62
     7
100
AcDbLine
 10
6591.605497568
 20
5311.9564930668
 30
0.0
 11
6591.3971412958
 21
5311.8361233493
 31
0.0
  0
LINE
  5
1D6
330
1F
100
AcDbEntity
  8
0
  6
Continuous
 62
     7
100
AcDbLine
 10
6591.5976794642
 20
5310.5588069877
 30
0.0
 11
6591.5976794642
 21
5310.3644753566
 31
0.0
  0
LINE
  5
1D7
330
1F
100
AcDbEntity
  8
0
  6
Continuous
 62
     7
100
AcDbLine
 10
6591.5976794642
 20
5308.9713061919
 30
0.0
 11
6591.5976794642
 21
5308.7769764235
 31
0.0
  0
LINE
  5
1D8
330
1F
100
AcDbEntity
  8
0
  6
Continuous
 62
     7
100
AcDbLine
 10
6591.5976794642
 20
5307.3838072589
 30
0.0
 11
6591.5976794642
 21
5307.1894756278
 31
0.0
  0
LINE
  5
1D9
330
1F
100
AcDbEntity
  8
0
  6
Continuous
 62
     7
100
AcDbLine
 10
6591.5976794642
 20
5305.7963064631
 30
0.0
 11
6591.5976794642
 21
5305.6019766947
 31
0.0
  0
LINE
  5
1DA
330
1F
100
AcDbEntity
  8
0
  6
Continuous
 62
     7
100
AcDbLine
 10
6591.5976794642
 20
5304.2088065987
 30
0.0
 11
6591.5976794642
 21
5304.014475899
 31
0.0
  0
LINE
  5
1DB
330
1F
100
AcDbEntity
  8
0
  6
Continuous
 62
     7
100
AcDbLine
 10
6616.3201112506
 20
5309.5666187575
 30
0.0
 11
6616.3201112506
 21
5309.7598868182
 31
0.0
  0
LINE
  5
1DC
330
1F
100
AcDbEntity
  8
0
  6
Continuous
 62
     7
100
AcDbLine
 10
6616.3201112506
 20
5307.9791179618
 30
0.0
 11
6616.3201112506
 21
5308.1723860225
 31
0.0
  0
LINE
  5
1DD
330
1F
100
AcDbEntity
  8
0
  6
Continuous
 62
     7
100
AcDbLine
 10
6616.3201112506
 20
5306.3916190287
 30
0.0
 11
6616.3201112506
 21
5306.5848852267
 31
0.0
  0
LINE
  5
1DE
330
1F
100
AcDbEntity
  8
0
  6
Continuous
 62
     7
100
AcDbLine
 10
6616.3201112506
 20
5304.8041191643
 30
0.0
 11
6616.3201112506
 21
5304.9973862937
 31
0.0
  0
LINE
  5
1DF
330
1F
100
AcDbEntity
  8
0
  6
Continuous
 62
     7
100
AcDbLine
 10
6616.3201112506
 20
5311.1541195532
 30
0.0
 11
6616.3201112506
 21
5311.3473857513
 31
0.0
  0
LINE
  5
1E0
330
1F
100
AcDbEntity
  8
0
  6
Continuous
 62
     7
100
AcDbLine
 10
6591.5976794642
 20
5312.1463059207
 30
0.0
 11
6591.5976794642
 21
5311.9519761523
 31
0.0
  0
LINE
  5
1E1
330
1F
100
AcDbEntity
  8
0
  6
Continuous
 62
     7
100
AcDbLine
 10
6660.7750602272
 20
5287.992347846
 30
0.0
 11
6659.8805882243
 21
5288.1994545452
 31
0.0
  0
LINE
  5
1E2
330
1F
100
AcDbEntity
  8
0
  6
Continuous
 62
     7
100
AcDbLine
 10
6647.7588959244
 20
5135.29945712
 30
0.0
 11
6647.7588959244
 21
5135.1994554272
 31
0.0
  0
LINE
  5
1E3
330
1F
100
AcDbEntity
  8
0
  6
Continuous
 62
     7
100
AcDbLine
 10
6655.7588972357
 20
5135.1994554272
 30
0.0
 11
6655.7588972357
 21
5135.29945712
 31
0.0
  0
LINE
  5
1E4
330
1F
100
AcDbEntity
  8
0
  6
Continuous
 62
     7
100
AcDbLine
 10
6672.258893421
 20
5233.3877513876
 30
0.0
 11
6672.2358487752
 21
5233.4271463325
 31
0.0
  0
LINE
  5
1E5
330
1F
100
AcDbEntity
  8
0
  6
Continuous
 62
     7
100
AcDbLine
 10
6671.1588955545
 20
5212.2827879256
 30
0.0
 11
6671.1588971523
 21
5220.6994573345
 31
0.0
  0
LINE
  5
1E6
330
1F
100
AcDbEntity
  8
0
  6
Continuous
 62
     7
100
AcDbLine
 10
6669.9588991907
 20
5227.999454247
 30
0.0
 11
6672.258893421
 21
5227.999454247
 31
0.0
  0
LINE
  5
1E7
330
1F
100
AcDbEntity
  8
0
  6
Continuous
 62
     7
100
AcDbLine
 10
6672.258893421
 20
5235.3994528523
 30
0.0
 11
6670.7292147187
 21
5235.3994528523
 31
0.0
  0
LINE
  5
1E8
330
1F
100
AcDbEntity
  8
0
  6
Continuous
 62
     7
100
AcDbLine
 10
6671.6463960913
 20
5206.9814408889
 30
0.0
 11
6671.0507668761
 21
5207.398502039
 31
0.0
  0
LINE
  5
1E9
330
1F
100
AcDbEntity
  8
0
  6
Continuous
 62
     7
100
AcDbLine
 10
6671.0507668761
 20
5205.2417601218
 30
0.0
 11
6671.6463960913
 21
5205.6588287225
 31
0.0
  0
LINE
  5
1EA
330
1F
100
AcDbEntity
  8
0
  6
Continuous
 62
     7
100
AcDbLine
 10
6671.0507668761
 20
5207.8869919052
 30
0.0
 11
6671.6463960913
 21
5208.3040530553
 31
0.0
  0
LINE
  5
1EB
330
1F
100
AcDbEntity
  8
0
  6
Continuous
 62
     7
100
AcDbLine
 10
6671.6463960913
 20
5205.6588287225
 30
0.0
 11
6671.0507668761
 21
5206.0758898726
 31
0.0
  0
LINE
  5
1EC
330
1F
100
AcDbEntity
  8
0
  6
Continuous
 62
     7
100
AcDbLine
 10
6671.6463960913
 20
5208.3040530553
 30
0.0
 11
6671.6463960913
 21
5208.3294520846
 31
0.0
  0
LINE
  5
1ED
330
1F
100
AcDbEntity
  8
0
  6
Continuous
 62
     7
100
AcDbLine
 10
6671.0507668761
 20
5206.5643722882
 30
0.0
 11
6671.6463960913
 21
5206.9814408889
 31
0.0
  0
LINE
  5
1EE
330
1F
100
AcDbEntity
  8
0
  6
Continuous
 62
     7
100
AcDbLine
 10
6671.6463960913
 20
5204.3362091055
 30
0.0
 11
6671.0507668761
 21
5204.7532777062
 31
0.0
  0
LINE
  5
1EF
330
1F
100
AcDbEntity
  8
0
  6
Continuous
 62
     7
100
AcDbLine
 10
6671.6367475894
 20
5204.3294514289
 30
0.0
 11
6671.6463960913
 21
5204.3362091055
 31
0.0
  0
LINE
  5
1F0
330
1F
100
AcDbEntity
  8
0
  6
Continuous
 62
     7
100
AcDbLine
 10
6671.0507668761
 20
5206.0758898726
 30
0.0
 11
6671.0507668761
 21
5206.5643722882
 31
0.0
  0
LINE
  5
1F1
330
1F
100
AcDbEntity
  8
0
  6
Continuous
 62
     7
100
AcDbLine
 10
6671.0507668761
 20
5204.7532777062
 30
0.0
 11
6671.0507668761
 21
5205.2417601218
 31
0.0
  0
LINE
  5
1F2
330
1F
100
AcDbEntity
  8
0
  6
Continuous
 62
     7
100
AcDbLine
 10
6671.0507668761
 20
5207.398502039
 30
0.0
 11
6671.0507668761
 21
5207.8869919052
 31
0.0
  0
LINE
  5
1F3
330
1F
100
AcDbEntity
  8
0
  6
Continuous
 62
     7
100
AcDbLine
 10
6670.9588937667
 20
5245.6781807115
 30
0.0
 11
6670.9588937667
 21
5247.8294539025
 31
0.0
  0
LINE
  5
1F4
330
1F
100
AcDbEntity
  8
0
  6
Continuous
 62
     7
100
AcDbLine
 10
6670.9588937667
 20
5208.3294520846
 30
0.0
 11
6670.9588955545
 21
5212.2827879256
 31
0.0
  0
LINE
  5
1F5
330
1F
100
AcDbEntity
  8
0
  6
Continuous
 62
     7
100
AcDbLine
 10
6670.9588937667
 20
5220.6994573345
 30
0.0
 11
6670.9588937667
 21
5227.999454247
 31
0.0
  0
LINE
  5
1F6
330
1F
100
AcDbEntity
  8
0
  6
Continuous
 62
     7
100
AcDbLine
 10
6670.9588937667
 20
5235.3994528523
 30
0.0
 11
6670.9588937667
 21
5237.2452000847
 31
0.0
  0
LINE
  5
1F7
330
1F
100
AcDbEntity
  8
0
  6
Continuous
 62
     7
100
AcDbLine
 10
6670.9588937667
 20
5244.6717860868
 30
0.0
 11
6670.9626563099
 21
5244.9695932439
 31
0.0
  0
LINE
  5
1F8
330
1F
100
AcDbEntity
  8
0
  6
Continuous
 62
     7
100
AcDbLine
 10
6685.2588974145
 20
5211.4494572153
 30
0.0
 11
6695.2588953284
 21
5211.4494572153
 31
0.0
  0
LINE
  5
1F9
330
1F
100
AcDbEntity
  8
0
  6
Continuous
 62
     7
100
AcDbLine
 10
6695.2588953284
 20
5257.9494545927
 30
0.0
 11
6685.2588974145
 21
5257.9494545927
 31
0.0
  0
LINE
  5
1FA
330
1F
100
AcDbEntity
  8
0
  6
Continuous
 62
     7
100
AcDbLine
 10
6671.7588924077
 20
5224.6994579902
 30
0.0
 11
6670.9588937667
 21
5224.6994579902
 31
0.0
  0
LINE
  5
1FB
330
1F
100
AcDbEntity
  8
0
  6
Continuous
 62
     7
100
AcDbLine
 10
6671.1588971523
 20
5214.6994526258
 30
0.0
 11
6671.7588924077
 21
5214.6994526258
 31
0.0
  0
LINE
  5
1FC
330
1F
100
AcDbEntity
  8
0
  6
Continuous
 62
     7
100
AcDbLine
 10
6671.7588924077
 20
5214.6994526258
 30
0.0
 11
6672.258893421
 21
5215.199453639
 31
0.0
  0
LINE
  5
1FD
330
1F
100
AcDbEntity
  8
0
  6
Continuous
 62
     7
100
AcDbLine
 10
6672.258893421
 20
5224.1994569769
 30
0.0
 11
6671.7588924077
 21
5224.6994579902
 31
0.0
  0
LINE
  5
1FE
330
1F
100
AcDbEntity
  8
0
  6
Continuous
 62
     7
100
AcDbLine
 10
6618.008895239
 20
5266.6994536987
 30
0.0
 11
6618.008895239
 21
5264.5953799358
 31
0.0
  0
LINE
  5
1FF
330
1F
100
AcDbEntity
  8
0
  6
Continuous
 62
     7
100
AcDbLine
 10
6593.458895499
 20
5288.1994545452
 30
0.0
 11
6593.458895499
 21
5287.492347764
 31
0.0
  0
LINE
  5
200
330
1F
100
AcDbEntity
  8
0
  6
Continuous
 62
     7
100
AcDbLine
 10
6614.4588947502
 20
5287.492347764
 30
0.0
 11
6614.4588947502
 21
5288.1994545452
 31
0.0
  0
LINE
  5
201
330
1F
100
AcDbEntity
  8
0
  6
Continuous
 62
     7
100
AcDbLine
 10
6670.7088969854
 20
5173.9294509163
 30
0.0
 11
6670.7088969854
 21
5180.8794568052
 31
0.0
  0
LINE
  5
202
330
1F
100
AcDbEntity
  8
0
  6
Continuous
 62
     7
100
AcDbLine
 10
6591.3368937765
 20
5115.6009564867
 30
0.0
 11
6592.2383955187
 21
5114.6994511357
 31
0.0
  0
LINE
  5
203
330
1F
100
AcDbEntity
  8
0
  6
Continuous
 62
     7
100
AcDbLine
 10
6615.6790539828
 20
5114.6994511357
 30
0.0
 11
6617.0935820994
 21
5116.1136458388
 31
0.0
  0
LINE
  5
204
330
1F
100
AcDbEntity
  8
0
  6
Continuous
 62
     7
100
AcDbLine
 10
6591.6045749766
 20
5115.7929728499
 30
0.0
 11
6591.3388469928
 21
5115.6394759884
 31
0.0
  0
LINE
  5
205
330
1F
100
AcDbEntity
  8
0
  6
Continuous
 62
     7
100
AcDbLine
 10
6590.7383955493
 20
5116.8762127628
 30
0.0
 11
6590.7383955493
 21
5116.4794991484
 31
0.0
  0
LINE
  5
206
330
1F
100
AcDbEntity
  8
0
  6
Continuous
 62
     7
100
AcDbLine
 10
6590.7383955493
 20
5118.4637079706
 30
0.0
 11
6590.7383955493
 21
5118.0669943562
 31
0.0
  0
LINE
  5
207
330
1F
100
AcDbEntity
  8
0
  6
Continuous
 62
     7
100
AcDbLine
 10
6590.7383955493
 20
5120.0512031784
 30
0.0
 11
6590.7383955493
 21
5119.6545044651
 31
0.0
  0
LINE
  5
208
330
1F
100
AcDbEntity
  8
0
  6
Continuous
 62
     7
100
AcDbLine
 10
6590.7383955493
 20
5121.6387132874
 30
0.0
 11
6590.7383955493
 21
5121.2419996729
 31
0.0
  0
LINE
  5
209
330
1F
100
AcDbEntity
  8
0
  6
Continuous
 62
     7
100
AcDbLine
 10
6590.7383955493
 20
5123.2262084952
 30
0.0
 11
6590.7383955493
 21
5122.8294948807
 31
0.0
  0
LINE
  5
20A
330
1F
100
AcDbEntity
  8
0
  6
Continuous
 62
     7
100
AcDbLine
 10
6617.1793960241
 20
5122.0355759134
 30
0.0
 11
6617.1793960241
 21
5122.4327216616
 31
0.0
  0
LINE
  5
20B
330
1F
100
AcDbEntity
  8
0
  6
Continuous
 62
     7
100
AcDbLine
 10
6617.1793960241
 20
5120.4480807057
 30
0.0
 11
6617.1793960241
 21
5120.8452264538
 31
0.0
  0
LINE
  5
20C
330
1F
100
AcDbEntity
  8
0
  6
Continuous
 62
     7
100
AcDbLine
 10
6617.1793960241
 20
5118.8605705967
 30
0.0
 11
6617.1793960241
 21
5119.2577163448
 31
0.0
  0
LINE
  5
20D
330
1F
100
AcDbEntity
  8
0
  6
Continuous
 62
     7
100
AcDbLine
 10
6617.1793960241
 20
5117.2730753889
 30
0.0
 11
6617.1793960241
 21
5117.6702211371
 31
0.0
  0
LINE
  5
20E
330
1F
100
AcDbEntity
  8
0
  6
Continuous
 62
     7
100
AcDbLine
 10
6616.320109388
 20
5118.1656400433
 30
0.0
 11
6616.320109388
 21
5118.3605025282
 31
0.0
  0
LINE
  5
20F
330
1F
100
AcDbEntity
  8
0
  6
Continuous
 62
     7
100
AcDbLine
 10
6616.320109388
 20
5119.7531352511
 30
0.0
 11
6616.320109388
 21
5119.947997736
 31
0.0
  0
LINE
  5
210
330
1F
100
AcDbEntity
  8
0
  6
Continuous
 62
     7
100
AcDbLine
 10
6616.320109388
 20
5121.3406304588
 30
0.0
 11
6616.320109388
 21
5121.5355078449
 31
0.0
  0
LINE
  5
211
330
1F
100
AcDbEntity
  8
0
  6
Continuous
 62
     7
100
AcDbLine
 10
6616.320109388
 20
5122.9281405678
 30
0.0
 11
6616.320109388
 21
5123.1230030527
 31
0.0
  0
LINE
  5
212
330
1F
100
AcDbEntity
  8
0
  6
Continuous
 62
     7
100
AcDbLine
 10
6591.5976551917
 20
5117.5707856884
 30
0.0
 11
6591.5976551917
 21
5117.3764745464
 31
0.0
  0
LINE
  5
213
330
1F
100
AcDbEntity
  8
0
  6
Continuous
 62
     7
100
AcDbLine
 10
6591.5976551917
 20
5119.1582957974
 30
0.0
 11
6591.5976551917
 21
5118.9639846554
 31
0.0
  0
LINE
  5
214
330
1F
100
AcDbEntity
  8
0
  6
Continuous
 62
     7
100
AcDbLine
 10
6591.5976551917
 20
5120.7457910051
 30
0.0
 11
6591.5976551917
 21
5120.5514798632
 31
0.0
  0
LINE
  5
215
330
1F
100
AcDbEntity
  8
0
  6
Continuous
 62
     7
100
AcDbLine
 10
6591.5976551917
 20
5122.3332862129
 30
0.0
 11
6591.5976551917
 21
5122.138975071
 31
0.0
  0
LINE
  5
216
330
1F
100
AcDbEntity
  8
0
  6
Continuous
 62
     7
100
AcDbLine
 10
6591.5976551917
 20
5115.9832904806
 30
0.0
 11
6591.5976551917
 21
5115.7889793387
 31
0.0
  0
LINE
  5
217
330
1F
100
AcDbEntity
  8
0
  6
Continuous
 62
     7
100
AcDbLine
 10
6616.320109388
 20
5116.5781299343
 30
0.0
 11
6616.320109388
 21
5116.7730073204
 31
0.0
  0
LINE
  5
218
330
1F
100
AcDbEntity
  8
0
  6
Continuous
 62
     7
100
AcDbLine
 10
6590.7383955493
 20
5116.4794991484
 30
0.0
 11
6590.7383955493
 21
5116.1994616261
 31
0.0
  0
LINE
  5
219
330
1F
100
AcDbEntity
  8
0
  6
Continuous
 62
     7
100
AcDbLine
 10
6590.7383955493
 20
5118.0669943562
 30
0.0
 11
6590.7383955493
 21
5117.8031692972
 31
0.0
  0
LINE
  5
21A
330
1F
100
AcDbEntity
  8
0
  6
Continuous
 62
     7
100
AcDbLine
 10
6590.7383955493
 20
5119.6545044651
 30
0.0
 11
6590.7383955493
 21
5119.390664505
 31
0.0
  0
LINE
  5
21B
330
1F
100
AcDbEntity
  8
0
  6
Continuous
 62
     7
100
AcDbLine
 10
6590.7383955493
 20
5121.2419996729
 30
0.0
 11
6590.7383955493
 21
5120.9781597128
 31
0.0
  0
LINE
  5
21C
330
1F
100
AcDbEntity
  8
0
  6
Continuous
 62
     7
100
AcDbLine
 10
6590.7383955493
 20
5122.8294948807
 30
0.0
 11
6590.7383955493
 21
5122.5656549206
 31
0.0
  0
LINE
  5
21D
330
1F
100
AcDbEntity
  8
0
  6
Continuous
 62
     7
100
AcDbLine
 10
6617.1793960241
 20
5123.3594695797
 30
0.0
 11
6617.1793960241
 21
5123.6994544735
 31
0.0
  0
LINE
  5
21E
330
1F
100
AcDbEntity
  8
0
  6
Continuous
 62
     7
100
AcDbLine
 10
6617.1793960241
 20
5121.7719743719
 30
0.0
 11
6617.1793960241
 21
5122.0355759134
 31
0.0
  0
LINE
  5
21F
330
1F
100
AcDbEntity
  8
0
  6
Continuous
 62
     7
100
AcDbLine
 10
6617.1793960241
 20
5120.184464263
 30
0.0
 11
6617.1793960241
 21
5120.4480807057
 31
0.0
  0
LINE
  5
220
330
1F
100
AcDbEntity
  8
0
  6
Continuous
 62
     7
100
AcDbLine
 10
6617.1793960241
 20
5118.5969690552
 30
0.0
 11
6617.1793960241
 21
5118.8605705967
 31
0.0
  0
LINE
  5
221
330
1F
100
AcDbEntity
  8
0
  6
Continuous
 62
     7
100
AcDbLine
 10
6617.1793960241
 20
5117.0094738474
 30
0.0
 11
6617.1793960241
 21
5117.2730753889
 31
0.0
  0
LINE
  5
222
330
1F
100
AcDbEntity
  8
0
  6
Continuous
 62
     7
100
AcDbLine
 10
6662.3588972
 20
5135.4065666666
 30
0.0
 11
6662.3588972
 21
5135.1994554272
 31
0.0
  0
LINE
  5
223
330
1F
100
AcDbEntity
  8
0
  6
Continuous
 62
     7
100
AcDbLine
 10
6665.5588992146
 20
5135.1994554272
 30
0.0
 11
6665.5588992146
 21
5135.4065666666
 31
0.0
  0
LINE
  5
224
330
1F
100
AcDbEntity
  8
0
  6
Continuous
 62
     7
100
AcDbLine
 10
6665.5588992146
 20
5287.992347846
 30
0.0
 11
6665.5588992146
 21
5288.1994545452
 31
0.0
  0
LINE
  5
225
330
1F
100
AcDbEntity
  8
0
  6
Continuous
 62
     7
100
AcDbLine
 10
6662.3588972
 20
5288.1994545452
 30
0.0
 11
6662.3588972
 21
5287.992347846
 31
0.0
  0
LINE
  5
226
330
1F
100
AcDbEntity
  8
0
  6
Continuous
 62
     7
100
AcDbLine
 10
6672.258893421
 20
5282.1994543767
 30
0.0
 11
6671.7588924077
 21
5281.6994547604
 31
0.0
  0
LINE
  5
227
330
1F
100
AcDbEntity
  8
0
  6
Continuous
 62
     7
100
AcDbLine
 10
6671.7588924077
 20
5274.69945501
 30
0.0
 11
6672.258893421
 21
5274.199454928
 31
0.0
  0
LINE
  5
228
330
1F
100
AcDbEntity
  8
0
  6
Continuous
 62
     7
100
AcDbLine
 10
6672.258893421
 20
5149.1994539967
 30
0.0
 11
6671.7588924077
 21
5148.699460434
 31
0.0
  0
LINE
  5
229
330
1F
100
AcDbEntity
  8
0
  6
Continuous
 62
     7
100
AcDbLine
 10
6671.7588924077
 20
5141.6994611492
 30
0.0
 11
6672.258893421
 21
5141.1994526854
 31
0.0
  0
LINE
  5
22A
330
1F
100
AcDbEntity
  8
0
  6
Continuous
 62
     7
100
AcDbLine
 10
6672.258893421
 20
5148.9994506111
 30
0.0
 11
6671.9588957933
 21
5148.699460434
 31
0.0
  0
LINE
  5
22B
330
1F
100
AcDbEntity
  8
0
  6
Continuous
 62
     7
100
AcDbLine
 10
6671.9588957933
 20
5141.6994611492
 30
0.0
 11
6672.258893421
 21
5141.3994560709
 31
0.0
  0
LINE
  5
22C
330
1F
100
AcDbEntity
  8
0
  6
Continuous
 62
     7
100
AcDbLine
 10
6671.9588957933
 20
5148.699460434
 30
0.0
 11
6671.7588924077
 21
5148.699460434
 31
0.0
  0
LINE
  5
22D
330
1F
100
AcDbEntity
  8
0
  6
Continuous
 62
     7
100
AcDbLine
 10
6671.7588924077
 20
5141.6994611492
 30
0.0
 11
6671.9588957933
 21
5141.6994611492
 31
0.0
  0
LINE
  5
22E
330
1F
100
AcDbEntity
  8
0
  6
Continuous
 62
     7
100
AcDbLine
 10
6682.7588923481
 20
5150.6994495859
 30
0.0
 11
6682.7588923481
 21
5178.6994541755
 31
0.0
  0
LINE
  5
22F
330
1F
100
AcDbEntity
  8
0
  6
Continuous
 62
     7
100
AcDbLine
 10
6684.258895388
 20
5177.1994511357
 30
0.0
 11
6684.258895388
 21
5152.1994600763
 31
0.0
  0
LINE
  5
230
330
1F
100
AcDbEntity
  8
0
  6
Continuous
 62
     7
100
AcDbLine
 10
6671.258898845
 20
5157.8815112581
 30
0.0
 11
6671.258898845
 21
5175.3994579187
 31
0.0
  0
LINE
  5
231
330
1F
100
AcDbEntity
  8
0
  6
Continuous
 62
     7
100
AcDbLine
 10
6671.7588924077
 20
5164.6021063199
 30
0.0
 11
6671.7588924077
 21
5154.1994492283
 31
0.0
  0
LINE
  5
232
330
1F
100
AcDbEntity
  8
0
  6
Continuous
 62
     7
100
AcDbLine
 10
6671.0729547051
 20
5158.5136036148
 30
0.0
 11
6670.8717145232
 21
5158.5136036148
 31
0.0
  0
LINE
  5
233
330
1F
100
AcDbEntity
  8
0
  6
Continuous
 62
     7
100
AcDbLine
 10
6672.2588987854
 20
5136.6994605532
 30
0.0
 11
6672.258893421
 21
5126.6994605532
 31
0.0
  0
LINE
  5
234
330
1F
100
AcDbEntity
  8
0
  6
Continuous
 62
     7
100
AcDbLine
 10
6672.2588987854
 20
5136.6994605532
 30
0.0
 11
6682.2588987854
 21
5136.6994510164
 31
0.0
  0
LINE
  5
235
330
1F
100
AcDbEntity
  8
0
  6
Continuous
 62
     7
100
AcDbLine
 10
6672.2588987854
 20
5286.6994544251
 30
0.0
 11
6682.2588987854
 21
5286.6994546486
 31
0.0
  0
LINE
  5
236
330
1F
100
AcDbEntity
  8
0
  6
Continuous
 62
     7
100
AcDbLine
 10
6682.2588987854
 20
5286.6994546486
 30
0.0
 11
6682.2588987854
 21
5136.6994510164
 31
0.0
  0
LINE
  5
237
330
1F
100
AcDbEntity
  8
0
  6
Continuous
 62
     7
100
AcDbLine
 10
6672.2588987854
 20
5286.6994544251
 30
0.0
 11
6672.2588987854
 21
5136.6994605532
 31
0.0
  0
LINE
  5
238
330
1F
100
AcDbEntity
  8
0
  6
Continuous
 62
     7
100
AcDbLine
 10
6672.258893421
 20
5296.6994544251
 30
0.0
 11
6672.2588987854
 21
5286.6994544251
 31
0.0
  0
LINE
  5
239
330
1F
100
AcDbEntity
  8
0
  6
Continuous
 62
     7
100
AcDbLine
 10
6616.984807348
 20
5152.6838074198
 30
0.0
 11
6616.8115534094
 21
5152.6806483736
 31
0.0
  0
LINE
  5
23A
330
1F
100
AcDbEntity
  8
0
  6
Continuous
 62
     7
100
AcDbLine
 10
6616.8115534094
 20
5152.6806483736
 30
0.0
 11
6616.2159614471
 21
5152.7886221876
 31
0.0
  0
LINE
  5
23B
330
1F
100
AcDbEntity
  8
0
  6
Continuous
 62
     7
100
AcDbLine
 10
6731.5588914064
 20
5217.2014171949
 30
0.0
 11
6731.5588914064
 21
5212.6774172058
 31
0.0
  0
LINE
  5
23C
330
1F
100
AcDbEntity
  8
0
  6
Continuous
 62
     7
100
AcDbLine
 10
6728.058891764
 20
5228.9079296162
 30
0.0
 11
6734.2588924077
 21
5228.9079296162
 31
0.0
  0
LINE
  5
23D
330
1F
100
AcDbEntity
  8
0
  6
Continuous
 62
     7
100
AcDbLine
 10
6734.2588924077
 20
5212.6774172058
 30
0.0
 11
6734.2588924077
 21
5228.9079296162
 31
0.0
  0
LINE
  5
23E
330
1F
100
AcDbEntity
  8
0
  6
Continuous
 62
     7
100
AcDbLine
 10
6731.5588914064
 20
5212.6774172058
 30
0.0
 11
6734.2588924077
 21
5212.6774172058
 31
0.0
  0
LINE
  5
23F
330
1F
100
AcDbEntity
  8
0
  6
Continuous
 62
     7
100
AcDbLine
 10
6731.0588978437
 20
5217.3454890719
 30
0.0
 11
6731.0685090927
 21
5217.3173854818
 31
0.0
  0
LINE
  5
240
330
1F
100
AcDbEntity
  8
0
  6
Continuous
 62
     7
100
AcDbLine
 10
6731.0685090927
 20
5217.3173854818
 30
0.0
 11
6731.0969554094
 21
5217.2903547754
 31
0.0
  0
LINE
  5
241
330
1F
100
AcDbEntity
  8
0
  6
Continuous
 62
     7
100
AcDbLine
 10
6731.0969554094
 20
5217.2903547754
 30
0.0
 11
6731.1431639102
 21
5217.2654474845
 31
0.0
  0
LINE
  5
242
330
1F
100
AcDbEntity
  8
0
  6
Continuous
 62
     7
100
AcDbLine
 10
6731.1431639102
 20
5217.2654474845
 30
0.0
 11
6731.2053464559
 21
5217.2436172834
 31
0.0
  0
LINE
  5
243
330
1F
100
AcDbEntity
  8
0
  6
Continuous
 62
     7
100
AcDbLine
 10
6731.2053464559
 20
5217.2436172834
 30
0.0
 11
6731.2811039594
 21
5217.225698637
 31
0.0
  0
LINE
  5
244
330
1F
100
AcDbEntity
  8
0
  6
Continuous
 62
     7
100
AcDbLine
 10
6731.2811039594
 20
5217.225698637
 30
0.0
 11
6731.3675604967
 21
5217.2123844495
 31
0.0
  0
LINE
  5
245
330
1F
100
AcDbEntity
  8
0
  6
Continuous
 62
     7
100
AcDbLine
 10
6731.3675604967
 20
5217.2123844495
 30
0.0
 11
6731.4613484052
 21
5217.2041888108
 31
0.0
  0
LINE
  5
246
330
1F
100
AcDbEntity
  8
0
  6
Continuous
 62
     7
100
AcDbLine
 10
6731.4613484052
 20
5217.2041888108
 30
0.0
 11
6731.5588914064
 21
5217.2014171949
 31
0.0
  0
LINE
  5
247
330
1F
100
AcDbEntity
  8
0
  6
Continuous
 62
     7
100
AcDbLine
 10
6736.2588964609
 20
5252.7994530966
 30
0.0
 11
6736.2588964609
 21
5229.4841984978
 31
0.0
  0
LINE
  5
248
330
1F
100
AcDbEntity
  8
0
  6
Continuous
 62
     7
100
AcDbLine
 10
6734.2588924077
 20
5228.9079296162
 30
0.0
 11
6734.6490793136
 21
5228.919001179
 31
0.0
  0
LINE
  5
249
330
1F
100
AcDbEntity
  8
0
  6
Continuous
 62
     7
100
AcDbLine
 10
6734.6490793136
 20
5228.919001179
 30
0.0
 11
6735.0242607501
 21
5228.9517949095
 31
0.0
  0
LINE
  5
24A
330
1F
100
AcDbEntity
  8
0
  6
Continuous
 62
     7
100
AcDbLine
 10
6735.0242607501
 20
5228.9517949095
 30
0.0
 11
6735.3700421956
 21
5229.0050479343
 31
0.0
  0
LINE
  5
24B
330
1F
100
AcDbEntity
  8
0
  6
Continuous
 62
     7
100
AcDbLine
 10
6735.3700421956
 20
5229.0050479343
 30
0.0
 11
6735.673102012
 21
5229.0767150691
 31
0.0
  0
LINE
  5
24C
330
1F
100
AcDbEntity
  8
0
  6
Continuous
 62
     7
100
AcDbLine
 10
6735.673102012
 20
5229.0767150691
 30
0.0
 11
6735.9218321947
 21
5229.164039599
 31
0.0
  0
LINE
  5
24D
330
1F
100
AcDbEntity
  8
0
  6
Continuous
 62
     7
100
AcDbLine
 10
6735.9218321947
 20
5229.164039599
 30
0.0
 11
6736.1066512969
 21
5229.263672488
 31
0.0
  0
LINE
  5
24E
330
1F
100
AcDbEntity
  8
0
  6
Continuous
 62
     7
100
AcDbLine
 10
6736.1066512969
 20
5229.263672488
 30
0.0
 11
6736.2204663661
 21
5229.3717766872
 31
0.0
  0
LINE
  5
24F
330
1F
100
AcDbEntity
  8
0
  6
Continuous
 62
     7
100
AcDbLine
 10
6736.2204663661
 20
5229.3717766872
 30
0.0
 11
6736.2588964609
 21
5229.4841984978
 31
0.0
  0
LINE
  5
250
330
1F
100
AcDbEntity
  8
0
  6
Continuous
 62
     7
100
AcDbLine
 10
6736.2588964609
 20
5229.4841984978
 30
0.0
 11
6736.2588964609
 21
5213.2536898127
 31
0.0
  0
LINE
  5
251
330
1F
100
AcDbEntity
  8
0
  6
Continuous
 62
     7
100
AcDbLine
 10
6736.2588964609
 20
5213.2536898127
 30
0.0
 11
6736.2204663661
 21
5213.141268002
 31
0.0
  0
LINE
  5
252
330
1F
100
AcDbEntity
  8
0
  6
Continuous
 62
     7
100
AcDbLine
 10
6736.2204663661
 20
5213.141268002
 30
0.0
 11
6736.1066512969
 21
5213.0331600776
 31
0.0
  0
LINE
  5
253
330
1F
100
AcDbEntity
  8
0
  6
Continuous
 62
     7
100
AcDbLine
 10
6736.1066512969
 20
5213.0331600776
 30
0.0
 11
6735.9218321947
 21
5212.9335309138
 31
0.0
  0
LINE
  5
254
330
1F
100
AcDbEntity
  8
0
  6
Continuous
 62
     7
100
AcDbLine
 10
6735.9218321947
 20
5212.9335309138
 30
0.0
 11
6735.673102012
 21
5212.8462101092
 31
0.0
  0
LINE
  5
255
330
1F
100
AcDbEntity
  8
0
  6
Continuous
 62
     7
100
AcDbLine
 10
6735.673102012
 20
5212.8462101092
 30
0.0
 11
6735.3700421956
 21
5212.7745429745
 31
0.0
  0
LINE
  5
256
330
1F
100
AcDbEntity
  8
0
  6
Continuous
 62
     7
100
AcDbLine
 10
6735.3700421956
 20
5212.7745429745
 30
0.0
 11
6735.0242607501
 21
5212.7212862244
 31
0.0
  0
LINE
  5
257
330
1F
100
AcDbEntity
  8
0
  6
Continuous
 62
     7
100
AcDbLine
 10
6735.0242607501
 20
5212.7212862244
 30
0.0
 11
6734.6490793136
 21
5212.6884962192
 31
0.0
  0
LINE
  5
258
330
1F
100
AcDbEntity
  8
0
  6
Continuous
 62
     7
100
AcDbLine
 10
6734.6490793136
 20
5212.6884962192
 30
0.0
 11
6734.2588924077
 21
5212.6774172058
 31
0.0
  0
LINE
  5
259
330
1F
100
AcDbEntity
  8
0
  6
Continuous
 62
     7
100
AcDbLine
 10
6731.0588978437
 20
5212.8214890828
 30
0.0
 11
6731.0588978437
 21
5217.3454890719
 31
0.0
  0
LINE
  5
25A
330
1F
100
AcDbEntity
  8
0
  6
Continuous
 62
     7
100
AcDbLine
 10
6731.0588978437
 20
5212.8214890828
 30
0.0
 11
6731.0685090927
 21
5212.7933854928
 31
0.0
  0
LINE
  5
25B
330
1F
100
AcDbEntity
  8
0
  6
Continuous
 62
     7
100
AcDbLine
 10
6731.0685090927
 20
5212.7933854928
 30
0.0
 11
6731.0969554094
 21
5212.7663547864
 31
0.0
  0
LINE
  5
25C
330
1F
100
AcDbEntity
  8
0
  6
Continuous
 62
     7
100
AcDbLine
 10
6731.0969554094
 20
5212.7663547864
 30
0.0
 11
6731.1431639102
 21
5212.7414474955
 31
0.0
  0
LINE
  5
25D
330
1F
100
AcDbEntity
  8
0
  6
Continuous
 62
     7
100
AcDbLine
 10
6731.1431639102
 20
5212.7414474955
 30
0.0
 11
6731.2053464559
 21
5212.7196172943
 31
0.0
  0
LINE
  5
25E
330
1F
100
AcDbEntity
  8
0
  6
Continuous
 62
     7
100
AcDbLine
 10
6731.2053464559
 20
5212.7196172943
 30
0.0
 11
6731.2811039594
 21
5212.701698648
 31
0.0
  0
LINE
  5
25F
330
1F
100
AcDbEntity
  8
0
  6
Continuous
 62
     7
100
AcDbLine
 10
6731.2811039594
 20
5212.701698648
 30
0.0
 11
6731.3675604967
 21
5212.6883844605
 31
0.0
  0
LINE
  5
260
330
1F
100
AcDbEntity
  8
0
  6
Continuous
 62
     7
100
AcDbLine
 10
6731.3675604967
 20
5212.6883844605
 30
0.0
 11
6731.4613484052
 21
5212.6801888218
 31
0.0
  0
LINE
  5
261
330
1F
100
AcDbEntity
  8
0
  6
Continuous
 62
     7
100
AcDbLine
 10
6731.4613484052
 20
5212.6801888218
 30
0.0
 11
6731.5588914064
 21
5212.6774172058
 31
0.0
  0
LINE
  5
262
330
1F
100
AcDbEntity
  8
0
  6
Continuous
 62
     7
100
AcDbLine
 10
6731.0588978437
 20
5202.4994547239
 30
0.0
 11
6731.0588978437
 21
5212.8214890828
 31
0.0
  0
LINE
  5
263
330
1F
100
AcDbEntity
  8
0
  6
Continuous
 62
     7
100
AcDbLine
 10
6736.2588964609
 20
5213.2536898127
 30
0.0
 11
6736.2588964609
 21
5203.9994577637
 31
0.0
  0
LINE
  5
264
330
1F
100
AcDbEntity
  8
0
  6
Continuous
 62
     7
100
AcDbLine
 10
6685.2588974145
 20
5206.3994536867
 30
0.0
 11
6685.2588974145
 21
5262.999454396
 31
0.0
  0
LINE
  5
265
330
1F
100
AcDbEntity
  8
0
  6
Continuous
 62
     7
100
AcDbLine
 10
6603.9588958231
 20
5303.6994541755
 30
0.0
 11
6617.4588952419
 21
5303.6994541755
 31
0.0
  0
LINE
  5
266
330
1F
100
AcDbEntity
  8
0
  6
Continuous
 62
     7
100
AcDbLine
 10
6617.4588952419
 20
5303.6994541755
 30
0.0
 11
6617.4588952419
 21
5293.1994547827
 31
0.0
  0
LINE
  5
267
330
1F
100
AcDbEntity
  8
0
  6
Continuous
 62
     7
100
AcDbLine
 10
6603.9588958231
 20
5293.1994547827
 30
0.0
 11
6617.4588952419
 21
5293.1994547827
 31
0.0
  0
LINE
  5
268
330
1F
100
AcDbEntity
  8
0
  6
Continuous
 62
     7
100
AcDbLine
 10
6603.9588958231
 20
5303.6994541755
 30
0.0
 11
6603.9588958231
 21
5293.1994547827
 31
0.0
  0
LINE
  5
269
330
1F
100
AcDbEntity
  8
0
  6
Continuous
 62
     7
100
AcDbLine
 10
6592.8938935251
 20
5311.1994544735
 30
0.0
 11
6590.7383955493
 21
5311.1994544735
 31
0.0
  0
LINE
  5
26A
330
1F
100
AcDbEntity
  8
0
  6
Continuous
 62
     7
100
AcDbLine
 10
6598.0986453799
 20
5312.6994537881
 30
0.0
 11
6615.6793948469
 21
5312.6994537881
 31
0.0
  0
LINE
  5
26B
330
1F
100
AcDbEntity
  8
0
  6
Continuous
 62
     7
100
AcDbLine
 10
6592.2383955187
 20
5312.6994537881
 30
0.0
 11
6598.0986453799
 21
5312.6994537881
 31
0.0
  0
LINE
  5
26C
330
1F
100
AcDbEntity
  8
0
  6
Continuous
 62
     7
100
AcDbLine
 10
6590.4588955311
 20
5303.6994541755
 30
0.0
 11
6590.4588955311
 21
5293.1994547827
 31
0.0
  0
LINE
  5
26D
330
1F
100
AcDbEntity
  8
0
  6
Continuous
 62
     7
100
AcDbLine
 10
6590.4588955311
 20
5303.6994541755
 30
0.0
 11
6603.9588958231
 21
5303.6994541755
 31
0.0
  0
LINE
  5
26E
330
1F
100
AcDbEntity
  8
0
  6
Continuous
 62
     7
100
AcDbLine
 10
6590.4588955311
 20
5293.1994547827
 30
0.0
 11
6603.9588958231
 21
5293.1994547827
 31
0.0
  0
LINE
  5
26F
330
1F
100
AcDbEntity
  8
0
  6
Continuous
 62
     7
100
AcDbLine
 10
6655.7588972357
 20
5135.29945712
 30
0.0
 11
6647.7588959244
 21
5135.29945712
 31
0.0
  0
LINE
  5
270
330
1F
100
AcDbEntity
  8
0
  6
Continuous
 62
     7
100
AcDbLine
 10
6669.9588991907
 20
5260.3294550201
 30
0.0
 11
6672.258893421
 21
5260.3294550201
 31
0.0
  0
LINE
  5
271
330
1F
100
AcDbEntity
  8
0
  6
Continuous
 62
     7
100
AcDbLine
 10
6669.9588991907
 20
5247.8294539025
 30
0.0
 11
6672.258893421
 21
5247.8294539025
 31
0.0
  0
LINE
  5
272
330
1F
100
AcDbEntity
  8
0
  6
Continuous
 62
     7
100
AcDbLine
 10
6671.1588955545
 20
5212.2827879256
 30
0.0
 11
6670.9588955545
 21
5212.2827879256
 31
0.0
  0
LINE
  5
273
330
1F
100
AcDbEntity
  8
0
  6
Continuous
 62
     7
100
AcDbLine
 10
6670.9588937667
 20
5215.282788383
 30
0.0
 11
6670.9588955545
 21
5215.2221756169
 31
0.0
  0
LINE
  5
274
330
1F
100
AcDbEntity
  8
0
  6
Continuous
 62
     7
100
AcDbLine
 10
6670.7445191942
 20
5215.2827879256
 30
0.0
 11
6670.9588937667
 21
5215.282788383
 31
0.0
  0
LINE
  5
275
330
1F
100
AcDbEntity
  8
0
  6
Continuous
 62
     7
100
AcDbLine
 10
6671.1588971523
 20
5220.6994573345
 30
0.0
 11
6671.0532811628
 21
5220.6994545922
 31
0.0
  0
LINE
  5
276
330
1F
100
AcDbEntity
  8
0
  6
Continuous
 62
     7
100
AcDbLine
 10
6671.0532811628
 20
5220.6994545922
 30
0.0
 11
6670.8503239806
 21
5220.6994545922
 31
0.0
  0
LINE
  5
277
330
1F
100
AcDbEntity
  8
0
  6
Continuous
 62
     7
100
AcDbLine
 10
6670.4588927534
 20
5237.5612313619
 30
0.0
 11
6670.5561079291
 21
5237.5059108009
 31
0.0
  0
LINE
  5
278
330
1F
100
AcDbEntity
  8
0
  6
Continuous
 62
     7
100
AcDbLine
 10
6670.5561079291
 20
5237.5059108009
 30
0.0
 11
6670.6483908203
 21
5237.4423871508
 31
0.0
  0
LINE
  5
279
330
1F
100
AcDbEntity
  8
0
  6
Continuous
 62
     7
100
AcDbLine
 10
6670.6483908203
 20
5237.4423871508
 30
0.0
 11
6670.7310773638
 21
5237.3738865128
 31
0.0
  0
LINE
  5
27A
330
1F
100
AcDbEntity
  8
0
  6
Continuous
 62
     7
100
AcDbLine
 10
6670.7310773638
 20
5237.3738865128
 30
0.0
 11
6670.799965432
 21
5237.3038771322
 31
0.0
  0
LINE
  5
27B
330
1F
100
AcDbEntity
  8
0
  6
Continuous
 62
     7
100
AcDbLine
 10
6670.799965432
 20
5237.3038771322
 30
0.0
 11
6670.8515681532
 21
5237.2359054854
 31
0.0
  0
LINE
  5
27C
330
1F
100
AcDbEntity
  8
0
  6
Continuous
 62
     7
100
AcDbLine
 10
6670.8515681532
 20
5237.2359054854
 30
0.0
 11
6670.8832703737
 21
5237.1734211912
 31
0.0
  0
LINE
  5
27D
330
1F
100
AcDbEntity
  8
0
  6
Continuous
 62
     7
100
AcDbLine
 10
6670.8832703737
 20
5237.1734211912
 30
0.0
 11
6670.8934702185
 21
5237.1195870211
 31
0.0
  0
LINE
  5
27E
330
1F
100
AcDbEntity
  8
0
  6
Continuous
 62
     7
100
AcDbLine
 10
6670.8934702185
 20
5237.1195870211
 30
0.0
 11
6670.8816386965
 21
5237.0771336129
 31
0.0
  0
LINE
  5
27F
330
1F
100
AcDbEntity
  8
0
  6
Continuous
 62
     7
100
AcDbLine
 10
6670.8816386965
 20
5237.0771336129
 30
0.0
 11
6670.6136562136
 21
5236.6528304985
 31
0.0
  0
LINE
  5
280
330
1F
100
AcDbEntity
  8
0
  6
Continuous
 62
     7
100
AcDbLine
 10
6670.6136562136
 20
5236.6528304985
 30
0.0
 11
6670.3414194492
 21
5236.2217883339
 31
0.0
  0
LINE
  5
281
330
1F
100
AcDbEntity
  8
0
  6
Continuous
 62
     7
100
AcDbLine
 10
6670.3414194492
 20
5236.2217883339
 30
0.0
 11
6670.0652785805
 21
5235.7845621874
 31
0.0
  0
LINE
  5
282
330
1F
100
AcDbEntity
  8
0
  6
Continuous
 62
     7
100
AcDbLine
 10
6670.4588927534
 20
5237.5612313619
 30
0.0
 11
6670.4588927534
 21
5244.69049822
 31
0.0
  0
LINE
  5
283
330
1F
100
AcDbEntity
  8
0
  6
Continuous
 62
     7
100
AcDbLine
 10
6670.4588927534
 20
5237.5612313619
 30
0.0
 11
6670.5564432052
 21
5237.557062762
 31
0.0
  0
LINE
  5
284
330
1F
100
AcDbEntity
  8
0
  6
Continuous
 62
     7
100
AcDbLine
 10
6670.5564432052
 20
5237.557062762
 30
0.0
 11
6670.6502385643
 21
5237.5447059741
 31
0.0
  0
LINE
  5
285
330
1F
100
AcDbEntity
  8
0
  6
Continuous
 62
     7
100
AcDbLine
 10
6670.6502385643
 20
5237.5447059741
 30
0.0
 11
6670.7366802004
 21
5237.5246452859
 31
0.0
  0
LINE
  5
286
330
1F
100
AcDbEntity
  8
0
  6
Continuous
 62
     7
100
AcDbLine
 10
6670.7366802004
 20
5237.5246452859
 30
0.0
 11
6670.8124526051
 21
5237.4976443818
 31
0.0
  0
LINE
  5
287
330
1F
100
AcDbEntity
  8
0
  6
Continuous
 62
     7
100
AcDbLine
 10
6670.8124526051
 20
5237.4976443818
 30
0.0
 11
6670.8746277002
 21
5237.4647463432
 31
0.0
  0
LINE
  5
288
330
1F
100
AcDbEntity
  8
0
  6
Continuous
 62
     7
100
AcDbLine
 10
6670.8746277002
 20
5237.4647463432
 30
0.0
 11
6670.920836201
 21
5237.4272103181
 31
0.0
  0
LINE
  5
289
330
1F
100
AcDbEntity
  8
0
  6
Continuous
 62
     7
100
AcDbLine
 10
6670.920836201
 20
5237.4272103181
 30
0.0
 11
6670.9492899683
 21
5237.3864854446
 31
0.0
  0
LINE
  5
28A
330
1F
100
AcDbEntity
  8
0
  6
Continuous
 62
     7
100
AcDbLine
 10
6670.9492899683
 20
5237.3864854446
 30
0.0
 11
6670.9588937667
 21
5237.3441288939
 31
0.0
  0
LINE
  5
28B
330
1F
100
AcDbEntity
  8
0
  6
Continuous
 62
     7
100
AcDbLine
 10
6670.9588937667
 20
5244.2093471756
 30
0.0
 11
6670.9588937667
 21
5237.3441288939
 31
0.0
  0
LINE
  5
28C
330
1F
100
AcDbEntity
  8
0
  6
Continuous
 62
     7
100
AcDbLine
 10
6669.9588991907
 20
5207.398502039
 30
0.0
 11
6671.0507668761
 21
5207.398502039
 31
0.0
  0
LINE
  5
28D
330
1F
100
AcDbEntity
  8
0
  6
Continuous
 62
     7
100
AcDbLine
 10
6669.9588991907
 20
5206.9814408889
 30
0.0
 11
6671.6463960913
 21
5206.9814408889
 31
0.0
  0
LINE
  5
28E
330
1F
100
AcDbEntity
  8
0
  6
Continuous
 62
     7
100
AcDbLine
 10
6669.9588991907
 20
5205.6588287225
 30
0.0
 11
6671.6463960913
 21
5205.6588287225
 31
0.0
  0
LINE
  5
28F
330
1F
100
AcDbEntity
  8
0
  6
Continuous
 62
     7
100
AcDbLine
 10
6669.9588991907
 20
5205.2417601218
 30
0.0
 11
6671.0507668761
 21
5205.2417601218
 31
0.0
  0
LINE
  5
290
330
1F
100
AcDbEntity
  8
0
  6
Continuous
 62
     7
100
AcDbLine
 10
6671.0507668761
 20
5207.8869919052
 30
0.0
 11
6669.9588991907
 21
5207.8869919052
 31
0.0
  0
LINE
  5
291
330
1F
100
AcDbEntity
  8
0
  6
Continuous
 62
     7
100
AcDbLine
 10
6671.6463960913
 20
5208.3040530553
 30
0.0
 11
6669.9588991907
 21
5208.3040530553
 31
0.0
  0
LINE
  5
292
330
1F
100
AcDbEntity
  8
0
  6
Continuous
 62
     7
100
AcDbLine
 10
6669.9588991907
 20
5206.0758898726
 30
0.0
 11
6671.0507668761
 21
5206.0758898726
 31
0.0
  0
LINE
  5
293
330
1F
100
AcDbEntity
  8
0
  6
Continuous
 62
     7
100
AcDbLine
 10
6671.6463960913
 20
5208.3294520846
 30
0.0
 11
6669.9588991907
 21
5208.3294520846
 31
0.0
  0
LINE
  5
294
330
1F
100
AcDbEntity
  8
0
  6
Continuous
 62
     7
100
AcDbLine
 10
6669.9588991907
 20
5206.5643722882
 30
0.0
 11
6671.0507668761
 21
5206.5643722882
 31
0.0
  0
LINE
  5
295
330
1F
100
AcDbEntity
  8
0
  6
Continuous
 62
     7
100
AcDbLine
 10
6669.9588991907
 20
5204.7532777062
 30
0.0
 11
6671.0507668761
 21
5204.7532777062
 31
0.0
  0
LINE
  5
296
330
1F
100
AcDbEntity
  8
0
  6
Continuous
 62
     7
100
AcDbLine
 10
6669.9588991907
 20
5204.3362091055
 30
0.0
 11
6671.6463960913
 21
5204.3362091055
 31
0.0
  0
LINE
  5
297
330
1F
100
AcDbEntity
  8
0
  6
Continuous
 62
     7
100
AcDbLine
 10
6670.8913319019
 20
5236.970996367
 30
0.0
 11
6670.8143525031
 21
5236.8101383319
 31
0.0
  0
LINE
  5
298
330
1F
100
AcDbEntity
  8
0
  6
Continuous
 62
     7
100
AcDbLine
 10
6695.2588953284
 20
5217.2279114595
 30
0.0
 11
6695.2588953284
 21
5257.9494545927
 31
0.0
  0
LINE
  5
299
330
1F
100
AcDbEntity
  8
0
  6
Continuous
 62
     7
100
AcDbLine
 10
6695.2588953284
 20
5211.4494572153
 30
0.0
 11
6695.2588953284
 21
5217.2279114595
 31
0.0
  0
LINE
  5
29A
330
1F
100
AcDbEntity
  8
0
  6
Continuous
 62
     7
100
AcDbLine
 10
6671.7588924077
 20
5223.9922563305
 30
0.0
 11
6671.7588924077
 21
5214.6994526258
 31
0.0
  0
LINE
  5
29B
330
1F
100
AcDbEntity
  8
0
  6
Continuous
 62
     7
100
AcDbLine
 10
6671.7588924077
 20
5224.6994579902
 30
0.0
 11
6671.7588924077
 21
5223.9922563305
 31
0.0
  0
LINE
  5
29C
330
1F
100
AcDbEntity
  8
0
  6
Continuous
 62
     7
100
AcDbLine
 10
6671.258898845
 20
5213.0073289147
 30
0.0
 11
6672.258893421
 21
5212.984619545
 31
0.0
  0
LINE
  5
29D
330
1F
100
AcDbEntity
  8
0
  6
Continuous
 62
     7
100
AcDbLine
 10
6671.258898845
 20
5247.8294539025
 30
0.0
 11
6671.258898845
 21
5235.3994528523
 31
0.0
  0
LINE
  5
29E
330
1F
100
AcDbEntity
  8
0
  6
Continuous
 62
     7
100
AcDbLine
 10
6671.258898845
 20
5227.999454247
 30
0.0
 11
6671.258898845
 21
5224.6994579902
 31
0.0
  0
LINE
  5
29F
330
1F
100
AcDbEntity
  8
0
  6
Continuous
 62
     7
100
AcDbLine
 10
6671.258898845
 20
5214.6994526258
 30
0.0
 11
6671.258898845
 21
5213.0073289147
 31
0.0
  0
LINE
  5
2A0
330
1F
100
AcDbEntity
  8
0
  6
Continuous
 62
     7
100
AcDbLine
 10
6671.2274275926
 20
5213.2908235064
 30
0.0
 11
6671.258898845
 21
5213.0073289147
 31
0.0
  0
LINE
  5
2A1
330
1F
100
AcDbEntity
  8
0
  6
Continuous
 62
     7
100
AcDbLine
 10
6671.1588971523
 20
5213.5449032059
 30
0.0
 11
6671.2274275926
 21
5213.2908235064
 31
0.0
  0
LINE
  5
2A2
330
1F
100
AcDbEntity
  8
0
  6
Continuous
 62
     7
100
AcDbLine
 10
6672.258893421
 20
5212.1064866653
 30
0.0
 11
6672.1628554371
 21
5212.0521197786
 31
0.0
  0
LINE
  5
2A3
330
1F
100
AcDbEntity
  8
0
  6
Continuous
 62
     7
100
AcDbLine
 10
6672.1628554371
 20
5212.0521197786
 30
0.0
 11
6671.0274540094
 21
5211.4093656411
 31
0.0
  0
LINE
  5
2A4
330
1F
100
AcDbEntity
  8
0
  6
Continuous
 62
     7
100
AcDbLine
 10
6671.0274540094
 20
5211.4093656411
 30
0.0
 11
6670.9588937667
 21
5211.3705555668
 31
0.0
  0
LINE
  5
2A5
330
1F
100
AcDbEntity
  8
0
  6
Continuous
 62
     7
100
AcDbLine
 10
6603.9588958231
 20
5289.1994545927
 30
0.0
 11
6603.9588958231
 21
5293.1994547827
 31
0.0
  0
LINE
  5
2A6
330
1F
100
AcDbEntity
  8
0
  6
Continuous
 62
     7
100
AcDbLine
 10
6593.458895499
 20
5289.1994545927
 30
0.0
 11
6593.458895499
 21
5293.1994547827
 31
0.0
  0
LINE
  5
2A7
330
1F
100
AcDbEntity
  8
0
  6
Continuous
 62
     7
100
AcDbLine
 10
6614.4588947502
 20
5289.1994545927
 30
0.0
 11
6614.4588947502
 21
5293.1994547827
 31
0.0
  0
LINE
  5
2A8
330
1F
100
AcDbEntity
  8
0
  6
Continuous
 62
     7
100
AcDbLine
 10
6619.4011740592
 20
5158.9166055193
 30
0.0
 11
6618.5965802726
 21
5158.749906229
 31
0.0
  0
LINE
  5
2A9
330
1F
100
AcDbEntity
  8
0
  6
Continuous
 62
     7
100
AcDbLine
 10
6618.5965802726
 20
5158.749906229
 30
0.0
 11
6617.7770778743
 21
5158.4187130203
 31
0.0
  0
LINE
  5
2AA
330
1F
100
AcDbEntity
  8
0
  6
Continuous
 62
     7
100
AcDbLine
 10
6669.9588991907
 20
5192.3294569125
 30
0.0
 11
6672.258893421
 21
5192.3294569125
 31
0.0
  0
LINE
  5
2AB
330
1F
100
AcDbEntity
  8
0
  6
Continuous
 62
     7
100
AcDbLine
 10
6669.9588991907
 20
5204.3294514289
 30
0.0
 11
6672.258893421
 21
5204.3294514289
 31
0.0
  0
LINE
  5
2AC
330
1F
100
AcDbEntity
  8
0
  6
Continuous
 62
     7
100
AcDbLine
 10
6669.9588991907
 20
5173.4294573536
 30
0.0
 11
6671.2088979987
 21
5173.4294573536
 31
0.0
  0
LINE
  5
2AD
330
1F
100
AcDbEntity
  8
0
  6
Continuous
 62
     7
100
AcDbLine
 10
6670.2088587192
 20
5173.4078357687
 30
0.0
 11
6670.2022277025
 21
5173.4294573536
 31
0.0
  0
LINE
  5
2AE
330
1F
100
AcDbEntity
  8
0
  6
Continuous
 62
     7
100
AcDbLine
 10
6599.5156219435
 20
5135.1994554272
 30
0.0
 11
6599.5156219435
 21
5135.9065602293
 31
0.0
  0
LINE
  5
2AF
330
1F
100
AcDbEntity
  8
0
  6
Continuous
 62
     7
100
AcDbLine
 10
6594.2704662886
 20
5135.1994554272
 30
0.0
 11
6594.2704662886
 21
5135.9065602293
 31
0.0
  0
LINE
  5
2B0
330
1F
100
AcDbEntity
  8
0
  6
Continuous
 62
     7
100
AcDbLine
 10
6609.2040524093
 20
5135.1994554272
 30
0.0
 11
6609.2040524093
 21
5135.9065602293
 31
0.0
  0
LINE
  5
2B1
330
1F
100
AcDbEntity
  8
0
  6
Continuous
 62
     7
100
AcDbLine
 10
6613.6473253575
 20
5135.1994554272
 30
0.0
 11
6613.6473253575
 21
5135.9065602293
 31
0.0
  0
LINE
  5
2B2
330
1F
100
AcDbEntity
  8
0
  6
Continuous
 62
     7
100
AcDbLine
 10
6603.8461555001
 20
5123.6994544735
 30
0.0
 11
6603.8461555001
 21
5134.1994534006
 31
0.0
  0
LINE
  5
2B3
330
1F
100
AcDbEntity
  8
0
  6
Continuous
 62
     7
100
AcDbLine
 10
6617.4053348807
 20
5123.6994544735
 30
0.0
 11
6617.4053348807
 21
5134.1994534006
 31
0.0
  0
LINE
  5
2B4
330
1F
100
AcDbEntity
  8
0
  6
Continuous
 62
     7
100
AcDbLine
 10
6617.4053348807
 20
5123.6994544735
 30
0.0
 11
6613.2248420474
 21
5123.6994544735
 31
0.0
  0
LINE
  5
2B5
330
1F
100
AcDbEntity
  8
0
  6
Continuous
 62
     7
100
AcDbLine
 10
6607.3625818101
 20
5123.6994544735
 30
0.0
 11
6603.8461555001
 21
5123.6994544735
 31
0.0
  0
LINE
  5
2B6
330
1F
100
AcDbEntity
  8
0
  6
Continuous
 62
     7
100
AcDbLine
 10
6590.4061240001
 20
5123.6994544735
 30
0.0
 11
6590.4061240001
 21
5134.1994534006
 31
0.0
  0
LINE
  5
2B7
330
1F
100
AcDbEntity
  8
0
  6
Continuous
 62
     7
100
AcDbLine
 10
6596.5713364278
 20
5123.6994544735
 30
0.0
 11
6590.4061240001
 21
5123.6994544735
 31
0.0
  0
LINE
  5
2B8
330
1F
100
AcDbEntity
  8
0
  6
Continuous
 62
     7
100
AcDbLine
 10
6603.8461555001
 20
5123.6994544735
 30
0.0
 11
6599.1741460023
 21
5123.6994544735
 31
0.0
  0
LINE
  5
2B9
330
1F
100
AcDbEntity
  8
0
  6
Continuous
 62
     7
100
AcDbLine
 10
6591.7588955347
 20
5134.1994534006
 30
0.0
 11
6590.4061240001
 21
5134.1994534006
 31
0.0
  0
LINE
  5
2BA
330
1F
100
AcDbEntity
  8
0
  6
Continuous
 62
     7
100
AcDbLine
 10
6615.6790539828
 20
5114.6994511357
 30
0.0
 11
6592.2383955187
 21
5114.6994511357
 31
0.0
  0
LINE
  5
2BB
330
1F
100
AcDbEntity
  8
0
  6
Continuous
 62
     7
100
AcDbLine
 10
6607.9113599119
 20
5123.6994544735
 30
0.0
 11
6607.3625818101
 21
5123.6994544735
 31
0.0
  0
LINE
  5
2BC
330
1F
100
AcDbEntity
  8
0
  6
Continuous
 62
     7
100
AcDbLine
 10
6590.760078325
 20
5116.8762127628
 30
0.0
 11
6590.740158281
 21
5116.8802211752
 31
0.0
  0
LINE
  5
2BD
330
1F
100
AcDbEntity
  8
0
  6
Continuous
 62
     7
100
AcDbLine
 10
6590.760078325
 20
5118.4637079706
 30
0.0
 11
6590.740158281
 21
5118.4677312842
 31
0.0
  0
LINE
  5
2BE
330
1F
100
AcDbEntity
  8
0
  6
Continuous
 62
     7
100
AcDbLine
 10
6590.760078325
 20
5120.0512031784
 30
0.0
 11
6590.740158281
 21
5120.0552264919
 31
0.0
  0
LINE
  5
2BF
330
1F
100
AcDbEntity
  8
0
  6
Continuous
 62
     7
100
AcDbLine
 10
6590.760078325
 20
5121.6387132874
 30
0.0
 11
6590.740158281
 21
5121.6427216997
 31
0.0
  0
LINE
  5
2C0
330
1F
100
AcDbEntity
  8
0
  6
Continuous
 62
     7
100
AcDbLine
 10
6590.760078325
 20
5123.2262084952
 30
0.0
 11
6590.740158281
 21
5123.2302318087
 31
0.0
  0
LINE
  5
2C1
330
1F
100
AcDbEntity
  8
0
  6
Continuous
 62
     7
100
AcDbLine
 10
6613.2248420474
 20
5123.6994544735
 30
0.0
 11
6607.9113599119
 21
5123.6994544735
 31
0.0
  0
LINE
  5
2C2
330
1F
100
AcDbEntity
  8
0
  6
Continuous
 62
     7
100
AcDbLine
 10
6617.5116677043
 20
5123.6994544735
 30
0.0
 11
6617.5116677043
 21
5134.1994534006
 31
0.0
  0
LINE
  5
2C3
330
1F
100
AcDbEntity
  8
0
  6
Continuous
 62
     7
100
AcDbLine
 10
6617.5116677043
 20
5123.6994544735
 30
0.0
 11
6617.4053348807
 21
5123.6994544735
 31
0.0
  0
LINE
  5
2C4
330
1F
100
AcDbEntity
  8
0
  6
Continuous
 62
     7
100
AcDbLine
 10
6663.8772882727
 20
5132.8994611969
 30
0.0
 11
6665.4588975218
 21
5132.8994611969
 31
0.0
  0
LINE
  5
2C5
330
1F
100
AcDbEntity
  8
0
  6
Continuous
 62
     7
100
AcDbLine
 10
6662.4588988927
 20
5132.8994611969
 30
0.0
 11
6663.8772882727
 21
5132.8994611969
 31
0.0
  0
LINE
  5
2C6
330
1F
100
AcDbEntity
  8
0
  6
Continuous
 62
     7
100
AcDbLine
 10
6665.2816705612
 20
5290.4994545963
 30
0.0
 11
6662.4588988927
 21
5290.4994545963
 31
0.0
  0
LINE
  5
2C7
330
1F
100
AcDbEntity
  8
0
  6
Continuous
 62
     7
100
AcDbLine
 10
6665.4588975218
 20
5290.4994545963
 30
0.0
 11
6665.2816705612
 21
5290.4994545963
 31
0.0
  0
LINE
  5
2C8
330
1F
100
AcDbEntity
  8
0
  6
Continuous
 62
     7
100
AcDbLine
 10
6671.9588957933
 20
5148.699460434
 30
0.0
 11
6671.9588957933
 21
5141.6994611492
 31
0.0
  0
LINE
  5
2C9
330
1F
100
AcDbEntity
  8
0
  6
Continuous
 62
     7
100
AcDbLine
 10
6591.7588955347
 20
5287.492347764
 30
0.0
 11
6669.9588991907
 21
5287.492347764
 31
0.0
  0
LINE
  5
2CA
330
1F
100
AcDbEntity
  8
0
  6
Continuous
 62
     7
100
AcDbLine
 10
6669.9588955549
 20
5286.1923478115
 30
0.0
 11
6669.9588991907
 21
5287.492347764
 31
0.0
  0
LINE
  5
2CB
330
1F
100
AcDbEntity
  8
0
  6
Continuous
 62
     7
100
AcDbLine
 10
6669.9588991907
 20
5269.1994550398
 30
0.0
 11
6669.9588955549
 21
5286.1923478115
 31
0.0
  0
LINE
  5
2CC
330
1F
100
AcDbEntity
  8
0
  6
Continuous
 62
     7
100
AcDbLine
 10
6669.9588991907
 20
5269.1994550398
 30
0.0
 11
6669.9588991907
 21
5154.1994492283
 31
0.0
  0
LINE
  5
2CD
330
1F
100
AcDbEntity
  8
0
  6
Continuous
 62
     7
100
AcDbLine
 10
6669.9588924077
 20
5137.2065666666
 30
0.0
 11
6669.9588991907
 21
5154.1994492283
 31
0.0
  0
LINE
  5
2CE
330
1F
100
AcDbEntity
  8
0
  6
Continuous
 62
     7
100
AcDbLine
 10
6669.9588991907
 20
5135.9065602293
 30
0.0
 11
6669.9588924077
 21
5137.2065666666
 31
0.0
  0
LINE
  5
2CF
330
1F
100
AcDbEntity
  8
0
  6
Continuous
 62
     7
100
AcDbLine
 10
6591.7588955347
 20
5135.9065602293
 30
0.0
 11
6669.9588991907
 21
5135.9065602293
 31
0.0
  0
LINE
  5
2D0
330
1F
100
AcDbEntity
  8
0
  6
Continuous
 62
     7
100
AcDbLine
 10
6591.7588955347
 20
5135.9065602293
 30
0.0
 11
6591.7588955347
 21
5287.492347764
 31
0.0
  0
LINE
  5
2D1
330
1F
100
AcDbEntity
  8
0
  6
Continuous
 62
     7
100
AcDbLine
 10
6669.9588955549
 20
5286.1923478115
 30
0.0
 11
6671.7588939986
 21
5286.1923478115
 31
0.0
  0
LINE
  5
2D2
330
1F
100
AcDbEntity
  8
0
  6
Continuous
 62
     7
100
AcDbLine
 10
6671.7588939986
 20
5286.1923478115
 30
0.0
 11
6671.7588939986
 21
5269.1994550398
 31
0.0
  0
LINE
  5
2D3
330
1F
100
AcDbEntity
  8
0
  6
Continuous
 62
     7
100
AcDbLine
 10
6671.7588939986
 20
5269.1994550398
 30
0.0
 11
6669.9588991907
 21
5269.1994550398
 31
0.0
  0
LINE
  5
2D4
330
1F
100
AcDbEntity
  8
0
  6
Continuous
 62
     7
100
AcDbLine
 10
6671.7588924077
 20
5154.1994492283
 30
0.0
 11
6671.7588924077
 21
5137.2065673342
 31
0.0
  0
LINE
  5
2D5
330
1F
100
AcDbEntity
  8
0
  6
Continuous
 62
     7
100
AcDbLine
 10
6671.7588924077
 20
5137.2065673342
 30
0.0
 11
6669.9588924077
 21
5137.2065666666
 31
0.0
  0
LINE
  5
2D6
330
1F
100
AcDbEntity
  8
0
  6
Continuous
 62
     7
100
AcDbLine
 10
6669.9588991907
 20
5154.1994492283
 30
0.0
 11
6671.7588924077
 21
5154.1994492283
 31
0.0
  0
LINE
  5
2D7
330
1F
100
AcDbEntity
  8
0
  6
Continuous
 62
     7
100
AcDbLine
 10
6589.9588955074
 20
5135.9994540682
 30
0.0
 11
6589.9588955074
 21
5287.3994546236
 31
0.0
  0
LINE
  5
2D8
330
1F
100
AcDbEntity
  8
0
  6
Continuous
 62
     7
100
AcDbLine
 10
6591.7588955347
 20
5134.1994534006
 30
0.0
 11
6591.7588955347
 21
5135.1994554272
 31
0.0
  0
LINE
  5
2D9
330
1F
100
AcDbEntity
  8
0
  6
Continuous
 62
     7
100
AcDbLine
 10
6669.9588991907
 20
5134.1994534006
 30
0.0
 11
6669.9588991907
 21
5135.1994554272
 31
0.0
  0
LINE
  5
2DA
330
1F
100
AcDbEntity
  8
0
  6
Continuous
 62
     7
100
AcDbLine
 10
6591.7588955347
 20
5134.1994534006
 30
0.0
 11
6669.9588991907
 21
5134.1994534006
 31
0.0
  0
LINE
  5
2DB
330
1F
100
AcDbEntity
  8
0
  6
Continuous
 62
     7
100
AcDbLine
 10
6591.7588955347
 20
5135.1994554272
 30
0.0
 11
6669.9588991907
 21
5135.1994554272
 31
0.0
  0
LINE
  5
2DC
330
1F
100
AcDbEntity
  8
0
  6
Continuous
 62
     7
100
AcDbLine
 10
6591.7588955347
 20
5288.1994545452
 30
0.0
 11
6669.9588991907
 21
5288.1994545452
 31
0.0
  0
LINE
  5
2DD
330
1F
100
AcDbEntity
  8
0
  6
Continuous
 62
     7
100
AcDbLine
 10
6591.7588955347
 20
5289.1994545927
 30
0.0
 11
6591.7588955347
 21
5288.1994545452
 31
0.0
  0
LINE
  5
2DE
330
1F
100
AcDbEntity
  8
0
  6
Continuous
 62
     7
100
AcDbLine
 10
6591.7588955347
 20
5289.1994545927
 30
0.0
 11
6669.9588991907
 21
5289.1994545927
 31
0.0
  0
LINE
  5
2DF
330
1F
100
AcDbEntity
  8
0
  6
Continuous
 62
     7
100
AcDbLine
 10
6669.9588991907
 20
5289.1994545927
 30
0.0
 11
6669.9588991907
 21
5288.1994545452
 31
0.0
  0
LINE
  5
2E0
330
1F
100
AcDbEntity
  8
0
  6
Continuous
 62
     7
100
AcDbLine
 10
6651.7588965801
 20
5287.9923462551
 30
0.0
 11
6651.7588965801
 21
5287.4923461731
 31
0.0
  0
LINE
  5
2E1
330
1F
100
AcDbEntity
  8
0
  6
Continuous
 62
     7
100
AcDbLine
 10
6669.9588991907
 20
5287.9923462551
 30
0.0
 11
6651.7588965801
 21
5287.9923462551
 31
0.0
  0
LINE
  5
2E2
330
1F
100
AcDbEntity
  8
0
  6
Continuous
 62
     7
100
AcDbLine
 10
6651.7588965801
 20
5135.4065666666
 30
0.0
 11
6651.7588965801
 21
5135.9065602293
 31
0.0
  0
LINE
  5
2E3
330
1F
100
AcDbEntity
  8
0
  6
Continuous
 62
     7
100
AcDbLine
 10
6651.7588965801
 20
5135.4065666666
 30
0.0
 11
6669.9588991907
 21
5135.4065666666
 31
0.0
  0
LINE
  5
2E4
330
1F
100
AcDbEntity
  8
0
  6
Continuous
 62
     7
100
AcDbLine
 10
6728.058891764
 20
5214.599450933
 30
0.0
 11
6728.058891764
 21
5228.9079296162
 31
0.0
  0
LINE
  5
2E5
330
1F
100
AcDbEntity
  8
0
  6
Continuous
 62
     7
100
AcDbLine
 10
6734.2588924077
 20
5228.9079296162
 30
0.0
 11
6734.2588924077
 21
5254.7994534245
 31
0.0
  0
LINE
  5
2E6
330
1F
100
AcDbEntity
  8
0
  6
Continuous
 62
     7
100
AcDbLine
 10
6731.5588914064
 20
5212.6774172058
 30
0.0
 11
6731.5588914064
 21
5201.9994537106
 31
0.0
  0
LINE
  5
2E7
330
1F
100
AcDbEntity
  8
0
  6
Continuous
 62
     7
100
AcDbLine
 10
6734.2588924077
 20
5201.9994537106
 30
0.0
 11
6734.2588924077
 21
5212.6774172058
 31
0.0
  0
LINE
  5
2E8
330
1F
100
AcDbEntity
  8
0
  6
Continuous
 62
     7
100
AcDbLine
 10
6728.2588951496
 20
5257.7731217017
 30
0.0
 11
6718.2588897851
 21
5257.7731217017
 31
0.0
  0
LINE
  5
2E9
330
1F
100
AcDbEntity
  8
0
  6
Continuous
 62
     7
100
AcDbLine
 10
6718.6435109395
 20
5258.2596248091
 30
0.0
 11
6727.8742801703
 21
5258.2596248091
 31
0.0
  0
LINE
  5
2EA
330
1F
100
AcDbEntity
  8
0
  6
Continuous
 62
     7
100
AcDbLine
 10
6682.4588947204
 20
5206.1994577518
 30
0.0
 11
6682.4588947204
 21
5263.1994540563
 31
0.0
  0
LINE
  5
2EB
330
1F
100
AcDbEntity
  8
0
  6
Continuous
 62
     7
100
AcDbLine
 10
6685.058894029
 20
5206.1994577518
 30
0.0
 11
6685.058894029
 21
5263.1994540563
 31
0.0
  0
LINE
  5
2EC
330
1F
100
AcDbEntity
  8
0
  6
Continuous
 62
     7
100
AcDbLine
 10
6672.258893421
 20
5259.3294548562
 30
0.0
 11
6669.9588991907
 21
5259.3294548562
 31
0.0
  0
LINE
  5
2ED
330
1F
100
AcDbEntity
  8
0
  6
Continuous
 62
     7
100
AcDbLine
 10
6670.7292147187
 20
5235.3994528523
 30
0.0
 11
6670.7216672805
 21
5235.3889251819
 31
0.0
  0
LINE
  5
2EE
330
1F
100
AcDbEntity
  8
0
  6
Continuous
 62
     7
100
AcDbLine
 10
6670.7216672805
 20
5235.3889251819
 30
0.0
 11
6670.6450380591
 21
5235.2820354273
 31
0.0
  0
LINE
  5
2EF
330
1F
100
AcDbEntity
  8
0
  6
Continuous
 62
     7
100
AcDbLine
 10
6670.6450380591
 20
5235.2820354273
 30
0.0
 11
6670.4880245236
 21
5235.063029336
 31
0.0
  0
LINE
  5
2F0
330
1F
100
AcDbEntity
  8
0
  6
Continuous
 62
     7
100
AcDbLine
 10
6669.9588991907
 20
5235.6417941621
 30
0.0
 11
6670.0652785805
 21
5235.7845621874
 31
0.0
  0
LINE
  5
2F1
330
1F
100
AcDbEntity
  8
0
  6
Continuous
 62
     7
100
AcDbLine
 10
6669.9588991907
 20
5236.7391156724
 30
0.0
 11
6670.4588927534
 21
5237.5612313619
 31
0.0
  0
LINE
  5
2F2
330
1F
100
AcDbEntity
  8
0
  6
Continuous
 62
     7
100
AcDbLine
 10
6670.4588927534
 20
5244.69049822
 30
0.0
 11
6669.9588991907
 21
5244.4565574398
 31
0.0
  0
LINE
  5
2F3
330
1F
100
AcDbEntity
  8
0
  6
Continuous
 62
     7
100
AcDbLine
 10
6670.8143525031
 20
5236.8101383319
 30
0.0
 11
6670.519123247
 21
5236.3104539683
 31
0.0
  0
LINE
  5
2F4
330
1F
100
AcDbEntity
  8
0
  6
Continuous
 62
     7
100
AcDbLine
 10
6670.519123247
 20
5236.3104539683
 30
0.0
 11
6670.2342950014
 21
5235.8283716014
 31
0.0
  0
LINE
  5
2F5
330
1F
100
AcDbEntity
  8
0
  6
Continuous
 62
     7
100
AcDbLine
 10
6624.2890231517
 20
5266.6994536987
 30
0.0
 11
6618.008895239
 21
5266.6994536987
 31
0.0
  0
LINE
  5
2F6
330
1F
100
AcDbEntity
  8
0
  6
Continuous
 62
     7
100
AcDbLine
 10
6669.9588991907
 20
5173.9294509163
 30
0.0
 11
6670.7088969854
 21
5173.9294509163
 31
0.0
  0
LINE
  5
2F7
330
1F
100
AcDbEntity
  8
0
  6
Continuous
 62
     7
100
AcDbLine
 10
6669.9588991907
 20
5180.8794568052
 30
0.0
 11
6670.7088969854
 21
5180.8794568052
 31
0.0
  0
LINE
  5
2F8
330
1F
100
AcDbEntity
  8
0
  6
Continuous
 62
     7
100
AcDbLine
 10
6663.7783818153
 20
5133.8911781778
 30
0.0
 11
6667.2770484211
 21
5133.8911743379
 31
0.0
  0
LINE
  5
2F9
330
1F
100
AcDbEntity
  8
0
  6
Continuous
 62
     7
100
AcDbLine
 10
6660.6407426887
 20
5133.8911743379
 30
0.0
 11
6663.7783818153
 21
5133.8911781778
 31
0.0
  0
LINE
  5
2FA
330
1F
100
AcDbEntity
  8
0
  6
Continuous
 62
     7
100
AcDbLine
 10
6666.8850131539
 20
5289.5077348475
 30
0.0
 11
6660.6407426887
 21
5289.5077348475
 31
0.0
  0
LINE
  5
2FB
330
1F
100
AcDbEntity
  8
0
  6
Continuous
 62
     7
100
AcDbLine
 10
6667.2770484211
 20
5289.5077348475
 30
0.0
 11
6666.8850131539
 21
5289.5077348475
 31
0.0
  0
LINE
  5
2FC
330
1F
100
AcDbEntity
  8
0
  6
Continuous
 62
     7
100
AcDbLine
 10
6669.9588991907
 20
5287.492347764
 30
0.0
 11
6669.9588991907
 21
5287.9923462551
 31
0.0
  0
LINE
  5
2FD
330
1F
100
AcDbEntity
  8
0
  6
Continuous
 62
     7
100
AcDbLine
 10
6669.9588991907
 20
5135.9065602293
 30
0.0
 11
6669.9588991907
 21
5135.4065666666
 31
0.0
  0
LINE
  5
2FE
330
1F
100
AcDbEntity
  8
0
  6
Continuous
 62
     7
100
AcDbLine
 10
6219.3701974414
 20
4815.34566607
 30
0.0
 11
6219.3701974414
 21
4776.3456689906
 31
0.0
  0
LINE
  5
2FF
330
1F
100
AcDbEntity
  8
0
  6
Continuous
 62
     7
100
AcDbLine
 10
6259.5701962076
 20
4776.3456689906
 30
0.0
 11
6259.5701962076
 21
4815.34566607
 31
0.0
  0
LINE
  5
300
330
1F
100
AcDbEntity
  8
0
  6
Continuous
 62
     7
100
AcDbLine
 10
6210.9701968096
 20
4828.145666678
 30
0.0
 11
6210.9701968096
 21
4825.5456673694
 31
0.0
  0
LINE
  5
301
330
1F
100
AcDbEntity
  8
0
  6
Continuous
 62
     7
100
AcDbLine
 10
6267.9701968394
 20
4825.5456673694
 30
0.0
 11
6267.9701968394
 21
4828.145666678
 31
0.0
  0
LINE
  5
302
330
1F
100
AcDbEntity
  8
0
  6
Continuous
 62
     7
100
AcDbLine
 10
6218.7483049296
 20
4888.1458031726
 30
0.0
 11
6218.2333133481
 21
4889.0456656706
 31
0.0
  0
LINE
  5
303
330
1F
100
AcDbEntity
  8
0
  6
Continuous
 62
     7
100
AcDbLine
 10
6219.0662584565
 20
4886.3730120254
 30
0.0
 11
6218.9313656948
 21
4887.5947582316
 31
0.0
  0
LINE
  5
304
330
1F
100
AcDbEntity
  8
0
  6
Continuous
 62
     7
100
AcDbLine
 10
6191.2701986097
 20
4839.0946822953
 30
0.0
 11
6191.2701986097
 21
4838.3456679773
 31
0.0
  0
LINE
  5
305
330
1F
100
AcDbEntity
  8
0
  6
Continuous
 62
     7
100
AcDbLine
 10
6198.6701972149
 20
4838.3456679773
 30
0.0
 11
6198.6701972149
 21
4840.6456622076
 31
0.0
  0
LINE
  5
306
330
1F
100
AcDbEntity
  8
0
  6
Continuous
 62
     7
100
AcDbLine
 10
6177.6701919101
 20
4838.3456679773
 30
0.0
 11
6177.6701919101
 21
4838.8456689906
 31
0.0
  0
LINE
  5
307
330
1F
100
AcDbEntity
  8
0
  6
Continuous
 62
     7
100
AcDbLine
 10
6216.2201962732
 20
4825.3456639838
 30
0.0
 11
6216.2201962732
 21
4815.34566607
 31
0.0
  0
LINE
  5
308
330
1F
100
AcDbEntity
  8
0
  6
Continuous
 62
     7
100
AcDbLine
 10
6262.7201973759
 20
4815.34566607
 30
0.0
 11
6262.7201973759
 21
4825.3456639838
 31
0.0
  0
LINE
  5
309
330
1F
100
AcDbEntity
  8
0
  6
Continuous
 62
     7
100
AcDbLine
 10
6209.4701937698
 20
4840.6456622076
 30
0.0
 11
6209.4701937698
 21
4838.8456689906
 31
0.0
  0
LINE
  5
30A
330
1F
100
AcDbEntity
  8
0
  6
Continuous
 62
     7
100
AcDbLine
 10
6209.4701937698
 20
4838.8456689906
 30
0.0
 11
6209.970194783
 21
4838.3456679773
 31
0.0
  0
LINE
  5
30B
330
1F
100
AcDbEntity
  8
0
  6
Continuous
 62
     7
100
AcDbLine
 10
6269.470196154
 20
4838.8456689906
 30
0.0
 11
6269.470196154
 21
4840.6456622076
 31
0.0
  0
LINE
  5
30C
330
1F
100
AcDbEntity
  8
0
  6
Continuous
 62
     7
100
AcDbLine
 10
6259.4701945148
 20
4840.6456622076
 30
0.0
 11
6259.4701945148
 21
4838.8456689906
 31
0.0
  0
LINE
  5
30D
330
1F
100
AcDbEntity
  8
0
  6
Continuous
 62
     7
100
AcDbLine
 10
6259.4701945148
 20
4838.8456689906
 30
0.0
 11
6259.9701955281
 21
4838.3456679773
 31
0.0
  0
LINE
  5
30E
330
1F
100
AcDbEntity
  8
0
  6
Continuous
 62
     7
100
AcDbLine
 10
6268.9701951407
 20
4838.3456679773
 30
0.0
 11
6269.470196154
 21
4838.8456689906
 31
0.0
  0
LINE
  5
30F
330
1F
100
AcDbEntity
  8
0
  6
Continuous
 62
     7
100
AcDbLine
 10
6217.5701967738
 20
4839.3456625533
 30
0.0
 11
6217.5701967738
 21
4838.3456679773
 31
0.0
  0
LINE
  5
310
330
1F
100
AcDbEntity
  8
0
  6
Continuous
 62
     7
100
AcDbLine
 10
6316.9701955579
 20
4884.0456667137
 30
0.0
 11
6317.8701955424
 21
4884.0456667137
 31
0.0
  0
LINE
  5
311
330
1F
100
AcDbEntity
  8
0
  6
Continuous
 62
     7
100
AcDbLine
 10
6317.8701955424
 20
4897.2456666422
 30
0.0
 11
6316.9701955579
 21
4897.2456666422
 31
0.0
  0
LINE
  5
312
330
1F
100
AcDbEntity
  8
0
  6
Continuous
 62
     7
100
AcDbLine
 10
6315.2630887292
 20
4885.8956645024
 30
0.0
 11
6315.9701955104
 21
4885.8956645024
 31
0.0
  0
LINE
  5
313
330
1F
100
AcDbEntity
  8
0
  6
Continuous
 62
     7
100
AcDbLine
 10
6315.9701955104
 20
4895.3956651282
 30
0.0
 11
6315.2630887292
 21
4895.3956651282
 31
0.0
  0
LINE
  5
314
330
1F
100
AcDbEntity
  8
0
  6
Continuous
 62
     7
100
AcDbLine
 10
6262.0506546758
 20
4888.3638406885
 30
0.0
 11
6261.6518474482
 21
4888.3946637404
 31
0.0
  0
LINE
  5
315
330
1F
100
AcDbEntity
  8
0
  6
Continuous
 62
     7
100
AcDbLine
 10
6261.2530364953
 20
4888.425488655
 30
0.0
 11
6257.3530077301
 21
4888.7269223821
 31
0.0
  0
LINE
  5
316
330
1F
100
AcDbEntity
  8
0
  6
Continuous
 62
     7
100
AcDbLine
 10
6262.8201953433
 20
4888.3043627036
 30
0.0
 11
6262.6488729678
 21
4888.3176023853
 31
0.0
  0
LINE
  5
317
330
1F
100
AcDbEntity
  8
0
  6
Continuous
 62
     7
100
AcDbLine
 10
6176.9701949619
 20
4838.3456679773
 30
0.0
 11
6176.4702013992
 21
4838.8456689906
 31
0.0
  0
LINE
  5
318
330
1F
100
AcDbEntity
  8
0
  6
Continuous
 62
     7
100
AcDbLine
 10
6169.4702021144
 20
4838.8456689906
 30
0.0
 11
6168.9701936506
 21
4838.3456679773
 31
0.0
  0
LINE
  5
319
330
1F
100
AcDbEntity
  8
0
  6
Continuous
 62
     7
100
AcDbLine
 10
6309.9701953418
 20
4838.3456679773
 30
0.0
 11
6309.4701957255
 21
4838.8456689906
 31
0.0
  0
LINE
  5
31A
330
1F
100
AcDbEntity
  8
0
  6
Continuous
 62
     7
100
AcDbLine
 10
6302.4701959751
 20
4838.8456689906
 30
0.0
 11
6301.9701958932
 21
4838.3456679773
 31
0.0
  0
LINE
  5
31B
330
1F
100
AcDbEntity
  8
0
  6
Continuous
 62
     7
100
AcDbLine
 10
6314.4701953903
 20
4838.3456626129
 30
0.0
 11
6164.4702015184
 21
4838.3456626129
 31
0.0
  0
LINE
  5
31C
330
1F
100
AcDbEntity
  8
0
  6
Continuous
 62
     7
100
AcDbLine
 10
6314.4701953903
 20
4838.3456626129
 30
0.0
 11
6314.4701956138
 21
4828.3456626129
 31
0.0
  0
LINE
  5
31D
330
1F
100
AcDbEntity
  8
0
  6
Continuous
 62
     7
100
AcDbLine
 10
6314.4701956138
 20
4828.3456626129
 30
0.0
 11
6164.4701919816
 21
4828.3456626129
 31
0.0
  0
LINE
  5
31E
330
1F
100
AcDbEntity
  8
0
  6
Continuous
 62
     7
100
AcDbLine
 10
6164.4702015184
 20
4838.3456626129
 30
0.0
 11
6164.4701919816
 21
4828.3456626129
 31
0.0
  0
LINE
  5
31F
330
1F
100
AcDbEntity
  8
0
  6
Continuous
 62
     7
100
AcDbLine
 10
6324.4701953903
 20
4838.3456679773
 30
0.0
 11
6314.4701953903
 21
4838.3456626129
 31
0.0
  0
LINE
  5
320
330
1F
100
AcDbEntity
  8
0
  6
Continuous
 62
     7
100
AcDbLine
 10
6164.4702015184
 20
4838.3456626129
 30
0.0
 11
6154.4702015184
 21
4838.3456679773
 31
0.0
  0
LINE
  5
321
330
1F
100
AcDbEntity
  8
0
  6
Continuous
 62
     7
100
AcDbLine
 10
6257.5701958798
 20
4774.3456649375
 30
0.0
 11
6221.370194044
 21
4774.3456649375
 31
0.0
  0
LINE
  5
322
330
1F
100
AcDbEntity
  8
0
  6
Continuous
 62
     7
100
AcDbLine
 10
6211.1701927446
 20
4825.3456639838
 30
0.0
 11
6267.7701971792
 21
4825.3456639838
 31
0.0
  0
LINE
  5
323
330
1F
100
AcDbEntity
  8
0
  6
Continuous
 62
     7
100
AcDbLine
 10
6218.7483049296
 20
4888.1458031726
 30
0.0
 11
6218.9268729947
 21
4887.6309568775
 31
0.0
  0
LINE
  5
324
330
1F
100
AcDbEntity
  8
0
  6
Continuous
 62
     7
100
AcDbLine
 10
6218.9268729947
 20
4887.6309568775
 30
0.0
 11
6218.8788391016
 21
4887.0366128874
 31
0.0
  0
LINE
  5
325
330
1F
100
AcDbEntity
  8
0
  6
Continuous
 62
     7
100
AcDbLine
 10
6218.8788391016
 20
4887.0366128874
 30
0.0
 11
6218.5780442618
 21
4886.4490712774
 31
0.0
  0
LINE
  5
326
330
1F
100
AcDbEntity
  8
0
  6
Continuous
 62
     7
100
AcDbLine
 10
6218.5780442618
 20
4886.4490712774
 30
0.0
 11
6218.0433905981
 21
4885.9052422237
 31
0.0
  0
LINE
  5
327
330
1F
100
AcDbEntity
  8
0
  6
Continuous
 62
     7
100
AcDbLine
 10
6218.0433905981
 20
4885.9052422237
 30
0.0
 11
6217.7760712169
 21
4885.7110353899
 31
0.0
  0
LINE
  5
328
330
1F
100
AcDbEntity
  8
0
  6
Continuous
 62
     7
100
AcDbLine
 10
6219.0662584565
 20
4886.3730120254
 30
0.0
 11
6219.0694249533
 21
4886.1076893997
 31
0.0
  0
LINE
  5
329
330
1F
100
AcDbEntity
  8
0
  6
Continuous
 62
     7
100
AcDbLine
 10
6216.7911491655
 20
4893.6456653071
 30
0.0
 11
6216.7911491655
 21
4889.0456656706
 31
0.0
  0
LINE
  5
32A
330
1F
100
AcDbEntity
  8
0
  6
Continuous
 62
     7
100
AcDbLine
 10
6216.7911491655
 20
4889.0456656706
 30
0.0
 11
6212.2331074737
 21
4889.0456656706
 31
0.0
  0
LINE
  5
32B
330
1F
100
AcDbEntity
  8
0
  6
Continuous
 62
     7
100
AcDbLine
 10
6216.7911491655
 20
4893.6456653071
 30
0.0
 11
6212.9701934121
 21
4893.6456653071
 31
0.0
  0
LINE
  5
32C
330
1F
100
AcDbEntity
  8
0
  6
Continuous
 62
     7
100
AcDbLine
 10
6221.7072806619
 20
4889.0456656706
 30
0.0
 11
6216.7911491655
 21
4889.0456656706
 31
0.0
  0
LINE
  5
32D
330
1F
100
AcDbEntity
  8
0
  6
Continuous
 62
     7
100
AcDbLine
 10
6220.9701947234
 20
4893.6456653071
 30
0.0
 11
6216.7911491655
 21
4893.6456653071
 31
0.0
  0
LINE
  5
32E
330
1F
100
AcDbEntity
  8
0
  6
Continuous
 62
     7
100
AcDbLine
 10
6255.0586535893
 20
4906.6456655753
 30
0.0
 11
6247.2644261382
 21
4920.1456658672
 31
0.0
  0
LINE
  5
32F
330
1F
100
AcDbEntity
  8
0
  6
Continuous
 62
     7
100
AcDbLine
 10
6247.2644261382
 20
4893.1456661564
 30
0.0
 11
6255.0586535893
 21
4906.6456655753
 31
0.0
  0
LINE
  5
330
330
1F
100
AcDbEntity
  8
0
  6
Continuous
 62
     7
100
AcDbLine
 10
6231.6759637855
 20
4893.1456661564
 30
0.0
 11
6247.2644261382
 21
4893.1456661564
 31
0.0
  0
LINE
  5
331
330
1F
100
AcDbEntity
  8
0
  6
Continuous
 62
     7
100
AcDbLine
 10
6223.8817400597
 20
4906.6456655753
 30
0.0
 11
6231.6759637855
 21
4893.1456661564
 31
0.0
  0
LINE
  5
332
330
1F
100
AcDbEntity
  8
0
  6
Continuous
 62
     7
100
AcDbLine
 10
6231.6759637855
 20
4920.1456658672
 30
0.0
 11
6223.8817400597
 21
4906.6456655753
 31
0.0
  0
LINE
  5
333
330
1F
100
AcDbEntity
  8
0
  6
Continuous
 62
     7
100
AcDbLine
 10
6247.2644261382
 20
4920.1456658672
 30
0.0
 11
6231.6759637855
 21
4920.1456658672
 31
0.0
  0
LINE
  5
334
330
1F
100
AcDbEntity
  8
0
  6
Continuous
 62
     7
100
AcDbLine
 10
6192.8316093348
 20
4840.6456622076
 30
0.0
 11
6192.7081457637
 21
4840.0788071346
 31
0.0
  0
LINE
  5
335
330
1F
100
AcDbEntity
  8
0
  6
Continuous
 62
     7
100
AcDbLine
 10
6192.7081457637
 20
4840.0788071346
 30
0.0
 11
6192.6893703006
 21
4840.0828975034
 31
0.0
  0
LINE
  5
336
330
1F
100
AcDbEntity
  8
0
  6
Continuous
 62
     7
100
AcDbLine
 10
6192.6893703006
 20
4840.0828975034
 30
0.0
 11
6192.6337666176
 21
4840.0950046969
 31
0.0
  0
LINE
  5
337
330
1F
100
AcDbEntity
  8
0
  6
Continuous
 62
     7
100
AcDbLine
 10
6192.6337666176
 20
4840.0950046969
 30
0.0
 11
6192.5434730314
 21
4840.1146742296
 31
0.0
  0
LINE
  5
338
330
1F
100
AcDbEntity
  8
0
  6
Continuous
 62
     7
100
AcDbLine
 10
6192.5434730314
 20
4840.1146742296
 30
0.0
 11
6192.4219615124
 21
4840.1411386919
 31
0.0
  0
LINE
  5
339
330
1F
100
AcDbEntity
  8
0
  6
Continuous
 62
     7
100
AcDbLine
 10
6192.4219615124
 20
4840.1411386919
 30
0.0
 11
6192.2738961242
 21
4840.1733922553
 31
0.0
  0
LINE
  5
33A
330
1F
100
AcDbEntity
  8
0
  6
Continuous
 62
     7
100
AcDbLine
 10
6192.2738961242
 20
4840.1733922553
 30
0.0
 11
6192.1049691103
 21
4840.2101832223
 31
0.0
  0
LINE
  5
33B
330
1F
100
AcDbEntity
  8
0
  6
Continuous
 62
     7
100
AcDbLine
 10
6192.1049691103
 20
4840.2101832223
 30
0.0
 11
6191.9216773771
 21
4840.2501108837
 31
0.0
  0
LINE
  5
33C
330
1F
100
AcDbEntity
  8
0
  6
Continuous
 62
     7
100
AcDbLine
 10
6191.9216773771
 20
4840.2501108837
 30
0.0
 11
6191.7310545271
 21
4840.2916279873
 31
0.0
  0
LINE
  5
33D
330
1F
100
AcDbEntity
  8
0
  6
Continuous
 62
     7
100
AcDbLine
 10
6179.7516010068
 20
4838.3456679773
 30
0.0
 11
6179.2018822692
 21
4838.8456689906
 31
0.0
  0
LINE
  5
33E
330
1F
100
AcDbEntity
  8
0
  6
Continuous
 62
     7
100
AcDbLine
 10
6192.0352912806
 20
4839.3390315366
 30
0.0
 11
6192.0294425748
 21
4839.3573376131
 31
0.0
  0
LINE
  5
33F
330
1F
100
AcDbEntity
  8
0
  6
Continuous
 62
     7
100
AcDbLine
 10
6192.0294425748
 20
4839.3573376131
 30
0.0
 11
6192.0121274255
 21
4839.4115480375
 31
0.0
  0
LINE
  5
340
330
1F
100
AcDbEntity
  8
0
  6
Continuous
 62
     7
100
AcDbLine
 10
6192.0121274255
 20
4839.4115480375
 30
0.0
 11
6191.9840163849
 21
4839.4995766473
 31
0.0
  0
LINE
  5
341
330
1F
100
AcDbEntity
  8
0
  6
Continuous
 62
     7
100
AcDbLine
 10
6191.9840163849
 20
4839.4995766473
 30
0.0
 11
6191.9461748861
 21
4839.6180408788
 31
0.0
  0
LINE
  5
342
330
1F
100
AcDbEntity
  8
0
  6
Continuous
 62
     7
100
AcDbLine
 10
6191.9461748861
 20
4839.6180408788
 30
0.0
 11
6191.9000706933
 21
4839.7623958778
 31
0.0
  0
LINE
  5
343
330
1F
100
AcDbEntity
  8
0
  6
Continuous
 62
     7
100
AcDbLine
 10
6191.9000706933
 20
4839.7623958778
 30
0.0
 11
6191.8474844955
 21
4839.9270835114
 31
0.0
  0
LINE
  5
344
330
1F
100
AcDbEntity
  8
0
  6
Continuous
 62
     7
100
AcDbLine
 10
6191.8474844955
 20
4839.9270835114
 30
0.0
 11
6191.7904130481
 21
4840.105785687
 31
0.0
  0
LINE
  5
345
330
1F
100
AcDbEntity
  8
0
  6
Continuous
 62
     7
100
AcDbLine
 10
6191.7904130481
 20
4840.105785687
 30
0.0
 11
6191.7310545271
 21
4840.2916279873
 31
0.0
  0
LINE
  5
346
330
1F
100
AcDbEntity
  8
0
  6
Continuous
 62
     7
100
AcDbLine
 10
6192.0352912806
 20
4839.3390315366
 30
0.0
 11
6188.9249495529
 21
4838.3456679773
 31
0.0
  0
LINE
  5
347
330
1F
100
AcDbEntity
  8
0
  6
Continuous
 62
     7
100
AcDbLine
 10
6196.1807719333
 20
4839.6456683544
 30
0.0
 11
6192.494418369
 21
4839.6456683544
 31
0.0
  0
LINE
  5
348
330
1F
100
AcDbEntity
  8
0
  6
Continuous
 62
     7
100
AcDbLine
 10
6216.2201962732
 20
4815.34566607
 30
0.0
 11
6262.7201973759
 21
4815.34566607
 31
0.0
  0
LINE
  5
349
330
1F
100
AcDbEntity
  8
0
  6
Continuous
 62
     7
100
AcDbLine
 10
6211.9066304825
 20
4838.8456689906
 30
0.0
 11
6209.4701937698
 21
4838.8456689906
 31
0.0
  0
LINE
  5
34A
330
1F
100
AcDbEntity
  8
0
  6
Continuous
 62
     7
100
AcDbLine
 10
6217.5701967738
 20
4838.8456689906
 30
0.0
 11
6211.9066304825
 21
4838.8456689906
 31
0.0
  0
LINE
  5
34B
330
1F
100
AcDbEntity
  8
0
  6
Continuous
 62
     7
100
AcDbLine
 10
6259.9380462728
 20
4838.8456689906
 30
0.0
 11
6259.4701945148
 21
4838.8456689906
 31
0.0
  0
LINE
  5
34C
330
1F
100
AcDbEntity
  8
0
  6
Continuous
 62
     7
100
AcDbLine
 10
6269.470196154
 20
4838.8456689906
 30
0.0
 11
6259.9380462728
 21
4838.8456689906
 31
0.0
  0
LINE
  5
34D
330
1F
100
AcDbEntity
  8
0
  6
Continuous
 62
     7
100
AcDbLine
 10
6259.4701945148
 20
4839.3456625533
 30
0.0
 11
6217.5701967738
 21
4839.3456625533
 31
0.0
  0
LINE
  5
34E
330
1F
100
AcDbEntity
  8
0
  6
Continuous
 62
     7
100
AcDbLine
 10
6318.6701955804
 20
4884.8456653547
 30
0.0
 11
6318.6701955804
 21
4896.4456661385
 31
0.0
  0
LINE
  5
34F
330
1F
100
AcDbEntity
  8
0
  6
Continuous
 62
     7
100
AcDbLine
 10
6315.9701955104
 20
4892.4956663293
 30
0.0
 11
6315.2630887292
 21
4892.4956663293
 31
0.0
  0
LINE
  5
350
330
1F
100
AcDbEntity
  8
0
  6
Continuous
 62
     7
100
AcDbLine
 10
6315.2630887292
 20
4891.2456656587
 30
0.0
 11
6315.9701955104
 21
4891.2456656587
 31
0.0
  0
LINE
  5
351
330
1F
100
AcDbEntity
  8
0
  6
Continuous
 62
     7
100
AcDbLine
 10
6315.2630887292
 20
4888.795665164
 30
0.0
 11
6315.9701955104
 21
4888.795665164
 31
0.0
  0
LINE
  5
352
330
1F
100
AcDbEntity
  8
0
  6
Continuous
 62
     7
100
AcDbLine
 10
6315.9701955104
 20
4890.0456658346
 30
0.0
 11
6315.2630887292
 21
4890.0456658346
 31
0.0
  0
LINE
  5
353
330
1F
100
AcDbEntity
  8
0
  6
Continuous
 62
     7
100
AcDbLine
 10
6315.2630887292
 20
4893.4956664932
 30
0.0
 11
6315.9701955104
 21
4893.4956664932
 31
0.0
  0
LINE
  5
354
330
1F
100
AcDbEntity
  8
0
  6
Continuous
 62
     7
100
AcDbLine
 10
6315.9701955104
 20
4887.7956668627
 30
0.0
 11
6315.2630887292
 21
4887.7956668627
 31
0.0
  0
LINE
  5
355
330
1F
100
AcDbEntity
  8
0
  6
Continuous
 62
     7
100
AcDbLine
 10
6190.4457769655
 20
4838.3456679773
 30
0.0
 11
6190.7895914577
 21
4838.9411854339
 31
0.0
  0
LINE
  5
356
330
1F
100
AcDbEntity
  8
0
  6
Continuous
 62
     7
100
AcDbLine
 10
6178.2059482597
 20
4838.8456689906
 30
0.0
 11
6178.4946135543
 21
4838.3456679773
 31
0.0
  0
LINE
  5
357
330
1F
100
AcDbEntity
  8
0
  6
Continuous
 62
     7
100
AcDbLine
 10
6261.0448598228
 20
4885.7320385766
 30
0.0
 11
6261.1133418344
 21
4886.6180914235
 31
0.0
  0
LINE
  5
358
330
1F
100
AcDbEntity
  8
0
  6
Continuous
 62
     7
100
AcDbLine
 10
6261.1133418344
 20
4886.6180914235
 30
0.0
 11
6261.1719071232
 21
4887.3758191955
 31
0.0
  0
LINE
  5
359
330
1F
100
AcDbEntity
  8
0
  6
Continuous
 62
     7
100
AcDbLine
 10
6261.1719071232
 20
4887.3758191955
 30
0.0
 11
6261.2161486708
 21
4887.9482584787
 31
0.0
  0
LINE
  5
35A
330
1F
100
AcDbEntity
  8
0
  6
Continuous
 62
     7
100
AcDbLine
 10
6261.2161486708
 20
4887.9482584787
 30
0.0
 11
6261.2436897419
 21
4888.3045489681
 31
0.0
  0
LINE
  5
35B
330
1F
100
AcDbEntity
  8
0
  6
Continuous
 62
     7
100
AcDbLine
 10
6261.2436897419
 20
4888.3045489681
 30
0.0
 11
6261.2530364953
 21
4888.425488655
 31
0.0
  0
LINE
  5
35C
330
1F
100
AcDbEntity
  8
0
  6
Continuous
 62
     7
100
AcDbLine
 10
6262.2423357628
 20
4885.6530773234
 30
0.0
 11
6262.2909284495
 21
4886.2818131936
 31
0.0
  0
LINE
  5
35D
330
1F
100
AcDbEntity
  8
0
  6
Continuous
 62
     7
100
AcDbLine
 10
6262.2909284495
 20
4886.2818131936
 30
0.0
 11
6262.350723084
 21
4887.0554218781
 31
0.0
  0
LINE
  5
35E
330
1F
100
AcDbEntity
  8
0
  6
Continuous
 62
     7
100
AcDbLine
 10
6262.350723084
 20
4887.0554218781
 30
0.0
 11
6262.3961008452
 21
4887.6425350797
 31
0.0
  0
LINE
  5
35F
330
1F
100
AcDbEntity
  8
0
  6
Continuous
 62
     7
100
AcDbLine
 10
6262.3961008452
 20
4887.6425350797
 30
0.0
 11
6262.4244279526
 21
4888.0090328646
 31
0.0
  0
LINE
  5
360
330
1F
100
AcDbEntity
  8
0
  6
Continuous
 62
     7
100
AcDbLine
 10
6262.4244279526
 20
4888.0090328646
 30
0.0
 11
6262.4340541027
 21
4888.1336102975
 31
0.0
  0
LINE
  5
361
330
1F
100
AcDbEntity
  8
0
  6
Continuous
 62
     7
100
AcDbLine
 10
6262.8201953433
 20
4885.7184449923
 30
0.0
 11
6262.8201953433
 21
4891.9872852755
 31
0.0
  0
LINE
  5
362
330
1F
100
AcDbEntity
  8
0
  6
Continuous
 62
     7
100
AcDbLine
 10
6315.2630887292
 20
4918.8456658637
 30
0.0
 11
6315.2630887292
 21
4840.6456622076
 31
0.0
  0
LINE
  5
363
330
1F
100
AcDbEntity
  8
0
  6
Continuous
 62
     7
100
AcDbLine
 10
6163.6773011945
 20
4840.6456622076
 30
0.0
 11
6315.2630887292
 21
4840.6456622076
 31
0.0
  0
LINE
  5
364
330
1F
100
AcDbEntity
  8
0
  6
Continuous
 62
     7
100
AcDbLine
 10
6163.6773011945
 20
4918.8456658637
 30
0.0
 11
6163.6773011945
 21
4840.6456622076
 31
0.0
  0
LINE
  5
365
330
1F
100
AcDbEntity
  8
0
  6
Continuous
 62
     7
100
AcDbLine
 10
6163.7701950334
 20
4920.645665891
 30
0.0
 11
6315.1701955888
 21
4920.645665891
 31
0.0
  0
LINE
  5
366
330
1F
100
AcDbEntity
  8
0
  6
Continuous
 62
     7
100
AcDbLine
 10
6315.1701971077
 20
4840.6456658435
 30
0.0
 11
6315.1701971077
 21
4838.8456673933
 31
0.0
  0
LINE
  5
367
330
1F
100
AcDbEntity
  8
0
  6
Continuous
 62
     7
100
AcDbLine
 10
6296.9701975238
 20
4838.8456673933
 30
0.0
 11
6315.1701971077
 21
4838.8456673933
 31
0.0
  0
LINE
  5
368
330
1F
100
AcDbEntity
  8
0
  6
Continuous
 62
     7
100
AcDbLine
 10
6296.9701975238
 20
4838.8456673933
 30
0.0
 11
6296.9701975238
 21
4840.6456606103
 31
0.0
  0
LINE
  5
369
330
1F
100
AcDbEntity
  8
0
  6
Continuous
 62
     7
100
AcDbLine
 10
6163.7701950334
 20
4838.8456689906
 30
0.0
 11
6181.9701901935
 21
4838.8456689906
 31
0.0
  0
LINE
  5
36A
330
1F
100
AcDbEntity
  8
0
  6
Continuous
 62
     7
100
AcDbLine
 10
6181.9701901935
 20
4840.6456622076
 30
0.0
 11
6181.9701901935
 21
4838.8456689906
 31
0.0
  0
LINE
  5
36B
330
1F
100
AcDbEntity
  8
0
  6
Continuous
 62
     7
100
AcDbLine
 10
6163.7701950334
 20
4838.8456689906
 30
0.0
 11
6163.7701943658
 21
4840.6456689906
 31
0.0
  0
LINE
  5
36C
330
1F
100
AcDbEntity
  8
0
  6
Continuous
 62
     7
100
AcDbLine
 10
6161.9701943658
 20
4918.8456658637
 30
0.0
 11
6162.9701963924
 21
4918.8456658637
 31
0.0
  0
LINE
  5
36D
330
1F
100
AcDbEntity
  8
0
  6
Continuous
 62
     7
100
AcDbLine
 10
6316.9701955579
 20
4918.8456658637
 30
0.0
 11
6315.9701955104
 21
4918.8456658637
 31
0.0
  0
LINE
  5
36E
330
1F
100
AcDbEntity
  8
0
  6
Continuous
 62
     7
100
AcDbLine
 10
6316.9701955579
 20
4918.8456658637
 30
0.0
 11
6316.9701955579
 21
4840.6456622076
 31
0.0
  0
LINE
  5
36F
330
1F
100
AcDbEntity
  8
0
  6
Continuous
 62
     7
100
AcDbLine
 10
6316.9701955579
 20
4840.6456622076
 30
0.0
 11
6315.9701955104
 21
4840.6456622076
 31
0.0
  0
LINE
  5
370
330
1F
100
AcDbEntity
  8
0
  6
Continuous
 62
     7
100
AcDbLine
 10
6315.9701955104
 20
4918.8456658637
 30
0.0
 11
6315.9701955104
 21
4840.6456622076
 31
0.0
  0
LINE
  5
371
330
1F
100
AcDbEntity
  8
0
  6
Continuous
 62
     7
100
AcDbLine
 10
6161.9701943658
 20
4840.6456622076
 30
0.0
 11
6162.9701963924
 21
4840.6456622076
 31
0.0
  0
LINE
  5
372
330
1F
100
AcDbEntity
  8
0
  6
Continuous
 62
     7
100
AcDbLine
 10
6162.9701963924
 20
4918.8456658637
 30
0.0
 11
6162.9701963924
 21
4840.6456622076
 31
0.0
  0
LINE
  5
373
330
1F
100
AcDbEntity
  8
0
  6
Continuous
 62
     7
100
AcDbLine
 10
6161.9701943658
 20
4918.8456658637
 30
0.0
 11
6161.9701943658
 21
4840.6456622076
 31
0.0
  0
LINE
  5
374
330
1F
100
AcDbEntity
  8
0
  6
Continuous
 62
     7
100
AcDbLine
 10
6219.3701974414
 20
4776.3456689906
 30
0.0
 11
6259.5701962076
 21
4776.3456689906
 31
0.0
  0
LINE
  5
375
330
1F
100
AcDbEntity
  8
0
  6
Continuous
 62
     7
100
AcDbLine
 10
6210.9701968096
 20
4828.145666678
 30
0.0
 11
6267.9701968394
 21
4828.145666678
 31
0.0
  0
LINE
  5
376
330
1F
100
AcDbEntity
  8
0
  6
Continuous
 62
     7
100
AcDbLine
 10
6210.9701968096
 20
4825.5456673694
 30
0.0
 11
6267.9701968394
 21
4825.5456673694
 31
0.0
  0
LINE
  5
377
330
1F
100
AcDbEntity
  8
0
  6
Continuous
 62
     7
100
AcDbLine
 10
6191.7310545271
 20
4840.2916279873
 30
0.0
 11
6191.8081603311
 21
4840.6456622076
 31
0.0
  0
LINE
  5
378
330
1F
100
AcDbEntity
  8
0
  6
Continuous
 62
     7
100
AcDbLine
 10
6185.6380365156
 20
4838.3456679773
 30
0.0
 11
6191.7310545271
 21
4840.2916279873
 31
0.0
  0
LINE
  5
379
330
1F
100
AcDbEntity
  8
0
  6
Continuous
 62
     7
100
AcDbLine
 10
6180.6880793832
 20
4838.8456689906
 30
0.0
 11
6181.237813022
 21
4838.3456679773
 31
0.0
  0
LINE
  5
37A
330
1F
100
AcDbEntity
  8
0
  6
Continuous
 62
     7
100
AcDbLine
 10
6192.7227049212
 20
4840.1456686807
 30
0.0
 11
6196.6311813338
 21
4840.1456658792
 31
0.0
  0
LINE
  5
37B
330
1F
100
AcDbEntity
  8
0
  6
Continuous
 62
     7
100
AcDbLine
 10
6317.8701955424
 20
4884.0456667137
 30
0.0
 11
6317.8701955424
 21
4897.2456666422
 31
0.0
  0
LINE
  5
37C
330
1F
100
AcDbEntity
  8
0
  6
Continuous
 62
     7
100
AcDbLine
 10
6261.8406973146
 20
4885.6473441017
 30
0.0
 11
6261.8412337564
 21
4885.6542805922
 31
0.0
  0
LINE
  5
37D
330
1F
100
AcDbEntity
  8
0
  6
Continuous
 62
     7
100
AcDbLine
 10
6261.8412337564
 20
4885.6542805922
 30
0.0
 11
6261.9109637402
 21
4886.5564453197
 31
0.0
  0
LINE
  5
37E
330
1F
100
AcDbEntity
  8
0
  6
Continuous
 62
     7
100
AcDbLine
 10
6261.9109637402
 20
4886.5564453197
 30
0.0
 11
6261.969529029
 21
4887.3141693664
 31
0.0
  0
LINE
  5
37F
330
1F
100
AcDbEntity
  8
0
  6
Continuous
 62
     7
100
AcDbLine
 10
6261.969529029
 20
4887.3141693664
 30
0.0
 11
6262.0137705766
 21
4887.8866086495
 31
0.0
  0
LINE
  5
380
330
1F
100
AcDbEntity
  8
0
  6
Continuous
 62
     7
100
AcDbLine
 10
6262.0137705766
 20
4887.8866086495
 30
0.0
 11
6262.0413079224
 21
4888.2429028642
 31
0.0
  0
LINE
  5
381
330
1F
100
AcDbEntity
  8
0
  6
Continuous
 62
     7
100
AcDbLine
 10
6262.0413079224
 20
4888.2429028642
 30
0.0
 11
6262.0506546758
 21
4888.3638406885
 31
0.0
  0
LINE
  5
382
330
1F
100
AcDbEntity
  8
0
  6
Continuous
 62
     7
100
AcDbLine
 10
6261.4415399097
 20
4885.67369308
 30
0.0
 11
6261.4424228035
 21
4885.6851036441
 31
0.0
  0
LINE
  5
383
330
1F
100
AcDbEntity
  8
0
  6
Continuous
 62
     7
100
AcDbLine
 10
6261.4424228035
 20
4885.6851036441
 30
0.0
 11
6261.5121527873
 21
4886.5872683716
 31
0.0
  0
LINE
  5
384
330
1F
100
AcDbEntity
  8
0
  6
Continuous
 62
     7
100
AcDbLine
 10
6261.5121527873
 20
4886.5872683716
 30
0.0
 11
6261.5707180761
 21
4887.3449961436
 31
0.0
  0
LINE
  5
385
330
1F
100
AcDbEntity
  8
0
  6
Continuous
 62
     7
100
AcDbLine
 10
6261.5707180761
 20
4887.3449961436
 30
0.0
 11
6261.6149596237
 21
4887.9174354267
 31
0.0
  0
LINE
  5
386
330
1F
100
AcDbEntity
  8
0
  6
Continuous
 62
     7
100
AcDbLine
 10
6261.6149596237
 20
4887.9174354267
 30
0.0
 11
6261.6424969695
 21
4888.2737259162
 31
0.0
  0
LINE
  5
387
330
1F
100
AcDbEntity
  8
0
  6
Continuous
 62
     7
100
AcDbLine
 10
6261.6424969695
 20
4888.2737259162
 30
0.0
 11
6261.6518474482
 21
4888.3946637404
 31
0.0
  0
LINE
  5
388
330
1F
100
AcDbEntity
  8
0
  6
Continuous
 62
     7
100
AcDbLine
 10
6262.4440974854
 20
4885.668175925
 30
0.0
 11
6262.5091783069
 21
4886.5102070165
 31
0.0
  0
LINE
  5
389
330
1F
100
AcDbEntity
  8
0
  6
Continuous
 62
     7
100
AcDbLine
 10
6262.5091783069
 20
4886.5102070165
 30
0.0
 11
6262.5677435957
 21
4887.2679347885
 31
0.0
  0
LINE
  5
38A
330
1F
100
AcDbEntity
  8
0
  6
Continuous
 62
     7
100
AcDbLine
 10
6262.5677435957
 20
4887.2679347885
 30
0.0
 11
6262.6119888686
 21
4887.8403740716
 31
0.0
  0
LINE
  5
38B
330
1F
100
AcDbEntity
  8
0
  6
Continuous
 62
     7
100
AcDbLine
 10
6262.6119888686
 20
4887.8403740716
 30
0.0
 11
6262.6395262144
 21
4888.196664561
 31
0.0
  0
LINE
  5
38C
330
1F
100
AcDbEntity
  8
0
  6
Continuous
 62
     7
100
AcDbLine
 10
6262.6395262144
 20
4888.196664561
 30
0.0
 11
6262.6488729678
 21
4888.3176023853
 31
0.0
  0
LINE
  5
38D
330
1F
100
AcDbEntity
  8
0
  6
Continuous
 62
     7
100
AcDbLine
 10
6262.7479582392
 20
4885.7065277886
 30
0.0
 11
6262.8082855902
 21
4886.4870878649
 31
0.0
  0
LINE
  5
38E
330
1F
100
AcDbEntity
  8
0
  6
Continuous
 62
     7
100
AcDbLine
 10
6262.8082855902
 20
4886.4870878649
 30
0.0
 11
6262.8201953433
 21
4886.6411733222
 31
0.0
  0
LINE
  5
38F
330
1F
100
AcDbEntity
  8
0
  6
Continuous
 62
     7
100
AcDbLine
 10
6263.3201963566
 20
4891.7986477506
 30
0.0
 11
6263.3201963566
 21
4885.8313659918
 31
0.0
  0
LINE
  5
390
330
1F
100
AcDbEntity
  8
0
  6
Continuous
 62
     7
100
AcDbLine
 10
6163.6773011945
 20
4918.8456658637
 30
0.0
 11
6230.9254146479
 21
4918.8456658637
 31
0.0
  0
LINE
  5
391
330
1F
100
AcDbEntity
  8
0
  6
Continuous
 62
     7
100
AcDbLine
 10
6248.0149827264
 20
4918.8456658637
 30
0.0
 11
6315.2630887292
 21
4918.8456658637
 31
0.0
  0
LWPOLYLINE
  5
392
330
1F
100
AcDbEntity
  8
0
  6
Continuous
 62
     7
100
AcDbPolyline
 90
        3
 70
   128
 43
0.0
 10
6226.2535095215
 20
5309.855179744
 10
6226.7341272883
 20
5309.5795677462
 10
6227.108981397
 20
5309.3630111536
  0
LWPOLYLINE
  5
393
330
1F
100
AcDbEntity
  8
0
  6
Continuous
 62
     7
100
AcDbPolyline
 90
        3
 70
   128
 43
0.0
 10
6226.2535095215
 20
5308.2676789483
 10
6226.7341272883
 20
5307.9920669505
 10
6227.108981397
 20
5307.7755103579
  0
LWPOLYLINE
  5
394
330
1F
100
AcDbEntity
  8
0
  6
Continuous
 62
     7
100
AcDbPolyline
 90
        3
 70
   128
 43
0.0
 10
6226.2535095215
 20
5306.6801800152
 10
6226.7341272883
 20
5306.4045680174
 10
6227.108981397
 20
5306.1880114248
  0
LWPOLYLINE
  5
395
330
1F
100
AcDbEntity
  8
0
  6
Continuous
 62
     7
100
AcDbPolyline
 90
        3
 70
   128
 43
0.0
 10
6226.2535095215
 20
5305.0926792195
 10
6226.7341271378
 20
5304.8170674827
 10
6227.108981397
 20
5304.6005115604
  0
LWPOLYLINE
  5
396
330
1F
100
AcDbEntity
  8
0
  6
Continuous
 62
     7
100
AcDbPolyline
 90
        3
 70
   128
 43
0.0
 10
6251.823425293
 20
5310.1522325298
 10
6252.3050471916
 20
5310.4303851016
 10
6252.6833526157
 20
5310.6489292106
  0
LWPOLYLINE
  5
397
330
1F
100
AcDbEntity
  8
0
  6
Continuous
 62
     7
100
AcDbPolyline
 90
        3
 70
   128
 43
0.0
 10
6251.823425293
 20
5308.5647317341
 10
6252.3050474898
 20
5308.8428848328
 10
6252.6833526157
 20
5309.0614302775
  0
LWPOLYLINE
  5
398
330
1F
100
AcDbEntity
  8
0
  6
Continuous
 62
     7
100
AcDbPolyline
 90
        3
 70
   128
 43
0.0
 10
6251.823425293
 20
5306.977232801
 10
6252.3050471916
 20
5307.2553853728
 10
6252.6833526157
 20
5307.4739294818
  0
LWPOLYLINE
  5
399
330
1F
100
AcDbEntity
  8
0
  6
Continuous
 62
     7
100
AcDbPolyline
 90
        3
 70
   128
 43
0.0
 10
6251.823425293
 20
5305.3897320053
 10
6252.3050471916
 20
5305.6678845771
 10
6252.6833526157
 20
5305.886428686
  0
LWPOLYLINE
  5
39A
330
1F
100
AcDbEntity
  8
0
  6
Continuous
 62
     7
100
AcDbPolyline
 90
        3
 70
   128
 43
0.0
 10
6251.823425293
 20
5303.8022321409
 10
6252.3050473407
 20
5304.0803849761
 10
6252.6833526157
 20
5304.298929753
  0
LWPOLYLINE
  5
39B
330
1F
100
AcDbEntity
  8
0
  6
Continuous
 62
     7
100
AcDbPolyline
 90
        3
 70
   128
 43
0.0
 10
6226.432800293
 20
5311.3407770863
 10
6226.8117421158
 20
5311.1222289946
 10
6227.108981397
 20
5310.9505119493
  0
LWPOLYLINE
  5
39C
330
1F
100
AcDbEntity
  8
0
  6
Continuous
 62
     7
100
AcDbPolyline
 90
        3
 70
   128
 43
0.0
 10
6227.1156311035
 20
5309.17836714
 10
6226.6353255822
 20
5308.9002180991
 10
6226.2570224069
 20
5308.6816797724
  0
LWPOLYLINE
  5
39D
330
1F
100
AcDbEntity
  8
0
  6
Continuous
 62
     7
100
AcDbPolyline
 90
        3
 70
   128
 43
0.0
 10
6227.1156311035
 20
5307.5908682069
 10
6226.635325284
 20
5307.3127186391
 10
6226.2570224069
 20
5307.0941789767
  0
LWPOLYLINE
  5
39E
330
1F
100
AcDbEntity
  8
0
  6
Continuous
 62
     7
100
AcDbPolyline
 90
        3
 70
   128
 43
0.0
 10
6227.1156311035
 20
5306.0033674112
 10
6226.6353255822
 20
5305.7252183703
 10
6226.2570224069
 20
5305.5066800436
  0
LWPOLYLINE
  5
39F
330
1F
100
AcDbEntity
  8
0
  6
Continuous
 62
     7
100
AcDbPolyline
 90
        3
 70
   128
 43
0.0
 10
6227.1156311035
 20
5304.4158675468
 10
6226.6353254331
 20
5304.1377182424
 10
6226.2570224069
 20
5303.9191792479
  0
LWPOLYLINE
  5
3A0
330
1F
100
AcDbEntity
  8
0
  6
Continuous
 62
     7
100
AcDbPolyline
 90
        3
 70
   128
 43
0.0
 10
6252.6817321777
 20
5309.4754292389
 10
6252.2062687459
 20
5309.7510426478
 10
6251.8314085267
 20
5309.9676015546
  0
LWPOLYLINE
  5
3A1
330
1F
100
AcDbEntity
  8
0
  6
Continuous
 62
     7
100
AcDbPolyline
 90
        3
 70
   128
 43
0.0
 10
6252.6817321777
 20
5307.8879284432
 10
6252.2062687459
 20
5308.1635418521
 10
6251.8314085267
 20
5308.3801007589
  0
LWPOLYLINE
  5
3A2
330
1F
100
AcDbEntity
  8
0
  6
Continuous
 62
     7
100
AcDbPolyline
 90
        3
 70
   128
 43
0.0
 10
6252.6817321777
 20
5306.3004295101
 10
6252.206269047
 20
5306.5760423971
 10
6251.8314085267
 20
5306.7925999632
  0
LWPOLYLINE
  5
3A3
330
1F
100
AcDbEntity
  8
0
  6
Continuous
 62
     7
100
AcDbPolyline
 90
        3
 70
   128
 43
0.0
 10
6252.6817321777
 20
5304.7129287144
 10
6252.2062687459
 20
5304.9885421233
 10
6251.8314085267
 20
5305.2051010301
  0
LWPOLYLINE
  5
3A4
330
1F
100
AcDbEntity
  8
0
  6
Continuous
 62
     7
100
AcDbPolyline
 90
        3
 70
   128
 43
0.0
 10
6252.6817321777
 20
5311.0629300347
 10
6252.2062684503
 20
5311.3385418888
 10
6251.8314085267
 20
5311.5551004877
  0
LWPOLYLINE
  5
3A5
330
1F
100
AcDbEntity
  8
0
  6
Continuous
 62
     7
100
AcDbPolyline
 90
        3
 70
   128
 43
0.0
 10
6227.1156311035
 20
5310.7658679357
 10
6226.635325284
 20
5310.4877183679
 10
6226.2570224069
 20
5310.2691787055
  0
LWPOLYLINE
  5
3A6
330
1F
100
AcDbEntity
  8
0
  6
Continuous
 62
     7
100
AcDbPolyline
 90
        3
 70
   128
 43
0.0
 10
6205.1811218262
 20
5116.4869646301
 10
6204.7066740563
 20
5116.7628432358
 10
6204.3314389251
 20
5116.9795970192
  0
LWPOLYLINE
  5
3A7
330
1F
100
AcDbEntity
  8
0
  6
Continuous
 62
     7
100
AcDbPolyline
 90
        3
 70
   128
 43
0.0
 10
6205.1811218262
 20
5118.0744747391
 10
6204.7066692835
 20
5118.3503450825
 10
6204.3314389251
 20
5118.5671071282
  0
LWPOLYLINE
  5
3A8
330
1F
100
AcDbEntity
  8
0
  6
Continuous
 62
     7
100
AcDbPolyline
 90
        3
 70
   128
 43
0.0
 10
6205.1811218262
 20
5119.6619699469
 10
6204.7066692835
 20
5119.9378402903
 10
6204.3314389251
 20
5120.1546023359
  0
LWPOLYLINE
  5
3A9
330
1F
100
AcDbEntity
  8
0
  6
Continuous
 62
     7
100
AcDbPolyline
 90
        3
 70
   128
 43
0.0
 10
6205.1811218262
 20
5121.2494651547
 10
6204.7066692835
 20
5121.5253354981
 10
6204.3314389251
 20
5121.7420975437
  0
LWPOLYLINE
  5
3AA
330
1F
100
AcDbEntity
  8
0
  6
Continuous
 62
     7
100
AcDbPolyline
 90
        3
 70
   128
 43
0.0
 10
6205.1811218262
 20
5122.8369752636
 10
6204.7066692835
 20
5123.112845607
 10
6204.3314389251
 20
5123.3296076527
  0
LWPOLYLINE
  5
3AB
330
1F
100
AcDbEntity
  8
0
  6
Continuous
 62
     7
100
AcDbPolyline
 90
        3
 70
   128
 43
0.0
 10
6179.615020752
 20
5117.7773455849
 10
6179.1344378965
 20
5117.4992326289
 10
6178.7561587356
 20
5117.2807196846
  0
LWPOLYLINE
  5
3AC
330
1F
100
AcDbEntity
  8
0
  6
Continuous
 62
     7
100
AcDbPolyline
 90
        3
 70
   128
 43
0.0
 10
6179.615020752
 20
5119.3648556938
 10
6179.1344355111
 20
5119.0867385226
 10
6178.7561587356
 20
5118.8682148924
  0
LWPOLYLINE
  5
3AD
330
1F
100
AcDbEntity
  8
0
  6
Continuous
 62
     7
100
AcDbPolyline
 90
        3
 70
   128
 43
0.0
 10
6179.615020752
 20
5120.9523509016
 10
6179.1344378965
 20
5120.6742379456
 10
6178.7561587356
 20
5120.4557250014
  0
LWPOLYLINE
  5
3AE
330
1F
100
AcDbEntity
  8
0
  6
Continuous
 62
     7
100
AcDbPolyline
 90
        3
 70
   128
 43
0.0
 10
6179.615020752
 20
5122.5398461094
 10
6179.1344378965
 20
5122.2617331534
 10
6178.7561587356
 20
5122.0432202091
  0
LWPOLYLINE
  5
3AF
330
1F
100
AcDbEntity
  8
0
  6
Continuous
 62
     7
100
AcDbPolyline
 90
        3
 70
   128
 43
0.0
 10
6179.615020752
 20
5116.1898503771
 10
6179.3180918893
 20
5116.0178289669
 10
6179.0841183923
 20
5115.8826629391
  0
LWPOLYLINE
  5
3B0
330
1F
100
AcDbEntity
  8
0
  6
Continuous
 62
     7
100
AcDbPolyline
 90
        3
 70
   128
 43
0.0
 10
6204.3228149414
 20
5117.1658913365
 10
6204.8059631991
 20
5117.4440054505
 10
6205.1842398308
 20
5117.6625172367
  0
LWPOLYLINE
  5
3B1
330
1F
100
AcDbEntity
  8
0
  6
Continuous
 62
     7
100
AcDbPolyline
 90
        3
 70
   128
 43
0.0
 10
6204.3228149414
 20
5118.7534014454
 10
6204.8059631991
 20
5119.0315155594
 10
6205.1842398308
 20
5119.2500273457
  0
LWPOLYLINE
  5
3B2
330
1F
100
AcDbEntity
  8
0
  6
Continuous
 62
     7
100
AcDbPolyline
 90
        3
 70
   128
 43
0.0
 10
6204.3228149414
 20
5120.3408966532
 10
6204.8059631991
 20
5120.6190107672
 10
6205.1842398308
 20
5120.8375225535
  0
LWPOLYLINE
  5
3B3
330
1F
100
AcDbEntity
  8
0
  6
Continuous
 62
     7
100
AcDbPolyline
 90
        3
 70
   128
 43
0.0
 10
6204.3228149414
 20
5121.928391861
 10
6204.8059631991
 20
5122.206505975
 10
6205.1842398308
 20
5122.4250177612
  0
LWPOLYLINE
  5
3B4
330
1F
100
AcDbEntity
  8
0
  6
Continuous
 62
     7
100
AcDbPolyline
 90
        3
 70
   128
 43
0.0
 10
6178.7528991699
 20
5118.4562722912
 10
6179.2337231076
 20
5118.1803983437
 10
6179.6089521907
 20
5117.9636399021
  0
LWPOLYLINE
  5
3B5
330
1F
100
AcDbEntity
  8
0
  6
Continuous
 62
     7
100
AcDbPolyline
 90
        3
 70
   128
 43
0.0
 10
6178.7528991699
 20
5120.043767499
 10
6179.2337231076
 20
5119.7678935514
 10
6179.6089521907
 20
5119.5511351099
  0
LWPOLYLINE
  5
3B6
330
1F
100
AcDbEntity
  8
0
  6
Continuous
 62
     7
100
AcDbPolyline
 90
        3
 70
   128
 43
0.0
 10
6178.7528991699
 20
5121.6312776079
 10
6179.2337231076
 20
5121.3554036604
 10
6179.6089521907
 20
5121.1386452189
  0
LWPOLYLINE
  5
3B7
330
1F
100
AcDbEntity
  8
0
  6
Continuous
 62
     7
100
AcDbPolyline
 90
        3
 70
   128
 43
0.0
 10
6178.7528991699
 20
5123.2187728157
 10
6179.2337231076
 20
5122.9428988682
 10
6179.6089521907
 20
5122.7261404267
  0
LWPOLYLINE
  5
3B8
330
1F
100
AcDbEntity
  8
0
  6
Continuous
 62
     7
100
AcDbPolyline
 90
        3
 70
   128
 43
0.0
 10
6178.7528991699
 20
5116.8687770834
 10
6179.2337231076
 20
5116.5929031359
 10
6179.6089521907
 20
5116.3761446943
  0
LWPOLYLINE
  5
3B9
330
1F
100
AcDbEntity
  8
0
  6
Continuous
 62
     7
100
AcDbPolyline
 90
        3
 70
   128
 43
0.0
 10
6204.3228149414
 20
5115.5783961287
 10
6204.6232954377
 20
5115.7509906999
 10
6204.8580459617
 20
5115.8865968456
  0
LWPOLYLINE
  5
3BA
330
1F
100
AcDbEntity
  8
0
  6
Continuous
 62
     7
100
AcDbPolyline
 90
        3
 70
   128
 43
0.0
 10
6300.1823425293
 20
5117.8117523661
 10
6299.7018945057
 20
5118.0898935461
 10
6299.3235959969
 20
5118.308437871
  0
LWPOLYLINE
  5
3BB
330
1F
100
AcDbEntity
  8
0
  6
Continuous
 62
     7
100
AcDbPolyline
 90
        3
 70
   128
 43
0.0
 10
6300.1823425293
 20
5119.399262475
 10
6299.7018945057
 20
5119.677403655
 10
6299.3235959969
 20
5119.8959479799
  0
LWPOLYLINE
  5
3BC
330
1F
100
AcDbEntity
  8
0
  6
Continuous
 62
     7
100
AcDbPolyline
 90
        3
 70
   128
 43
0.0
 10
6300.1823425293
 20
5120.9867576828
 10
6299.7018945057
 20
5121.2648988628
 10
6299.3235959969
 20
5121.4834431877
  0
LWPOLYLINE
  5
3BD
330
1F
100
AcDbEntity
  8
0
  6
Continuous
 62
     7
100
AcDbPolyline
 90
        3
 70
   128
 43
0.0
 10
6300.1823425293
 20
5122.5742528906
 10
6299.7018945057
 20
5122.8523940706
 10
6299.3235959969
 20
5123.0709383955
  0
LWPOLYLINE
  5
3BE
330
1F
100
AcDbEntity
  8
0
  6
Continuous
 62
     7
100
AcDbPolyline
 90
        3
 70
   128
 43
0.0
 10
6274.6162414551
 20
5117.5146232119
 10
6274.1353244384
 20
5117.2365506494
 10
6273.7570218108
 20
5117.0180122128
  0
LWPOLYLINE
  5
3BF
330
1F
100
AcDbEntity
  8
0
  6
Continuous
 62
     7
100
AcDbPolyline
 90
        3
 70
   128
 43
0.0
 10
6274.6162414551
 20
5119.1021184197
 10
6274.1353244384
 20
5118.8240458572
 10
6273.7570218108
 20
5118.6055074206
  0
LWPOLYLINE
  5
3C0
330
1F
100
AcDbEntity
  8
0
  6
Continuous
 62
     7
100
AcDbPolyline
 90
        3
 70
   128
 43
0.0
 10
6274.6162414551
 20
5120.6896285286
 10
6274.1353244384
 20
5120.411541065
 10
6273.7570218108
 20
5120.1930026283
  0
LWPOLYLINE
  5
3C1
330
1F
100
AcDbEntity
  8
0
  6
Continuous
 62
     7
100
AcDbPolyline
 90
        3
 70
   128
 43
0.0
 10
6274.6162414551
 20
5122.2771237364
 10
6274.1353244384
 20
5121.9990511739
 10
6273.7570218108
 20
5121.7805127373
  0
LWPOLYLINE
  5
3C2
330
1F
100
AcDbEntity
  8
0
  6
Continuous
 62
     7
100
AcDbPolyline
 90
        3
 70
   128
 43
0.0
 10
6274.3301391602
 20
5123.6994544735
 10
6274.0094713225
 20
5123.5138428224
 10
6273.7570218108
 20
5123.3680079451
  0
LWPOLYLINE
  5
3C3
330
1F
100
AcDbEntity
  8
0
  6
Continuous
 62
     7
100
AcDbPolyline
 90
        3
 70
   128
 43
0.0
 10
6300.1823425293
 20
5116.2242571583
 10
6299.7018945057
 20
5116.5023983383
 10
6299.3235959969
 20
5116.7209426632
  0
LWPOLYLINE
  5
3C4
330
1F
100
AcDbEntity
  8
0
  6
Continuous
 62
     7
100
AcDbPolyline
 90
        3
 70
   128
 43
0.0
 10
6299.3278503418
 20
5116.9125715962
 10
6299.8120229616
 20
5117.1905494379
 10
6300.1900147013
 20
5117.4089590779
  0
LWPOLYLINE
  5
3C5
330
1F
100
AcDbEntity
  8
0
  6
Continuous
 62
     7
100
AcDbPolyline
 90
        3
 70
   128
 43
0.0
 10
6299.3278503418
 20
5118.5000817051
 10
6299.8120253461
 20
5118.7780470724
 10
6300.1900147013
 20
5118.9964542856
  0
LWPOLYLINE
  5
3C6
330
1F
100
AcDbEntity
  8
0
  6
Continuous
 62
     7
100
AcDbPolyline
 90
        3
 70
   128
 43
0.0
 10
6299.3278503418
 20
5120.0875769129
 10
6299.8120229616
 20
5120.3655547546
 10
6300.1900147013
 20
5120.5839643946
  0
LWPOLYLINE
  5
3C7
330
1F
100
AcDbEntity
  8
0
  6
Continuous
 62
     7
100
AcDbPolyline
 90
        3
 70
   128
 43
0.0
 10
6299.3278503418
 20
5121.6750721207
 10
6299.8120229616
 20
5121.9530499624
 10
6300.1900147013
 20
5122.1714596024
  0
LWPOLYLINE
  5
3C8
330
1F
100
AcDbEntity
  8
0
  6
Continuous
 62
     7
100
AcDbPolyline
 90
        3
 70
   128
 43
0.0
 10
6299.3278503418
 20
5123.2625822296
 10
6299.7368490588
 20
5123.4971081128
 10
6300.0557645522
 20
5123.6813942661
  0
LWPOLYLINE
  5
3C9
330
1F
100
AcDbEntity
  8
0
  6
Continuous
 62
     7
100
AcDbPolyline
 90
        3
 70
   128
 43
0.0
 10
6273.754119873
 20
5118.1915233603
 10
6274.2341320255
 20
5117.9159166765
 10
6274.6089808009
 20
5117.6993529072
  0
LWPOLYLINE
  5
3CA
330
1F
100
AcDbEntity
  8
0
  6
Continuous
 62
     7
100
AcDbPolyline
 90
        3
 70
   128
 43
0.0
 10
6273.754119873
 20
5119.7790185681
 10
6274.2341283929
 20
5119.5034139062
 10
6274.6089808009
 20
5119.2868630161
  0
LWPOLYLINE
  5
3CB
330
1F
100
AcDbEntity
  8
0
  6
Continuous
 62
     7
100
AcDbPolyline
 90
        3
 70
   128
 43
0.0
 10
6273.754119873
 20
5121.366528677
 10
6274.2341260283
 20
5121.0909115774
 10
6274.6089808009
 20
5120.8743582239
  0
LWPOLYLINE
  5
3CC
330
1F
100
AcDbEntity
  8
0
  6
Continuous
 62
     7
100
AcDbPolyline
 90
        3
 70
   128
 43
0.0
 10
6273.754119873
 20
5122.9540238848
 10
6274.2341320255
 20
5122.678417201
 10
6274.6089808009
 20
5122.4618534317
  0
LWPOLYLINE
  5
3CD
330
1F
100
AcDbEntity
  8
0
  6
Continuous
 62
     7
100
AcDbPolyline
 90
        3
 70
   128
 43
0.0
 10
6273.754119873
 20
5116.6040281525
 10
6274.2341260283
 20
5116.3284110529
 10
6274.6089808009
 20
5116.1118576994
  0
LWPOLYLINE
  5
3CE
330
1F
100
AcDbEntity
  8
0
  6
Continuous
 62
     7
100
AcDbPolyline
 90
       18
 70
   128
 43
0.0
 10
6226.4060974121
 20
5311.3593495211
 10
6226.4096159299
 20
5311.3591810558
 10
6226.4091611732
 20
5311.3592190277
 10
6226.4072347649
 20
5311.3595874462
 10
6226.4012611632
 20
5311.3610601293
 10
6226.3979691822
 20
5311.3625310889
 10
6226.3971881195
 20
5311.3636330668
 10
6226.3986084687
 20
5311.3652838517
 10
6226.4029878995
 20
5311.366931785
 10
6226.6862903865
 20
5311.3899083321
 10
6230.2182565869
 20
5311.4830445058
 10
6239.2729628343
 20
5311.6082027179
 10
6251.0977521429
 20
5311.7972183512
 10
6251.9845726669
 20
5311.8459363183
 10
6251.9966018273
 20
5311.8500249399
 10
6251.9981134364
 20
5311.8515559195
 10
6251.9982817255
 20
5311.8530858871
 10
6251.9818282984
 20
5311.8622525355
  0
LWPOLYLINE
  5
3CF
330
1F
100
AcDbEntity
  8
0
  6
Continuous
 62
     7
100
AcDbPolyline
 90
       10
 70
   128
 43
0.0
 10
6252.6092529297
 20
5310.6487299075
 10
6252.6199438225
 20
5310.6425179592
 10
6252.6232845142
 20
5310.6362961234
 10
6252.6162981691
 20
5310.6300545126
 10
6252.5948973913
 20
5310.6237865352
 10
6251.5228271705
 20
5310.5494920123
 10
6239.2486570681
 20
5310.2563780987
 10
6227.2351756275
 20
5309.9601779317
 10
6226.3469762377
 20
5309.8884285038
 10
6226.3110838197
 20
5309.8635430207
  0
LWPOLYLINE
  5
3D0
330
1F
100
AcDbEntity
  8
0
  6
Continuous
 62
     7
100
AcDbPolyline
 90
       10
 70
   128
 43
0.0
 10
6252.6092529297
 20
5309.0612309745
 10
6252.6199438225
 20
5309.0550190261
 10
6252.6232845142
 20
5309.0487971903
 10
6252.6162981691
 20
5309.0425555795
 10
6252.5948973912
 20
5309.0362876023
 10
6251.5228271688
 20
5308.9619930759
 10
6239.248657088
 20
5308.6688771687
 10
6227.2351756157
 20
5308.3726790265
 10
6226.3469762389
 20
5308.3009275439
 10
6226.3110838197
 20
5308.276042225
  0
LWPOLYLINE
  5
3D1
330
1F
100
AcDbEntity
  8
0
  6
Continuous
 62
     7
100
AcDbPolyline
 90
       10
 70
   128
 43
0.0
 10
6252.6092529297
 20
5307.4737301787
 10
6252.6199438225
 20
5307.4675182304
 10
6252.6232845142
 20
5307.4612963946
 10
6252.6162981691
 20
5307.4550547838
 10
6252.5948973913
 20
5307.4487868064
 10
6251.5228271705
 20
5307.3744922833
 10
6239.248657064
 20
5307.0813785459
 10
6227.2351756276
 20
5306.7851782008
 10
6226.3469762377
 20
5306.7134287721
 10
6226.3110838197
 20
5306.6885432919
  0
LWPOLYLINE
  5
3D2
330
1F
100
AcDbEntity
  8
0
  6
Continuous
 62
     7
100
AcDbPolyline
 90
       10
 70
   128
 43
0.0
 10
6252.6092529297
 20
5305.886229383
 10
6252.6199438224
 20
5305.8800181214
 10
6252.6232845138
 20
5305.873796924
 10
6252.6162981676
 20
5305.8675558549
 10
6252.5948973881
 20
5305.8612882849
 10
6251.5228271655
 20
5305.7869921848
 10
6239.2486570706
 20
5305.4938773971
 10
6227.235175614
 20
5305.1976792976
 10
6226.3469762388
 20
5305.1259278151
 10
6226.3110838197
 20
5305.1010424962
  0
LWPOLYLINE
  5
3D3
330
1F
100
AcDbEntity
  8
0
  6
Continuous
 62
     7
100
AcDbPolyline
 90
        8
 70
   128
 43
0.0
 10
6252.6092529297
 20
5304.2987304499
 10
6252.6208697203
 20
5304.2916179475
 10
6252.6231633435
 20
5304.2880570595
 10
6252.6225512494
 20
5304.2844906074
 10
6252.6155413073
 20
5304.2797234779
 10
6251.9772116669
 20
5304.2223965983
 10
6244.0179810489
 20
5303.9977968373
 10
6229.6712137125
 20
5303.6994541755
  0
LWPOLYLINE
  5
3D4
330
1F
100
AcDbEntity
  8
0
  6
Continuous
 62
     7
100
AcDbPolyline
 90
        8
 70
   128
 43
0.0
 10
6251.766204834
 20
5311.7397519519
 10
6239.2645960712
 20
5311.3478342772
 10
6228.0455479502
 20
5311.0521274635
 10
6227.1496326926
 20
5310.9804181092
 10
6227.1377539125
 20
5310.9742942771
 10
6227.1370079224
 20
5310.9719794445
 10
6227.1382805849
 20
5310.9696542225
 10
6227.172579553
 20
5310.9555653056
  0
LWPOLYLINE
  5
3D5
330
1F
100
AcDbEntity
  8
0
  6
Continuous
 62
     7
100
AcDbPolyline
 90
        8
 70
   128
 43
0.0
 10
6251.766204834
 20
5310.1522530189
 10
6239.2645961127
 20
5309.7603333324
 10
6228.0455479539
 20
5309.4646275508
 10
6227.149632694
 20
5309.3929189793
 10
6227.1377539127
 20
5309.3867953112
 10
6227.1370079224
 20
5309.3844805174
 10
6227.1382805847
 20
5309.3821553204
 10
6227.172579553
 20
5309.3680663725
  0
LWPOLYLINE
  5
3D6
330
1F
100
AcDbEntity
  8
0
  6
Continuous
 62
     7
100
AcDbPolyline
 90
        8
 70
   128
 43
0.0
 10
6251.766204834
 20
5308.5647522231
 10
6239.2645960711
 20
5308.1728345589
 10
6228.045547954
 20
5307.8771267418
 10
6227.149632694
 20
5307.8054181843
 10
6227.1377539127
 20
5307.7992945156
 10
6227.1370079224
 20
5307.7969797216
 10
6227.1382805847
 20
5307.7946545245
 10
6227.172579553
 20
5307.7805655768
  0
LWPOLYLINE
  5
3D7
330
1F
100
AcDbEntity
  8
0
  6
Continuous
 62
     7
100
AcDbPolyline
 90
        8
 70
   128
 43
0.0
 10
6251.766204834
 20
5306.9772532901
 10
6239.264596108
 20
5306.5853338454
 10
6228.0455479539
 20
5306.2896278217
 10
6227.149632694
 20
5306.2179192505
 10
6227.1377539127
 20
5306.2117955824
 10
6227.1370079224
 20
5306.2094807886
 10
6227.1382805847
 20
5306.2071555916
 10
6227.172579553
 20
5306.1930666437
  0
LWPOLYLINE
  5
3D8
330
1F
100
AcDbEntity
  8
0
  6
Continuous
 62
     7
100
AcDbPolyline
 90
        8
 70
   128
 43
0.0
 10
6251.766204834
 20
5305.3897524944
 10
6239.2645960714
 20
5304.9978348249
 10
6228.0455479556
 20
5304.7021269017
 10
6227.1496326939
 20
5304.6304184617
 10
6227.1377539127
 20
5304.6242947879
 10
6227.1370079224
 20
5304.6219799926
 10
6227.1382805847
 20
5304.6196547947
 10
6227.172579553
 20
5304.605565848
  0
LWPOLYLINE
  5
3D9
330
1F
100
AcDbEntity
  8
0
  6
Continuous
 62
     7
100
AcDbPolyline
 90
        8
 70
   128
 43
0.0
 10
6252.6626586914
 20
5311.0543730428
 10
6239.4711041988
 20
5310.6575883184
 10
6227.2647074359
 20
5310.3582678557
 10
6226.292848576
 20
5310.2856806851
 10
6226.2803625081
 20
5310.2794816376
 10
6226.2797240537
 20
5310.277138154
 10
6226.2812544278
 20
5310.2747842072
 10
6226.3188994788
 20
5310.2605229935
  0
LWPOLYLINE
  5
3DA
330
1F
100
AcDbEntity
  8
0
  6
Continuous
 62
     7
100
AcDbPolyline
 90
        8
 70
   128
 43
0.0
 10
6252.6626586914
 20
5309.4668722471
 10
6239.4711041606
 20
5309.0700895243
 10
6227.264707436
 20
5308.7707670465
 10
6226.292848576
 20
5308.6981798901
 10
6226.2803625081
 20
5308.691980842
 10
6226.2797240537
 20
5308.6896373582
 10
6226.2812544278
 20
5308.6872834113
 10
6226.3188994788
 20
5308.6730221977
  0
LWPOLYLINE
  5
3DB
330
1F
100
AcDbEntity
  8
0
  6
Continuous
 62
     7
100
AcDbPolyline
 90
        8
 70
   128
 43
0.0
 10
6252.6626586914
 20
5307.8793714514
 10
6239.4711041784
 20
5307.4825887393
 10
6227.2647074342
 20
5307.1832681266
 10
6226.292848576
 20
5307.1106809563
 10
6226.2803625081
 20
5307.1044819088
 10
6226.2797240537
 20
5307.1021384252
 10
6226.2812544278
 20
5307.0997844784
 10
6226.3188994788
 20
5307.0855232647
  0
LWPOLYLINE
  5
3DC
330
1F
100
AcDbEntity
  8
0
  6
Continuous
 62
     7
100
AcDbPolyline
 90
        8
 70
   128
 43
0.0
 10
6252.6626586914
 20
5306.2918725183
 10
6239.4711041606
 20
5305.8950897955
 10
6227.264707436
 20
5305.5957673177
 10
6226.292848576
 20
5305.5231801613
 10
6226.2803625081
 20
5305.5169811132
 10
6226.2797240537
 20
5305.5146376294
 10
6226.2812544278
 20
5305.5122836825
 10
6226.3188994788
 20
5305.4980224689
  0
LWPOLYLINE
  5
3DD
330
1F
100
AcDbEntity
  8
0
  6
Continuous
 62
     7
100
AcDbPolyline
 90
        8
 70
   128
 43
0.0
 10
6252.6626586914
 20
5304.7043726539
 10
6239.4711041776
 20
5304.3075890326
 10
6227.264707436
 20
5304.0082674599
 10
6226.292848576
 20
5303.9356802965
 10
6226.2803625081
 20
5303.9294812488
 10
6226.2797240537
 20
5303.927137765
 10
6226.2812544278
 20
5303.9247838182
 10
6226.3188994788
 20
5303.9105226045
  0
LWPOLYLINE
  5
3DE
330
1F
100
AcDbEntity
  8
0
  6
Continuous
 62
     7
100
AcDbPolyline
 90
        9
 70
   128
 43
0.0
 10
6251.8081665039
 20
5311.5509989431
 10
6239.7045964405
 20
5311.1585140277
 10
6228.2129803898
 20
5310.8622508518
 10
6227.1797746174
 20
5310.7904729023
 10
6227.1484466725
 20
5310.7836558287
 10
6227.1361305857
 20
5310.7767516998
 10
6227.1366039244
 20
5310.7744277696
 10
6227.1394268998
 20
5310.7720917832
 10
6227.1541915201
 20
5310.7658250948
  0
LWPOLYLINE
  5
3DF
330
1F
100
AcDbEntity
  8
0
  6
Continuous
 62
     7
100
AcDbPolyline
 90
        9
 70
   128
 43
0.0
 10
6251.8081665039
 20
5309.96350001
 10
6239.7045964599
 20
5309.5710132353
 10
6228.2129803896
 20
5309.2747507126
 10
6227.1797746144
 20
5309.2029725729
 10
6227.1484466712
 20
5309.1961552368
 10
6227.1361305855
 20
5309.1892509378
 10
6227.1366039244
 20
5309.186926978
 10
6227.1394268998
 20
5309.1845909774
 10
6227.1541915201
 20
5309.1783242991
  0
LWPOLYLINE
  5
3E0
330
1F
100
AcDbEntity
  8
0
  6
Continuous
 62
     7
100
AcDbPolyline
 90
        9
 70
   128
 43
0.0
 10
6251.8081665039
 20
5308.3759992143
 10
6239.7045964431
 20
5307.9835141641
 10
6228.2129803897
 20
5307.6872511365
 10
6227.1797746175
 20
5307.615473172
 10
6227.1484466726
 20
5307.6086560992
 10
6227.1361305857
 20
5307.6017519709
 10
6227.1366039244
 20
5307.5994280408
 10
6227.1394268998
 20
5307.5970920545
 10
6227.1541915201
 20
5307.590825366
  0
LWPOLYLINE
  5
3E1
330
1F
100
AcDbEntity
  8
0
  6
Continuous
 62
     7
100
AcDbPolyline
 90
        9
 70
   128
 43
0.0
 10
6251.8081665039
 20
5306.7885002812
 10
6239.7045964595
 20
5306.3960135001
 10
6228.2129803952
 20
5306.0997500809
 10
6227.1797746172
 20
5306.0279724055
 10
6227.1484466724
 20
5306.021155317
 10
6227.1361305857
 20
5306.0142511775
 10
6227.1366039244
 20
5306.0119272454
 10
6227.1394268998
 20
5306.009591258
 10
6227.1541915201
 20
5306.0033245703
  0
LWPOLYLINE
  5
3E2
330
1F
100
AcDbEntity
  8
0
  6
Continuous
 62
     7
100
AcDbPolyline
 90
        9
 70
   128
 43
0.0
 10
6251.8081665039
 20
5305.2009994855
 10
6239.704596453
 20
5304.8085134988
 10
6228.2129803897
 20
5304.5122507889
 10
6227.1797746159
 20
5304.4404727468
 10
6227.1484466719
 20
5304.4336555418
 10
6227.1361305856
 20
5304.4267513278
 10
6227.1366039244
 20
5304.4244273827
 10
6227.1394268998
 20
5304.4220913892
 10
6227.1541915201
 20
5304.4158247059
  0
LWPOLYLINE
  5
3E3
330
1F
100
AcDbEntity
  8
0
  6
Continuous
 62
     7
100
AcDbPolyline
 90
        9
 70
   128
 43
0.0
 10
6197.8416442871
 20
5116.1994616261
 10
6180.6602536823
 20
5115.9563601979
 10
6179.1434873874
 20
5115.8937841232
 10
6179.0672870109
 20
5115.8824256493
 10
6179.0664328117
 20
5115.8814845174
 10
6179.0664376722
 20
5115.8807790984
 10
6179.0670099531
 20
5115.8800740298
 10
6179.0699076295
 20
5115.8786648791
 10
6179.0975294374
 20
5115.8736626377
  0
LWPOLYLINE
  5
3E4
330
1F
100
AcDbEntity
  8
0
  6
Continuous
 62
     7
100
AcDbPolyline
 90
        5
 70
   128
 43
0.0
 10
6204.3190002441
 20
5115.3705845347
 10
6204.3347342262
 20
5115.3649914836
 10
6204.3352385934
 20
5115.3640560168
 10
6204.3349410961
 20
5115.3631190309
 10
6204.1006795429
 20
5115.340201067
  0
LWPOLYLINE
  5
3E5
330
1F
100
AcDbEntity
  8
0
  6
Continuous
 62
     7
100
AcDbPolyline
 90
        3
 70
   128
 43
0.0
 10
6198.8639831543
 20
5115.340201067
 10
6203.5290122594
 20
5115.6685110556
 10
6204.8883400224
 20
5115.9225384464
  0
LINE
  5
3E6
330
1F
100
AcDbEntity
  8
0
  6
Continuous
 62
     7
100
AcDbLine
 10
6204.0977478027
 20
5115.340201067
 30
0.0
 11
6198.8667360805
 21
5115.340201067
 31
0.0
  0
ARC
  5
3E7
330
1F
100
AcDbEntity
  8
0
  6
Continuous
 62
     7
100
AcDbCircle
 10
6200.7046001773
 20
5136.9000090034
 30
0.0
 40
20.89758785479232
100
AcDbArc
 50
262.1257516275
 51
282.2636178053
  0
LWPOLYLINE
  5
3E8
330
1F
100
AcDbEntity
  8
0
  6
Continuous
 62
     7
100
AcDbPolyline
 90
        5
 70
   128
 43
0.0
 10
6178.8024902344
 20
5117.2810475102
 10
6192.1819551527
 20
5117.6741106944
 10
6204.2053928907
 20
5117.9688791557
 10
6205.0926662193
 20
5118.0430741342
 10
6205.1434553526
 20
5118.0667857399
  0
LWPOLYLINE
  5
3E9
330
1F
100
AcDbEntity
  8
0
  6
Continuous
 62
     7
100
AcDbPolyline
 90
        5
 70
   128
 43
0.0
 10
6178.8024902344
 20
5118.8685427179
 10
6192.1819550467
 20
5119.2616192069
 10
6204.2053929867
 20
5119.556374908
 10
6205.0926662088
 20
5119.630585626
 10
6205.1434553526
 20
5119.6542958489
  0
LWPOLYLINE
  5
3EA
330
1F
100
AcDbEntity
  8
0
  6
Continuous
 62
     7
100
AcDbPolyline
 90
        5
 70
   128
 43
0.0
 10
6178.8024902344
 20
5120.4560528269
 10
6192.1819551366
 20
5120.8491169782
 10
6204.2053928874
 20
5121.1438848218
 10
6205.0926662218
 20
5121.2180791611
 10
6205.1434553526
 20
5121.2417910566
  0
LWPOLYLINE
  5
3EB
330
1F
100
AcDbEntity
  8
0
  6
Continuous
 62
     7
100
AcDbPolyline
 90
        5
 70
   128
 43
0.0
 10
6178.8024902344
 20
5122.0435480347
 10
6192.1819551527
 20
5122.4366112189
 10
6204.2053928907
 20
5122.7313796802
 10
6205.0926662193
 20
5122.8055746587
 10
6205.1434553526
 20
5122.8292862644
  0
LWPOLYLINE
  5
3EC
330
1F
100
AcDbEntity
  8
0
  6
Continuous
 62
     7
100
AcDbPolyline
 90
        3
 70
   128
 43
0.0
 10
6178.8024902344
 20
5123.6310432425
 10
6178.9785495866
 20
5123.6688150646
 10
6179.3543509506
 20
5123.6994544735
  0
LWPOLYLINE
  5
3ED
330
1F
100
AcDbEntity
  8
0
  6
Continuous
 62
     7
100
AcDbPolyline
 90
       14
 70
   128
 43
0.0
 10
6179.6684265137
 20
5116.1899397841
 10
6179.6606538852
 20
5116.1958621036
 10
6179.657439137
 20
5116.1988311244
 10
6179.6567356679
 20
5116.2018095785
 10
6179.6657190352
 20
5116.2078054674
 10
6179.6891048731
 20
5116.2138548926
 10
6180.702086182
 20
5116.2887943055
 10
6192.1780029495
 20
5116.5826254175
 10
6203.4098053784
 20
5116.8775455267
 10
6204.280596374
 20
5116.9518287286
 10
6204.2941927674
 20
5116.9578206849
 10
6204.2951678147
 20
5116.9600590383
 10
6204.2942232742
 20
5116.9622934267
 10
6204.2636013888
 20
5116.9756482115
  0
LWPOLYLINE
  5
3EE
330
1F
100
AcDbEntity
  8
0
  6
Continuous
 62
     7
100
AcDbPolyline
 90
       14
 70
   128
 43
0.0
 10
6179.6684265137
 20
5117.777449893
 10
6179.6606538869
 20
5117.7833648296
 10
6179.6574391399
 20
5117.7863305366
 10
6179.6567356723
 20
5117.7893061302
 10
6179.6657190423
 20
5117.7952981569
 10
6179.6891048787
 20
5117.8013461299
 10
6180.7020862577
 20
5117.8762988225
 10
6192.1780028257
 20
5118.1701340301
 10
6203.4098053928
 20
5118.4650407324
 10
6204.2805963747
 20
5118.5393239369
 10
6204.2941927676
 20
5118.5453158927
 10
6204.2951678148
 20
5118.5475542461
 10
6204.2942232741
 20
5118.5497886344
 10
6204.2636013888
 20
5118.5631434193
  0
LWPOLYLINE
  5
3EF
330
1F
100
AcDbEntity
  8
0
  6
Continuous
 62
     7
100
AcDbPolyline
 90
       14
 70
   128
 43
0.0
 10
6179.6684265137
 20
5119.3649451008
 10
6179.6606538858
 20
5119.3708673581
 10
6179.6574391376
 20
5119.3738363756
 10
6179.6567356682
 20
5119.3768148599
 10
6179.6657190335
 20
5119.3828109436
 10
6179.6891048679
 20
5119.3888607099
 10
6180.7020862719
 20
5119.4637908225
 10
6192.1780030158
 20
5119.7576282363
 10
6203.4098053749
 20
5120.0525512396
 10
6204.2805963745
 20
5120.1268340078
 10
6204.2941927673
 20
5120.132826012
 10
6204.2951678145
 20
5120.1350643748
 10
6204.2942232739
 20
5120.1372987683
 10
6204.2636013888
 20
5120.1506535282
  0
LWPOLYLINE
  5
3F0
330
1F
100
AcDbEntity
  8
0
  6
Continuous
 62
     7
100
AcDbPolyline
 90
       14
 70
   128
 43
0.0
 10
6179.6684265137
 20
5120.9524403086
 10
6179.6606538852
 20
5120.9583626278
 10
6179.657439137
 20
5120.9613316486
 10
6179.6567356679
 20
5120.9643101028
 10
6179.6657190352
 20
5120.9703059927
 10
6179.689104873
 20
5120.9763554197
 10
6180.7020861821
 20
5121.0512947933
 10
6192.1780030243
 20
5121.3451225176
 10
6203.4098053791
 20
5121.6400460505
 10
6204.2805963741
 20
5121.7143292532
 10
6204.2941927675
 20
5121.7203212094
 10
6204.2951678147
 20
5121.7225595628
 10
6204.2942232742
 20
5121.7247939511
 10
6204.2636013888
 20
5121.738148736
  0
LWPOLYLINE
  5
3F1
330
1F
100
AcDbEntity
  8
0
  6
Continuous
 62
     7
100
AcDbPolyline
 90
       14
 70
   128
 43
0.0
 10
6179.6684265137
 20
5122.5399504175
 10
6179.6606538852
 20
5122.5458655904
 10
6179.6574391381
 20
5122.5488313098
 10
6179.6567356713
 20
5122.5518067888
 10
6179.6657190466
 20
5122.5577980689
 10
6179.689104893
 20
5122.5638446546
 10
6180.7020863164
 20
5122.6387901078
 10
6192.1780030962
 20
5122.9326210886
 10
6203.409805392
 20
5123.2275412597
 10
6204.2805963747
 20
5123.3018244611
 10
6204.2941927676
 20
5123.3078164173
 10
6204.2951678147
 20
5123.3100547707
 10
6204.2942232741
 20
5123.3122891591
 10
6204.2636013888
 20
5123.3256439438
  0
LINE
  5
3F2
330
1F
100
AcDbEntity
  8
0
  6
Continuous
 62
     7
100
AcDbLine
 10
6203.6895751953
 20
5123.6994544735
 30
0.0
 11
6201.8269411586
 21
5123.6994544735
 31
0.0
  0
LWPOLYLINE
  5
3F3
330
1F
100
AcDbEntity
  8
0
  6
Continuous
 62
     7
100
AcDbPolyline
 90
        7
 70
   128
 43
0.0
 10
6198.8639831543
 20
5115.340201067
 10
6203.8933457965
 20
5115.5191224342
 10
6204.28912127
 20
5115.5639037199
 10
6204.2920803648
 20
5115.5675481497
 10
6204.2906943175
 20
5115.5702714925
 10
6204.2869449647
 20
5115.5729883015
 10
6204.2755074166
 20
5115.5784110298
  0
LWPOLYLINE
  5
3F4
330
1F
100
AcDbEntity
  8
0
  6
Continuous
 62
     7
100
AcDbPolyline
 90
       15
 70
   128
 43
0.0
 10
6179.6760559082
 20
5116.3801531067
 10
6179.6603501598
 20
5116.3890232382
 10
6179.654644468
 20
5116.3934728917
 10
6179.6534348303
 20
5116.3957039182
 10
6179.6535784229
 20
5116.3979400504
 10
6179.6620182842
 20
5116.4039334632
 10
6180.5367205948
 20
5116.478497649
 10
6191.7627270104
 20
5116.7728701302
 10
6203.2380117934
 20
5117.0672266212
 10
6204.2561786575
 20
5117.1419594099
 10
6204.2918172342
 20
5117.154010495
 10
6204.2920511364
 20
5117.1555042377
 10
6204.2913768179
 20
5117.1569952729
 10
6204.2878193969
 20
5117.1599707588
 10
6204.2755074166
 20
5117.1659062376
  0
LWPOLYLINE
  5
3F5
330
1F
100
AcDbEntity
  8
0
  6
Continuous
 62
     7
100
AcDbPolyline
 90
       15
 70
   128
 43
0.0
 10
6179.6760559082
 20
5117.9676632157
 10
6179.6603501607
 20
5117.976526407
 10
6179.6546444706
 20
5117.9809729079
 10
6179.6534348342
 20
5117.9832024931
 10
6179.6535784286
 20
5117.9854372952
 10
6179.6620182968
 20
5117.991427822
 10
6180.5367207148
 20
5118.0659926069
 10
6191.7627270203
 20
5118.360371667
 10
6203.2380118355
 20
5118.6547198271
 10
6204.2561786561
 20
5118.7294547899
 10
6204.2918172342
 20
5118.7415057066
 10
6204.2920511365
 20
5118.7429994404
 10
6204.291376818
 20
5118.7444904701
 10
6204.287819397
 20
5118.7474659531
 10
6204.2755074166
 20
5118.7534014454
  0
LWPOLYLINE
  5
3F6
330
1F
100
AcDbEntity
  8
0
  6
Continuous
 62
     7
100
AcDbPolyline
 90
       15
 70
   128
 43
0.0
 10
6179.6760559082
 20
5119.5551584234
 10
6179.6603501642
 20
5119.5640211076
 10
6179.6546444745
 20
5119.5684675465
 10
6179.6534348377
 20
5119.5706971821
 10
6179.6535784313
 20
5119.5729321017
 10
6179.6620182947
 20
5119.5789233403
 10
6180.5367206319
 20
5119.6535000799
 10
6191.7627268055
 20
5119.9478780781
 10
6203.2380116728
 20
5120.2422339796
 10
6204.2561786461
 20
5120.316951844
 10
6204.291817234
 20
5120.3290009502
 10
6204.2920511367
 20
5120.3304945986
 10
6204.2913768185
 20
5120.3319855752
 10
6204.2878193977
 20
5120.3349610307
 10
6204.2755074166
 20
5120.3408966532
  0
LWPOLYLINE
  5
3F7
330
1F
100
AcDbEntity
  8
0
  6
Continuous
 62
     7
100
AcDbPolyline
 90
       15
 70
   128
 43
0.0
 10
6179.6760559082
 20
5121.1426536312
 10
6179.6603501613
 20
5121.1515236245
 10
6179.6546444697
 20
5121.1559732611
 10
6179.6534348318
 20
5121.1582043013
 10
6179.653578424
 20
5121.1604404656
 10
6179.6620182833
 20
5121.1664340722
 10
6180.5367206561
 20
5121.2409922538
 10
6191.7627270158
 20
5121.5353706261
 10
6203.238011794
 20
5121.8297271457
 10
6204.2561786576
 20
5121.9044599344
 10
6204.2918172342
 20
5121.9165110195
 10
6204.2920511364
 20
5121.9180047622
 10
6204.2913768179
 20
5121.9194957974
 10
6204.2878193969
 20
5121.9224712833
 10
6204.2755074166
 20
5121.9284067621
  0
LWPOLYLINE
  5
3F8
330
1F
100
AcDbEntity
  8
0
  6
Continuous
 62
     7
100
AcDbPolyline
 90
       15
 70
   128
 43
0.0
 10
6179.6760559082
 20
5122.7301637402
 10
6179.6603501607
 20
5122.7390269315
 10
6179.6546444706
 20
5122.7434734325
 10
6179.6534348342
 20
5122.7457030177
 10
6179.6535784286
 20
5122.7479378197
 10
6179.6620182968
 20
5122.7539283465
 10
6180.5367207148
 20
5122.8284931314
 10
6191.7627270203
 20
5123.1228721915
 10
6203.2380118355
 20
5123.4172203516
 10
6204.2561786561
 20
5123.4919553144
 10
6204.2918172342
 20
5123.5040062311
 10
6204.2920511365
 20
5123.5054999649
 10
6204.291376818
 20
5123.5069909946
 10
6204.287819397
 20
5123.5099664777
 10
6204.2755074166
 20
5123.5159019699
  0
LWPOLYLINE
  5
3F9
330
1F
100
AcDbEntity
  8
0
  6
Continuous
 62
     7
100
AcDbPolyline
 90
       10
 70
   128
 43
0.0
 10
6178.8215637207
 20
5116.8762723675
 10
6178.7984415669
 20
5116.8897343879
 10
6178.7972406898
 20
5116.8919895553
 10
6178.7975367035
 20
5116.8942500292
 10
6178.8072242404
 20
5116.9003094959
 10
6179.7636135682
 20
5116.9757012662
 10
6191.9709886277
 20
5117.273068946
 10
6204.1854853865
 20
5117.5709934813
 10
6205.0918429158
 20
5117.6459752089
 10
6205.1434553526
 20
5117.6699231138
  0
LWPOLYLINE
  5
3FA
330
1F
100
AcDbEntity
  8
0
  6
Continuous
 62
     7
100
AcDbPolyline
 90
       10
 70
   128
 43
0.0
 10
6178.8215637207
 20
5118.4637824764
 10
6178.7984415724
 20
5118.477233772
 10
6178.7972406963
 20
5118.4794875406
 10
6178.7975367111
 20
5118.4817467952
 10
6178.8072242506
 20
5118.4878040748
 10
6179.7636135864
 20
5118.5632096149
 10
6191.970988533
 20
5118.8605769008
 10
6204.1854852861
 20
5119.158503541
 10
6205.0918429302
 20
5119.2334686627
 10
6205.1434553526
 20
5119.2574183216
  0
LWPOLYLINE
  5
3FB
330
1F
100
AcDbEntity
  8
0
  6
Continuous
 62
     7
100
AcDbPolyline
 90
       10
 70
   128
 43
0.0
 10
6178.8215637207
 20
5120.0512776842
 10
6178.7984415679
 20
5120.0647395915
 10
6178.7972406907
 20
5120.0669947701
 10
6178.7975367041
 20
5120.0692552689
 10
6178.8072242393
 20
5120.075314884
 10
6179.7636135961
 20
5120.1507017676
 10
6191.9709885919
 20
5120.4480693995
 10
6204.185485285
 20
5120.7459988351
 10
6205.0918429316
 20
5120.8209637661
 10
6205.1434553526
 20
5120.8449135294
  0
LWPOLYLINE
  5
3FC
330
1F
100
AcDbEntity
  8
0
  6
Continuous
 62
     7
100
AcDbPolyline
 90
       10
 70
   128
 43
0.0
 10
6178.8215637207
 20
5121.638772892
 10
6178.7984415669
 20
5121.6522349124
 10
6178.7972406898
 20
5121.6544900798
 10
6178.7975367035
 20
5121.6567505537
 10
6178.8072242404
 20
5121.6628100204
 10
6179.7636135682
 20
5121.7382017908
 10
6191.9709886277
 20
5122.0355694705
 10
6204.1854853865
 20
5122.3334940058
 10
6205.0918429158
 20
5122.4084757334
 10
6205.1434553526
 20
5122.4324236384
  0
LWPOLYLINE
  5
3FD
330
1F
100
AcDbEntity
  8
0
  6
Continuous
 62
     7
100
AcDbPolyline
 90
        8
 70
   128
 43
0.0
 10
6178.8215637207
 20
5123.226283001
 10
6178.8062392225
 20
5123.2342976525
 10
6178.7971820181
 20
5123.2423482563
 10
6178.7980384982
 20
5123.2450459942
 10
6178.8014383068
 20
5123.247753053
 10
6178.8244134625
 20
5123.2550225817
 10
6180.1794272347
 20
5123.3453664597
 10
6195.9226615094
 20
5123.6994544735
  0
LWPOLYLINE
  5
3FE
330
1F
100
AcDbEntity
  8
0
  6
Continuous
 62
     7
100
AcDbPolyline
 90
        9
 70
   128
 43
0.0
 10
6300.163269043
 20
5116.1994616261
 10
6286.7501703446
 20
5115.9553932747
 10
6275.1475419494
 20
5115.7681085925
 10
6274.2711198451
 20
5115.7223801294
 10
6274.2548318828
 20
5115.7184542823
 10
6274.2523464105
 20
5115.716972448
 10
6274.2518855018
 20
5115.7162294526
 10
6274.2519588864
 20
5115.7154850376
 10
6274.2831333838
 20
5115.7064716091
  0
LINE
  5
3FF
330
1F
100
AcDbEntity
  8
0
  6
Continuous
 62
     7
100
AcDbLine
 10
6276.8211364746
 20
5123.6994544735
 30
0.0
 11
6275.3348908685
 21
5123.6994544735
 31
0.0
  0
LWPOLYLINE
  5
400
330
1F
100
AcDbEntity
  8
0
  6
Continuous
 62
     7
100
AcDbPolyline
 90
        9
 70
   128
 43
0.0
 10
6300.163269043
 20
5116.1994616261
 10
6300.1848969981
 20
5116.2057175751
 10
6300.1893475959
 20
5116.208052716
 10
6300.1904693863
 20
5116.2092166104
 10
6300.1907153762
 20
5116.2103775873
 10
6300.1892123471
 20
5116.2121128167
 10
6300.1852830651
 20
5116.2138399637
 10
6300.1712781503
 20
5116.2172737829
 10
6300.1288063191
 20
5116.2240932455
  0
LWPOLYLINE
  5
401
330
1F
100
AcDbEntity
  8
0
  6
Continuous
 62
     7
100
AcDbPolyline
 90
       12
 70
   128
 43
0.0
 10
6273.8342285156
 20
5117.0177886954
 10
6273.8799375765
 20
5117.0425845387
 10
6274.9146798565
 20
5117.1142522059
 10
6287.1945543577
 20
5117.4107762794
 10
6299.2060375094
 20
5117.7034966205
 10
6300.1200153592
 20
5117.7781562515
 10
6300.1673997583
 20
5117.7875992792
 10
6300.1926365036
 20
5117.7946688661
 10
6300.1939830388
 20
5117.7958383854
 10
6300.1942049452
 20
5117.7964216567
 10
6300.1941001706
 20
5117.7970038379
 10
6300.1712261997
 20
5117.8031394949
  0
LWPOLYLINE
  5
402
330
1F
100
AcDbEntity
  8
0
  6
Continuous
 62
     7
100
AcDbPolyline
 90
       12
 70
   128
 43
0.0
 10
6273.8342285156
 20
5118.6052839031
 10
6273.8799375765
 20
5118.6300797465
 10
6274.9146798566
 20
5118.7017474136
 10
6287.1945543592
 20
5118.9982715239
 10
6299.2060374766
 20
5119.2909951344
 10
6300.1200153582
 20
5119.365651557
 10
6300.1673997583
 20
5119.3750944836
 10
6300.1926365037
 20
5119.3821640655
 10
6300.1939830389
 20
5119.3833335871
 10
6300.1942049453
 20
5119.3839168596
 10
6300.1941001707
 20
5119.3844990419
 10
6300.1712261997
 20
5119.3906347027
  0
LWPOLYLINE
  5
403
330
1F
100
AcDbEntity
  8
0
  6
Continuous
 62
     7
100
AcDbPolyline
 90
       12
 70
   128
 43
0.0
 10
6273.8342285156
 20
5120.1927940121
 10
6273.879937579
 20
5120.2175896309
 10
6274.9146798943
 20
5120.2892541087
 10
6287.1945544457
 20
5120.5857764448
 10
6299.2060374992
 20
5120.8785010581
 10
6300.1200153859
 20
5120.9531424818
 10
6300.1673997851
 20
5120.9625904326
 10
6300.1926365138
 20
5120.9696698059
 10
6300.1939830457
 20
5120.9708407638
 10
6300.1942049507
 20
5120.9714246809
 10
6300.1941001747
 20
5120.9720074494
 10
6300.1712261997
 20
5120.9781448116
  0
LWPOLYLINE
  5
404
330
1F
100
AcDbEntity
  8
0
  6
Continuous
 62
     7
100
AcDbPolyline
 90
       12
 70
   128
 43
0.0
 10
6273.8342285156
 20
5121.7802892199
 10
6273.8799375765
 20
5121.8050850632
 10
6274.9146798565
 20
5121.8767527304
 10
6287.1945543577
 20
5122.1732768039
 10
6299.2060375094
 20
5122.465997145
 10
6300.1200153592
 20
5122.540656776
 10
6300.1673997583
 20
5122.5500998037
 10
6300.1926365036
 20
5122.5571693906
 10
6300.1939830388
 20
5122.5583389099
 10
6300.1942049452
 20
5122.5589221813
 10
6300.1941001706
 20
5122.5595043624
 10
6300.1712261997
 20
5122.5656400194
  0
ARC
  5
405
330
1F
100
AcDbEntity
  8
0
  6
Continuous
 62
     7
100
AcDbCircle
 10
6280.148439652
 20
5086.7935996817
 30
0.0
 40
37.11522938234093
100
AcDbArc
 50
83.9112531655
 51
99.7950598553
  0
LWPOLYLINE
  5
406
330
1F
100
AcDbEntity
  8
0
  6
Continuous
 62
     7
100
AcDbPolyline
 90
        8
 70
   128
 43
0.0
 10
6274.6162414551
 20
5115.9271876087
 10
6296.0131417526
 20
5116.5225199775
 10
6299.1953353921
 20
5116.6702794353
 10
6299.3401216468
 20
5116.6988924651
 10
6299.3406919568
 20
5116.7012477047
 10
6299.3391940306
 20
5116.703596115
 10
6299.3297365663
 20
5116.7082704415
 10
6299.271535065
 20
5116.7206148377
  0
LWPOLYLINE
  5
407
330
1F
100
AcDbEntity
  8
0
  6
Continuous
 62
     7
100
AcDbPolyline
 90
        8
 70
   128
 43
0.0
 10
6274.6162414551
 20
5117.5146232119
 10
6296.0131419145
 20
5118.1100136875
 10
6299.1953354446
 20
5118.2577665566
 10
6299.3401216374
 20
5118.2863808781
 10
6299.3406919442
 20
5118.2887374694
 10
6299.3391940154
 20
5118.2910874787
 10
6299.3297365483
 20
5118.295765794
 10
6299.271535065
 20
5118.3081249466
  0
LWPOLYLINE
  5
408
330
1F
100
AcDbEntity
  8
0
  6
Continuous
 62
     7
100
AcDbPolyline
 90
        8
 70
   128
 43
0.0
 10
6274.6162414551
 20
5119.1021184197
 10
6296.0131419415
 20
5119.6975077982
 10
6299.1953353932
 20
5119.8452843819
 10
6299.3401216476
 20
5119.8738976991
 10
6299.3406919574
 20
5119.8762529658
 10
6299.3391940311
 20
5119.8786013996
 10
6299.3297365665
 20
5119.8832757588
 10
6299.271535065
 20
5119.8956201544
  0
LWPOLYLINE
  5
409
330
1F
100
AcDbEntity
  8
0
  6
Continuous
 62
     7
100
AcDbPolyline
 90
        8
 70
   128
 43
0.0
 10
6274.6162414551
 20
5120.6896285286
 10
6296.0131419019
 20
5121.2850084674
 10
6299.1953353986
 20
5121.4327794625
 10
6299.3401216482
 20
5121.4613928786
 10
6299.3406919577
 20
5121.4637481546
 10
6299.3391940311
 20
5121.4660965964
 10
6299.3297365662
 20
5121.4707709669
 10
6299.271535065
 20
5121.4831153622
  0
LWPOLYLINE
  5
40A
330
1F
100
AcDbEntity
  8
0
  6
Continuous
 62
     7
100
AcDbPolyline
 90
        8
 70
   128
 43
0.0
 10
6274.6162414551
 20
5122.2771237364
 10
6296.0131419009
 20
5122.8725162549
 10
6299.1953354282
 20
5123.0202689218
 10
6299.3401216338
 20
5123.0488818137
 10
6299.3406919417
 20
5123.0512382702
 10
6299.339194014
 20
5123.0535881626
 10
6299.3297365483
 20
5123.0582663152
 10
6299.271535065
 20
5123.0706254711
  0
LWPOLYLINE
  5
40B
330
1F
100
AcDbEntity
  8
0
  6
Continuous
 62
     7
100
AcDbPolyline
 90
       15
 70
   128
 43
0.0
 10
6274.6467590332
 20
5116.1169836989
 10
6274.6202390256
 20
5116.1241328199
 10
6274.6122732393
 20
5116.1276834352
 10
6274.6096970686
 20
5116.1312119239
 10
6274.610858405
 20
5116.1335527059
 10
6274.6142325473
 20
5116.1358848181
 10
6274.6334603147
 20
5116.1420650839
 10
6275.5715696577
 20
5116.2148537015
 10
6287.0394969159
 20
5116.5148364274
 10
6298.4264387745
 20
5116.8113436974
 10
6299.2959617285
 20
5116.887286293
 10
6299.3304598713
 20
5116.9015577742
 10
6299.331165341
 20
5116.9039226714
 10
6299.3303584284
 20
5116.9062827494
 10
6299.3223498873
 20
5116.912556695
  0
LWPOLYLINE
  5
40C
330
1F
100
AcDbEntity
  8
0
  6
Continuous
 62
     7
100
AcDbPolyline
 90
       15
 70
   128
 43
0.0
 10
6274.6467590332
 20
5117.7044789066
 10
6274.6202390255
 20
5117.7116280277
 10
6274.6122732393
 20
5117.7151786429
 10
6274.6096970686
 20
5117.7187071316
 10
6274.610858405
 20
5117.7210479135
 10
6274.6142325473
 20
5117.7233800258
 10
6274.6334603147
 20
5117.7295602914
 10
6275.5715696585
 20
5117.802348912
 10
6287.0394969298
 20
5118.102331388
 10
6298.4264387985
 20
5118.3988369183
 10
6299.2959617252
 20
5118.4747817575
 10
6299.3304598709
 20
5118.4890530171
 10
6299.3311653409
 20
5118.4914178934
 10
6299.3303584284
 20
5118.4937779582
 10
6299.3223498873
 20
5118.5000519028
  0
LWPOLYLINE
  5
40D
330
1F
100
AcDbEntity
  8
0
  6
Continuous
 62
     7
100
AcDbPolyline
 90
       15
 70
   128
 43
0.0
 10
6274.6467590332
 20
5119.2919741144
 10
6274.62023904
 20
5119.2991360615
 10
6274.612273256
 20
5119.3026916808
 10
6274.6096970863
 20
5119.3062238815
 10
6274.6108584229
 20
5119.3085664727
 10
6274.6142325651
 20
5119.3108999009
 10
6274.633460331
 20
5119.3170815189
 10
6275.5715696908
 20
5119.3898381071
 10
6287.039497061
 20
5119.6898269235
 10
6298.4264387992
 20
5119.9863476496
 10
6299.2959617426
 20
5120.0622547816
 10
6299.3304598684
 20
5120.0765386569
 10
6299.3311653369
 20
5120.0789076705
 10
6299.3303584237
 20
5120.0812725463
 10
6299.3223498873
 20
5120.0875620117
  0
LWPOLYLINE
  5
40E
330
1F
100
AcDbEntity
  8
0
  6
Continuous
 62
     7
100
AcDbPolyline
 90
       15
 70
   128
 43
0.0
 10
6274.6467590332
 20
5120.8794842234
 10
6274.6202390256
 20
5120.8866333444
 10
6274.6122732393
 20
5120.8901839596
 10
6274.6096970686
 20
5120.8937124481
 10
6274.610858405
 20
5120.89605323
 10
6274.6142325473
 20
5120.8983853421
 10
6274.6334603147
 20
5120.9045656073
 10
6275.571569657
 20
5120.9773542361
 10
6287.0394972233
 20
5121.2773220656
 10
6298.4264387748
 20
5121.5738442323
 10
6299.2959617285
 20
5121.6497868162
 10
6299.3304598713
 20
5121.6640582986
 10
6299.331165341
 20
5121.6664231959
 10
6299.3303584284
 20
5121.6687832739
 10
6299.3223498873
 20
5121.6750572195
  0
LWPOLYLINE
  5
40F
330
1F
100
AcDbEntity
  8
0
  6
Continuous
 62
     7
100
AcDbPolyline
 90
       15
 70
   128
 43
0.0
 10
6274.6467590332
 20
5122.4669794312
 10
6274.6202390255
 20
5122.4741285522
 10
6274.6122732393
 20
5122.4776791674
 10
6274.6096970686
 20
5122.4812076561
 10
6274.610858405
 20
5122.4835484381
 10
6274.6142325473
 20
5122.4858805503
 10
6274.6334603147
 20
5122.4920608159
 10
6275.5715696585
 20
5122.5648494365
 10
6287.0394969298
 20
5122.8648319125
 10
6298.4264387985
 20
5123.1613374428
 10
6299.2959617252
 20
5123.237282282
 10
6299.3304598709
 20
5123.2515535416
 10
6299.3311653409
 20
5123.2539184179
 10
6299.3303584284
 20
5123.2562784827
 10
6299.3223498873
 20
5123.2625524273
  0
LWPOLYLINE
  5
410
330
1F
100
AcDbEntity
  8
0
  6
Continuous
 62
     7
100
AcDbPolyline
 90
       17
 70
   128
 43
0.0
 10
6273.7922668457
 20
5116.6125516167
 10
6273.7633153969
 20
5116.6197093111
 10
6273.7542158586
 20
5116.6232655298
 10
6273.7508429259
 20
5116.6267997233
 10
6273.7516748681
 20
5116.6291442722
 10
6273.7548759672
 20
5116.6314801174
 10
6273.7743735985
 20
5116.6376701402
 10
6274.7709474965
 20
5116.7105363736
 10
6287.0381180558
 20
5117.0108058901
 10
6299.220762579
 20
5117.3075857609
 10
6300.183809468
 20
5117.3837428136
 10
6300.2022710617
 20
5117.3900905721
 10
6300.2051355419
 20
5117.3924601524
 10
6300.2056555317
 20
5117.3948229752
 10
6300.2018558012
 20
5117.3983533424
 10
6300.19230835
 20
5117.4018654284
 10
6300.1582975797
 20
5117.4088398686
  0
LWPOLYLINE
  5
411
330
1F
100
AcDbEntity
  8
0
  6
Continuous
 62
     7
100
AcDbPolyline
 90
       17
 70
   128
 43
0.0
 10
6273.7922668457
 20
5118.2000468245
 10
6273.7633154099
 20
5118.2072167194
 10
6273.7542158735
 20
5118.2107777708
 10
6273.7508429414
 20
5118.2143155709
 10
6273.7516748836
 20
5118.2166618875
 10
6273.7548759824
 20
5118.2189990282
 10
6273.7743736116
 20
5118.2251904383
 10
6274.7709475133
 20
5118.2980256731
 10
6287.0381180334
 20
5118.5983014549
 10
6299.2207624847
 20
5118.8950926144
 10
6300.1838094755
 20
5118.971237083
 10
6300.2022710659
 20
5118.9775852523
 10
6300.205135545
 20
5118.9799549733
 10
6300.2056555338
 20
5118.9823179225
 10
6300.201855802
 20
5118.9858484426
 10
6300.1923083501
 20
5118.9893606242
 10
6300.1582975797
 20
5118.9963350763
  0
LWPOLYLINE
  5
412
330
1F
100
AcDbEntity
  8
0
  6
Continuous
 62
     7
100
AcDbPolyline
 90
       17
 70
   128
 43
0.0
 10
6273.7922668457
 20
5119.7875569334
 10
6273.7633153969
 20
5119.7947146278
 10
6273.7542158586
 20
5119.7982708465
 10
6273.7508429259
 20
5119.8018050399
 10
6273.7516748681
 20
5119.8041495886
 10
6273.7548759672
 20
5119.8064854337
 10
6273.7743735984
 20
5119.8126754561
 10
6274.7709474951
 20
5119.8855416977
 10
6287.0381183298
 20
5120.1857965926
 10
6299.2207625567
 20
5120.4825930781
 10
6300.183809471
 20
5120.5587478755
 10
6300.2022710634
 20
5120.5650957456
 10
6300.2051355431
 20
5120.5674653641
 10
6300.2056555325
 20
5120.5698282212
 10
6300.2018558015
 20
5120.57335863
 10
6300.19230835
 20
5120.5768707419
 10
6300.1582975797
 20
5120.5838451853
  0
LWPOLYLINE
  5
413
330
1F
100
AcDbEntity
  8
0
  6
Continuous
 62
     7
100
AcDbPolyline
 90
       17
 70
   128
 43
0.0
 10
6273.7922668457
 20
5121.3750521412
 10
6273.7633920726
 20
5121.3821866652
 10
6273.7542767632
 20
5121.3857315088
 10
6273.7508507945
 20
5121.3892544658
 10
6273.7516293217
 20
5121.3915915874
 10
6273.7547634852
 20
5121.393920051
 10
6273.7740225546
 20
5121.400090577
 10
6274.7645836257
 20
5121.4727179374
 10
6286.9704467282
 20
5121.7719975486
 10
6299.1762993335
 20
5122.0678362478
 10
6300.1760237043
 20
5122.1436933986
 10
6300.2001625689
 20
5122.1500341242
 10
6300.2063566349
 20
5122.1531892479
 10
6300.2083489316
 20
5122.156332404
 10
6300.2059258151
 20
5122.1594622362
 10
6300.1988736415
 20
5122.1625773883
 10
6300.1712261997
 20
5122.1687624922
  0
LWPOLYLINE
  5
414
330
1F
100
AcDbEntity
  8
0
  6
Continuous
 62
     7
100
AcDbPolyline
 90
        8
 70
   128
 43
0.0
 10
6273.7922668457
 20
5122.962547349
 10
6273.7512457104
 20
5122.9757654345
 10
6273.7509484931
 20
5122.9779427929
 10
6273.7527229505
 20
5122.9801124658
 10
6273.7670882272
 20
5122.9858635901
 10
6274.6322569696
 20
5123.0533775705
 10
6285.5197312652
 20
5123.3311359809
 10
6299.8720742129
 20
5123.6994544735
  0
LWPOLYLINE
  5
415
330
1F
100
AcDbEntity
  8
0
  6
Continuous
 62
     7
100
AcDbPolyline
 90
        3
 70
   128
 43
0.0
 10
6671.8559265137
 20
5175.0802228918
 10
6671.6743946004
 20
5175.4001135117
 10
6671.5291910079
 20
5175.6514663568
  0
LWPOLYLINE
  5
416
330
1F
100
AcDbEntity
  8
0
  6
Continuous
 62
     7
100
AcDbPolyline
 90
        3
 70
   128
 43
0.0
 10
6615.1580810547
 20
5155.276281642
 10
6619.1454759521
 20
5152.4735731308
 10
6620.6677392331
 20
5152.1976868382
  0
LWPOLYLINE
  5
417
330
1F
100
AcDbEntity
  8
0
  6
Continuous
 62
     7
100
AcDbPolyline
 90
        3
 70
   128
 43
0.0
 10
6619.8654174805
 20
5156.7069570294
 10
6619.6173086804
 20
5156.7228373539
 10
6619.4128994105
 20
5156.7291895619
  0
LWPOLYLINE
  5
418
330
1F
100
AcDbEntity
  8
0
  6
Continuous
 62
     7
100
AcDbPolyline
 90
        3
 70
   128
 43
0.0
 10
6616.9853210449
 20
5152.6838521233
 10
6617.8347592229
 20
5152.7270856522
 10
6618.4422470835
 20
5152.7419517508
  0
LWPOLYLINE
  5
419
330
1F
100
AcDbEntity
  8
0
  6
Continuous
 62
     7
100
AcDbPolyline
 90
        3
 70
   128
 43
0.0
 10
6619.9073791504
 20
5156.4607153406
 10
6618.8154209262
 20
5157.1883016066
 10
6617.6523179022
 20
5158.5844437351
  0
LWPOLYLINE
  5
41A
330
1F
100
AcDbEntity
  8
0
  6
Continuous
 62
     7
100
AcDbPolyline
 90
        3
 70
   128
 43
0.0
 10
6590.7363891602
 20
5309.4703963717
 10
6591.220663609
 20
5309.1924257073
 10
6591.5986279581
 20
5308.9740182033
  0
LWPOLYLINE
  5
41B
330
1F
100
AcDbEntity
  8
0
  6
Continuous
 62
     7
100
AcDbPolyline
 90
        3
 70
   128
 43
0.0
 10
6590.7363891602
 20
5307.8828974387
 10
6591.2206630129
 20
5307.6049257418
 10
6591.5986279581
 20
5307.3865192702
  0
LWPOLYLINE
  5
41C
330
1F
100
AcDbEntity
  8
0
  6
Continuous
 62
     7
100
AcDbPolyline
 90
        3
 70
   128
 43
0.0
 10
6590.7363891602
 20
5306.2953966429
 10
6591.220663609
 20
5306.0174259785
 10
6591.5986279581
 20
5305.7990184745
  0
LWPOLYLINE
  5
41D
330
1F
100
AcDbEntity
  8
0
  6
Continuous
 62
     7
100
AcDbPolyline
 90
        3
 70
   128
 43
0.0
 10
6590.7363891602
 20
5304.7078967785
 10
6591.220663311
 20
5304.4299255979
 10
6591.5986279581
 20
5304.2115186101
  0
LWPOLYLINE
  5
41E
330
1F
100
AcDbEntity
  8
0
  6
Continuous
 62
     7
100
AcDbPolyline
 90
        3
 70
   128
 43
0.0
 10
6616.3101196289
 20
5309.7553568652
 10
6616.7937474865
 20
5310.0335100344
 10
6617.1720516142
 20
5310.252053546
  0
LWPOLYLINE
  5
41F
330
1F
100
AcDbEntity
  8
0
  6
Continuous
 62
     7
100
AcDbPolyline
 90
        3
 70
   128
 43
0.0
 10
6616.3101196289
 20
5308.1678579321
 10
6616.7937474865
 20
5308.4460111013
 10
6617.1720516142
 20
5308.6645546129
  0
LWPOLYLINE
  5
420
330
1F
100
AcDbEntity
  8
0
  6
Continuous
 62
     7
100
AcDbPolyline
 90
        3
 70
   128
 43
0.0
 10
6616.3101196289
 20
5306.5803571364
 10
6616.7937474865
 20
5306.8585103056
 10
6617.1720516142
 20
5307.0770538172
  0
LWPOLYLINE
  5
421
330
1F
100
AcDbEntity
  8
0
  6
Continuous
 62
     7
100
AcDbPolyline
 90
        3
 70
   128
 43
0.0
 10
6616.3101196289
 20
5304.9928582033
 10
6616.7937474865
 20
5305.2710113725
 10
6617.1720516142
 20
5305.4895548841
  0
LWPOLYLINE
  5
422
330
1F
100
AcDbEntity
  8
0
  6
Continuous
 62
     7
100
AcDbPolyline
 90
        3
 70
   128
 43
0.0
 10
6616.3101196289
 20
5311.3428576609
 10
6616.5627788925
 20
5311.4875802898
 10
6616.7596060989
 20
5311.6012884995
  0
LWPOLYLINE
  5
423
330
1F
100
AcDbEntity
  8
0
  6
Continuous
 62
     7
100
AcDbPolyline
 90
        3
 70
   128
 43
0.0
 10
6590.7363891602
 20
5311.0578971675
 10
6591.2206630129
 20
5310.7799254706
 10
6591.5986279581
 20
5310.561518999
  0
LWPOLYLINE
  5
424
330
1F
100
AcDbEntity
  8
0
  6
Continuous
 62
     7
100
AcDbPolyline
 90
        3
 70
   128
 43
0.0
 10
6591.6023254395
 20
5310.3689922711
 10
6591.1240264
 20
5310.0908440549
 10
6590.7457243159
 20
5309.8723049035
  0
LWPOLYLINE
  5
425
330
1F
100
AcDbEntity
  8
0
  6
Continuous
 62
     7
100
AcDbPolyline
 90
        3
 70
   128
 43
0.0
 10
6591.6023254395
 20
5308.7814914754
 10
6591.1240258037
 20
5308.5033442915
 10
6590.7457243159
 20
5308.2848041078
  0
LWPOLYLINE
  5
426
330
1F
100
AcDbEntity
  8
0
  6
Continuous
 62
     7
100
AcDbPolyline
 90
        3
 70
   128
 43
0.0
 10
6591.6023254395
 20
5307.1939925423
 10
6591.1240261019
 20
5306.9158437992
 10
6590.7457243159
 20
5306.6973033121
  0
LWPOLYLINE
  5
427
330
1F
100
AcDbEntity
  8
0
  6
Continuous
 62
     7
100
AcDbPolyline
 90
        3
 70
   128
 43
0.0
 10
6591.6023254395
 20
5305.6064917466
 10
6591.1240258037
 20
5305.3283445627
 10
6590.7457243159
 20
5305.109804379
  0
LWPOLYLINE
  5
428
330
1F
100
AcDbEntity
  8
0
  6
Continuous
 62
     7
100
AcDbPolyline
 90
        3
 70
   128
 43
0.0
 10
6591.6023254395
 20
5304.0189928135
 10
6591.311129192
 20
5303.84893239
 10
6591.0798380794
 20
5303.7153164616
  0
LWPOLYLINE
  5
429
330
1F
100
AcDbEntity
  8
0
  6
Continuous
 62
     7
100
AcDbPolyline
 90
        3
 70
   128
 43
0.0
 10
6617.1684265137
 20
5309.0785535743
 10
6616.6949701723
 20
5309.3541675743
 10
6616.3201112506
 20
5309.5707258901
  0
LWPOLYLINE
  5
42A
330
1F
100
AcDbEntity
  8
0
  6
Continuous
 62
     7
100
AcDbPolyline
 90
        3
 70
   128
 43
0.0
 10
6617.1684265137
 20
5307.4910546413
 10
6616.6949704734
 20
5307.7666681193
 10
6616.3201112506
 20
5307.9832250943
  0
LWPOLYLINE
  5
42B
330
1F
100
AcDbEntity
  8
0
  6
Continuous
 62
     7
100
AcDbPolyline
 90
        3
 70
   128
 43
0.0
 10
6617.1684265137
 20
5305.9035538455
 10
6616.6949701723
 20
5306.1791678455
 10
6616.3201112506
 20
5306.3957261613
  0
LWPOLYLINE
  5
42C
330
1F
100
AcDbEntity
  8
0
  6
Continuous
 62
     7
100
AcDbPolyline
 90
        3
 70
   128
 43
0.0
 10
6617.1684265137
 20
5304.3160539811
 10
6616.6949703229
 20
5304.5916677201
 10
6616.3201112506
 20
5304.8082253655
  0
LWPOLYLINE
  5
42D
330
1F
100
AcDbEntity
  8
0
  6
Continuous
 62
     7
100
AcDbPolyline
 90
        3
 70
   128
 43
0.0
 10
6617.1684265137
 20
5310.6660543701
 10
6616.6949701723
 20
5310.94166837
 10
6616.3201112506
 20
5311.1582266858
  0
LWPOLYLINE
  5
42E
330
1F
100
AcDbEntity
  8
0
  6
Continuous
 62
     7
100
AcDbPolyline
 90
        3
 70
   128
 43
0.0
 10
6670.7077026367
 20
5260.3282461634
 10
6670.5883545969
 20
5265.2955800337
 10
6670.3196339515
 20
5269.1994550398
  0
LWPOLYLINE
  5
42F
330
1F
100
AcDbEntity
  8
0
  6
Continuous
 62
     7
100
AcDbPolyline
 90
        3
 70
   128
 43
0.0
 10
6656.9595336914
 20
5288.1994545452
 10
6656.3813187733
 20
5288.096402427
 10
6655.9738539365
 20
5287.992347846
  0
LWPOLYLINE
  5
430
330
1F
100
AcDbEntity
  8
0
  6
Continuous
 62
     7
100
AcDbPolyline
 90
        3
 70
   128
 43
0.0
 10
6619.3695068359
 20
5274.0952911546
 10
6618.2719883953
 20
5270.040662077
 10
6618.008895239
 20
5266.6994536987
  0
LWPOLYLINE
  5
431
330
1F
100
AcDbEntity
  8
0
  6
Continuous
 62
     7
100
AcDbPolyline
 90
        3
 70
   128
 43
0.0
 10
6669.9562072754
 20
5169.4067026248
 10
6670.1613931634
 20
5171.6350525431
 10
6670.2088587192
 20
5173.4078357687
  0
LWPOLYLINE
  5
432
330
1F
100
AcDbEntity
  8
0
  6
Continuous
 62
     7
100
AcDbPolyline
 90
        3
 70
   128
 43
0.0
 10
6619.5106506348
 20
5158.84475212
 10
6620.1513712103
 20
5155.0762194934
 10
6620.6613782999
 20
5152.3282210102
  0
LWPOLYLINE
  5
433
330
1F
100
AcDbEntity
  8
0
  6
Continuous
 62
     7
100
AcDbPolyline
 90
        3
 70
   128
 43
0.0
 10
6620.5062866211
 20
5158.6994508972
 10
6620.6290051598
 20
5152.9512146844
 10
6620.8821669427
 20
5149.3582407704
  0
LWPOLYLINE
  5
434
330
1F
100
AcDbEntity
  8
0
  6
Continuous
 62
     7
100
AcDbPolyline
 90
        3
 70
   128
 43
0.0
 10
6618.6447143555
 20
5158.9243243208
 10
6620.5444627422
 20
5158.7527161497
 10
6622.0473893193
 20
5158.6802731028
  0
LWPOLYLINE
  5
435
330
1F
100
AcDbEntity
  8
0
  6
Continuous
 62
     7
100
AcDbPolyline
 90
        3
 70
   128
 43
0.0
 10
6617.1722412109
 20
5117.6775972119
 10
6616.6953522383
 20
5117.9534762469
 10
6616.320109388
 20
5118.1702445021
  0
LWPOLYLINE
  5
436
330
1F
100
AcDbEntity
  8
0
  6
Continuous
 62
     7
100
AcDbPolyline
 90
        3
 70
   128
 43
0.0
 10
6617.1722412109
 20
5119.2650924196
 10
6616.6953522383
 20
5119.5409714547
 10
6616.320109388
 20
5119.7577397099
  0
LWPOLYLINE
  5
437
330
1F
100
AcDbEntity
  8
0
  6
Continuous
 62
     7
100
AcDbPolyline
 90
        3
 70
   128
 43
0.0
 10
6617.1722412109
 20
5120.8526025286
 10
6616.6953522383
 20
5121.1284815636
 10
6616.320109388
 20
5121.3452498188
  0
LWPOLYLINE
  5
438
330
1F
100
AcDbEntity
  8
0
  6
Continuous
 62
     7
100
AcDbPolyline
 90
        3
 70
   128
 43
0.0
 10
6617.1722412109
 20
5122.4400977364
 10
6616.6953522383
 20
5122.7159767714
 10
6616.320109388
 20
5122.9327450266
  0
LWPOLYLINE
  5
439
330
1F
100
AcDbEntity
  8
0
  6
Continuous
 62
     7
100
AcDbPolyline
 90
        3
 70
   128
 43
0.0
 10
6591.6023254395
 20
5117.3804829588
 10
6591.1231358557
 20
5117.1023553714
 10
6590.744853602
 20
5116.8838421574
  0
LWPOLYLINE
  5
43A
330
1F
100
AcDbEntity
  8
0
  6
Continuous
 62
     7
100
AcDbPolyline
 90
        3
 70
   128
 43
0.0
 10
6591.6023254395
 20
5118.9679781666
 10
6591.1231322815
 20
5118.6898651956
 10
6590.744853602
 20
5118.4713522663
  0
LWPOLYLINE
  5
43B
330
1F
100
AcDbEntity
  8
0
  6
Continuous
 62
     7
100
AcDbPolyline
 90
        3
 70
   128
 43
0.0
 10
6591.6023254395
 20
5120.5554733744
 10
6591.1231322815
 20
5120.2773604034
 10
6590.744853602
 20
5120.0588474741
  0
LWPOLYLINE
  5
43C
330
1F
100
AcDbEntity
  8
0
  6
Continuous
 62
     7
100
AcDbPolyline
 90
        3
 70
   128
 43
0.0
 10
6591.6023254395
 20
5122.1429685822
 10
6591.1231322815
 20
5121.8648556112
 10
6590.744853602
 20
5121.6463426819
  0
LWPOLYLINE
  5
43D
330
1F
100
AcDbEntity
  8
0
  6
Continuous
 62
     7
100
AcDbPolyline
 90
        3
 70
   128
 43
0.0
 10
6591.5489196777
 20
5123.6994544735
 10
6591.0995036776
 20
5123.4387162544
 10
6590.744853602
 20
5123.2338527908
  0
LWPOLYLINE
  5
43E
330
1F
100
AcDbEntity
  8
0
  6
Continuous
 62
     7
100
AcDbPolyline
 90
        3
 70
   128
 43
0.0
 10
6617.1722412109
 20
5116.0901020041
 10
6616.6953522383
 20
5116.3659810391
 10
6616.320109388
 20
5116.5827492943
  0
LWPOLYLINE
  5
43F
330
1F
100
AcDbEntity
  8
0
  6
Continuous
 62
     7
100
AcDbPolyline
 90
        3
 70
   128
 43
0.0
 10
6616.3101196289
 20
5118.3565239182
 10
6616.794662289
 20
5118.6346368385
 10
6617.1729382333
 20
5118.8531498184
  0
LWPOLYLINE
  5
440
330
1F
100
AcDbEntity
  8
0
  6
Continuous
 62
     7
100
AcDbPolyline
 90
        3
 70
   128
 43
0.0
 10
6616.3101196289
 20
5119.944019126
 10
6616.794662289
 20
5120.2221320463
 10
6617.1729382333
 20
5120.4406450262
  0
LWPOLYLINE
  5
441
330
1F
100
AcDbEntity
  8
0
  6
Continuous
 62
     7
100
AcDbPolyline
 90
        3
 70
   128
 43
0.0
 10
6616.3101196289
 20
5121.5315292349
 10
6616.7946646745
 20
5121.809629681
 10
6617.1729382333
 20
5122.028140234
  0
LWPOLYLINE
  5
442
330
1F
100
AcDbEntity
  8
0
  6
Continuous
 62
     7
100
AcDbPolyline
 90
        3
 70
   128
 43
0.0
 10
6616.3101196289
 20
5123.1190244427
 10
6616.794662289
 20
5123.397137363
 10
6617.1729382333
 20
5123.615650343
  0
LWPOLYLINE
  5
443
330
1F
100
AcDbEntity
  8
0
  6
Continuous
 62
     7
100
AcDbPolyline
 90
        3
 70
   128
 43
0.0
 10
6590.7440185547
 20
5118.059394764
 10
6591.2224237429
 20
5117.7835230379
 10
6591.5976551917
 20
5117.5667623749
  0
LWPOLYLINE
  5
444
330
1F
100
AcDbEntity
  8
0
  6
Continuous
 62
     7
100
AcDbPolyline
 90
        3
 70
   128
 43
0.0
 10
6590.7440185547
 20
5119.6468899717
 10
6591.22242731
 20
5119.3710328061
 10
6591.5976551917
 20
5119.1542724838
  0
LWPOLYLINE
  5
445
330
1F
100
AcDbEntity
  8
0
  6
Continuous
 62
     7
100
AcDbPolyline
 90
        3
 70
   128
 43
0.0
 10
6590.7440185547
 20
5121.2344000807
 10
6591.2224237429
 20
5120.9585283546
 10
6591.5976551917
 20
5120.7417676916
  0
LWPOLYLINE
  5
446
330
1F
100
AcDbEntity
  8
0
  6
Continuous
 62
     7
100
AcDbPolyline
 90
        3
 70
   128
 43
0.0
 10
6590.7440185547
 20
5122.8218952885
 10
6591.2224237429
 20
5122.5460235624
 10
6591.5976551917
 20
5122.3292628994
  0
LWPOLYLINE
  5
447
330
1F
100
AcDbEntity
  8
0
  6
Continuous
 62
     7
100
AcDbPolyline
 90
        3
 70
   128
 43
0.0
 10
6590.7440185547
 20
5116.4718995562
 10
6591.2224237429
 20
5116.1960278301
 10
6591.5976551917
 20
5115.9792671671
  0
LWPOLYLINE
  5
448
330
1F
100
AcDbEntity
  8
0
  6
Continuous
 62
     7
100
AcDbPolyline
 90
        3
 70
   128
 43
0.0
 10
6616.3101196289
 20
5116.7690287104
 10
6616.7946586988
 20
5117.0471395414
 10
6617.1729382333
 20
5117.2656397095
  0
LWPOLYLINE
  5
449
330
1F
100
AcDbEntity
  8
0
  6
Continuous
 62
     7
100
AcDbPolyline
 90
        3
 70
   128
 43
0.0
 10
6616.382598877
 20
5118.1332449188
 10
6616.8253795307
 20
5118.388135963
 10
6617.1720497516
 20
5118.5884008875
  0
LWPOLYLINE
  5
44A
330
1F
100
AcDbEntity
  8
0
  6
Continuous
 62
     7
100
AcDbPolyline
 90
        3
 70
   128
 43
0.0
 10
6616.382598877
 20
5119.7207401266
 10
6616.8253795307
 20
5119.9756311708
 10
6617.1720497516
 20
5120.1758960953
  0
LWPOLYLINE
  5
44B
330
1F
100
AcDbEntity
  8
0
  6
Continuous
 62
     7
100
AcDbPolyline
 90
        3
 70
   128
 43
0.0
 10
6616.382598877
 20
5121.3082353344
 10
6616.8253817088
 20
5121.563130953
 10
6617.1720497516
 20
5121.7634062042
  0
LWPOLYLINE
  5
44C
330
1F
100
AcDbEntity
  8
0
  6
Continuous
 62
     7
100
AcDbPolyline
 90
        3
 70
   128
 43
0.0
 10
6616.382598877
 20
5122.8957454434
 10
6616.8253795307
 20
5123.1506364875
 10
6617.1720497516
 20
5123.350901412
  0
LWPOLYLINE
  5
44D
330
1F
100
AcDbEntity
  8
0
  6
Continuous
 62
     7
100
AcDbPolyline
 90
        3
 70
   128
 43
0.0
 10
6590.7440185547
 20
5117.794645833
 10
6591.1869578006
 20
5117.5397621431
 10
6591.5336239125
 20
5117.3394898644
  0
LWPOLYLINE
  5
44E
330
1F
100
AcDbEntity
  8
0
  6
Continuous
 62
     7
100
AcDbPolyline
 90
        3
 70
   128
 43
0.0
 10
6590.7440185547
 20
5119.382155942
 10
6591.1869556066
 20
5119.1272601096
 10
6591.5336239125
 20
5118.9269850722
  0
LWPOLYLINE
  5
44F
330
1F
100
AcDbEntity
  8
0
  6
Continuous
 62
     7
100
AcDbPolyline
 90
        3
 70
   128
 43
0.0
 10
6590.7440185547
 20
5120.9696511498
 10
6591.1869578006
 20
5120.7147674599
 10
6591.5336239125
 20
5120.5144951811
  0
LWPOLYLINE
  5
450
330
1F
100
AcDbEntity
  8
0
  6
Continuous
 62
     7
100
AcDbPolyline
 90
        3
 70
   128
 43
0.0
 10
6590.7440185547
 20
5122.5571463576
 10
6591.1869578006
 20
5122.3022626676
 10
6591.5336239125
 20
5122.1019903889
  0
LWPOLYLINE
  5
451
330
1F
100
AcDbEntity
  8
0
  6
Continuous
 62
     7
100
AcDbPolyline
 90
        3
 70
   128
 43
0.0
 10
6590.7440185547
 20
5116.2071506252
 10
6591.1869578006
 20
5115.9522669353
 10
6591.5336239125
 20
5115.7519946566
  0
LWPOLYLINE
  5
452
330
1F
100
AcDbEntity
  8
0
  6
Continuous
 62
     7
100
AcDbPolyline
 90
        3
 70
   128
 43
0.0
 10
6616.382598877
 20
5116.5457348099
 10
6616.8253817088
 20
5116.8006304285
 10
6617.1720497516
 20
5117.0009056797
  0
LWPOLYLINE
  5
453
330
1F
100
AcDbEntity
  8
0
  6
Continuous
 62
     7
100
AcDbPolyline
 90
        3
 70
   128
 43
0.0
 10
6671.257019043
 20
5157.8815112581
 10
6671.4396191552
 20
5155.4419860918
 10
6671.5854577926
 20
5154.1994492283
  0
LWPOLYLINE
  5
454
330
1F
100
AcDbEntity
  8
0
  6
Continuous
 62
     7
100
AcDbPolyline
 90
       10
 70
   128
 43
0.0
 10
6671.7567443848
 20
5164.6021063199
 10
6671.5800678795
 20
5174.8594593538
 10
6671.5344720509
 20
5175.6365763319
 10
6671.5307814849
 20
5175.6523586693
 10
6671.5294020522
 20
5175.6551449315
 10
6671.5280250515
 20
5175.6561134015
 10
6671.526993882
 20
5175.6556045339
 10
6671.5259640459
 20
5175.6540141885
 10
6671.5239077816
 20
5175.6480336402
 10
6671.5198032764
 20
5175.6294796934
  0
LWPOLYLINE
  5
455
330
1F
100
AcDbEntity
  8
0
  6
Continuous
 62
     7
100
AcDbPolyline
 90
        3
 70
   128
 43
0.0
 10
6670.8679199219
 20
5158.5136036148
 10
6670.9954525369
 20
5155.1624186513
 10
6671.0938014296
 20
5154.2994509211
  0
LWPOLYLINE
  5
456
330
1F
100
AcDbEntity
  8
0
  6
Continuous
 62
     7
100
AcDbPolyline
 90
        3
 70
   128
 43
0.0
 10
6672.2564697266
 20
5163.2502059212
 10
6672.0355336168
 20
5172.1281917996
 10
6671.8594379929
 20
5175.029998528
  0
LWPOLYLINE
  5
457
330
1F
100
AcDbEntity
  8
0
  6
Continuous
 62
     7
100
AcDbPolyline
 90
        3
 70
   128
 43
0.0
 10
6672.1305847168
 20
5153.5116414299
 10
6671.9235071836
 20
5157.5176792966
 10
6671.7588924077
 20
5164.6021063199
  0
LWPOLYLINE
  5
458
330
1F
100
AcDbEntity
  8
0
  6
Continuous
 62
     7
100
AcDbPolyline
 90
        3
 70
   128
 43
0.0
 10
6672.2564697266
 20
5170.8855460158
 10
6672.1354507988
 20
5174.2406893646
 10
6672.0382370261
 20
5175.0768030753
  0
LWPOLYLINE
  5
459
330
1F
100
AcDbEntity
  8
0
  6
Continuous
 62
     7
100
AcDbPolyline
 90
        3
 70
   128
 43
0.0
 10
6671.2608337402
 20
5154.4582823982
 10
6671.1510956796
 20
5155.9589773419
 10
6671.0660852698
 20
5158.5206816664
  0
LWPOLYLINE
  5
45A
330
1F
100
AcDbEntity
  8
0
  6
Continuous
 62
     7
100
AcDbPolyline
 90
        3
 70
   128
 43
0.0
 10
6671.257019043
 20
5154.4240246287
 10
6671.1529879438
 20
5156.0604668334
 10
6671.0729547051
 20
5158.5136036148
  0
LWPOLYLINE
  5
45B
330
1F
100
AcDbEntity
  8
0
  6
Continuous
 62
     7
100
AcDbPolyline
 90
        3
 70
   128
 43
0.0
 10
6671.257019043
 20
5154.4240246287
 10
6671.258898845
 20
5155.7593660735
 10
6671.258898845
 20
5157.8815112581
  0
LWPOLYLINE
  5
45C
330
1F
100
AcDbEntity
  8
0
  6
Continuous
 62
     7
100
AcDbPolyline
 90
        3
 70
   128
 43
0.0
 10
6728.0578613281
 20
5228.9079296162
 10
6730.6157808426
 20
5222.5015932626
 10
6731.5588914064
 20
5217.2014171949
  0
LWPOLYLINE
  5
45D
330
1F
100
AcDbEntity
  8
0
  6
Continuous
 62
     7
100
AcDbPolyline
 90
        3
 70
   128
 43
0.0
 10
6731.0562133789
 20
5217.3454890719
 10
6729.826764887
 20
5223.8845083699
 10
6728.058891764
 20
5228.9079296162
  0
LWPOLYLINE
  5
45E
330
1F
100
AcDbEntity
  8
0
  6
Continuous
 62
     7
100
AcDbPolyline
 90
       11
 70
   128
 43
0.0
 10
6718.2579040527
 20
5254.7994534245
 10
6723.2599698179
 20
5254.1678114469
 10
6727.8880229009
 20
5254.7105136048
 10
6728.1974031669
 20
5254.7842307123
 10
6728.2165002931
 20
5254.7889585032
 10
6728.2171188427
 20
5254.7891139865
 10
6728.2171870858
 20
5254.7891318262
 10
6728.2171908251
 20
5254.7891330743
 10
6728.2171852342
 20
5254.7891320161
 10
6728.2171135249
 20
5254.7891152624
 10
6728.192286959
 20
5254.7830062678
  0
LWPOLYLINE
  5
45F
330
1F
100
AcDbEntity
  8
0
  6
Continuous
 62
     7
100
AcDbPolyline
 90
        8
 70
   128
 43
0.0
 10
6592.8916931152
 20
5311.1994544735
 10
6614.2522223793
 20
5311.5069481717
 10
6616.6378783975
 20
5311.5840843678
 10
6616.7614582918
 20
5311.5990998709
 10
6616.7649029649
 20
5311.601586863
 10
6616.7644454176
 20
5311.6028276852
 10
6616.7624756171
 20
5311.6040665493
 10
6616.7341269759
 20
5311.610650154
  0
LWPOLYLINE
  5
460
330
1F
100
AcDbEntity
  8
0
  6
Continuous
 62
     7
100
AcDbPolyline
 90
        3
 70
   128
 43
0.0
 10
6592.8153991699
 20
5312.0587150326
 10
6591.6768041172
 20
5311.9117128289
 10
6591.3770406771
 20
5311.795145156
  0
LINE
  5
461
330
1F
100
AcDbEntity
  8
0
  6
Continuous
 62
     7
100
AcDbLine
 10
6591.6061401367
 20
5312.0587150326
 30
0.0
 11
6592.8158122554
 21
5312.0587150326
 31
0.0
  0
LWPOLYLINE
  5
462
330
1F
100
AcDbEntity
  8
0
  6
Continuous
 62
     7
100
AcDbPolyline
 90
       11
 70
   128
 43
0.0
 10
6617.1264648438
 20
5310.6574526748
 10
6617.0779633409
 20
5310.6321109662
 10
6616.174412644
 20
5310.5565745956
 10
6603.9597651462
 20
5310.2607503587
 10
6591.7522464278
 20
5309.9613208602
 10
6590.7978392414
 20
5309.8888083703
 10
6590.7890012346
 20
5309.8825792617
 10
6590.7889556702
 20
5309.8802256118
 10
6590.7903711713
 20
5309.8778640312
 10
6590.7967504753
 20
5309.87312161
 10
6590.8178580287
 20
5309.8635914495
  0
LWPOLYLINE
  5
463
330
1F
100
AcDbEntity
  8
0
  6
Continuous
 62
     7
100
AcDbPolyline
 90
       11
 70
   128
 43
0.0
 10
6617.1264648438
 20
5309.0699537417
 10
6617.0779633414
 20
5309.044611984
 10
6616.1744126437
 20
5308.9690757133
 10
6603.9597651857
 20
5308.6732494062
 10
6591.7522464338
 20
5308.3738216216
 10
6590.7978392429
 20
5308.301307525
 10
6590.7890012356
 20
5308.2950786902
 10
6590.7889556711
 20
5308.2927251911
 10
6590.7903711721
 20
5308.290363783
 10
6590.7967504758
 20
5308.2856217591
 10
6590.8178580287
 20
5308.2760925164
  0
LWPOLYLINE
  5
464
330
1F
100
AcDbEntity
  8
0
  6
Continuous
 62
     7
100
AcDbPolyline
 90
       11
 70
   128
 43
0.0
 10
6617.1264648438
 20
5307.482452946
 10
6617.0779633409
 20
5307.4571112374
 10
6616.174412644
 20
5307.3815748668
 10
6603.9597651465
 20
5307.085750641
 10
6591.7522464252
 20
5306.7863213172
 10
6590.7978392414
 20
5306.7138086393
 10
6590.7890012345
 20
5306.707579537
 10
6590.7889556702
 20
5306.7052258881
 10
6590.7903711712
 20
5306.7028643079
 10
6590.7967504752
 20
5306.698121886
 10
6590.8178580287
 20
5306.6885917207
  0
LWPOLYLINE
  5
465
330
1F
100
AcDbEntity
  8
0
  6
Continuous
 62
     7
100
AcDbPolyline
 90
       11
 70
   128
 43
0.0
 10
6617.1264648438
 20
5305.8949540129
 10
6617.0779633413
 20
5305.8696122551
 10
6616.1744126419
 20
5305.7940759844
 10
6603.9597651671
 20
5305.498249678
 10
6591.7522464296
 20
5305.1988203221
 10
6590.7978392415
 20
5305.1263078459
 10
6590.7890012346
 20
5305.1200787369
 10
6590.7889556702
 20
5305.1177250869
 10
6590.7903711713
 20
5305.1153635063
 10
6590.7967504753
 20
5305.1106210851
 10
6590.8178580287
 20
5305.101090925
  0
LWPOLYLINE
  5
466
330
1F
100
AcDbEntity
  8
0
  6
Continuous
 62
     7
100
AcDbPolyline
 90
        5
 70
   128
 43
0.0
 10
6617.1264648438
 20
5304.3074532172
 10
6612.9989080858
 20
5304.100723788
 10
6606.8910446111
 20
5303.9665418837
 10
6599.9808598949
 20
5303.8316330793
 10
6594.1599169021
 20
5303.6994541755
  0
LWPOLYLINE
  5
467
330
1F
100
AcDbEntity
  8
0
  6
Continuous
 62
     7
100
AcDbPolyline
 90
        9
 70
   128
 43
0.0
 10
6592.8916931152
 20
5311.1994544735
 10
6590.8535810349
 20
5311.0910669212
 10
6590.8059931734
 20
5311.0820539165
 10
6590.7935604858
 20
5311.0774918877
 10
6590.7888441256
 20
5311.07288857
 10
6590.7889796614
 20
5311.0705734362
 10
6590.790511678
 20
5311.0682507565
 10
6590.7969671647
 20
5311.0635870711
 10
6590.8178580287
 20
5311.0542165806
  0
LWPOLYLINE
  5
468
330
1F
100
AcDbEntity
  8
0
  6
Continuous
 62
     7
100
AcDbPolyline
 90
       16
 70
   128
 43
0.0
 10
6617.115020752
 20
5310.2518952211
 10
6617.1307296736
 20
5310.2457021279
 10
6617.1348843399
 20
5310.242599386
 10
6617.1358132586
 20
5310.2410453822
 10
6617.1357964748
 20
5310.2394892102
 10
6617.1253892791
 20
5310.2332420287
 10
6617.0993093775
 20
5310.2269657598
 10
6616.0109140413
 20
5310.1526010467
 10
6603.7356357968
 20
5309.8594351162
 10
6591.7309307573
 20
5309.5634196533
 10
6590.797187302
 20
5309.4916724712
 10
6590.7889235393
 20
5309.4855062052
 10
6590.788997259
 20
5309.483176637
 10
6590.7904882153
 20
5309.4808393751
 10
6590.7969119882
 20
5309.4761461665
 10
6590.8178580287
 20
5309.4667157849
  0
LWPOLYLINE
  5
469
330
1F
100
AcDbEntity
  8
0
  6
Continuous
 62
     7
100
AcDbPolyline
 90
       16
 70
   128
 43
0.0
 10
6617.115020752
 20
5308.6643962881
 10
6617.1307296734
 20
5308.658202178
 10
6617.1348843397
 20
5308.6550989741
 10
6617.1358132586
 20
5308.6535447589
 10
6617.1357964751
 20
5308.6519883917
 10
6617.1253892803
 20
5308.6457406034
 10
6617.0993093798
 20
5308.6394639765
 10
6616.0109140587
 20
5308.5651003306
 10
6603.7356358338
 20
5308.2719342473
 10
6591.7309307656
 20
5307.9759193109
 10
6590.7971873022
 20
5307.9041735121
 10
6590.7889235389
 20
5307.8980073342
 10
6590.7889972585
 20
5307.8956777798
 10
6590.7904882148
 20
5307.893340523
 10
6590.7969119878
 20
5307.8886473038
 10
6590.8178580287
 20
5307.8792168518
  0
LWPOLYLINE
  5
46A
330
1F
100
AcDbEntity
  8
0
  6
Continuous
 62
     7
100
AcDbPolyline
 90
       16
 70
   128
 43
0.0
 10
6617.115020752
 20
5307.0768954923
 10
6617.1307296735
 20
5307.0707024166
 10
6617.1348843398
 20
5307.0675996721
 10
6617.1358132586
 20
5307.0660456621
 10
6617.1357964748
 20
5307.0644894798
 10
6617.1253892795
 20
5307.0582422151
 10
6617.0993093787
 20
5307.0519658037
 10
6616.010914059
 20
5306.9775990627
 10
6603.7356357974
 20
5306.6844353787
 10
6591.7309307659
 20
5306.3884185016
 10
6590.7971873022
 20
5306.3166727165
 10
6590.7889235389
 20
5306.3105065381
 10
6590.7889972585
 20
5306.3081769837
 10
6590.7904882148
 20
5306.3058397269
 10
6590.7969119878
 20
5306.3011465077
 10
6590.8178580287
 20
5306.2917160561
  0
LWPOLYLINE
  5
46B
330
1F
100
AcDbEntity
  8
0
  6
Continuous
 62
     7
100
AcDbPolyline
 90
       16
 70
   128
 43
0.0
 10
6617.115020752
 20
5305.4893946966
 10
6617.1307296736
 20
5305.4832016019
 10
6617.1348843399
 20
5305.4800988603
 10
6617.1358132586
 20
5305.478544857
 10
6617.1357964748
 20
5305.4769886858
 10
6617.125389279
 20
5305.4707415108
 10
6617.0993093774
 20
5305.464465252
 10
6616.0109140456
 20
5305.3901003268
 10
6603.7356358157
 20
5305.0969345168
 10
6591.73093078
 20
5304.8009181021
 10
6590.7971873027
 20
5304.7291728439
 10
6590.7889235397
 20
5304.7230067609
 10
6590.7889972594
 20
5304.7206772751
 10
6590.7904882156
 20
5304.7183401017
 10
6590.7969119884
 20
5304.7136470852
 10
6590.8178580287
 20
5304.704217123
  0
LWPOLYLINE
  5
46C
330
1F
100
AcDbEntity
  8
0
  6
Continuous
 62
     7
100
AcDbPolyline
 90
        7
 70
   128
 43
0.0
 10
6617.115020752
 20
5303.9018957635
 10
6617.1351220999
 20
5303.8923055608
 10
6617.1358935825
 20
5303.8907020797
 10
6617.1356297459
 20
5303.8890962425
 10
6617.051381138
 20
5303.8696771997
 10
6616.8440811273
 20
5303.8501792613
 10
6612.8336698023
 20
5303.6994541755
  0
LWPOLYLINE
  5
46D
330
1F
100
AcDbEntity
  8
0
  6
Continuous
 62
     7
100
AcDbPolyline
 90
        8
 70
   128
 43
0.0
 10
6616.2414550781
 20
5311.3428055068
 10
6603.8183866679
 20
5310.9523437398
 10
6592.5780054244
 20
5310.657515192
 10
6591.6603830913
 20
5310.5861567705
 10
6591.6477399569
 20
5310.5800488033
 10
6591.6464247761
 20
5310.577738591
 10
6591.646694009
 20
5310.5754191747
 10
6591.6689067819
 20
5310.5613830259
  0
LWPOLYLINE
  5
46E
330
1F
100
AcDbEntity
  8
0
  6
Continuous
 62
     7
100
AcDbPolyline
 90
        8
 70
   128
 43
0.0
 10
6616.2414550781
 20
5309.7553047111
 10
6603.8183866415
 20
5309.364845219
 10
6592.5780054318
 20
5309.0700152411
 10
6591.6603830936
 20
5308.9986557077
 10
6591.6477399577
 20
5308.9925481301
 10
6591.6464247767
 20
5308.9902380969
 10
6591.6466940092
 20
5308.9879188752
 10
6591.6689067819
 20
5308.9738840928
  0
LWPOLYLINE
  5
46F
330
1F
100
AcDbEntity
  8
0
  6
Continuous
 62
     7
100
AcDbPolyline
 90
        8
 70
   128
 43
0.0
 10
6616.2414550781
 20
5308.167805778
 10
6603.818386664
 20
5307.7773442405
 10
6592.5780054253
 20
5307.4825154087
 10
6591.6603830913
 20
5307.4111570434
 10
6591.6477399569
 20
5307.405049074
 10
6591.6464247762
 20
5307.4027388613
 10
6591.646694009
 20
5307.4004194448
 10
6591.6689067819
 20
5307.3863832971
  0
LWPOLYLINE
  5
470
330
1F
100
AcDbEntity
  8
0
  6
Continuous
 62
     7
100
AcDbPolyline
 90
        8
 70
   128
 43
0.0
 10
6616.2414550781
 20
5306.5803049823
 10
6603.8183866418
 20
5306.1898455032
 10
6592.5780054289
 20
5305.8950157109
 10
6591.6603830937
 20
5305.8236559725
 10
6591.6477399577
 20
5305.817548403
 10
6591.6464247766
 20
5305.8152383714
 10
6591.6466940092
 20
5305.8129191504
 10
6591.6689067819
 20
5305.798884364
  0
LWPOLYLINE
  5
471
330
1F
100
AcDbEntity
  8
0
  6
Continuous
 62
     7
100
AcDbPolyline
 90
        8
 70
   128
 43
0.0
 10
6616.2414550781
 20
5304.9928060492
 10
6603.8183866638
 20
5304.6023445276
 10
6592.5780054291
 20
5304.3075152181
 10
6591.6603830925
 20
5304.2361562483
 10
6591.6477399573
 20
5304.2300484756
 10
6591.6464247764
 20
5304.2277383528
 10
6591.6466940091
 20
5304.2254190337
 10
6591.6689067819
 20
5304.2113835683
  0
LWPOLYLINE
  5
472
330
1F
100
AcDbEntity
  8
0
  6
Continuous
 62
     7
100
AcDbPolyline
 90
        3
 70
   128
 43
0.0
 10
6592.8153991699
 20
5312.0587150326
 10
6591.8862519438
 20
5312.0018464177
 10
6591.6514264393
 20
5311.956187593
  0
LWPOLYLINE
  5
473
330
1F
100
AcDbEntity
  8
0
  6
Continuous
 62
     7
100
AcDbPolyline
 90
        5
 70
   128
 43
0.0
 10
6616.2719726562
 20
5311.1540804377
 10
6616.2284082753
 20
5311.1290063499
 10
6615.4101713784
 20
5311.0542173235
 10
6604.1894978341
 20
5310.7616022024
 10
6591.6514264393
 20
5310.3686886599
  0
LWPOLYLINE
  5
474
330
1F
100
AcDbEntity
  8
0
  6
Continuous
 62
     7
100
AcDbPolyline
 90
        5
 70
   128
 43
0.0
 10
6616.2719726562
 20
5309.5665815046
 10
6616.2284082773
 20
5309.5415062992
 10
6615.4101713921
 20
5309.4667164327
 10
6604.1894978491
 20
5309.1741016307
 10
6591.6514264393
 20
5308.7811878642
  0
LWPOLYLINE
  5
475
330
1F
100
AcDbEntity
  8
0
  6
Continuous
 62
     7
100
AcDbPolyline
 90
        5
 70
   128
 43
0.0
 10
6616.2719726562
 20
5307.9790807089
 10
6616.2284082772
 20
5307.9540055082
 10
6615.4101713923
 20
5307.8792156295
 10
6604.1894978165
 20
5307.586602474
 10
6591.6514264393
 20
5307.1936870685
  0
LWPOLYLINE
  5
476
330
1F
100
AcDbEntity
  8
0
  6
Continuous
 62
     7
100
AcDbPolyline
 90
        5
 70
   128
 43
0.0
 10
6616.2719726562
 20
5306.3915817758
 10
6616.228408278
 20
5306.3665065089
 10
6615.410171391
 20
5306.2917168002
 10
6604.1894978531
 20
5305.9991016928
 10
6591.6514264393
 20
5305.6061881354
  0
LWPOLYLINE
  5
477
330
1F
100
AcDbEntity
  8
0
  6
Continuous
 62
     7
100
AcDbPolyline
 90
        5
 70
   128
 43
0.0
 10
6616.2719726562
 20
5304.8040809801
 10
6616.2284082782
 20
5304.7790056616
 10
6615.4101713846
 20
5304.7042168259
 10
6604.1894978322
 20
5304.4116019252
 10
6591.6514264393
 20
5304.0186873397
  0
LWPOLYLINE
  5
478
330
1F
100
AcDbEntity
  8
0
  6
Continuous
 62
     7
100
AcDbPolyline
 90
        3
 70
   128
 43
0.0
 10
6670.4559326172
 20
5244.69049822
 10
6670.6672395107
 20
5244.6597134612
 10
6670.8124302533
 20
5244.5587980321
  0
LWPOLYLINE
  5
479
330
1F
100
AcDbEntity
  8
0
  6
Continuous
 62
     7
100
AcDbPolyline
 90
        3
 70
   128
 43
0.0
 10
6670.8106994629
 20
5244.5587980321
 10
6670.9294072139
 20
5244.3763125456
 10
6670.9588937667
 20
5244.2093471756
  0
LWPOLYLINE
  5
47A
330
1F
100
AcDbEntity
  8
0
  6
Continuous
 62
     7
100
AcDbPolyline
 90
        3
 70
   128
 43
0.0
 10
6670.0210571289
 20
5245.1716492644
 10
6670.0891389699
 20
5244.9860405994
 10
6670.1840184835
 20
5244.8592687717
  0
LWPOLYLINE
  5
47B
330
1F
100
AcDbEntity
  8
0
  6
Continuous
 62
     7
100
AcDbPolyline
 90
        3
 70
   128
 43
0.0
 10
6670.1812744141
 20
5244.8592687717
 10
6670.3470710253
 20
5244.7417857429
 10
6670.4588927534
 20
5244.69049822
  0
LWPOLYLINE
  5
47C
330
1F
100
AcDbEntity
  8
0
  6
Continuous
 62
     7
100
AcDbPolyline
 90
        3
 70
   128
 43
0.0
 10
6670.955657959
 20
5245.6781807115
 10
6670.6558210842
 20
5245.511919812
 10
6670.0234137681
 20
5245.1716492644
  0
LWPOLYLINE
  5
47D
330
1F
100
AcDbEntity
  8
0
  6
Continuous
 62
     7
100
AcDbPolyline
 90
        3
 70
   128
 43
0.0
 10
6670.955657959
 20
5237.1994535198
 10
6670.93654762
 20
5237.0997862469
 10
6670.8913319019
 20
5236.9709963669
  0
LWPOLYLINE
  5
47E
330
1F
100
AcDbEntity
  8
0
  6
Continuous
 62
     7
100
AcDbPolyline
 90
        3
 70
   128
 43
0.0
 10
6670.8106994629
 20
5244.5587980321
 10
6670.9030389933
 20
5245.006299895
 10
6670.9581189063
 20
5245.2392036786
  0
LWPOLYLINE
  5
47F
330
1F
100
AcDbEntity
  8
0
  6
Continuous
 62
     7
100
AcDbPolyline
 90
        5
 70
   128
 43
0.0
 10
6670.1812744141
 20
5244.8592687717
 10
6670.8236861227
 20
5245.2384272775
 10
6670.8952649416
 20
5245.2624153487
 10
6670.9277253933
 20
5245.2620709314
 10
6670.9581189063
 20
5245.2392036786
  0
LWPOLYLINE
  5
480
330
1F
100
AcDbEntity
  8
0
  6
Continuous
 62
     7
100
AcDbPolyline
 90
        3
 70
   128
 43
0.0
 10
6670.955657959
 20
5244.2093471756
 10
6670.9588937667
 20
5244.5400392692
 10
6670.9588937667
 20
5244.6410896948
  0
LWPOLYLINE
  5
481
330
1F
100
AcDbEntity
  8
0
  6
Continuous
 62
     7
100
AcDbPolyline
 90
        3
 70
   128
 43
0.0
 10
6670.955657959
 20
5245.6781807115
 10
6670.9559304509
 20
5245.4323570207
 10
6670.9581189063
 20
5245.2392036786
  0
LWPOLYLINE
  5
482
330
1F
100
AcDbEntity
  8
0
  6
Continuous
 62
     7
100
AcDbPolyline
 90
        5
 70
   128
 43
0.0
 10
6670.9213256836
 20
5237.1575626304
 10
6670.9515686715
 20
5237.2119373857
 10
6670.9544087102
 20
5237.2135662847
 10
6670.9565166403
 20
5237.2125583405
 10
6670.9588937667
 20
5237.1994535198
  0
LWPOLYLINE
  5
483
330
1F
100
AcDbEntity
  8
0
  6
Continuous
 62
     7
100
AcDbPolyline
 90
        3
 70
   128
 43
0.0
 10
6618.106842041
 20
5158.7971131077
 10
6618.1088950691
 20
5158.6730591844
 10
6618.1088950691
 20
5158.5743854513
  0
LWPOLYLINE
  5
484
330
1F
100
AcDbEntity
  8
0
  6
Continuous
 62
     7
100
AcDbPolyline
 90
        3
 70
   128
 43
0.0
 10
6620.5558776855
 20
5149.4875083437
 10
6620.5588955638
 20
5149.3598348585
 10
6620.5588955638
 20
5149.2596546879
  0
LWPOLYLINE
  5
485
330
1F
100
AcDbEntity
  8
0
  6
Continuous
 62
     7
100
AcDbPolyline
 90
        3
 70
   128
 43
0.0
 10
6619.3580627441
 20
5149.3355164995
 10
6619.3588957396
 20
5149.4205900374
 10
6619.3588957396
 20
5149.4875083437
  0
LWPOLYLINE
  5
486
330
1F
100
AcDbEntity
  8
0
  6
Continuous
 62
     7
100
AcDbPolyline
 90
       15
 70
   128
 43
0.0
 10
6617.0806884766
 20
5116.1254177561
 10
6617.0964568575
 20
5116.1216731089
 10
6617.0986779766
 20
5116.1202678602
 10
6617.0988867931
 20
5116.1195649125
 10
6617.0985101869
 20
5116.1188617196
 10
6617.0527060664
 20
5116.1103961464
 10
6616.081319061
 20
5116.0636107772
 10
6604.1561902182
 20
5115.8760540302
 10
6592.2522794536
 20
5115.6862190232
 10
6591.3511485273
 20
5115.6376256027
 10
6591.3355911774
 20
5115.6337011045
 10
6591.3333549261
 20
5115.632238412
 10
6591.3329951191
 20
5115.6315089759
 10
6591.3331070133
 20
5115.6307807292
 10
6591.358034799
 20
5115.6221012345
  0
LINE
  5
487
330
1F
100
AcDbEntity
  8
0
  6
Continuous
 62
     7
100
AcDbLine
 10
6599.1706848145
 20
5123.6994544735
 30
0.0
 11
6596.5713364278
 21
5123.6994544735
 31
0.0
  0
LWPOLYLINE
  5
488
330
1F
100
AcDbEntity
  8
0
  6
Continuous
 62
     7
100
AcDbPolyline
 90
       10
 70
   128
 43
0.0
 10
6590.763092041
 20
5116.883991169
 10
6604.1657322388
 20
5117.2770598793
 10
6616.1836244062
 20
5117.5720166101
 10
6617.1570442466
 20
5117.6461704024
 10
6617.1765169792
 20
5117.6521961111
 10
6617.1798534884
 20
5117.6544527273
 10
6617.180905586
 20
5117.6567079766
 10
6617.1780299295
 20
5117.6600886852
 10
6617.1695892388
 20
5117.6634673416
 10
6617.140531933
 20
5117.6702211371
  0
LWPOLYLINE
  5
489
330
1F
100
AcDbEntity
  8
0
  6
Continuous
 62
     7
100
AcDbPolyline
 90
       10
 70
   128
 43
0.0
 10
6590.763092041
 20
5118.4714863768
 10
6604.1657322406
 20
5118.8645550887
 10
6616.1836244045
 20
5119.1595071413
 10
6617.1570442657
 20
5119.2336922189
 10
6617.1765169983
 20
5119.2397165613
 10
6617.1798535071
 20
5119.2419718404
 10
6617.180905604
 20
5119.2442252489
 10
6617.1780299458
 20
5119.2476021768
 10
6617.1695892526
 20
5119.2509757286
 10
6617.140531933
 20
5119.2577163448
  0
LWPOLYLINE
  5
48A
330
1F
100
AcDbEntity
  8
0
  6
Continuous
 62
     7
100
AcDbPolyline
 90
       10
 70
   128
 43
0.0
 10
6590.763092041
 20
5120.0589815846
 10
6604.1657324062
 20
5120.4520488271
 10
6616.1836244079
 20
5120.7470163894
 10
6617.1570442673
 20
5120.8211720312
 10
6617.1765169896
 20
5120.8271996161
 10
6617.1798534956
 20
5120.8294568049
 10
6617.1809055904
 20
5120.831712538
 10
6617.1780299309
 20
5120.8350937822
 10
6617.1695892387
 20
5120.8384727132
 10
6617.140531933
 20
5120.8452264538
  0
LWPOLYLINE
  5
48B
330
1F
100
AcDbEntity
  8
0
  6
Continuous
 62
     7
100
AcDbPolyline
 90
       10
 70
   128
 43
0.0
 10
6590.763092041
 20
5121.6464916935
 10
6604.1657322411
 20
5122.0395604091
 10
6616.1836244065
 20
5122.3345171346
 10
6617.1570442466
 20
5122.4086709269
 10
6617.1765169792
 20
5122.4146966356
 10
6617.1798534884
 20
5122.4169532518
 10
6617.180905586
 20
5122.4192085011
 10
6617.1780299295
 20
5122.4225892098
 10
6617.1695892388
 20
5122.4259678661
 10
6617.140531933
 20
5122.4327216616
  0
LWPOLYLINE
  5
48C
330
1F
100
AcDbEntity
  8
0
  6
Continuous
 62
     7
100
AcDbPolyline
 90
        3
 70
   128
 43
0.0
 10
6590.763092041
 20
5123.2339869013
 10
6597.5369062035
 20
5123.4944036994
 10
6607.9113599119
 20
5123.6994544735
  0
LWPOLYLINE
  5
48D
330
1F
100
AcDbEntity
  8
0
  6
Continuous
 62
     7
100
AcDbPolyline
 90
        9
 70
   128
 43
0.0
 10
6591.6709899902
 20
5115.7931516638
 10
6591.6668370971
 20
5115.7990560224
 10
6591.6655282391
 20
5115.8049790493
 10
6591.6920697983
 20
5115.8169542852
 10
6592.688241292
 20
5115.8918579683
 10
6604.1540199489
 20
5116.185571036
 10
6615.3896275543
 20
5116.4802007932
 10
6616.2318451959
 20
5116.554420355
 10
6616.2581131068
 20
5116.5780554285
  0
LWPOLYLINE
  5
48E
330
1F
100
AcDbEntity
  8
0
  6
Continuous
 62
     7
100
AcDbPolyline
 90
        9
 70
   128
 43
0.0
 10
6591.6709899902
 20
5117.3806617727
 10
6591.6668370995
 20
5117.3865609967
 10
6591.6655282453
 20
5117.3924792577
 10
6591.6920698215
 20
5117.4044475113
 10
6592.688241399
 20
5117.479354528
 10
6604.1540201368
 20
5117.7730641473
 10
6615.3896275726
 20
5118.0676957472
 10
6616.231845198
 20
5118.1419154569
 10
6616.2581131068
 20
5118.1655506363
  0
LWPOLYLINE
  5
48F
330
1F
100
AcDbEntity
  8
0
  6
Continuous
 62
     7
100
AcDbPolyline
 90
        9
 70
   128
 43
0.0
 10
6591.6709899902
 20
5118.9681569805
 10
6591.6668370946
 20
5118.9740616793
 10
6591.6655282356
 20
5118.9799848381
 10
6591.6920698033
 20
5118.9919589028
 10
6592.6882413762
 20
5119.0668515736
 10
6604.1540200629
 20
5119.3605698207
 10
6615.389627664
 20
5119.6551920337
 10
6616.2318452111
 20
5119.7294151248
 10
6616.2581131068
 20
5119.7530607453
  0
LWPOLYLINE
  5
490
330
1F
100
AcDbEntity
  8
0
  6
Continuous
 62
     7
100
AcDbPolyline
 90
        9
 70
   128
 43
0.0
 10
6591.6709899902
 20
5120.5556521883
 10
6591.6668370971
 20
5120.5615565469
 10
6591.6655282391
 20
5120.5674795738
 10
6591.6920697983
 20
5120.5794548097
 10
6592.6882412913
 20
5120.6543584928
 10
6604.154019942
 20
5120.9480715574
 10
6615.3896275473
 20
5121.2427020842
 10
6616.2318452214
 20
5121.3169090112
 10
6616.2581131068
 20
5121.340555953
  0
LWPOLYLINE
  5
491
330
1F
100
AcDbEntity
  8
0
  6
Continuous
 62
     7
100
AcDbPolyline
 90
        9
 70
   128
 43
0.0
 10
6591.6709899902
 20
5122.1431622973
 10
6591.6668370995
 20
5122.1490615212
 10
6591.6655282453
 20
5122.1549797822
 10
6591.6920698215
 20
5122.1669480359
 10
6592.6882413994
 20
5122.2418550503
 10
6604.1540201008
 20
5122.5355666272
 10
6615.389627572
 20
5122.8301962883
 10
6616.2318451978
 20
5122.9044159883
 10
6616.2581131068
 20
5122.9280511608
  0
LWPOLYLINE
  5
492
330
1F
100
AcDbEntity
  8
0
  6
Continuous
 62
     7
100
AcDbPolyline
 90
       10
 70
   128
 43
0.0
 10
6591.667175293
 20
5115.9833649864
 10
6591.6595943478
 20
5115.9922120971
 10
6591.6569408091
 20
5115.9966481333
 10
6591.6576284193
 20
5116.0010991466
 10
6591.6656675175
 20
5116.0070657572
 10
6592.5231613069
 20
5116.0816117432
 10
6603.7517210577
 20
5116.3761005896
 10
6615.2318768757
 20
5116.6703845981
 10
6616.2015446535
 20
5116.7450733658
 10
6616.2409935352
 20
5116.768805193
  0
LWPOLYLINE
  5
493
330
1F
100
AcDbEntity
  8
0
  6
Continuous
 62
     7
100
AcDbPolyline
 90
       10
 70
   128
 43
0.0
 10
6591.667175293
 20
5117.5708601942
 10
6591.6595943478
 20
5117.5797073049
 10
6591.6569408091
 20
5117.5841433411
 10
6591.6576284193
 20
5117.5885943544
 10
6591.6656675175
 20
5117.594560965
 10
6592.5231613077
 20
5117.6691069512
 10
6603.7517210686
 20
5117.9635956639
 10
6615.2318768987
 20
5118.2578769154
 10
6616.2015446268
 20
5118.3325819439
 10
6616.2409935352
 20
5118.3563004007
  0
LWPOLYLINE
  5
494
330
1F
100
AcDbEntity
  8
0
  6
Continuous
 62
     7
100
AcDbPolyline
 90
       10
 70
   128
 43
0.0
 10
6591.667175293
 20
5119.158355402
 10
6591.6595943398
 20
5119.1672087783
 10
6591.6569407973
 20
5119.1716476277
 10
6591.6576284042
 20
5119.1761010706
 10
6591.6656674989
 20
5119.1820701034
 10
6592.5231612769
 20
5119.2566035953
 10
6603.7517211297
 20
5119.5510872662
 10
6615.2318768635
 20
5119.8453752889
 10
6616.2015446248
 20
5119.920077332
 10
6616.2409935352
 20
5119.9437956085
  0
LWPOLYLINE
  5
495
330
1F
100
AcDbEntity
  8
0
  6
Continuous
 62
     7
100
AcDbPolyline
 90
       10
 70
   128
 43
0.0
 10
6591.667175293
 20
5120.745865511
 10
6591.6595943478
 20
5120.7547126217
 10
6591.6569408091
 20
5120.7591486579
 10
6591.6576284193
 20
5120.7635996711
 10
6591.6656675175
 20
5120.7695662817
 10
6592.5231613064
 20
5120.8441122681
 10
6603.7517210615
 20
5121.1386006135
 10
6615.2318768802
 20
5121.4328848993
 10
6616.2015446537
 20
5121.507573877
 10
6616.2409935352
 20
5121.5313057175
  0
LWPOLYLINE
  5
496
330
1F
100
AcDbEntity
  8
0
  6
Continuous
 62
     7
100
AcDbPolyline
 90
       10
 70
   128
 43
0.0
 10
6591.667175293
 20
5122.3333607187
 10
6591.6595943478
 20
5122.3422078295
 10
6591.6569408091
 20
5122.3466438657
 10
6591.6576284193
 20
5122.3510948789
 10
6591.6656675175
 20
5122.3570614895
 10
6592.5231613077
 20
5122.4316074757
 10
6603.7517210686
 20
5122.7260961885
 10
6615.2318768987
 20
5123.0203774399
 10
6616.2015446268
 20
5123.0950824684
 10
6616.2409935352
 20
5123.1188009253
  0
LWPOLYLINE
  5
497
330
1F
100
AcDbEntity
  8
0
  6
Continuous
 62
     7
100
AcDbPolyline
 90
       10
 70
   128
 43
0.0
 10
6590.8126831055
 20
5116.4794991484
 10
6590.8045813139
 20
5116.488441316
 10
6590.8018116654
 20
5116.4929253065
 10
6590.8027395478
 20
5116.4974247849
 10
6590.8118587036
 20
5116.503457105
 10
6591.7502770759
 20
5116.5788293614
 10
6603.9593196894
 20
5116.876269211
 10
6616.1716627409
 20
5117.1740913101
 10
6617.0860837075
 20
5117.2491672931
 10
6617.114218345
 20
5117.2730753889
  0
LWPOLYLINE
  5
498
330
1F
100
AcDbEntity
  8
0
  6
Continuous
 62
     7
100
AcDbPolyline
 90
       10
 70
   128
 43
0.0
 10
6590.8126831055
 20
5118.0669943562
 10
6590.8045813063
 20
5118.07594286
 10
6590.8018116543
 20
5118.0804296876
 10
6590.8027395336
 20
5118.0849316061
 10
6590.811858686
 20
5118.0909663328
 10
6591.7502770436
 20
5118.1663262855
 10
6603.9593197445
 20
5118.4637609301
 10
6616.1716627308
 20
5118.761587535
 10
6617.0860837036
 20
5118.8366628645
 10
6617.114218345
 20
5118.8605705967
  0
LWPOLYLINE
  5
499
330
1F
100
AcDbEntity
  8
0
  6
Continuous
 62
     7
100
AcDbPolyline
 90
       10
 70
   128
 43
0.0
 10
6590.8126831055
 20
5119.6545044651
 10
6590.8045813139
 20
5119.6634466328
 10
6590.8018116654
 20
5119.6679306232
 10
6590.8027395478
 20
5119.6724301016
 10
6590.8118587035
 20
5119.6784624217
 10
6591.7502770746
 20
5119.7538346783
 10
6603.9593196832
 20
5120.0512741419
 10
6616.171662732
 20
5120.3490977049
 10
6617.0860837305
 20
5120.4241607992
 10
6617.114218345
 20
5120.4480807057
  0
LWPOLYLINE
  5
49A
330
1F
100
AcDbEntity
  8
0
  6
Continuous
 62
     7
100
AcDbPolyline
 90
       10
 70
   128
 43
0.0
 10
6590.8126831055
 20
5121.2419996729
 10
6590.8045813139
 20
5121.2509418405
 10
6590.8018116654
 20
5121.255425831
 10
6590.8027395478
 20
5121.2599253094
 10
6590.8118587036
 20
5121.2659576295
 10
6591.7502770759
 20
5121.3413298859
 10
6603.9593196894
 20
5121.6387697355
 10
6616.1716627409
 20
5121.9365918346
 10
6617.0860837075
 20
5122.0116678177
 10
6617.114218345
 20
5122.0355759134
  0
LWPOLYLINE
  5
49B
330
1F
100
AcDbEntity
  8
0
  6
Continuous
 62
     7
100
AcDbPolyline
 90
       10
 70
   128
 43
0.0
 10
6590.8126831055
 20
5122.8294948807
 10
6590.8046663264
 20
5122.838347099
 10
6590.8018472739
 20
5122.8427857305
 10
6590.80261546
 20
5122.8472393888
 10
6590.8112865786
 20
5122.8532096325
 10
6591.7302405011
 20
5122.9277995371
 10
6603.7507669058
 20
5123.2224290972
 10
6616.0245186104
 20
5123.5168978157
 10
6617.0545730942
 20
5123.5916175315
 10
6617.0958284495
 20
5123.6153523197
  0
LWPOLYLINE
  5
49C
330
1F
100
AcDbEntity
  8
0
  6
Continuous
 62
     7
100
AcDbPolyline
 90
        7
 70
   128
 43
0.0
 10
6591.6328430176
 20
5123.4678010216
 10
6591.6174209415
 20
5123.4760899896
 10
6591.6170518934
 20
5123.4774586807
 10
6591.6175179361
 20
5123.4788232997
 10
6591.6227177636
 20
5123.4824434656
 10
6592.0251337023
 20
5123.5246962135
 10
6596.7981376891
 20
5123.6994544735
  0
LWPOLYLINE
  5
49D
330
1F
100
AcDbEntity
  8
0
  6
Continuous
 62
     7
100
AcDbPolyline
 90
        6
 70
   128
 43
0.0
 10
6590.763092041
 20
5116.2156591883
 10
6590.7572714488
 20
5116.2207546021
 10
6590.7555394872
 20
5116.2232967946
 10
6590.7553535421
 20
5116.2258323698
 10
6590.7584012391
 20
5116.2291990309
 10
6591.0972894346
 20
5116.2683049908
  0
LWPOLYLINE
  5
49E
330
1F
100
AcDbEntity
  8
0
  6
Continuous
 62
     7
100
AcDbPolyline
 90
        3
 70
   128
 43
0.0
 10
6616.6038513184
 20
5116.9376949539
 10
6617.0910609076
 20
5116.9776293894
 10
6617.1648971942
 20
5117.0094738474
  0
LWPOLYLINE
  5
49F
330
1F
100
AcDbEntity
  8
0
  6
Continuous
 62
     7
100
AcDbPolyline
 90
        6
 70
   128
 43
0.0
 10
6590.763092041
 20
5117.8031692972
 10
6590.7572714519
 20
5117.8082589165
 10
6590.7555394922
 20
5117.8107984116
 10
6590.7553535493
 20
5117.8133315293
 10
6590.75840125
 20
5117.8166954249
 10
6591.0972894346
 20
5117.8558150997
  0
LWPOLYLINE
  5
4A0
330
1F
100
AcDbEntity
  8
0
  6
Continuous
 62
     7
100
AcDbPolyline
 90
        3
 70
   128
 43
0.0
 10
6616.6038513184
 20
5118.5252050629
 10
6617.0910608878
 20
5118.5651353611
 10
6617.1648971942
 20
5118.5969690552
  0
LWPOLYLINE
  5
4A1
330
1F
100
AcDbEntity
  8
0
  6
Continuous
 62
     7
100
AcDbPolyline
 90
        6
 70
   128
 43
0.0
 10
6590.763092041
 20
5119.390664505
 10
6590.7572714488
 20
5119.3957599188
 10
6590.7555394872
 20
5119.3983021113
 10
6590.7553535421
 20
5119.4008376866
 10
6590.7584012391
 20
5119.4042043476
 10
6591.0972894346
 20
5119.4433103075
  0
LWPOLYLINE
  5
4A2
330
1F
100
AcDbEntity
  8
0
  6
Continuous
 62
     7
100
AcDbPolyline
 90
        3
 70
   128
 43
0.0
 10
6616.6038513184
 20
5120.1127002707
 10
6617.0910608878
 20
5120.1526305689
 10
6617.1648971942
 20
5120.184464263
  0
LWPOLYLINE
  5
4A3
330
1F
100
AcDbEntity
  8
0
  6
Continuous
 62
     7
100
AcDbPolyline
 90
        6
 70
   128
 43
0.0
 10
6590.763092041
 20
5120.9781597128
 10
6590.7572714488
 20
5120.9832551266
 10
6590.7555394872
 20
5120.9857973191
 10
6590.7553535421
 20
5120.9883328944
 10
6590.7584012391
 20
5120.9916995554
 10
6591.0972894346
 20
5121.0308055153
  0
LWPOLYLINE
  5
4A4
330
1F
100
AcDbEntity
  8
0
  6
Continuous
 62
     7
100
AcDbPolyline
 90
        3
 70
   128
 43
0.0
 10
6616.6038513184
 20
5121.7001954785
 10
6617.0910609076
 20
5121.7401299139
 10
6617.1648971942
 20
5121.7719743719
  0
LWPOLYLINE
  5
4A5
330
1F
100
AcDbEntity
  8
0
  6
Continuous
 62
     7
100
AcDbPolyline
 90
        6
 70
   128
 43
0.0
 10
6590.763092041
 20
5122.5656549206
 10
6590.7572714496
 20
5122.5707500889
 10
6590.7555394886
 20
5122.5732922153
 10
6590.7553535441
 20
5122.5758277925
 10
6590.7584012421
 20
5122.579194601
 10
6591.0972894346
 20
5122.6183156243
  0
LWPOLYLINE
  5
4A6
330
1F
100
AcDbEntity
  8
0
  6
Continuous
 62
     7
100
AcDbPolyline
 90
        3
 70
   128
 43
0.0
 10
6616.6038513184
 20
5123.2877055874
 10
6617.0910608878
 20
5123.3276358856
 10
6617.1648971942
 20
5123.3594695797
  0
LWPOLYLINE
  5
4A7
330
1F
100
AcDbEntity
  8
0
  6
Continuous
 62
     7
100
AcDbPolyline
 90
        3
 70
   128
 43
0.0
 10
6591.7587280273
 20
5135.9065602293
 10
6590.3702606441
 20
5135.9585818696
 10
6589.9588955074
 20
5135.9994540682
  0
LWPOLYLINE
  5
4A8
330
1F
100
AcDbEntity
  8
0
  6
Continuous
 62
     7
100
AcDbPolyline
 90
        3
 70
   128
 43
0.0
 10
6589.958190918
 20
5287.3994546236
 10
6590.6124435934
 20
5287.4514747004
 10
6591.7588955347
 20
5287.492347764
  0
LWPOLYLINE
  5
4A9
330
1F
100
AcDbEntity
  8
0
  6
Continuous
 62
     7
100
AcDbPolyline
 90
        3
 70
   128
 43
0.0
 10
6590.9576416016
 20
5135.9994540682
 10
6591.2493656163
 20
5135.3822893724
 10
6591.7588955347
 20
5135.1994554272
  0
LWPOLYLINE
  5
4AA
330
1F
100
AcDbEntity
  8
0
  6
Continuous
 62
     7
100
AcDbPolyline
 90
        3
 70
   128
 43
0.0
 10
6589.958190918
 20
5135.9994540682
 10
6590.6124436374
 20
5134.6108196592
 10
6591.7588955347
 20
5134.1994534006
  0
LWPOLYLINE
  5
4AB
330
1F
100
AcDbEntity
  8
0
  6
Continuous
 62
     7
100
AcDbPolyline
 90
        3
 70
   128
 43
0.0
 10
6591.7587280273
 20
5289.1994545927
 10
6590.3702635135
 20
5288.5459041462
 10
6589.9588955074
 20
5287.3994546236
  0
LWPOLYLINE
  5
4AC
330
1F
100
AcDbEntity
  8
0
  6
Continuous
 62
     7
100
AcDbPolyline
 90
        3
 70
   128
 43
0.0
 10
6591.7587280273
 20
5288.1994545452
 10
6591.1417257502
 20
5287.9089878334
 10
6590.9588955549
 20
5287.3994546236
  0
LWPOLYLINE
  5
4AD
330
1F
100
AcDbEntity
  8
0
  6
Continuous
 62
     7
100
AcDbPolyline
 90
        3
 70
   128
 43
0.0
 10
6670.4864501953
 20
5235.063029336
 10
6670.2463275141
 20
5234.838732483
 10
6669.9588991907
 20
5234.6556166878
  0
LWPOLYLINE
  5
4AE
330
1F
100
AcDbEntity
  8
0
  6
Continuous
 62
     7
100
AcDbPolyline
 90
        3
 70
   128
 43
0.0
 10
6670.9594726562
 20
5244.969608145
 10
6670.9604761401
 20
5245.1205847664
 10
6670.9581189063
 20
5245.2392036786
  0
LWPOLYLINE
  5
4AF
330
1F
100
AcDbEntity
  8
0
  6
Continuous
 62
     7
100
AcDbPolyline
 90
        3
 70
   128
 43
0.0
 10
6315.2618408203
 20
4887.9930588198
 10
6315.6580578682
 20
4887.9278661783
 10
6315.9701955104
 20
4887.8914999557
  0
LWPOLYLINE
  5
4B0
330
1F
100
AcDbEntity
  8
0
  6
Continuous
 62
     7
100
AcDbPolyline
 90
        3
 70
   128
 43
0.0
 10
6216.2704467773
 20
4893.6456653071
 10
6216.7565839542
 20
4894.7407168018
 10
6217.9724163674
 20
4895.4421567512
  0
LWPOLYLINE
  5
4B1
330
1F
100
AcDbEntity
  8
0
  6
Continuous
 62
     7
100
AcDbPolyline
 90
        3
 70
   128
 43
0.0
 10
6181.9686889648
 20
4840.574009974
 10
6183.7029674637
 20
4839.9736849474
 10
6184.5226995014
 20
4839.8958655787
  0
LWPOLYLINE
  5
4B2
330
1F
100
AcDbEntity
  8
0
  6
Continuous
 62
     7
100
AcDbPolyline
 90
        3
 70
   128
 43
0.0
 10
6196.5751647949
 20
4839.8423189788
 10
6196.8957655746
 20
4840.2853712222
 10
6197.0923504693
 20
4840.6456629304
  0
LWPOLYLINE
  5
4B3
330
1F
100
AcDbEntity
  8
0
  6
Continuous
 62
     7
100
AcDbPolyline
 90
        3
 70
   128
 43
0.0
 10
6258.1520080566
 20
4893.7216090751
 10
6263.0986027273
 20
4891.8838907977
 10
6266.9536656998
 20
4890.4271225226
  0
LWPOLYLINE
  5
4B4
330
1F
100
AcDbEntity
  8
0
  6
Continuous
 62
     7
100
AcDbPolyline
 90
        9
 70
   128
 43
0.0
 10
6232.234954834
 20
4917.7106679068
 10
6227.1066482097
 20
4911.0215828701
 10
6227.1074022869
 20
4902.5949637032
 10
6232.269849246
 20
4895.9383800322
 10
6240.4370006158
 20
4893.8861925255
 10
6248.1088176215
 20
4897.3521106633
 10
6251.9221251705
 20
4904.8545358913
 10
6250.1529124424
 20
4913.0796370134
 10
6243.5658983253
 20
4918.3086619493
  0
LWPOLYLINE
  5
4B5
330
1F
100
AcDbEntity
  8
0
  6
Continuous
 62
     7
100
AcDbPolyline
 90
        3
 70
   128
 43
0.0
 10
6234.1156005859
 20
4917.788749143
 10
6244.1165072486
 20
4918.6264249574
 10
6250.5351937674
 20
4913.8808130999
  0
LWPOLYLINE
  5
4B6
330
1F
100
AcDbEntity
  8
0
  6
Continuous
 62
     7
100
AcDbPolyline
 90
        3
 70
   128
 43
0.0
 10
6243.5646057129
 20
4918.3086619493
 10
6238.2105403633
 20
4918.9411452474
 10
6234.119314637
 20
4917.788749143
  0
ARC
  5
4B7
330
1F
100
AcDbEntity
  8
0
  6
Continuous
 62
     7
100
AcDbCircle
 10
6239.5087528656
 20
4906.6157045689
 30
0.0
 40
13.20375502774553
100
AcDbArc
 50
142.274430256
 51
33.3828266304
  0
LWPOLYLINE
  5
4B8
330
1F
100
AcDbEntity
  8
0
  6
Continuous
 62
     7
100
AcDbPolyline
 90
        3
 70
   128
 43
0.0
 10
6234.1156005859
 20
4917.788749143
 10
6239.6999645794
 20
4919.0055095461
 10
6244.0881244205
 20
4918.043458533
  0
LWPOLYLINE
  5
4B9
330
1F
100
AcDbEntity
  8
0
  6
Continuous
 62
     7
100
AcDbPolyline
 90
        3
 70
   128
 43
0.0
 10
6163.6772155762
 20
4918.8456658637
 10
6163.7293226846
 20
4920.2342978849
 10
6163.7701950334
 20
4920.645665891
  0
LWPOLYLINE
  5
4BA
330
1F
100
AcDbEntity
  8
0
  6
Continuous
 62
     7
100
AcDbPolyline
 90
        3
 70
   128
 43
0.0
 10
6315.1664733887
 20
4920.645665891
 10
6315.2222157681
 20
4919.9921153562
 10
6315.2630887292
 20
4918.8456658637
  0
LWPOLYLINE
  5
4BB
330
1F
100
AcDbEntity
  8
0
  6
Continuous
 62
     7
100
AcDbPolyline
 90
        3
 70
   128
 43
0.0
 10
6163.7687683105
 20
4920.645665891
 10
6162.381560622
 20
4919.992117805
 10
6161.9701943658
 20
4918.8456658637
  0
LWPOLYLINE
  5
4BC
330
1F
100
AcDbEntity
  8
0
  6
Continuous
 62
     7
100
AcDbPolyline
 90
        3
 70
   128
 43
0.0
 10
6163.7687683105
 20
4919.6456658435
 10
6163.1530303324
 20
4919.3551958808
 10
6162.9701963924
 20
4918.8456658637
  0
LWPOLYLINE
  5
4BD
330
1F
100
AcDbEntity
  8
0
  6
Continuous
 62
     7
100
AcDbPolyline
 90
        3
 70
   128
 43
0.0
 10
6315.9675598145
 20
4918.8456658637
 10
6315.6797287022
 20
4919.4628356412
 10
6315.1701955888
 20
4919.6456658435
  0
LWPOLYLINE
  5
4BE
330
1F
100
AcDbEntity
  8
0
  6
Continuous
 62
     7
100
AcDbPolyline
 90
        3
 70
   128
 43
0.0
 10
6316.967010498
 20
4918.8456658637
 10
6316.3166450683
 20
4920.2342978818
 10
6315.1701955888
 20
4920.645665891
  0
LWPOLYLINE
  5
4BF
330
1F
100
AcDbEntity
  8
0
  6
Continuous
 62
     7
100
AcDbPolyline
 90
        3
 70
   128
 43
0.0
 10
6197.1588134766
 20
4840.6456622076
 10
6197.0601502029
 20
4840.481355643
 10
6196.9527489804
 20
4840.3814422679
  0
ENDSEC
  0
SECTION
  2
OBJECTS
  0
DICTIONARY
  5
C
330
0
100
AcDbDictionary
281
     1
  3
ACAD_GROUP
350
D
  3
ACAD_LAYOUT
350
1A
  3
ACAD_MLINESTYLE
350
17
  3
ACAD_PLOTSETTINGS
350
19
  3
ACAD_PLOTSTYLENAME
350
E
  3
ACAD_SCALELIST
350
47
  3
DWGPROPS
350
4C0
  0
DICTIONARY
  5
D
102
{ACAD_REACTORS
330
C
102
}
330
C
100
AcDbDictionary
281
     1
  0
DICTIONARY
  5
1A
102
{ACAD_REACTORS
330
C
102
}
330
C
100
AcDbDictionary
281
     1
  3
Layout1
350
1E
  3
Layout2
350
26
  3
Model
350
22
  0
DICTIONARY
  5
17
102
{ACAD_REACTORS
330
C
102
}
330
C
100
AcDbDictionary
281
     1
  3
Standard
350
18
  0
DICTIONARY
  5
19
102
{ACAD_REACTORS
330
C
102
}
330
C
100
AcDbDictionary
281
     1
  0
ACDBDICTIONARYWDFLT
  5
E
102
{ACAD_REACTORS
330
C
102
}
330
C
100
AcDbDictionary
281
     1
  3
Normal
350
F
100
AcDbDictionaryWithDefault
340
F
  0
DICTIONARY
  5
47
102
{ACAD_REACTORS
330
C
102
}
330
C
100
AcDbDictionary
281
     1
  3
A0
350
48
  3
A1
350
49
  3
A2
350
4A
  3
A3
350
4B
  3
A4
350
4C
  3
A5
350
4D
  3
A6
350
4E
  3
A7
350
4F
  3
A8
350
50
  3
A9
350
51
  3
B0
350
52
  3
B1
350
53
  3
B2
350
54
  3
B3
350
55
  3
B4
350
56
  3
B5
350
57
  3
B6
350
58
  3
B7
350
59
  3
B8
350
5A
  3
B9
350
5B
  3
C0
350
5C
  3
C1
350
5D
  3
C2
350
5E
  3
C3
350
5F
  3
C4
350
60
  3
C5
350
61
  3
C6
350
62
  3
C7
350
63
  3
C8
350
64
  3
C9
350
65
  3
D0
350
66
  3
D1
350
67
  3
D2
350
68
  0
XRECORD
  5
4C0
102
{ACAD_REACTORS
330
C
102
}
330
C
100
AcDbXrecord
280
     1
  1
DWGPROPS COOKIE
  2

  3

  4

  6

  7

  8
radek.stransky
  9

300
=
301
=
302
=
303
=
304
=
305
=
306
=
307
=
308
=
309
=
 40
0.0
 41
2459103.375769005
 42
2459103.375818241
  1

 90
        0
  0
LAYOUT
  5
1E
102
{ACAD_REACTORS
330
1A
102
}
330
1A
100
AcDbPlotSettings
  1

  2
none_device
  4

  6

 40
0.0
 41
0.0
 42
0.0
 43
0.0
 44
0.0
 45
0.0
 46
0.0
 47
0.0
 48
0.0
 49
0.0
140
0.0
141
0.0
142
1.0
143
1.0
 70
   688
 72
     1
 73
     0
 74
     5
  7

 75
    16
147
1.0
148
0.0
149
0.0
100
AcDbLayout
  1
Layout1
 70
     1
 71
     1
 10
0.0
 20
0.0
 11
420.0
 21
297.0
 12
0.0
 22
0.0
 32
0.0
 14
1.0000000000E+20
 24
1.0000000000E+20
 34
1.0000000000E+20
 15
-1.0000000000E+20
 25
-1.0000000000E+20
 35
-1.0000000000E+20
146
0.0
 13
0.0
 23
0.0
 33
0.0
 16
1.0
 26
0.0
 36
0.0
 17
0.0
 27
1.0
 37
0.0
 76
     0
330
1B
  0
LAYOUT
  5
26
102
{ACAD_REACTORS
330
1A
102
}
330
1A
100
AcDbPlotSettings
  1

  2
none_device
  4

  6

 40
0.0
 41
0.0
 42
0.0
 43
0.0
 44
0.0
 45
0.0
 46
0.0
 47
0.0
 48
0.0
 49
0.0
140
0.0
141
0.0
142
1.0
143
1.0
 70
   688
 72
     1
 73
     0
 74
     5
  7

 75
    16
147
1.0
148
0.0
149
0.0
100
AcDbLayout
  1
Layout2
 70
     1
 71
     2
 10
0.0
 20
0.0
 11
0.0
 21
0.0
 12
0.0
 22
0.0
 32
0.0
 14
0.0
 24
0.0
 34
0.0
 15
0.0
 25
0.0
 35
0.0
146
0.0
 13
0.0
 23
0.0
 33
0.0
 16
1.0
 26
0.0
 36
0.0
 17
0.0
 27
1.0
 37
0.0
 76
     0
330
23
  0
LAYOUT
  5
22
102
{ACAD_REACTORS
330
1A
102
}
330
1A
100
AcDbPlotSettings
  1

  2
none_device
  4
ANSI_A_(11.00_x_8.50_Inches)
  6

 40
6.35
 41
19.05
 42
6.35000508
 43
19.05000254
 44
279.4
 45
215.9
 46
-2425.6338763359
 47
-1913.5147286974
 48
0.0
 49
0.0
140
0.0
141
0.0
142
0.015630985
143
1.0
 70
  1696
 72
     0
 73
     0
 74
     0
  7

 75
     0
147
0.0179189148
148
-1300.4909072572
149
0.0
100
AcDbLayout
  1
Model
 70
     1
 71
     0
 10
0.0
 20
0.0
 11
420.0
 21
297.0
 12
0.0
 22
0.0
 32
0.0
 14
6154.4702015184
 24
4774.3456649375
 34
0.0
 15
6736.2588964609
 25
5312.6994537881
 35
0.0
146
0.0
 13
0.0
 23
0.0
 33
0.0
 16
1.0
 26
0.0
 36
0.0
 17
0.0
 27
1.0
 37
0.0
 76
     0
330
1F
331
29
  0
MLINESTYLE
  5
18
102
{ACAD_REACTORS
330
17
102
}
330
17
100
AcDbMlineStyle
  2
Standard
 70
     0
  3

 62
   256
 51
90.0
 52
90.0
 71
     2
 49
0.5
 62
   256
  6
BYLAYER
 49
-0.5
 62
   256
  6
BYLAYER
  0
ACDBPLACEHOLDER
  5
F
102
{ACAD_REACTORS
330
E
102
}
330
E
  0
SCALE
  5
48
102
{ACAD_REACTORS
330
47
102
}
330
47
100
AcDbScale
 70
     0
300
1:1
140
1.0
141
1.0
290
     1
  0
SCALE
  5
49
102
{ACAD_REACTORS
330
47
102
}
330
47
100
AcDbScale
 70
     0
300
1:2
140
1.0
141
2.0
290
     0
  0
SCALE
  5
4A
102
{ACAD_REACTORS
330
47
102
}
330
47
100
AcDbScale
 70
     0
300
1:4
140
1.0
141
4.0
290
     0
  0
SCALE
  5
4B
102
{ACAD_REACTORS
330
47
102
}
330
47
100
AcDbScale
 70
     0
300
1:5
140
1.0
141
5.0
290
     0
  0
SCALE
  5
4C
102
{ACAD_REACTORS
330
47
102
}
330
47
100
AcDbScale
 70
     0
300
1:8
140
1.0
141
8.0
290
     0
  0
SCALE
  5
4D
102
{ACAD_REACTORS
330
47
102
}
330
47
100
AcDbScale
 70
     0
300
1:10
140
1.0
141
10.0
290
     0
  0
SCALE
  5
4E
102
{ACAD_REACTORS
330
47
102
}
330
47
100
AcDbScale
 70
     0
300
1:16
140
1.0
141
16.0
290
     0
  0
SCALE
  5
4F
102
{ACAD_REACTORS
330
47
102
}
330
47
100
AcDbScale
 70
     0
300
1:20
140
1.0
141
20.0
290
     0
  0
SCALE
  5
50
102
{ACAD_REACTORS
330
47
102
}
330
47
100
AcDbScale
 70
     0
300
1:30
140
1.0
141
30.0
290
     0
  0
SCALE
  5
51
102
{ACAD_REACTORS
330
47
102
}
330
47
100
AcDbScale
 70
     0
300
1:40
140
1.0
141
40.0
290
     0
  0
SCALE
  5
52
102
{ACAD_REACTORS
330
47
102
}
330
47
100
AcDbScale
 70
     0
300
1:50
140
1.0
141
50.0
290
     0
  0
SCALE
  5
53
102
{ACAD_REACTORS
330
47
102
}
330
47
100
AcDbScale
 70
     0
300
1:100
140
1.0
141
100.0
290
     0
  0
SCALE
  5
54
102
{ACAD_REACTORS
330
47
102
}
330
47
100
AcDbScale
 70
     0
300
2:1
140
2.0
141
1.0
290
     0
  0
SCALE
  5
55
102
{ACAD_REACTORS
330
47
102
}
330
47
100
AcDbScale
 70
     0
300
4:1
140
4.0
141
1.0
290
     0
  0
SCALE
  5
56
102
{ACAD_REACTORS
330
47
102
}
330
47
100
AcDbScale
 70
     0
300
8:1
140
8.0
141
1.0
290
     0
  0
SCALE
  5
57
102
{ACAD_REACTORS
330
47
102
}
330
47
100
AcDbScale
 70
     0
300
10:1
140
10.0
141
1.0
290
     0
  0
SCALE
  5
58
102
{ACAD_REACTORS
330
47
102
}
330
47
100
AcDbScale
 70
     0
300
100:1
140
100.0
141
1.0
290
     0
  0
SCALE
  5
59
102
{ACAD_REACTORS
330
47
102
}
330
47
100
AcDbScale
 70
     0
300
1/128" = 1'-0"
140
0.0078125
141
12.0
290
     0
  0
SCALE
  5
5A
102
{ACAD_REACTORS
330
47
102
}
330
47
100
AcDbScale
 70
     0
300
1/64" = 1'-0"
140
0.015625
141
12.0
290
     0
  0
SCALE
  5
5B
102
{ACAD_REACTORS
330
47
102
}
330
47
100
AcDbScale
 70
     0
300
1/32" = 1'-0"
140
0.03125
141
12.0
290
     0
  0
SCALE
  5
5C
102
{ACAD_REACTORS
330
47
102
}
330
47
100
AcDbScale
 70
     0
300
1/16" = 1'-0"
140
0.0625
141
12.0
290
     0
  0
SCALE
  5
5D
102
{ACAD_REACTORS
330
47
102
}
330
47
100
AcDbScale
 70
     0
300
3/32" = 1'-0"
140
0.09375
141
12.0
290
     0
  0
SCALE
  5
5E
102
{ACAD_REACTORS
330
47
102
}
330
47
100
AcDbScale
 70
     0
300
1/8" = 1'-0"
140
0.125
141
12.0
290
     0
  0
SCALE
  5
5F
102
{ACAD_REACTORS
330
47
102
}
330
47
100
AcDbScale
 70
     0
300
3/16" = 1'-0"
140
0.1875
141
12.0
290
     0
  0
SCALE
  5
60
102
{ACAD_REACTORS
330
47
102
}
330
47
100
AcDbScale
 70
     0
300
1/4" = 1'-0"
140
0.25
141
12.0
290
     0
  0
SCALE
  5
61
102
{ACAD_REACTORS
330
47
102
}
330
47
100
AcDbScale
 70
     0
300
3/8" = 1'-0"
140
0.375
141
12.0
290
     0
  0
SCALE
  5
62
102
{ACAD_REACTORS
330
47
102
}
330
47
100
AcDbScale
 70
     0
300
1/2" = 1'-0"
140
0.5
141
12.0
290
     0
  0
SCALE
  5
63
102
{ACAD_REACTORS
330
47
102
}
330
47
100
AcDbScale
 70
     0
300
3/4" = 1'-0"
140
0.75
141
12.0
290
     0
  0
SCALE
  5
64
102
{ACAD_REACTORS
330
47
102
}
330
47
100
AcDbScale
 70
     0
300
1" = 1'-0"
140
1.0
141
12.0
290
     0
  0
SCALE
  5
65
102
{ACAD_REACTORS
330
47
102
}
330
47
100
AcDbScale
 70
     0
300
1-1/2" = 1'-0"
140
1.5
141
12.0
290
     0
  0
SCALE
  5
66
102
{ACAD_REACTORS
330
47
102
}
330
47
100
AcDbScale
 70
     0
300
3" = 1'-0"
140
3.0
141
12.0
290
     0
  0
SCALE
  5
67
102
{ACAD_REACTORS
330
47
102
}
330
47
100
AcDbScale
 70
     0
300
6" = 1'-0"
140
6.0
141
12.0
290
     0
  0
SCALE
  5
68
102
{ACAD_REACTORS
330
47
102
}
330
47
100
AcDbScale
 70
     0
300
1'-0" = 1'-0"
140
12.0
141
12.0
290
     0
  0
ENDSEC
  0
EOF
