  0
SECTION
  2
HEADER
  9
$ACADVER
  1
AC1015
  9
$ACADMAINTVER
 70
     6
  9
$DWGCODEPAGE
  3
ANSI_1250
  9
$INSBASE
 10
0.0
 20
0.0
 30
0.0
  9
$EXTMIN
 10
6176.518749311
 20
4814.7239608875
 30
0.0
  9
$EXTMAX
 10
6724.4555315883
 20
5353.769177478
 30
0.0
  9
$LIMMIN
 10
0.0
 20
0.0
  9
$LIMMAX
 10
420.0
 20
297.0
  9
$ORTHOMODE
 70
     0
  9
$REGENMODE
 70
     1
  9
$FILLMODE
 70
     1
  9
$QTEXTMODE
 70
     0
  9
$MIRRTEXT
 70
     1
  9
$LTSCALE
 40
1.0
  9
$ATTMODE
 70
     1
  9
$TEXTSIZE
 40
3.5
  9
$TRACEWID
 40
1.0
  9
$TEXTSTYLE
  7
Standard
  9
$CLAYER
  8
0
  9
$CELTYPE
  6
ByLayer
  9
$CECOLOR
 62
   256
  9
$CELTSCALE
 40
1.0
  9
$DISPSILH
 70
     0
  9
$DIMSCALE
 40
1.0
  9
$DIMASZ
 40
3.302
  9
$DIMEXO
 40
0.0
  9
$DIMDLI
 40
3.75
  9
$DIMRND
 40
0.0
  9
$DIMDLE
 40
0.0
  9
$DIMEXE
 40
1.0
  9
$DIMTP
 40
0.0
  9
$DIMTM
 40
0.0
  9
$DIMTXT
 40
3.5
  9
$DIMCEN
 40
2.5
  9
$DIMTSZ
 40
0.0
  9
$DIMTOL
 70
     0
  9
$DIMLIM
 70
     0
  9
$DIMTIH
 70
     1
  9
$DIMTOH
 70
     1
  9
$DIMSE1
 70
     0
  9
$DIMSE2
 70
     0
  9
$DIMTAD
 70
     1
  9
$DIMZIN
 70
     0
  9
$DIMBLK
  1

  9
$DIMASO
 70
     1
  9
$DIMSHO
 70
     1
  9
$DIMPOST
  1

  9
$DIMAPOST
  1

  9
$DIMALT
 70
     0
  9
$DIMALTD
 70
     3
  9
$DIMALTF
 40
0.0393700787
  9
$DIMLFAC
 40
1.0
  9
$DIMTOFL
 70
     1
  9
$DIMTVP
 40
0.0
  9
$DIMTIX
 70
     0
  9
$DIMSOXD
 70
     0
  9
$DIMSAH
 70
     0
  9
$DIMBLK1
  1

  9
$DIMBLK2
  1

  9
$DIMSTYLE
  2
ISO-25
  9
$DIMCLRD
 70
     0
  9
$DIMCLRE
 70
     0
  9
$DIMCLRT
 70
     0
  9
$DIMTFAC
 40
1.0
  9
$DIMGAP
 40
1.524
  9
$DIMJUST
 70
     0
  9
$DIMSD1
 70
     0
  9
$DIMSD2
 70
     0
  9
$DIMTOLJ
 70
     0
  9
$DIMTZIN
 70
     0
  9
$DIMALTZ
 70
     0
  9
$DIMALTTZ
 70
     0
  9
$DIMUPT
 70
     0
  9
$DIMDEC
 70
     2
  9
$DIMTDEC
 70
     2
  9
$DIMALTU
 70
     2
  9
$DIMALTTD
 70
     3
  9
$DIMTXSTY
  7
Standard
  9
$DIMAUNIT
 70
     0
  9
$DIMADEC
 70
     2
  9
$DIMALTRND
 40
0.0
  9
$DIMAZIN
 70
     0
  9
$DIMDSEP
 70
    44
  9
$DIMATFIT
 70
     3
  9
$DIMFRAC
 70
     0
  9
$DIMLDRBLK
  1

  9
$DIMLUNIT
 70
     2
  9
$DIMLWD
 70
    -2
  9
$DIMLWE
 70
    -2
  9
$DIMTMOVE
 70
     0
  9
$LUNITS
 70
     2
  9
$LUPREC
 70
     2
  9
$SKETCHINC
 40
1.0
  9
$FILLETRAD
 40
10.0
  9
$AUNITS
 70
     0
  9
$AUPREC
 70
     2
  9
$MENU
  1
.
  9
$ELEVATION
 40
0.0
  9
$PELEVATION
 40
0.0
  9
$THICKNESS
 40
0.0
  9
$LIMCHECK
 70
     0
  9
$CHAMFERA
 40
0.0
  9
$CHAMFERB
 40
0.0
  9
$CHAMFERC
 40
0.0
  9
$CHAMFERD
 40
0.0
  9
$SKPOLY
 70
     0
  9
$TDCREATE
 40
2459103.457721157
  9
$TDUCREATE
 40
2459103.374387824
  9
$TDUPDATE
 40
2459103.457771852
  9
$TDUUPDATE
 40
2459103.374438519
  9
$TDINDWG
 40
0.0000000116
  9
$TDUSRTIMER
 40
0.0000000116
  9
$USRTIMER
 70
     1
  9
$ANGBASE
 50
0.0
  9
$ANGDIR
 70
     0
  9
$PDMODE
 70
     0
  9
$PDSIZE
 40
-1.0
  9
$PLINEWID
 40
0.0
  9
$SPLFRAME
 70
     0
  9
$SPLINETYPE
 70
     6
  9
$SPLINESEGS
 70
     8
  9
$HANDSEED
  5
50B
  9
$SURFTAB1
 70
     6
  9
$SURFTAB2
 70
     6
  9
$SURFTYPE
 70
     6
  9
$SURFU
 70
     6
  9
$SURFV
 70
     6
  9
$UCSBASE
  2

  9
$UCSNAME
  2

  9
$UCSORG
 10
0.0
 20
0.0
 30
0.0
  9
$UCSXDIR
 10
1.0
 20
0.0
 30
0.0
  9
$UCSYDIR
 10
0.0
 20
1.0
 30
0.0
  9
$UCSORTHOREF
  2

  9
$UCSORTHOVIEW
 70
     0
  9
$UCSORGTOP
 10
0.0
 20
0.0
 30
0.0
  9
$UCSORGBOTTOM
 10
0.0
 20
0.0
 30
0.0
  9
$UCSORGLEFT
 10
0.0
 20
0.0
 30
0.0
  9
$UCSORGRIGHT
 10
0.0
 20
0.0
 30
0.0
  9
$UCSORGFRONT
 10
0.0
 20
0.0
 30
0.0
  9
$UCSORGBACK
 10
0.0
 20
0.0
 30
0.0
  9
$PUCSBASE
  2

  9
$PUCSNAME
  2

  9
$PUCSORG
 10
0.0
 20
0.0
 30
0.0
  9
$PUCSXDIR
 10
1.0
 20
0.0
 30
0.0
  9
$PUCSYDIR
 10
0.0
 20
1.0
 30
0.0
  9
$PUCSORTHOREF
  2

  9
$PUCSORTHOVIEW
 70
     0
  9
$PUCSORGTOP
 10
0.0
 20
0.0
 30
0.0
  9
$PUCSORGBOTTOM
 10
0.0
 20
0.0
 30
0.0
  9
$PUCSORGLEFT
 10
0.0
 20
0.0
 30
0.0
  9
$PUCSORGRIGHT
 10
0.0
 20
0.0
 30
0.0
  9
$PUCSORGFRONT
 10
0.0
 20
0.0
 30
0.0
  9
$PUCSORGBACK
 10
0.0
 20
0.0
 30
0.0
  9
$USERI1
 70
     0
  9
$USERI2
 70
     0
  9
$USERI3
 70
     0
  9
$USERI4
 70
     0
  9
$USERI5
 70
     0
  9
$USERR1
 40
0.0
  9
$USERR2
 40
0.0
  9
$USERR3
 40
0.0
  9
$USERR4
 40
0.0
  9
$USERR5
 40
0.0
  9
$WORLDVIEW
 70
     1
  9
$SHADEDGE
 70
     3
  9
$SHADEDIF
 70
    70
  9
$TILEMODE
 70
     1
  9
$MAXACTVP
 70
    64
  9
$PINSBASE
 10
0.0
 20
0.0
 30
0.0
  9
$PLIMCHECK
 70
     0
  9
$PEXTMIN
 10
1.0000000000E+20
 20
1.0000000000E+20
 30
1.0000000000E+20
  9
$PEXTMAX
 10
-1.0000000000E+20
 20
-1.0000000000E+20
 30
-1.0000000000E+20
  9
$PLIMMIN
 10
0.0
 20
0.0
  9
$PLIMMAX
 10
420.0
 20
297.0
  9
$UNITMODE
 70
     0
  9
$VISRETAIN
 70
     1
  9
$PLINEGEN
 70
     0
  9
$PSLTSCALE
 70
     1
  9
$TREEDEPTH
 70
  3020
  9
$CMLSTYLE
  2
Standard
  9
$CMLJUST
 70
     0
  9
$CMLSCALE
 40
20.0
  9
$PROXYGRAPHICS
 70
     1
  9
$MEASUREMENT
 70
     1
  9
$CELWEIGHT
370
    -1
  9
$ENDCAPS
280
     0
  9
$JOINSTYLE
280
     0
  9
$LWDISPLAY
290
     1
  9
$INSUNITS
 70
     4
  9
$HYPERLINKBASE
  1

  9
$STYLESHEET
  1

  9
$XEDIT
290
     1
  9
$CEPSNTYPE
380
     0
  9
$PSTYLEMODE
290
     1
  9
$FINGERPRINTGUID
  2
{effd6fca-4c9a-4e47-871a-06acd60e6432}
  9
$VERSIONGUID
  2
{FAEB1C32-E019-11D5-929B-00C0DF256EC4}
  9
$EXTNAMES
290
     1
  9
$PSVPSCALE
 40
0.0
  9
$OLESTARTUP
290
     0
  0
ENDSEC
  0
SECTION
  2
CLASSES
  0
CLASS
  1
ACDBDICTIONARYWDFLT
  2
AcDbDictionaryWithDefault
  3
ObjectDBX Classes
 90
        0
280
     0
281
     0
  0
CLASS
  1
VISUALSTYLE
  2
AcDbVisualStyle
  3
ObjectDBX Classes
 90
     4095
280
     0
281
     0
  0
CLASS
  1
MATERIAL
  2
AcDbMaterial
  3
ObjectDBX Classes
 90
     1153
280
     0
281
     0
  0
CLASS
  1
SCALE
  2
AcDbScale
  3
ObjectDBX Classes
 90
     1153
280
     0
281
     0
  0
CLASS
  1
TABLESTYLE
  2
AcDbTableStyle
  3
ObjectDBX Classes
 90
     4095
280
     0
281
     0
  0
CLASS
  1
MLEADERSTYLE
  2
AcDbMLeaderStyle
  3
ACDB_MLEADERSTYLE_CLASS
 90
     4095
280
     0
281
     0
  0
CLASS
  1
SUN
  2
AcDbSun
  3
SCENEOE
 90
     1153
280
     0
281
     0
  0
CLASS
  1
ACDBPLACEHOLDER
  2
AcDbPlaceHolder
  3
ObjectDBX Classes
 90
        0
280
     0
281
     0
  0
CLASS
  1
LAYOUT
  2
AcDbLayout
  3
ObjectDBX Classes
 90
        0
280
     0
281
     0
  0
ENDSEC
  0
SECTION
  2
TABLES
  0
TABLE
  2
VPORT
  5
8
330
0
100
AcDbSymbolTable
 70
     1
  0
VPORT
  5
29
330
8
100
AcDbSymbolTableRecord
100
AcDbViewportTableRecord
  2
*Active
 70
     0
 10
0.0
 20
0.0
 11
1.0
 21
1.0
 12
6450.4871404497
 22
5084.2465691827
 13
0.0
 23
0.0
 14
10.0
 24
10.0
 15
10.0
 25
10.0
 16
0.0
 26
0.0
 36
1.0
 17
0.0
 27
0.0
 37
0.0
 40
549.8261209223
 41
1.0164950275
 42
50.0
 43
0.0
 44
0.0
 50
0.0
 51
0.0
 71
     0
 72
   100
 73
     1
 74
     3
 75
     0
 76
     0
 77
     0
 78
     0
281
     0
 65
     1
110
0.0
120
0.0
130
0.0
111
1.0
121
0.0
131
0.0
112
0.0
122
1.0
132
0.0
 79
     0
146
0.0
  0
ENDTAB
  0
TABLE
  2
LTYPE
  5
5
330
0
100
AcDbSymbolTable
 70
     6
  0
LTYPE
  5
14
330
5
100
AcDbSymbolTableRecord
100
AcDbLinetypeTableRecord
  2
ByBlock
 70
     0
  3

 72
    65
 73
     0
 40
0.0
  0
LTYPE
  5
15
330
5
100
AcDbSymbolTableRecord
100
AcDbLinetypeTableRecord
  2
ByLayer
 70
     0
  3

 72
    65
 73
     0
 40
0.0
  0
LTYPE
  5
16
330
5
100
AcDbSymbolTableRecord
100
AcDbLinetypeTableRecord
  2
Continuous
 70
     0
  3
Solid line
 72
    65
 73
     0
 40
0.0
  0
LTYPE
  5
6E
330
5
100
AcDbSymbolTableRecord
100
AcDbLinetypeTableRecord
  2
HIDDEN
 70
     0
  3
Hidden __ __ __ __ __ __ __ __ __ __ __ __ __ __
 72
    65
 73
     2
 40
1.905
 49
1.27
 74
     0
 49
-0.635
 74
     0
  0
LTYPE
  5
6F
330
5
100
AcDbSymbolTableRecord
100
AcDbLinetypeTableRecord
  2
PHANTOM
 70
     0
  3
Phantom ______  __  __  ______  __  __  ______
 72
    65
 73
     6
 40
12.7
 49
6.35
 74
     0
 49
-1.27
 74
     0
 49
1.27
 74
     0
 49
-1.27
 74
     0
 49
1.27
 74
     0
 49
-1.27
 74
     0
  0
LTYPE
  5
70
330
5
100
AcDbSymbolTableRecord
100
AcDbLinetypeTableRecord
  2
CENTER
 70
     0
  3
Center ____ _ ____ _ ____ _ ____ _ ____ _ ____
 72
    65
 73
     4
 40
10.16
 49
6.35
 74
     0
 49
-1.27
 74
     0
 49
1.27
 74
     0
 49
-1.27
 74
     0
  0
LTYPE
  5
71
330
5
100
AcDbSymbolTableRecord
100
AcDbLinetypeTableRecord
  2
CENTERX2
 70
     0
  3
Center (2x) ________  __  ________  __  _____
 72
    65
 73
     4
 40
20.32
 49
12.7
 74
     0
 49
-2.54
 74
     0
 49
2.54
 74
     0
 49
-2.54
 74
     0
  0
LTYPE
  5
72
330
5
100
AcDbSymbolTableRecord
100
AcDbLinetypeTableRecord
  2
DOT2
 70
     0
  3
Dot (.5x) ........................................
 72
    65
 73
     2
 40
0.635
 49
0.0
 74
     0
 49
-0.635
 74
     0
  0
ENDTAB
  0
TABLE
  2
LAYER
  5
2
330
0
100
AcDbSymbolTable
 70
     1
  0
LAYER
  5
10
330
2
100
AcDbSymbolTableRecord
100
AcDbLayerTableRecord
  2
0
 70
     0
 62
     7
  6
Continuous
370
    -3
390
F
  0
ENDTAB
  0
TABLE
  2
STYLE
  5
3
330
0
100
AcDbSymbolTable
 70
     1
  0
STYLE
  5
11
330
3
100
AcDbSymbolTableRecord
100
AcDbTextStyleTableRecord
  2
Standard
 70
     0
 40
0.0
 41
1.0
 50
0.0
 71
     0
 42
3.5
  3
txt
  4

  0
ENDTAB
  0
TABLE
  2
VIEW
  5
6
330
0
100
AcDbSymbolTable
 70
     0
  0
ENDTAB
  0
TABLE
  2
UCS
  5
7
330
0
100
AcDbSymbolTable
 70
     0
  0
ENDTAB
  0
TABLE
  2
APPID
  5
9
330
0
100
AcDbSymbolTable
 70
     1
  0
APPID
  5
12
330
9
100
AcDbSymbolTableRecord
100
AcDbRegAppTableRecord
  2
ACAD
 70
     0
  0
ENDTAB
  0
TABLE
  2
DIMSTYLE
  5
A
330
0
100
AcDbSymbolTable
 70
     1
100
AcDbDimStyleTable
  0
DIMSTYLE
105
27
330
A
100
AcDbSymbolTableRecord
100
AcDbDimStyleTableRecord
  2
ISO-25
 70
     0
 41
2.5
 42
0.625
 43
3.75
 44
1.25
 73
     0
 74
     0
 77
     1
 78
     8
140
2.5
141
2.5
143
0.0393700787
147
0.625
171
     3
172
     1
178
     0
271
     2
272
     2
274
     3
278
    44
283
     0
284
     8
340
11
  0
ENDTAB
  0
TABLE
  2
BLOCK_RECORD
  5
1
330
0
100
AcDbSymbolTable
 70
     1
  0
BLOCK_RECORD
  5
1F
330
1
100
AcDbSymbolTableRecord
100
AcDbBlockTableRecord
  2
*Model_Space
340
22
  0
BLOCK_RECORD
  5
1B
330
1
100
AcDbSymbolTableRecord
100
AcDbBlockTableRecord
  2
*Paper_Space
340
1E
  0
BLOCK_RECORD
  5
23
330
1
100
AcDbSymbolTableRecord
100
AcDbBlockTableRecord
  2
*Paper_Space0
340
26
  0
ENDTAB
  0
ENDSEC
  0
SECTION
  2
BLOCKS
  0
BLOCK
  5
20
330
1F
100
AcDbEntity
  8
0
100
AcDbBlockBegin
  2
*Model_Space
 70
     0
 10
0.0
 20
0.0
 30
0.0
  3
*Model_Space
  1

  0
ENDBLK
  5
21
330
1F
100
AcDbEntity
  8
0
100
AcDbBlockEnd
  0
BLOCK
  5
1C
330
1B
100
AcDbEntity
 67
     1
  8
0
100
AcDbBlockBegin
  2
*Paper_Space
 70
     0
 10
0.0
 20
0.0
 30
0.0
  3
*Paper_Space
  1

  0
ENDBLK
  5
1D
330
1B
100
AcDbEntity
 67
     1
  8
0
100
AcDbBlockEnd
  0
BLOCK
  5
24
330
23
100
AcDbEntity
  8
0
100
AcDbBlockBegin
  2
*Paper_Space0
 70
     0
 10
0.0
 20
0.0
 30
0.0
  3
*Paper_Space0
  1

  0
ENDBLK
  5
25
330
23
100
AcDbEntity
  8
0
100
AcDbBlockEnd
  0
ENDSEC
  0
SECTION
  2
ENTITIES
  0
ARC
  5
73
330
1F
100
AcDbEntity
  8
0
  6
Continuous
 62
     7
100
AcDbCircle
 10
6273.2637667736
 20
5188.3216005547
 30
0.0
 40
7.311104705565436
100
AcDbArc
 50
273.1513857932
 51
304.7726165219
  0
ARC
  5
74
330
1F
100
AcDbEntity
  8
0
  6
Continuous
 62
     7
100
AcDbCircle
 10
6274.2638322266
 20
5188.3081476915
 30
0.0
 40
7.311104705565762
100
AcDbArc
 50
233.6859913295
 51
265.3072235108
  0
CIRCLE
  5
75
330
1F
100
AcDbEntity
  8
0
  6
Continuous
 62
     7
100
AcDbCircle
 10
6333.4386933361
 20
5195.4556135421
 30
0.0
 40
0.5814415000004374
  0
CIRCLE
  5
76
330
1F
100
AcDbEntity
  8
0
  6
Continuous
 62
     7
100
AcDbCircle
 10
6333.4386933361
 20
5195.4556135421
 30
0.0
 40
0.505037099999754
  0
ARC
  5
77
330
1F
100
AcDbEntity
  8
0
  6
Continuous
 62
     7
100
AcDbCircle
 10
6349.018755942
 20
5179.269178901
 30
0.0
 40
10.0
100
AcDbArc
 50
270.0000012805
 51
0.0000307363
  0
ARC
  5
78
330
1F
100
AcDbEntity
  8
0
  6
Continuous
 62
     7
100
AcDbCircle
 10
6349.018755942
 20
5329.2691769639
 30
0.0
 40
9.999999999999307
100
AcDbArc
 50
0.000011953
 51
89.9999987194
  0
ARC
  5
79
330
1F
100
AcDbEntity
  8
0
  6
Continuous
 62
     7
100
AcDbCircle
 10
6199.0187522912
 20
5329.2691769639
 30
0.0
 40
10.00000000000022
100
AcDbArc
 50
89.9999692643
 51
179.999988047
  0
ARC
  5
7A
330
1F
100
AcDbEntity
  8
0
  6
Continuous
 62
     7
100
AcDbCircle
 10
6199.0187522912
 20
5179.269178901
 30
0.0
 40
10.00000000000053
100
AcDbArc
 50
179.9999692637
 51
270.0000307358
  0
CIRCLE
  5
7B
330
1F
100
AcDbEntity
  8
0
  6
Continuous
 62
     7
100
AcDbCircle
 10
6274.0187553361
 20
5285.7691774421
 30
0.0
 40
12.5
  0
CIRCLE
  5
7C
330
1F
100
AcDbEntity
  8
0
  6
Continuous
 62
     7
100
AcDbCircle
 10
6274.0187553361
 20
5285.7691774421
 30
0.0
 40
14.0
  0
ARC
  5
7D
330
1F
100
AcDbEntity
  8
0
  6
Continuous
 62
     7
100
AcDbCircle
 10
6272.0117865646
 20
5294.5112929681
 30
0.0
 40
1.617040694898606
100
AcDbArc
 50
0.0
 51
180.0
  0
ARC
  5
7E
330
1F
100
AcDbEntity
  8
0
  6
Continuous
 62
     7
100
AcDbCircle
 10
6268.5496973549
 20
5285.185209617
 30
0.0
 40
2.569012885872167
100
AcDbArc
 50
44.0944617505
 51
105.4943265024
  0
ARC
  5
7F
330
1F
100
AcDbEntity
  8
0
  6
Continuous
 62
     7
100
AcDbCircle
 10
6274.1859339423
 20
5282.2397443718
 30
0.0
 40
6.322530280909329
100
AcDbArc
 50
179.9999749075
 51
270.0000232396
  0
ARC
  5
80
330
1F
100
AcDbEntity
  8
0
  6
Continuous
 62
     7
100
AcDbCircle
 10
6276.553162127
 20
5280.4728145947
 30
0.0
 40
4.555600503812318
100
AcDbArc
 50
270.0000333207
 51
359.9999666806
  0
ARC
  5
81
330
1F
100
AcDbEntity
  8
0
  6
Continuous
 62
     7
100
AcDbCircle
 10
6279.7551513846
 20
5288.3095889275
 30
0.0
 40
1.353611246208946
100
AcDbArc
 50
359.9998734154
 51
90.0000962052
  0
ARC
  5
82
330
1F
100
AcDbEntity
  8
0
  6
Continuous
 62
     7
100
AcDbCircle
 10
6279.2609314624
 20
5288.3095889275
 30
0.0
 40
1.353611246208955
100
AcDbArc
 50
90.0003878974
 51
118.7368274802
  0
ARC
  5
83
330
1F
100
AcDbEntity
  8
0
  6
Continuous
 62
     7
100
AcDbCircle
 10
6277.2776657795
 20
5289.2581670468
 30
0.0
 40
1.353611246208798
100
AcDbArc
 50
10.1404325983
 51
89.9999419722
  0
ARC
  5
84
330
1F
100
AcDbEntity
  8
0
  6
Continuous
 62
     7
100
AcDbCircle
 10
6274.2584749185
 20
5289.767317373
 30
0.0
 40
1.353611246209161
100
AcDbArc
 50
89.9999615967
 51
117.7206660028
  0
ARC
  5
85
330
1F
100
AcDbEntity
  8
0
  6
Continuous
 62
     7
100
AcDbCircle
 10
6274.7150901716
 20
5289.767317373
 30
0.0
 40
1.353611246209333
100
AcDbArc
 50
26.4593944196
 51
89.9999180237
  0
ARC
  5
86
330
1F
100
AcDbEntity
  8
0
  6
Continuous
 62
     7
100
AcDbCircle
 10
6276.698350539
 20
5289.2581670468
 30
0.0
 40
1.353611246208397
100
AcDbArc
 50
90.0001389567
 51
124.7440957863
  0
ARC
  5
87
330
1F
100
AcDbEntity
  8
0
  6
Continuous
 62
     7
100
AcDbCircle
 10
6278.2692945147
 20
5286.840450857
 30
0.0
 40
0.6676167249506761
100
AcDbArc
 50
180.0
 51
0.0
  0
ARC
  5
88
330
1F
100
AcDbEntity
  8
0
  6
Continuous
 62
     7
100
AcDbCircle
 10
6270.7567250872
 20
5283.2307861188
 30
0.0
 40
0.6676167249997889
100
AcDbArc
 50
180.0
 51
0.0
  0
ARC
  5
89
330
1F
100
AcDbEntity
  8
0
  6
Continuous
 62
     7
100
AcDbCircle
 10
6273.2668480421
 20
5286.840450857
 30
0.0
 40
0.6676167249506761
100
AcDbArc
 50
180.0
 51
0.0
  0
ARC
  5
8A
330
1F
100
AcDbEntity
  8
0
  6
Continuous
 62
     7
100
AcDbCircle
 10
6272.0117865646
 20
5294.5112929681
 30
0.0
 40
0.5874447524502102
100
AcDbArc
 50
0.0
 51
180.0
  0
ARC
  5
8B
330
1F
100
AcDbEntity
  8
0
  6
Continuous
 62
     7
100
AcDbCircle
 10
6274.1859339423
 20
5282.2397443718
 30
0.0
 40
5.292927144485187
100
AcDbArc
 50
179.9999722397
 51
270.0000277603
  0
ARC
  5
8C
330
1F
100
AcDbEntity
  8
0
  6
Continuous
 62
     7
100
AcDbCircle
 10
6276.553162127
 20
5280.4728145947
 30
0.0
 40
3.525997367388385
100
AcDbArc
 50
270.0000430505
 51
359.9999569511
  0
ARC
  5
8D
330
1F
100
AcDbEntity
  8
0
  6
Continuous
 62
     7
100
AcDbCircle
 10
6268.5496973549
 20
5285.185209617
 30
0.0
 40
1.539411007311741
100
AcDbArc
 50
359.9999219468
 51
77.1139074998
  0
ARC
  5
8E
330
1F
100
AcDbEntity
  8
0
  6
Continuous
 62
     7
100
AcDbCircle
 10
6276.6144463137
 20
5289.272327559
 30
0.0
 40
0.2401101162878598
100
AcDbArc
 50
90.0000609412
 51
179.9999390588
  0
ARC
  5
8F
330
1F
100
AcDbEntity
  8
0
  6
Continuous
 62
     7
100
AcDbCircle
 10
6275.7067194725
 20
5286.840450857
 30
0.0
 40
0.6676167249506761
100
AcDbArc
 50
180.0
 51
0.0
  0
ARC
  5
90
330
1F
100
AcDbEntity
  8
0
  6
Continuous
 62
     7
100
AcDbCircle
 10
6279.8390493781
 20
5288.3559806514
 30
0.0
 40
0.2401101162873604
100
AcDbArc
 50
0.0000121513
 51
89.9998778224
  0
ARC
  5
91
330
1F
100
AcDbEntity
  8
0
  6
Continuous
 62
     7
100
AcDbCircle
 10
6279.1770213559
 20
5288.3559806514
 30
0.0
 40
0.2401101162869503
100
AcDbArc
 50
90.0000609412
 51
179.9999390588
  0
ARC
  5
92
330
1F
100
AcDbEntity
  8
0
  6
Continuous
 62
     7
100
AcDbCircle
 10
6277.3615676734
 20
5289.272327559
 30
0.0
 40
0.2401101162878597
100
AcDbArc
 50
0.0000609412
 51
89.999939059
  0
ARC
  5
93
330
1F
100
AcDbEntity
  8
0
  6
Continuous
 62
     7
100
AcDbCircle
 10
6274.1745748833
 20
5289.7814853359
 30
0.0
 40
0.2401101162878598
100
AcDbArc
 50
90.0000609412
 51
179.9999390588
  0
ARC
  5
94
330
1F
100
AcDbEntity
  8
0
  6
Continuous
 62
     7
100
AcDbCircle
 10
6274.7989926312
 20
5289.7814853359
 30
0.0
 40
0.2401101162869503
100
AcDbArc
 50
0.0000609412
 51
89.9999390588
  0
CIRCLE
  5
95
330
1F
100
AcDbEntity
  8
0
  6
Continuous
 62
     7
100
AcDbCircle
 10
6274.0187553361
 20
5207.2691774421
 30
0.0
 40
24.54999999999927
  0
CIRCLE
  5
96
330
1F
100
AcDbEntity
  8
0
  6
Continuous
 62
     7
100
AcDbCircle
 10
6274.0187553361
 20
5207.2691774421
 30
0.0
 40
26.94999999999982
  0
CIRCLE
  5
97
330
1F
100
AcDbEntity
  8
0
  6
Continuous
 62
     7
100
AcDbCircle
 10
6274.0187553361
 20
5207.2691774421
 30
0.0
 40
28.44999999999982
  0
ARC
  5
98
330
1F
100
AcDbEntity
  8
0
  6
Continuous
 62
     7
100
AcDbCircle
 10
6630.2055266407
 20
5172.3691731313
 30
0.0
 40
0.8000000000013362
100
AcDbArc
 50
180.0000973312
 51
269.9999026688
  0
ARC
  5
99
330
1F
100
AcDbEntity
  8
0
  6
Continuous
 62
     7
100
AcDbCircle
 10
6641.8055265692
 20
5172.3691731313
 30
0.0
 40
0.8000000000022457
100
AcDbArc
 50
270.0000973312
 51
359.9999026687
  0
ARC
  5
9A
330
1F
100
AcDbEntity
  8
0
  6
Continuous
 62
     7
100
AcDbCircle
 10
6693.3750867623
 20
5206.3089416819
 30
0.0
 40
31.09527461368426
100
AcDbArc
 50
1.7696002031
 51
55.1237833147
  0
ARC
  5
9B
330
1F
100
AcDbEntity
  8
0
  6
Continuous
 62
     7
100
AcDbCircle
 10
6693.375086542
 20
5208.2294060723
 30
0.0
 40
31.09527461368348
100
AcDbArc
 50
304.8762171801
 51
358.2304129408
  0
ARC
  5
9C
330
1F
100
AcDbEntity
  8
0
  6
Continuous
 62
     7
100
AcDbCircle
 10
6681.5555183914
 20
5180.3191840985
 30
0.0
 40
1.500000000000118
100
AcDbArc
 50
270.00073766
 51
359.9998315246
  0
ARC
  5
9D
330
1F
100
AcDbEntity
  8
0
  6
Continuous
 62
     7
100
AcDbCircle
 10
6681.5555183914
 20
5234.2191787104
 30
0.0
 40
1.500000000000625
100
AcDbArc
 50
0.0001684754
 51
89.99926234
  0
ARC
  5
9E
330
1F
100
AcDbEntity
  8
0
  6
Continuous
 62
     7
100
AcDbCircle
 10
6670.7555241612
 20
5179.269178901
 30
0.0
 40
10.00000000000091
100
AcDbArc
 50
270.0000546413
 51
0.0000307363
  0
ARC
  5
9F
330
1F
100
AcDbEntity
  8
0
  6
Continuous
 62
     7
100
AcDbCircle
 10
6670.7555241612
 20
5329.2691769639
 30
0.0
 40
10.00000000000022
100
AcDbArc
 50
0.000011953
 51
89.9999453587
  0
ARC
  5
A0
330
1F
100
AcDbEntity
  8
0
  6
Continuous
 62
     7
100
AcDbCircle
 10
6623.2828854471
 20
5201.8912794832
 30
0.0
 40
0.8500000000006921
100
AcDbArc
 50
84.0450243909
 51
153.6031564101
  0
ARC
  5
A1
330
1F
100
AcDbEntity
  8
0
  6
Continuous
 62
     7
100
AcDbCircle
 10
6616.3095001218
 20
5202.5241280738
 30
0.0
 40
0.8500000000006249
100
AcDbArc
 50
14.9215149176
 51
85.583973245
  0
ARC
  5
A2
330
1F
100
AcDbEntity
  8
0
  6
Continuous
 62
     7
100
AcDbCircle
 10
6704.4576139011
 20
5082.3966721337
 30
0.0
 40
100.0391673163492
100
AcDbArc
 50
87.8532882077
 51
92.1489889495
  0
ARC
  5
A3
330
1F
100
AcDbEntity
  8
0
  6
Continuous
 62
     7
100
AcDbCircle
 10
6704.4555230167
 20
5080.0415478101
 30
0.0
 40
102.748302534043
100
AcDbArc
 50
87.9084160889
 51
92.0915839111
  0
CIRCLE
  5
A4
330
1F
100
AcDbEntity
  8
0
  6
Continuous
 62
     7
100
AcDbCircle
 10
6620.2555312057
 20
5207.2691777844
 30
0.0
 40
5.499999999999591
  0
CIRCLE
  5
A5
330
1F
100
AcDbEntity
  8
0
  6
Continuous
 62
     7
100
AcDbCircle
 10
6620.2555312057
 20
5207.2691777844
 30
0.0
 40
9.500000000000025
  0
ARC
  5
A6
330
1F
100
AcDbEntity
  8
0
  6
Continuous
 62
     7
100
AcDbCircle
 10
6620.2555312057
 20
5207.2691777844
 30
0.0
 40
13.22049963695613
100
AcDbArc
 50
3.1797354543
 51
93.1797353334
  0
CIRCLE
  5
A7
330
1F
100
AcDbEntity
  8
0
  6
Continuous
 62
     7
100
AcDbCircle
 10
6620.2555312057
 20
5207.2691777844
 30
0.0
 40
11.72050000000054
  0
CIRCLE
  5
A8
330
1F
100
AcDbEntity
  8
0
  6
Continuous
 62
     7
100
AcDbCircle
 10
6620.2555312057
 20
5207.2691777844
 30
0.0
 40
9.75000000000119
  0
ARC
  5
A9
330
1F
100
AcDbEntity
  8
0
  6
Continuous
 62
     7
100
AcDbCircle
 10
6603.2555344132
 20
5175.2691721061
 30
0.0
 40
2.000000000000469
100
AcDbArc
 50
179.9998838871
 51
270.0001161129
  0
ARC
  5
AA
330
1F
100
AcDbEntity
  8
0
  6
Continuous
 62
     7
100
AcDbCircle
 10
6603.2555344132
 20
5175.2691721061
 30
0.0
 40
0.9999987444549816
100
AcDbArc
 50
179.9996942704
 51
269.9998381446
  0
ARC
  5
AB
330
1F
100
AcDbEntity
  8
0
  6
Continuous
 62
     7
100
AcDbCircle
 10
6603.2555315883
 20
5332.2691774421
 30
0.0
 40
1.0
100
AcDbArc
 50
90.0
 51
180.0
  0
ARC
  5
AC
330
1F
100
AcDbEntity
  8
0
  6
Continuous
 62
     7
100
AcDbCircle
 10
6603.2555315883
 20
5332.2691774421
 30
0.0
 40
1.999997175101274
100
AcDbArc
 50
89.9998029599
 51
179.9999932104
  0
ARC
  5
AD
330
1F
100
AcDbEntity
  8
0
  6
Continuous
 62
     7
100
AcDbCircle
 10
6669.2555401352
 20
5175.2691774421
 30
0.0
 40
1.000000000001732
100
AcDbArc
 50
269.9995102987
 51
359.9999264973
  0
ARC
  5
AE
330
1F
100
AcDbEntity
  8
0
  6
Continuous
 62
     7
100
AcDbCircle
 10
6669.2555268824
 20
5175.2691721061
 30
0.0
 40
1.999999999999738
100
AcDbArc
 50
269.9998947217
 51
318.5905817108
  0
ARC
  5
AF
330
1F
100
AcDbEntity
  8
0
  6
Continuous
 62
     7
100
AcDbCircle
 10
6669.2555310901
 20
5332.26917777
 30
0.0
 40
1.999996847189395
100
AcDbArc
 50
41.409600531
 51
90.0002258196
  0
ARC
  5
B0
330
1F
100
AcDbEntity
  8
0
  6
Continuous
 62
     7
100
AcDbCircle
 10
6669.2555310901
 20
5332.26917777
 30
0.0
 40
1.000004240097166
100
AcDbArc
 50
359.999981212
 51
89.9999714547
  0
ARC
  5
B1
330
1F
100
AcDbEntity
  8
0
  6
Continuous
 62
     7
100
AcDbCircle
 10
6273.0585285574
 20
4845.804405991
 30
0.0
 40
31.0952746136837
100
AcDbArc
 50
271.769583646
 51
325.1237826912
  0
ARC
  5
B2
330
1F
100
AcDbEntity
  8
0
  6
Continuous
 62
     7
100
AcDbCircle
 10
6274.9789853331
 20
4845.8044058916
 30
0.0
 40
31.09527461368413
100
AcDbArc
 50
214.8762170855
 51
268.2304104212
  0
ARC
  5
B3
330
1F
100
AcDbEntity
  8
0
  6
Continuous
 62
     7
100
AcDbCircle
 10
6247.0687484287
 20
4857.6239740843
 30
0.0
 40
1.500000000000625
100
AcDbArc
 50
180.0007376589
 51
270.0004007123
  0
ARC
  5
B4
330
1F
100
AcDbEntity
  8
0
  6
Continuous
 62
     7
100
AcDbCircle
 10
6300.9687579418
 20
4857.6239740843
 30
0.0
 40
1.500000000001261
100
AcDbArc
 50
269.9998838835
 51
359.9992623398
  0
ARC
  5
B5
330
1F
100
AcDbEntity
  8
0
  6
Continuous
 62
     7
100
AcDbCircle
 10
6349.018755942
 20
4868.4239683146
 30
0.0
 40
10.00000000000091
100
AcDbArc
 50
270.0000012805
 51
359.9999453587
  0
ARC
  5
B6
330
1F
100
AcDbEntity
  8
0
  6
Continuous
 62
     7
100
AcDbCircle
 10
6199.0187522912
 20
4868.4239683146
 30
0.0
 40
10.00000000000091
100
AcDbArc
 50
180.0000546413
 51
270.0000307358
  0
ARC
  5
B7
330
1F
100
AcDbEntity
  8
0
  6
Continuous
 62
     7
100
AcDbCircle
 10
6350.7454797945
 20
4900.7206529707
 30
0.0
 40
1.661463792286081
100
AcDbArc
 50
321.708021856
 51
39.97209991
  0
CIRCLE
  5
B8
330
1F
100
AcDbEntity
  8
0
  6
Continuous
 62
     7
100
AcDbCircle
 10
6274.0187550632
 20
4918.9239609446
 30
0.0
 40
3.99999999999983
  0
CIRCLE
  5
B9
330
1F
100
AcDbEntity
  8
0
  6
Continuous
 62
     7
100
AcDbCircle
 10
6274.0187550632
 20
4918.9239609446
 30
0.0
 40
6.999999999999087
  0
CIRCLE
  5
BA
330
1F
100
AcDbEntity
  8
0
  6
Continuous
 62
     7
100
AcDbCircle
 10
6274.0187550632
 20
4918.9239609446
 30
0.0
 40
9.299999999999844
  0
CIRCLE
  5
BB
330
1F
100
AcDbEntity
  8
0
  6
Continuous
 62
     7
100
AcDbCircle
 10
6274.0187550632
 20
4918.9239609446
 30
0.0
 40
7.800000000000082
  0
ARC
  5
BC
330
1F
100
AcDbEntity
  8
0
  6
Continuous
 62
     7
100
AcDbCircle
 10
6274.0187550632
 20
4918.9239609446
 30
0.0
 40
13.2204998028739
100
AcDbArc
 50
33.1797172689
 51
123.1797360525
  0
CIRCLE
  5
BD
330
1F
100
AcDbEntity
  8
0
  6
Continuous
 62
     7
100
AcDbCircle
 10
6274.0187550632
 20
4918.9239609446
 30
0.0
 40
11.72049999999941
  0
CIRCLE
  5
BE
330
1F
100
AcDbEntity
  8
0
  6
Continuous
 62
     7
100
AcDbCircle
 10
6274.0187550632
 20
4918.9239609446
 30
0.0
 40
9.749999999999451
  0
ARC
  5
BF
330
1F
100
AcDbEntity
  8
0
  6
Continuous
 62
     7
100
AcDbCircle
 10
6198.0187536025
 20
4935.923956036
 30
0.0
 40
1.000000000000234
100
AcDbArc
 50
89.9998838842
 51
180.00011611
  0
ARC
  5
C0
330
1F
100
AcDbEntity
  8
0
  6
Continuous
 62
     7
100
AcDbCircle
 10
6198.0187536025
 20
4935.923956036
 30
0.0
 40
2.000002026498013
100
AcDbArc
 50
89.9999419421
 51
180.0000580549
  0
ARC
  5
C1
330
1F
100
AcDbEntity
  8
0
  6
Continuous
 62
     7
100
AcDbCircle
 10
6350.0187546307
 20
4935.9239560359
 30
0.0
 40
0.9999999999993249
100
AcDbArc
 50
359.9998838901
 51
90.0000093909
  0
ARC
  5
C2
330
1F
100
AcDbEntity
  8
0
  6
Continuous
 62
     7
100
AcDbCircle
 10
6350.0187546307
 20
4935.9239560359
 30
0.0
 40
2.000002026599876
100
AcDbArc
 50
359.9999419451
 51
90.0000046955
  0
LINE
  5
C3
330
1F
100
AcDbEntity
  8
0
  6
Continuous
 62
     7
100
AcDbLine
 10
6270.4916632319
 20
5182.973866258
 30
0.0
 11
6270.4915887261
 21
5182.9686359504
 31
0.0
  0
LINE
  5
C4
330
1F
100
AcDbEntity
  8
0
  6
Continuous
 62
     7
100
AcDbLine
 10
6269.9388972068
 20
5182.7718363145
 30
0.0
 11
6269.9341213846
 21
5182.4169800619
 31
0.0
  0
LINE
  5
C5
330
1F
100
AcDbEntity
  8
0
  6
Continuous
 62
     7
100
AcDbLine
 10
6277.4334436798
 20
5182.3160992006
 30
0.0
 11
6277.438219502
 21
5182.6709554532
 31
0.0
  0
LINE
  5
C6
330
1F
100
AcDbEntity
  8
0
  6
Continuous
 62
     7
100
AcDbLine
 10
6178.0187598014
 20
5220.4896704296
 30
0.0
 11
6176.518749311
 21
5218.9896748403
 31
0.0
  0
LINE
  5
C7
330
1F
100
AcDbEntity
  8
0
  6
Continuous
 62
     7
100
AcDbLine
 10
6176.518749311
 20
5195.5486730674
 30
0.0
 11
6177.502896502
 21
5194.5645407775
 31
0.0
  0
LINE
  5
C8
330
1F
100
AcDbEntity
  8
0
  6
Continuous
 62
     7
100
AcDbLine
 10
6179.6205154205
 20
5220.4896704296
 30
0.0
 11
6179.2236527944
 21
5220.4896704296
 31
0.0
  0
LINE
  5
C9
330
1F
100
AcDbEntity
  8
0
  6
Continuous
 62
     7
100
AcDbLine
 10
6181.2080255294
 20
5220.4896704296
 30
0.0
 11
6180.8111480022
 21
5220.4896704296
 31
0.0
  0
LINE
  5
CA
330
1F
100
AcDbEntity
  8
0
  6
Continuous
 62
     7
100
AcDbLine
 10
6182.7955207372
 20
5220.4896704296
 30
0.0
 11
6182.39864321
 21
5220.4896704296
 31
0.0
  0
LINE
  5
CB
330
1F
100
AcDbEntity
  8
0
  6
Continuous
 62
     7
100
AcDbLine
 10
6184.383015945
 20
5220.4896704296
 30
0.0
 11
6183.9861533189
 21
5220.4896704296
 31
0.0
  0
LINE
  5
CC
330
1F
100
AcDbEntity
  8
0
  6
Continuous
 62
     7
100
AcDbLine
 10
6184.7798785711
 20
5194.0486774782
 30
0.0
 11
6185.1765921855
 21
5194.0486774782
 31
0.0
  0
LINE
  5
CD
330
1F
100
AcDbEntity
  8
0
  6
Continuous
 62
     7
100
AcDbLine
 10
6183.1923833633
 20
5194.0486774782
 30
0.0
 11
6183.5890969777
 21
5194.0486774782
 31
0.0
  0
LINE
  5
CE
330
1F
100
AcDbEntity
  8
0
  6
Continuous
 62
     7
100
AcDbLine
 10
6181.6048732543
 20
5194.0486774782
 30
0.0
 11
6182.0015868688
 21
5194.0486774782
 31
0.0
  0
LINE
  5
CF
330
1F
100
AcDbEntity
  8
0
  6
Continuous
 62
     7
100
AcDbLine
 10
6180.0173780465
 20
5194.0486774782
 30
0.0
 11
6180.414091661
 21
5194.0486774782
 31
0.0
  0
LINE
  5
D0
330
1F
100
AcDbEntity
  8
0
  6
Continuous
 62
     7
100
AcDbLine
 10
6178.4298828387
 20
5194.0486774782
 30
0.0
 11
6178.8265964532
 21
5194.0486774782
 31
0.0
  0
LINE
  5
D1
330
1F
100
AcDbEntity
  8
0
  6
Continuous
 62
     7
100
AcDbLine
 10
6177.5408944631
 20
5194.5632741788
 30
0.0
 11
6177.7445486331
 21
5194.915776048
 31
0.0
  0
LINE
  5
D2
330
1F
100
AcDbEntity
  8
0
  6
Continuous
 62
     7
100
AcDbLine
 10
6179.3234160686
 20
5194.9079678396
 30
0.0
 11
6179.5166841293
 21
5194.9079678396
 31
0.0
  0
LINE
  5
D3
330
1F
100
AcDbEntity
  8
0
  6
Continuous
 62
     7
100
AcDbLine
 10
6180.9109112764
 20
5194.9079678396
 30
0.0
 11
6181.1041942382
 21
5194.9079678396
 31
0.0
  0
LINE
  5
D4
330
1F
100
AcDbEntity
  8
0
  6
Continuous
 62
     7
100
AcDbLine
 10
6182.4984213853
 20
5194.9079678396
 30
0.0
 11
6182.691689446
 21
5194.9079678396
 31
0.0
  0
LINE
  5
D5
330
1F
100
AcDbEntity
  8
0
  6
Continuous
 62
     7
100
AcDbLine
 10
6184.0859165931
 20
5194.9079678396
 30
0.0
 11
6184.2791846538
 21
5194.9079678396
 31
0.0
  0
LINE
  5
D6
330
1F
100
AcDbEntity
  8
0
  6
Continuous
 62
     7
100
AcDbLine
 10
6178.7590345884
 20
5219.5361153224
 30
0.0
 11
6178.5605958247
 21
5219.5361153224
 31
0.0
  0
LINE
  5
D7
330
1F
100
AcDbEntity
  8
0
  6
Continuous
 62
     7
100
AcDbLine
 10
6180.3465297961
 20
5219.5361153224
 30
0.0
 11
6180.1480910325
 21
5219.5361153224
 31
0.0
  0
LINE
  5
D8
330
1F
100
AcDbEntity
  8
0
  6
Continuous
 62
     7
100
AcDbLine
 10
6181.9340250039
 20
5219.5361153224
 30
0.0
 11
6181.7355862403
 21
5219.5361153224
 31
0.0
  0
LINE
  5
D9
330
1F
100
AcDbEntity
  8
0
  6
Continuous
 62
     7
100
AcDbLine
 10
6183.5215351129
 20
5219.5361153224
 30
0.0
 11
6183.3230963493
 21
5219.5361153224
 31
0.0
  0
LINE
  5
DA
330
1F
100
AcDbEntity
  8
0
  6
Continuous
 62
     7
100
AcDbLine
 10
6185.1090303207
 20
5219.5361153224
 30
0.0
 11
6184.910591557
 21
5219.5361153224
 31
0.0
  0
LINE
  5
DB
330
1F
100
AcDbEntity
  8
0
  6
Continuous
 62
     7
100
AcDbLine
 10
6177.7359208608
 20
5194.9079678396
 30
0.0
 11
6177.9291889215
 21
5194.9079678396
 31
0.0
  0
LINE
  5
DC
330
1F
100
AcDbEntity
  8
0
  6
Continuous
 62
     7
100
AcDbLine
 10
6370.5346177848
 20
5194.5645407775
 30
0.0
 11
6371.5187551969
 21
5195.5486730674
 31
0.0
  0
LINE
  5
DD
330
1F
100
AcDbEntity
  8
0
  6
Continuous
 62
     7
100
AcDbLine
 10
6371.5187551969
 20
5218.9896748403
 30
0.0
 11
6370.0187554167
 21
5220.4896704296
 31
0.0
  0
LINE
  5
DE
330
1F
100
AcDbEntity
  8
0
  6
Continuous
 62
     7
100
AcDbLine
 10
6369.210917368
 20
5194.0486774782
 30
0.0
 11
6369.6076319137
 21
5194.0486774782
 31
0.0
  0
LINE
  5
DF
330
1F
100
AcDbEntity
  8
0
  6
Continuous
 62
     7
100
AcDbLine
 10
6367.6234175036
 20
5194.0486774782
 30
0.0
 11
6368.0201320493
 21
5194.0486774782
 31
0.0
  0
LINE
  5
E0
330
1F
100
AcDbEntity
  8
0
  6
Continuous
 62
     7
100
AcDbLine
 10
6366.0359167078
 20
5194.0486774782
 30
0.0
 11
6366.4326321849
 21
5194.0486774782
 31
0.0
  0
LINE
  5
E1
330
1F
100
AcDbEntity
  8
0
  6
Continuous
 62
     7
100
AcDbLine
 10
6364.4484168434
 20
5194.0486774782
 30
0.0
 11
6364.8451313892
 21
5194.0486774782
 31
0.0
  0
LINE
  5
E2
330
1F
100
AcDbEntity
  8
0
  6
Continuous
 62
     7
100
AcDbLine
 10
6362.860916979
 20
5194.0486774782
 30
0.0
 11
6363.2576315248
 21
5194.0486774782
 31
0.0
  0
LINE
  5
E3
330
1F
100
AcDbEntity
  8
0
  6
Continuous
 62
     7
100
AcDbLine
 10
6364.0513632962
 20
5220.4896704296
 30
0.0
 11
6363.654488563
 21
5220.4896704296
 31
0.0
  0
LINE
  5
E4
330
1F
100
AcDbEntity
  8
0
  6
Continuous
 62
     7
100
AcDbLine
 10
6365.6388631606
 20
5220.4896704296
 30
0.0
 11
6365.2419884274
 21
5220.4896704296
 31
0.0
  0
LINE
  5
E5
330
1F
100
AcDbEntity
  8
0
  6
Continuous
 62
     7
100
AcDbLine
 10
6367.226363025
 20
5220.4896704296
 30
0.0
 11
6366.8294882918
 21
5220.4896704296
 31
0.0
  0
LINE
  5
E6
330
1F
100
AcDbEntity
  8
0
  6
Continuous
 62
     7
100
AcDbLine
 10
6368.8138633551
 20
5220.4896704296
 30
0.0
 11
6368.4169881562
 21
5220.4896704296
 31
0.0
  0
LINE
  5
E7
330
1F
100
AcDbEntity
  8
0
  6
Continuous
 62
     7
100
AcDbLine
 10
6370.2929689133
 20
5194.915776048
 30
0.0
 11
6370.4966156328
 21
5194.5632741788
 31
0.0
  0
LINE
  5
E8
330
1F
100
AcDbEntity
  8
0
  6
Continuous
 62
     7
100
AcDbLine
 10
6369.4769179964
 20
5219.5361153224
 30
0.0
 11
6369.2784806298
 21
5219.5361153224
 31
0.0
  0
LINE
  5
E9
330
1F
100
AcDbEntity
  8
0
  6
Continuous
 62
     7
100
AcDbLine
 10
6367.889418132
 20
5219.5361153224
 30
0.0
 11
6367.6909802997
 21
5219.5361153224
 31
0.0
  0
LINE
  5
EA
330
1F
100
AcDbEntity
  8
0
  6
Continuous
 62
     7
100
AcDbLine
 10
6366.3019182676
 20
5219.5361153224
 30
0.0
 11
6366.1034804353
 21
5219.5361153224
 31
0.0
  0
LINE
  5
EB
330
1F
100
AcDbEntity
  8
0
  6
Continuous
 62
     7
100
AcDbLine
 10
6364.7144184032
 20
5219.5361153224
 30
0.0
 11
6364.5159805709
 21
5219.5361153224
 31
0.0
  0
LINE
  5
EC
330
1F
100
AcDbEntity
  8
0
  6
Continuous
 62
     7
100
AcDbLine
 10
6363.1269176075
 20
5219.5361153224
 30
0.0
 11
6362.9284807065
 21
5219.5361153224
 31
0.0
  0
LINE
  5
ED
330
1F
100
AcDbEntity
  8
0
  6
Continuous
 62
     7
100
AcDbLine
 10
6368.5156552637
 20
5194.9079678396
 30
0.0
 11
6368.7099841008
 21
5194.9079678396
 31
0.0
  0
LINE
  5
EE
330
1F
100
AcDbEntity
  8
0
  6
Continuous
 62
     7
100
AcDbLine
 10
6366.9281553993
 20
5194.9079678396
 30
0.0
 11
6367.1224842364
 21
5194.9079678396
 31
0.0
  0
LINE
  5
EF
330
1F
100
AcDbEntity
  8
0
  6
Continuous
 62
     7
100
AcDbLine
 10
6365.3406555349
 20
5194.9079678396
 30
0.0
 11
6365.534984372
 21
5194.9079678396
 31
0.0
  0
LINE
  5
F0
330
1F
100
AcDbEntity
  8
0
  6
Continuous
 62
     7
100
AcDbLine
 10
6363.7531556705
 20
5194.9079678396
 30
0.0
 11
6363.9474845076
 21
5194.9079678396
 31
0.0
  0
LINE
  5
F1
330
1F
100
AcDbEntity
  8
0
  6
Continuous
 62
     7
100
AcDbLine
 10
6370.1031555937
 20
5194.9079678396
 30
0.0
 11
6370.2974844308
 21
5194.9079678396
 31
0.0
  0
LINE
  5
F2
330
1F
100
AcDbEntity
  8
0
  6
Continuous
 62
     7
100
AcDbLine
 10
6286.553423717
 20
5352.9550106266
 30
0.0
 11
6285.7392540717
 21
5353.769177478
 31
0.0
  0
LINE
  5
F3
330
1F
100
AcDbEntity
  8
0
  6
Continuous
 62
     7
100
AcDbLine
 10
6262.2982522989
 20
5353.769177478
 30
0.0
 11
6260.9581461692
 21
5352.4290722797
 31
0.0
  0
LINE
  5
F4
330
1F
100
AcDbEntity
  8
0
  6
Continuous
 62
     7
100
AcDbLine
 10
6287.2392571116
 20
5351.7270208338
 30
0.0
 11
6287.2392571116
 21
5352.1240958014
 31
0.0
  0
LINE
  5
F5
330
1F
100
AcDbEntity
  8
0
  6
Continuous
 62
     7
100
AcDbLine
 10
6287.2392571116
 20
5350.1395200381
 30
0.0
 11
6287.2392571116
 21
5350.5365950057
 31
0.0
  0
LINE
  5
F6
330
1F
100
AcDbEntity
  8
0
  6
Continuous
 62
     7
100
AcDbLine
 10
6287.2392571116
 20
5348.552021105
 30
0.0
 11
6287.2392571116
 21
5348.94909421
 31
0.0
  0
LINE
  5
F7
330
1F
100
AcDbEntity
  8
0
  6
Continuous
 62
     7
100
AcDbLine
 10
6287.2392571116
 20
5346.9645203093
 30
0.0
 11
6287.2392571116
 21
5347.3615952769
 31
0.0
  0
LINE
  5
F8
330
1F
100
AcDbEntity
  8
0
  6
Continuous
 62
     7
100
AcDbLine
 10
6287.2392571116
 20
5345.3770213762
 30
0.0
 11
6287.2392571116
 21
5345.7740944812
 31
0.0
  0
LINE
  5
F9
330
1F
100
AcDbEntity
  8
0
  6
Continuous
 62
     7
100
AcDbLine
 10
6260.7982567096
 20
5344.9802444318
 30
0.0
 11
6260.7982567096
 21
5344.7691769341
 31
0.0
  0
LINE
  5
FA
330
1F
100
AcDbEntity
  8
0
  6
Continuous
 62
     7
100
AcDbLine
 10
6260.7982567096
 20
5346.5677452275
 30
0.0
 11
6260.7982567096
 21
5346.1707652548
 31
0.0
  0
LINE
  5
FB
330
1F
100
AcDbEntity
  8
0
  6
Continuous
 62
     7
100
AcDbLine
 10
6260.7982567096
 20
5348.1552460233
 30
0.0
 11
6260.7982567096
 21
5347.7582660505
 31
0.0
  0
LINE
  5
FC
330
1F
100
AcDbEntity
  8
0
  6
Continuous
 62
     7
100
AcDbLine
 10
6260.7982567096
 20
5349.7427449563
 30
0.0
 11
6260.7982567096
 21
5349.3457649836
 31
0.0
  0
LINE
  5
FD
330
1F
100
AcDbEntity
  8
0
  6
Continuous
 62
     7
100
AcDbLine
 10
6260.7982567096
 20
5351.3302457521
 30
0.0
 11
6260.7982567096
 21
5350.9332657793
 31
0.0
  0
LINE
  5
FE
330
1F
100
AcDbEntity
  8
0
  6
Continuous
 62
     7
100
AcDbLine
 10
6286.3721287394
 20
5352.8094560841
 30
0.0
 11
6286.5437081599
 21
5352.9085786084
 31
0.0
  0
LINE
  5
FF
330
1F
100
AcDbEntity
  8
0
  6
Continuous
 62
     7
100
AcDbLine
 10
6261.6575396204
 20
5350.4379046151
 30
0.0
 11
6261.6575396204
 21
5350.2435729841
 31
0.0
  0
LINE
  5
100
330
1F
100
AcDbEntity
  8
0
  6
Continuous
 62
     7
100
AcDbLine
 10
6261.6575396204
 20
5348.8504038194
 30
0.0
 11
6261.6575396204
 21
5348.656074051
 31
0.0
  0
LINE
  5
101
330
1F
100
AcDbEntity
  8
0
  6
Continuous
 62
     7
100
AcDbLine
 10
6261.6575396204
 20
5347.2629048863
 30
0.0
 11
6261.6575396204
 21
5347.0685732553
 31
0.0
  0
LINE
  5
102
330
1F
100
AcDbEntity
  8
0
  6
Continuous
 62
     7
100
AcDbLine
 10
6261.6575396204
 20
5345.6754040906
 30
0.0
 11
6261.6575396204
 21
5345.4810743222
 31
0.0
  0
LINE
  5
103
330
1F
100
AcDbEntity
  8
0
  6
Continuous
 62
     7
100
AcDbLine
 10
6286.3799742007
 20
5351.0332171807
 30
0.0
 11
6286.3799742007
 21
5351.2264833787
 31
0.0
  0
LINE
  5
104
330
1F
100
AcDbEntity
  8
0
  6
Continuous
 62
     7
100
AcDbLine
 10
6286.3799742007
 20
5349.445716385
 30
0.0
 11
6286.3799742007
 21
5349.6389844457
 31
0.0
  0
LINE
  5
105
330
1F
100
AcDbEntity
  8
0
  6
Continuous
 62
     7
100
AcDbLine
 10
6286.3799742007
 20
5347.8582174519
 30
0.0
 11
6286.3799742007
 21
5348.0514836499
 31
0.0
  0
LINE
  5
106
330
1F
100
AcDbEntity
  8
0
  6
Continuous
 62
     7
100
AcDbLine
 10
6286.3799742007
 20
5346.2707166562
 30
0.0
 11
6286.3799742007
 21
5346.4639847169
 31
0.0
  0
LINE
  5
107
330
1F
100
AcDbEntity
  8
0
  6
Continuous
 62
     7
100
AcDbLine
 10
6286.3799742007
 20
5344.7691769341
 30
0.0
 11
6286.3799742007
 21
5344.8764839211
 31
0.0
  0
LINE
  5
108
330
1F
100
AcDbEntity
  8
0
  6
Continuous
 62
     7
100
AcDbLine
 10
6286.3799742007
 20
5352.6207161138
 30
0.0
 11
6286.3799742007
 21
5352.8139841745
 31
0.0
  0
LINE
  5
109
330
1F
100
AcDbEntity
  8
0
  6
Continuous
 62
     7
100
AcDbLine
 10
6261.6575396204
 20
5352.0254035482
 30
0.0
 11
6261.6575396204
 21
5351.8310737798
 31
0.0
  0
LINE
  5
10A
330
1F
100
AcDbEntity
  8
0
  6
Continuous
 62
     7
100
AcDbLine
 10
6312.2744521642
 20
5191.1962674001
 30
0.0
 11
6312.0322561407
 21
5191.9285551647
 31
0.0
  0
LINE
  5
10B
330
1F
100
AcDbEntity
  8
0
  6
Continuous
 62
     7
100
AcDbLine
 10
6312.0322561407
 20
5191.9285551647
 30
0.0
 11
6312.5749713326
 21
5191.9285551647
 31
0.0
  0
LINE
  5
10C
330
1F
100
AcDbEntity
  8
0
  6
Continuous
 62
     7
100
AcDbLine
 10
6312.5749713326
 20
5191.9285551647
 30
0.0
 11
6312.5749713326
 21
5192.8240255454
 31
0.0
  0
LINE
  5
10D
330
1F
100
AcDbEntity
  8
0
  6
Continuous
 62
     7
100
AcDbLine
 10
6313.6844670916
 20
5194.111158047
 30
0.0
 11
6313.9549976731
 21
5194.111158047
 31
0.0
  0
LINE
  5
10E
330
1F
100
AcDbEntity
  8
0
  6
Continuous
 62
     7
100
AcDbLine
 10
6313.2609537387
 20
5192.1965078453
 30
0.0
 11
6313.2609537387
 21
5191.9287339786
 31
0.0
  0
LINE
  5
10F
330
1F
100
AcDbEntity
  8
0
  6
Continuous
 62
     7
100
AcDbLine
 10
6313.2609537387
 20
5191.9287339786
 30
0.0
 11
6314.3790325666
 21
5191.9287339786
 31
0.0
  0
LINE
  5
110
330
1F
100
AcDbEntity
  8
0
  6
Continuous
 62
     7
100
AcDbLine
 10
6314.3790325666
 20
5191.9287339786
 30
0.0
 11
6314.3790325666
 21
5192.203049455
 31
0.0
  0
LINE
  5
111
330
1F
100
AcDbEntity
  8
0
  6
Continuous
 62
     7
100
AcDbLine
 10
6313.9549976731
 20
5193.4066013435
 30
0.0
 11
6313.6844670916
 21
5193.4066013435
 31
0.0
  0
LINE
  5
112
330
1F
100
AcDbEntity
  8
0
  6
Continuous
 62
     7
100
AcDbLine
 10
6315.0786458099
 20
5192.8145633081
 30
0.0
 11
6315.0786458099
 21
5188.8891802171
 31
0.0
  0
LINE
  5
113
330
1F
100
AcDbEntity
  8
0
  6
Continuous
 62
     7
100
AcDbLine
 10
6315.0786458099
 20
5188.8891802171
 30
0.0
 11
6314.3790325666
 21
5188.8891802171
 31
0.0
  0
LINE
  5
114
330
1F
100
AcDbEntity
  8
0
  6
Continuous
 62
     7
100
AcDbLine
 10
6314.3790325666
 20
5188.8891802171
 30
0.0
 11
6314.3790325666
 21
5191.1962674001
 31
0.0
  0
LINE
  5
115
330
1F
100
AcDbEntity
  8
0
  6
Continuous
 62
     7
100
AcDbLine
 10
6314.3790325666
 20
5191.1962674001
 30
0.0
 11
6313.2612070584
 21
5191.1962674001
 31
0.0
  0
LINE
  5
116
330
1F
100
AcDbEntity
  8
0
  6
Continuous
 62
     7
100
AcDbLine
 10
6313.2612070584
 20
5191.1962674001
 30
0.0
 11
6313.2609537387
 21
5188.8891802171
 31
0.0
  0
LINE
  5
117
330
1F
100
AcDbEntity
  8
0
  6
Continuous
 62
     7
100
AcDbLine
 10
6313.2609537387
 20
5188.8891802171
 30
0.0
 11
6312.5749713326
 21
5188.8891802171
 31
0.0
  0
LINE
  5
118
330
1F
100
AcDbEntity
  8
0
  6
Continuous
 62
     7
100
AcDbLine
 10
6312.5749713326
 20
5188.8891802171
 30
0.0
 11
6312.5749713326
 21
5191.1962674001
 31
0.0
  0
LINE
  5
119
330
1F
100
AcDbEntity
  8
0
  6
Continuous
 62
     7
100
AcDbLine
 10
6312.5749713326
 20
5191.1962674001
 30
0.0
 11
6312.2744521642
 21
5191.1962674001
 31
0.0
  0
LINE
  5
11A
330
1F
100
AcDbEntity
  8
0
  6
Continuous
 62
     7
100
AcDbLine
 10
6311.5290811801
 20
5191.6147665122
 30
0.0
 11
6310.8364454055
 21
5192.4056605438
 31
0.0
  0
LINE
  5
11B
330
1F
100
AcDbEntity
  8
0
  6
Continuous
 62
     7
100
AcDbLine
 10
6309.0258276606
 20
5188.8891802171
 30
0.0
 11
6310.5879759932
 21
5188.8891802171
 31
0.0
  0
LINE
  5
11C
330
1F
100
AcDbEntity
  8
0
  6
Continuous
 62
     7
100
AcDbLine
 10
6309.0258276606
 20
5189.666976128
 30
0.0
 11
6309.0258276606
 21
5188.8891802171
 31
0.0
  0
LINE
  5
11D
330
1F
100
AcDbEntity
  8
0
  6
Continuous
 62
     7
100
AcDbLine
 10
6310.5226418519
 20
5189.666976128
 30
0.0
 11
6309.0258276606
 21
5189.666976128
 31
0.0
  0
LINE
  5
11E
330
1F
100
AcDbEntity
  8
0
  6
Continuous
 62
     7
100
AcDbLine
 10
6309.8459726715
 20
5192.339767609
 30
0.0
 11
6310.7903114104
 21
5191.2711904386
 31
0.0
  0
LINE
  5
11F
330
1F
100
AcDbEntity
  8
0
  6
Continuous
 62
     7
100
AcDbLine
 10
6327.3139669144
 20
5195.2882901767
 30
0.0
 11
6310.9558186078
 21
5195.2882156709
 31
0.0
  0
LINE
  5
120
330
1F
100
AcDbEntity
  8
0
  6
Continuous
 62
     7
100
AcDbLine
 10
6327.3139669144
 20
5194.523353968
 30
0.0
 11
6327.3139669144
 21
5195.2882901767
 31
0.0
  0
LINE
  5
121
330
1F
100
AcDbEntity
  8
0
  6
Continuous
 62
     7
100
AcDbLine
 10
6311.0063707972
 20
5194.523353968
 30
0.0
 11
6327.3139669144
 21
5194.523353968
 31
0.0
  0
LINE
  5
122
330
1F
100
AcDbEntity
  8
0
  6
Continuous
 62
     7
100
AcDbLine
 10
6315.6734144831
 20
5194.111158047
 30
0.0
 11
6317.9545773709
 21
5192.2684208492
 31
0.0
  0
LINE
  5
123
330
1F
100
AcDbEntity
  8
0
  6
Continuous
 62
     7
100
AcDbLine
 10
6317.9545773709
 20
5192.2684208492
 30
0.0
 11
6317.9545773709
 21
5194.0202162603
 31
0.0
  0
LINE
  5
124
330
1F
100
AcDbEntity
  8
0
  6
Continuous
 62
     7
100
AcDbLine
 10
6317.9545773709
 20
5194.0202162603
 30
0.0
 11
6318.7456539416
 21
5194.0203205684
 31
0.0
  0
LINE
  5
125
330
1F
100
AcDbEntity
  8
0
  6
Continuous
 62
     7
100
AcDbLine
 10
6318.7456539416
 20
5194.0203205684
 30
0.0
 11
6318.7456539416
 21
5191.9287339786
 31
0.0
  0
LINE
  5
126
330
1F
100
AcDbEntity
  8
0
  6
Continuous
 62
     7
100
AcDbLine
 10
6318.7456539416
 20
5191.9287339786
 30
0.0
 11
6319.3401730204
 21
5191.9287339786
 31
0.0
  0
LINE
  5
127
330
1F
100
AcDbEntity
  8
0
  6
Continuous
 62
     7
100
AcDbLine
 10
6319.3401730204
 20
5191.9287339786
 30
0.0
 11
6319.3401730204
 21
5194.0203205684
 31
0.0
  0
LINE
  5
128
330
1F
100
AcDbEntity
  8
0
  6
Continuous
 62
     7
100
AcDbLine
 10
6319.3401730204
 20
5194.0203205684
 30
0.0
 11
6321.301236614
 21
5194.0203205684
 31
0.0
  0
LINE
  5
129
330
1F
100
AcDbEntity
  8
0
  6
Continuous
 62
     7
100
AcDbLine
 10
6321.301236614
 20
5194.0203205684
 30
0.0
 11
6321.301236614
 21
5193.4066013435
 31
0.0
  0
LINE
  5
12A
330
1F
100
AcDbEntity
  8
0
  6
Continuous
 62
     7
100
AcDbLine
 10
6321.301236614
 20
5193.4066013435
 30
0.0
 11
6319.9811762715
 21
5193.4066013435
 31
0.0
  0
LINE
  5
12B
330
1F
100
AcDbEntity
  8
0
  6
Continuous
 62
     7
100
AcDbLine
 10
6319.9811762715
 20
5193.4066013435
 30
0.0
 11
6319.9811762715
 21
5191.9287339786
 31
0.0
  0
LINE
  5
12C
330
1F
100
AcDbEntity
  8
0
  6
Continuous
 62
     7
100
AcDbLine
 10
6319.9811762715
 20
5191.9287339786
 30
0.0
 11
6321.3113507772
 21
5191.9287339786
 31
0.0
  0
LINE
  5
12D
330
1F
100
AcDbEntity
  8
0
  6
Continuous
 62
     7
100
AcDbLine
 10
6321.3113507772
 20
5191.9287339786
 30
0.0
 11
6321.5530662382
 21
5191.1962674001
 31
0.0
  0
LINE
  5
12E
330
1F
100
AcDbEntity
  8
0
  6
Continuous
 62
     7
100
AcDbLine
 10
6321.5530662382
 20
5191.1962674001
 30
0.0
 11
6319.980926677
 21
5191.1962674001
 31
0.0
  0
LINE
  5
12F
330
1F
100
AcDbEntity
  8
0
  6
Continuous
 62
     7
100
AcDbLine
 10
6319.980926677
 20
5191.1962674001
 30
0.0
 11
6319.9811762715
 21
5189.5494804719
 31
0.0
  0
LINE
  5
130
330
1F
100
AcDbEntity
  8
0
  6
Continuous
 62
     7
100
AcDbLine
 10
6319.9811762715
 20
5189.5494804719
 30
0.0
 11
6321.301236614
 21
5189.5494804719
 31
0.0
  0
LINE
  5
131
330
1F
100
AcDbEntity
  8
0
  6
Continuous
 62
     7
100
AcDbLine
 10
6321.301236614
 20
5189.5494804719
 30
0.0
 11
6321.301236614
 21
5188.8891802171
 31
0.0
  0
LINE
  5
132
330
1F
100
AcDbEntity
  8
0
  6
Continuous
 62
     7
100
AcDbLine
 10
6321.301236614
 20
5188.8891802171
 30
0.0
 11
6319.3401730204
 21
5188.8891802171
 31
0.0
  0
LINE
  5
133
330
1F
100
AcDbEntity
  8
0
  6
Continuous
 62
     7
100
AcDbLine
 10
6319.3401730204
 20
5188.8891802171
 30
0.0
 11
6319.3402475262
 21
5191.1962674001
 31
0.0
  0
LINE
  5
134
330
1F
100
AcDbEntity
  8
0
  6
Continuous
 62
     7
100
AcDbLine
 10
6319.3402475262
 20
5191.1962674001
 30
0.0
 11
6318.7456539416
 21
5191.1962674001
 31
0.0
  0
LINE
  5
135
330
1F
100
AcDbEntity
  8
0
  6
Continuous
 62
     7
100
AcDbLine
 10
6318.7456539416
 20
5191.1962674001
 30
0.0
 11
6318.7456539416
 21
5188.8891802171
 31
0.0
  0
LINE
  5
136
330
1F
100
AcDbEntity
  8
0
  6
Continuous
 62
     7
100
AcDbLine
 10
6318.7456539416
 20
5188.8891802171
 30
0.0
 11
6317.9545773709
 21
5188.8891802171
 31
0.0
  0
LINE
  5
137
330
1F
100
AcDbEntity
  8
0
  6
Continuous
 62
     7
100
AcDbLine
 10
6317.9545773709
 20
5188.8891802171
 30
0.0
 11
6317.9545773709
 21
5191.1962674001
 31
0.0
  0
LINE
  5
138
330
1F
100
AcDbEntity
  8
0
  6
Continuous
 62
     7
100
AcDbLine
 10
6317.9545773709
 20
5191.1962674001
 30
0.0
 11
6316.405180707
 21
5192.3729822973
 31
0.0
  0
LINE
  5
139
330
1F
100
AcDbEntity
  8
0
  6
Continuous
 62
     7
100
AcDbLine
 10
6316.405180707
 20
5192.3729822973
 30
0.0
 11
6316.4054563785
 21
5188.8891802171
 31
0.0
  0
LINE
  5
13A
330
1F
100
AcDbEntity
  8
0
  6
Continuous
 62
     7
100
AcDbLine
 10
6316.4054563785
 20
5188.8891802171
 30
0.0
 11
6315.6733399773
 21
5188.8891802171
 31
0.0
  0
LINE
  5
13B
330
1F
100
AcDbEntity
  8
0
  6
Continuous
 62
     7
100
AcDbLine
 10
6315.6733399773
 20
5188.8891802171
 30
0.0
 11
6315.6734144831
 21
5194.111158047
 31
0.0
  0
LINE
  5
13C
330
1F
100
AcDbEntity
  8
0
  6
Continuous
 62
     7
100
AcDbLine
 10
6330.0609363759
 20
5193.1327776054
 30
0.0
 11
6330.1585240805
 21
5193.1327776054
 31
0.0
  0
LINE
  5
13D
330
1F
100
AcDbEntity
  8
0
  6
Continuous
 62
     7
100
AcDbLine
 10
6328.5486622298
 20
5194.4322929719
 30
0.0
 11
6328.6018742764
 21
5194.5077375511
 31
0.0
  0
LINE
  5
13E
330
1F
100
AcDbEntity
  8
0
  6
Continuous
 62
     7
100
AcDbLine
 10
6330.4690605545
 20
5193.2392016986
 30
0.0
 11
6330.0609363759
 21
5193.2392016986
 31
0.0
  0
LINE
  5
13F
330
1F
100
AcDbEntity
  8
0
  6
Continuous
 62
     7
100
AcDbLine
 10
6330.3670546556
 20
5193.1327776054
 30
0.0
 11
6330.4690605545
 21
5193.1327776054
 31
0.0
  0
LINE
  5
140
330
1F
100
AcDbEntity
  8
0
  6
Continuous
 62
     7
100
AcDbLine
 10
6333.4148226822
 20
5195.4556451181
 30
0.0
 11
6333.3287535751
 21
5195.4556451181
 31
0.0
  0
LINE
  5
141
330
1F
100
AcDbEntity
  8
0
  6
Continuous
 62
     7
100
AcDbLine
 10
6333.7124100471
 20
5195.11701623
 30
0.0
 11
6333.5302843297
 21
5195.4194203952
 31
0.0
  0
LINE
  5
142
330
1F
100
AcDbEntity
  8
0
  6
Continuous
 62
     7
100
AcDbLine
 10
6333.3287535751
 20
5195.728068147
 30
0.0
 11
6333.413217082
 21
5195.728068147
 31
0.0
  0
LINE
  5
143
330
1F
100
AcDbEntity
  8
0
  6
Continuous
 62
     7
100
AcDbLine
 10
6333.6194640541
 20
5195.11701623
 30
0.0
 11
6333.7124100471
 21
5195.11701623
 31
0.0
  0
LINE
  5
144
330
1F
100
AcDbEntity
  8
0
  6
Continuous
 62
     7
100
AcDbLine
 10
6333.3287535751
 20
5195.3942672351
 30
0.0
 11
6333.4578684116
 21
5195.3942672351
 31
0.0
  0
LINE
  5
145
330
1F
100
AcDbEntity
  8
0
  6
Continuous
 62
     7
100
AcDbLine
 10
6333.3287535751
 20
5195.11701623
 30
0.0
 11
6333.3287535751
 21
5195.3942672351
 31
0.0
  0
LINE
  5
146
330
1F
100
AcDbEntity
  8
0
  6
Continuous
 62
     7
100
AcDbLine
 10
6333.2511222506
 20
5195.11701623
 30
0.0
 11
6333.3287535751
 21
5195.11701623
 31
0.0
  0
LINE
  5
147
330
1F
100
AcDbEntity
  8
0
  6
Continuous
 62
     7
100
AcDbLine
 10
6333.2511222506
 20
5195.7942442039
 30
0.0
 11
6333.2511222506
 21
5195.11701623
 31
0.0
  0
LINE
  5
148
330
1F
100
AcDbEntity
  8
0
  6
Continuous
 62
     7
100
AcDbLine
 10
6333.413217082
 20
5195.7942442039
 30
0.0
 11
6333.2511222506
 21
5195.7942442039
 31
0.0
  0
LINE
  5
149
330
1F
100
AcDbEntity
  8
0
  6
Continuous
 62
     7
100
AcDbLine
 10
6333.3287535751
 20
5195.4556451181
 30
0.0
 11
6333.3287535751
 21
5195.728068147
 31
0.0
  0
LINE
  5
14A
330
1F
100
AcDbEntity
  8
0
  6
Continuous
 62
     7
100
AcDbLine
 10
6333.4578684116
 20
5195.3942672351
 30
0.0
 11
6333.6194640541
 21
5195.11701623
 31
0.0
  0
LINE
  5
14B
330
1F
100
AcDbEntity
  8
0
  6
Continuous
 62
     7
100
AcDbLine
 10
6321.8955545271
 20
5194.0203205684
 30
0.0
 11
6322.6403965199
 21
5194.0203205684
 31
0.0
  0
LINE
  5
14C
330
1F
100
AcDbEntity
  8
0
  6
Continuous
 62
     7
100
AcDbLine
 10
6322.6403965199
 20
5194.0203205684
 30
0.0
 11
6322.6403965199
 21
5189.5494804719
 31
0.0
  0
LINE
  5
14D
330
1F
100
AcDbEntity
  8
0
  6
Continuous
 62
     7
100
AcDbLine
 10
6322.6403965199
 20
5189.5494804719
 30
0.0
 11
6324.2155721927
 21
5189.5494804719
 31
0.0
  0
LINE
  5
14E
330
1F
100
AcDbEntity
  8
0
  6
Continuous
 62
     7
100
AcDbLine
 10
6324.2155721927
 20
5189.5494804719
 30
0.0
 11
6324.2155721927
 21
5188.8891802171
 31
0.0
  0
LINE
  5
14F
330
1F
100
AcDbEntity
  8
0
  6
Continuous
 62
     7
100
AcDbLine
 10
6324.2155721927
 20
5188.8891802171
 30
0.0
 11
6321.8955545271
 21
5188.8891802171
 31
0.0
  0
LINE
  5
150
330
1F
100
AcDbEntity
  8
0
  6
Continuous
 62
     7
100
AcDbLine
 10
6321.8955545271
 20
5188.8891802171
 30
0.0
 11
6321.8955545271
 21
5194.0203205684
 31
0.0
  0
LINE
  5
151
330
1F
100
AcDbEntity
  8
0
  6
Continuous
 62
     7
100
AcDbLine
 10
6325.9196876133
 20
5194.111158047
 30
0.0
 11
6326.1901883924
 21
5194.111158047
 31
0.0
  0
LINE
  5
152
330
1F
100
AcDbEntity
  8
0
  6
Continuous
 62
     7
100
AcDbLine
 10
6327.3139408374
 20
5192.8145633081
 30
0.0
 11
6327.3139408374
 21
5188.8891802171
 31
0.0
  0
LINE
  5
153
330
1F
100
AcDbEntity
  8
0
  6
Continuous
 62
     7
100
AcDbLine
 10
6327.3139408374
 20
5188.8891802171
 30
0.0
 11
6326.6142307365
 21
5188.8891802171
 31
0.0
  0
LINE
  5
154
330
1F
100
AcDbEntity
  8
0
  6
Continuous
 62
     7
100
AcDbLine
 10
6326.6142307365
 20
5188.8891802171
 30
0.0
 11
6326.6142307365
 21
5191.1962674001
 31
0.0
  0
LINE
  5
155
330
1F
100
AcDbEntity
  8
0
  6
Continuous
 62
     7
100
AcDbLine
 10
6326.6142307365
 20
5191.1962674001
 30
0.0
 11
6325.4964275801
 21
5191.1962674001
 31
0.0
  0
LINE
  5
156
330
1F
100
AcDbEntity
  8
0
  6
Continuous
 62
     7
100
AcDbLine
 10
6325.4964275801
 20
5191.1962674001
 30
0.0
 11
6325.4961742604
 21
5188.8891802171
 31
0.0
  0
LINE
  5
157
330
1F
100
AcDbEntity
  8
0
  6
Continuous
 62
     7
100
AcDbLine
 10
6325.4961742604
 20
5188.8891802171
 30
0.0
 11
6324.8101918543
 21
5188.8891802171
 31
0.0
  0
LINE
  5
158
330
1F
100
AcDbEntity
  8
0
  6
Continuous
 62
     7
100
AcDbLine
 10
6324.2675809705
 20
5191.9285551647
 30
0.0
 11
6324.8101918543
 21
5191.9285551647
 31
0.0
  0
LINE
  5
159
330
1F
100
AcDbEntity
  8
0
  6
Continuous
 62
     7
100
AcDbLine
 10
6324.8101918543
 20
5191.9285551647
 30
0.0
 11
6324.8101918543
 21
5192.8240255454
 31
0.0
  0
LINE
  5
15A
330
1F
100
AcDbEntity
  8
0
  6
Continuous
 62
     7
100
AcDbLine
 10
6325.4961742604
 20
5192.1965078453
 30
0.0
 11
6325.4961742604
 21
5191.9287339786
 31
0.0
  0
LINE
  5
15B
330
1F
100
AcDbEntity
  8
0
  6
Continuous
 62
     7
100
AcDbLine
 10
6325.4961742604
 20
5191.9287339786
 30
0.0
 11
6326.6142307365
 21
5191.9287339786
 31
0.0
  0
LINE
  5
15C
330
1F
100
AcDbEntity
  8
0
  6
Continuous
 62
     7
100
AcDbLine
 10
6326.6142307365
 20
5191.9287339786
 30
0.0
 11
6326.6142307365
 21
5192.203049455
 31
0.0
  0
LINE
  5
15D
330
1F
100
AcDbEntity
  8
0
  6
Continuous
 62
     7
100
AcDbLine
 10
6326.1901883924
 20
5193.4066013435
 30
0.0
 11
6325.9196876133
 21
5193.4066013435
 31
0.0
  0
LINE
  5
15E
330
1F
100
AcDbEntity
  8
0
  6
Continuous
 62
     7
100
AcDbLine
 10
6324.8101918543
 20
5188.8891802171
 30
0.0
 11
6324.8101918543
 21
5191.1962674001
 31
0.0
  0
LINE
  5
15F
330
1F
100
AcDbEntity
  8
0
  6
Continuous
 62
     7
100
AcDbLine
 10
6324.8101918543
 20
5191.1962674001
 30
0.0
 11
6324.5097434664
 21
5191.1962674001
 31
0.0
  0
LINE
  5
160
330
1F
100
AcDbEntity
  8
0
  6
Continuous
 62
     7
100
AcDbLine
 10
6324.5097434664
 20
5191.1962674001
 30
0.0
 11
6324.2675809705
 21
5191.9285551647
 31
0.0
  0
LINE
  5
161
330
1F
100
AcDbEntity
  8
0
  6
Continuous
 62
     7
100
AcDbLine
 10
6189.0187522912
 20
5329.2691790501
 30
0.0
 11
6189.0187522912
 21
5179.2691842655
 31
0.0
  0
LINE
  5
162
330
1F
100
AcDbEntity
  8
0
  6
Continuous
 62
     7
100
AcDbLine
 10
6189.0187522912
 20
5329.2691790501
 30
0.0
 11
6199.0187522912
 21
5329.2691769639
 31
0.0
  0
LINE
  5
163
330
1F
100
AcDbEntity
  8
0
  6
Continuous
 62
     7
100
AcDbLine
 10
6199.0187522912
 20
5329.2691769639
 30
0.0
 11
6199.0187522912
 21
5179.269178901
 31
0.0
  0
LINE
  5
164
330
1F
100
AcDbEntity
  8
0
  6
Continuous
 62
     7
100
AcDbLine
 10
6189.0187522912
 20
5179.2691842655
 30
0.0
 11
6199.0187522912
 21
5179.269178901
 31
0.0
  0
LINE
  5
165
330
1F
100
AcDbEntity
  8
0
  6
Continuous
 62
     7
100
AcDbLine
 10
6349.0187561655
 20
5339.2691769639
 30
0.0
 11
6199.0187576556
 21
5339.2691769639
 31
0.0
  0
LINE
  5
166
330
1F
100
AcDbEntity
  8
0
  6
Continuous
 62
     7
100
AcDbLine
 10
6349.0187561655
 20
5339.2691769639
 30
0.0
 11
6349.018755942
 21
5329.2691769639
 31
0.0
  0
LINE
  5
167
330
1F
100
AcDbEntity
  8
0
  6
Continuous
 62
     7
100
AcDbLine
 10
6349.018755942
 20
5329.2691769639
 30
0.0
 11
6199.0187522912
 21
5329.2691769639
 31
0.0
  0
LINE
  5
168
330
1F
100
AcDbEntity
  8
0
  6
Continuous
 62
     7
100
AcDbLine
 10
6199.0187576556
 20
5339.2691769639
 30
0.0
 11
6199.0187522912
 21
5329.2691769639
 31
0.0
  0
LINE
  5
169
330
1F
100
AcDbEntity
  8
0
  6
Continuous
 62
     7
100
AcDbLine
 10
6349.018755942
 20
5179.269178901
 30
0.0
 11
6349.0187561655
 21
5169.269178901
 31
0.0
  0
LINE
  5
16A
330
1F
100
AcDbEntity
  8
0
  6
Continuous
 62
     7
100
AcDbLine
 10
6199.0187576556
 20
5169.269178901
 30
0.0
 11
6349.0187561655
 21
5169.269178901
 31
0.0
  0
LINE
  5
16B
330
1F
100
AcDbEntity
  8
0
  6
Continuous
 62
     7
100
AcDbLine
 10
6199.0187522912
 20
5179.269178901
 30
0.0
 11
6199.0187576556
 21
5169.269178901
 31
0.0
  0
LINE
  5
16C
330
1F
100
AcDbEntity
  8
0
  6
Continuous
 62
     7
100
AcDbLine
 10
6349.018755942
 20
5179.269178901
 30
0.0
 11
6359.018755942
 21
5179.2691842655
 31
0.0
  0
LINE
  5
16D
330
1F
100
AcDbEntity
  8
0
  6
Continuous
 62
     7
100
AcDbLine
 10
6349.018755942
 20
5179.269178901
 30
0.0
 11
6349.018755942
 21
5329.2691769639
 31
0.0
  0
LINE
  5
16E
330
1F
100
AcDbEntity
  8
0
  6
Continuous
 62
     7
100
AcDbLine
 10
6349.018755942
 20
5329.2691769639
 30
0.0
 11
6359.018755942
 21
5329.2691790501
 31
0.0
  0
LINE
  5
16F
330
1F
100
AcDbEntity
  8
0
  6
Continuous
 62
     7
100
AcDbLine
 10
6359.018755942
 20
5179.2691842655
 30
0.0
 11
6359.018755942
 21
5329.2691790501
 31
0.0
  0
LINE
  5
170
330
1F
100
AcDbEntity
  8
0
  6
Continuous
 62
     7
100
AcDbLine
 10
6273.6288272595
 20
5290.9655691126
 30
0.0
 11
6273.6288272595
 21
5294.5112929681
 31
0.0
  0
LINE
  5
171
330
1F
100
AcDbEntity
  8
0
  6
Continuous
 62
     7
100
AcDbLine
 10
6270.3947458698
 20
5294.5112929681
 30
0.0
 11
6270.3947458698
 21
5286.9728402236
 31
0.0
  0
LINE
  5
172
330
1F
100
AcDbEntity
  8
0
  6
Continuous
 62
     7
100
AcDbLine
 10
6267.8634036614
 20
5287.6608566383
 30
0.0
 11
6267.8634036614
 21
5282.2397471407
 31
0.0
  0
LINE
  5
173
330
1F
100
AcDbEntity
  8
0
  6
Continuous
 62
     7
100
AcDbLine
 10
6274.1859365067
 20
5275.9172140909
 30
0.0
 11
6276.5531647763
 21
5275.9172140909
 31
0.0
  0
LINE
  5
174
330
1F
100
AcDbEntity
  8
0
  6
Continuous
 62
     7
100
AcDbLine
 10
6281.1087626308
 20
5280.4728119454
 30
0.0
 11
6281.1087626308
 21
5288.3095859369
 31
0.0
  0
LINE
  5
175
330
1F
100
AcDbEntity
  8
0
  6
Continuous
 62
     7
100
AcDbLine
 10
6279.7551491117
 20
5289.6632001737
 30
0.0
 11
6279.2609222983
 21
5289.6632001737
 31
0.0
  0
LINE
  5
176
330
1F
100
AcDbEntity
  8
0
  6
Continuous
 62
     7
100
AcDbLine
 10
6277.2776671504
 20
5290.611778293
 30
0.0
 11
6276.6983472561
 21
5290.611778293
 31
0.0
  0
LINE
  5
177
330
1F
100
AcDbEntity
  8
0
  6
Continuous
 62
     7
100
AcDbLine
 10
6274.7150921082
 20
5291.1209286192
 30
0.0
 11
6274.2584758257
 21
5291.1209286192
 31
0.0
  0
LINE
  5
178
330
1F
100
AcDbEntity
  8
0
  6
Continuous
 62
     7
100
AcDbLine
 10
6272.5992313171
 20
5286.840450857
 30
0.0
 11
6272.5992313171
 21
5294.5112929681
 31
0.0
  0
LINE
  5
179
330
1F
100
AcDbEntity
  8
0
  6
Continuous
 62
     7
100
AcDbLine
 10
6270.0891083622
 20
5283.2307861188
 30
0.0
 11
6270.0891083622
 21
5285.1852075199
 31
0.0
  0
LINE
  5
17A
330
1F
100
AcDbEntity
  8
0
  6
Continuous
 62
     7
100
AcDbLine
 10
6278.9369112396
 20
5288.3559809068
 30
0.0
 11
6278.9369112396
 21
5286.840450857
 31
0.0
  0
LINE
  5
17B
330
1F
100
AcDbEntity
  8
0
  6
Continuous
 62
     7
100
AcDbLine
 10
6268.8930067978
 20
5286.6858511051
 30
0.0
 11
6268.8930067978
 21
5282.2397469362
 31
0.0
  0
LINE
  5
17C
330
1F
100
AcDbEntity
  8
0
  6
Continuous
 62
     7
100
AcDbLine
 10
6274.1859365067
 20
5276.9468172273
 30
0.0
 11
6276.5531647763
 21
5276.9468172273
 31
0.0
  0
LINE
  5
17D
330
1F
100
AcDbEntity
  8
0
  6
Continuous
 62
     7
100
AcDbLine
 10
6273.934464767
 20
5289.7814855913
 30
0.0
 11
6273.934464767
 21
5286.840450857
 31
0.0
  0
LINE
  5
17E
330
1F
100
AcDbEntity
  8
0
  6
Continuous
 62
     7
100
AcDbLine
 10
6271.4243418122
 20
5294.5112929681
 30
0.0
 11
6271.4243418122
 21
5283.2307861188
 31
0.0
  0
LINE
  5
17F
330
1F
100
AcDbEntity
  8
0
  6
Continuous
 62
     7
100
AcDbLine
 10
6277.6016777897
 20
5286.840450857
 30
0.0
 11
6277.6016777897
 21
5289.2723278144
 31
0.0
  0
LINE
  5
180
330
1F
100
AcDbEntity
  8
0
  6
Continuous
 62
     7
100
AcDbLine
 10
6277.3615679288
 20
5289.5124376753
 30
0.0
 11
6276.6144460583
 21
5289.5124376753
 31
0.0
  0
LINE
  5
181
330
1F
100
AcDbEntity
  8
0
  6
Continuous
 62
     7
100
AcDbLine
 10
6276.3743361974
 20
5289.2723278144
 30
0.0
 11
6276.3743361974
 21
5286.840450857
 31
0.0
  0
LINE
  5
182
330
1F
100
AcDbEntity
  8
0
  6
Continuous
 62
     7
100
AcDbLine
 10
6280.0791594944
 20
5280.4728119454
 30
0.0
 11
6280.0791594944
 21
5288.3559807023
 31
0.0
  0
LINE
  5
183
330
1F
100
AcDbEntity
  8
0
  6
Continuous
 62
     7
100
AcDbLine
 10
6279.8390498901
 20
5288.5960907677
 30
0.0
 11
6279.1770211005
 21
5288.5960907677
 31
0.0
  0
LINE
  5
184
330
1F
100
AcDbEntity
  8
0
  6
Continuous
 62
     7
100
AcDbLine
 10
6274.7989928866
 20
5290.0215954522
 30
0.0
 11
6274.1745746279
 21
5290.0215954522
 31
0.0
  0
LINE
  5
185
330
1F
100
AcDbEntity
  8
0
  6
Continuous
 62
     7
100
AcDbLine
 10
6275.0391027475
 20
5286.840450857
 30
0.0
 11
6275.0391027475
 21
5289.7814855913
 31
0.0
  0
LINE
  5
186
330
1F
100
AcDbEntity
  8
0
  6
Continuous
 62
     7
100
AcDbLine
 10
6269.9341213846
 20
5182.4169800619
 30
0.0
 11
6269.9351868177
 21
5182.4169651607
 31
0.0
  0
LINE
  5
187
330
1F
100
AcDbEntity
  8
0
  6
Continuous
 62
     7
100
AcDbLine
 10
6269.9351868177
 20
5182.4169651607
 30
0.0
 11
6270.0860983277
 21
5182.4149237016
 31
0.0
  0
LINE
  5
188
330
1F
100
AcDbEntity
  8
0
  6
Continuous
 62
     7
100
AcDbLine
 10
6270.0860983277
 20
5182.4149237016
 30
0.0
 11
6270.4821860933
 21
5182.4096039871
 31
0.0
  0
LINE
  5
189
330
1F
100
AcDbEntity
  8
0
  6
Continuous
 62
     7
100
AcDbLine
 10
6270.4821860933
 20
5182.4096039871
 30
0.0
 11
6271.0964492107
 21
5182.4013338426
 31
0.0
  0
LINE
  5
18A
330
1F
100
AcDbEntity
  8
0
  6
Continuous
 62
     7
100
AcDbLine
 10
6271.0964492107
 20
5182.4013338426
 30
0.0
 11
6271.887045219
 21
5182.3907093147
 31
0.0
  0
LINE
  5
18B
330
1F
100
AcDbEntity
  8
0
  6
Continuous
 62
     7
100
AcDbLine
 10
6271.887045219
 20
5182.3907093147
 30
0.0
 11
6272.8000766182
 21
5182.3784158567
 31
0.0
  0
LINE
  5
18C
330
1F
100
AcDbEntity
  8
0
  6
Continuous
 62
     7
100
AcDbLine
 10
6272.8000766182
 20
5182.3784158567
 30
0.0
 11
6273.773338511
 21
5182.3653326372
 31
0.0
  0
LINE
  5
18D
330
1F
100
AcDbEntity
  8
0
  6
Continuous
 62
     7
100
AcDbLine
 10
6273.773338511
 20
5182.3653326372
 30
0.0
 11
6274.7404909277
 21
5182.3523239234
 31
0.0
  0
LINE
  5
18E
330
1F
100
AcDbEntity
  8
0
  6
Continuous
 62
     7
100
AcDbLine
 10
6274.7404909277
 20
5182.3523239234
 30
0.0
 11
6275.635633483
 21
5182.3402837852
 31
0.0
  0
LINE
  5
18F
330
1F
100
AcDbEntity
  8
0
  6
Continuous
 62
     7
100
AcDbLine
 10
6275.635633483
 20
5182.3402837852
 30
0.0
 11
6276.3977608228
 21
5182.3300317863
 31
0.0
  0
LINE
  5
190
330
1F
100
AcDbEntity
  8
0
  6
Continuous
 62
     7
100
AcDbLine
 10
6276.3977608228
 20
5182.3300317863
 30
0.0
 11
6276.9749349499
 21
5182.3222682813
 31
0.0
  0
LINE
  5
191
330
1F
100
AcDbEntity
  8
0
  6
Continuous
 62
     7
100
AcDbLine
 10
6276.9749349499
 20
5182.3222682813
 30
0.0
 11
6277.3278242493
 21
5182.3175148109
 31
0.0
  0
LINE
  5
192
330
1F
100
AcDbEntity
  8
0
  6
Continuous
 62
     7
100
AcDbLine
 10
6277.3278242493
 20
5182.3175148109
 30
0.0
 11
6277.4334436798
 21
5182.3160992006
 31
0.0
  0
LINE
  5
193
330
1F
100
AcDbEntity
  8
0
  6
Continuous
 62
     7
100
AcDbLine
 10
6269.9388972068
 20
5182.7718363145
 30
0.0
 11
6269.9399626398
 21
5182.7718214134
 31
0.0
  0
LINE
  5
194
330
1F
100
AcDbEntity
  8
0
  6
Continuous
 62
     7
100
AcDbLine
 10
6269.9399626398
 20
5182.7718214134
 30
0.0
 11
6270.0908741498
 21
5182.7697948554
 31
0.0
  0
LINE
  5
195
330
1F
100
AcDbEntity
  8
0
  6
Continuous
 62
     7
100
AcDbLine
 10
6270.0908741498
 20
5182.7697948554
 30
0.0
 11
6270.4869544649
 21
5182.7644602397
 31
0.0
  0
LINE
  5
196
330
1F
100
AcDbEntity
  8
0
  6
Continuous
 62
     7
100
AcDbLine
 10
6270.4869544649
 20
5182.7644602397
 30
0.0
 11
6271.1012250328
 21
5182.7562049964
 31
0.0
  0
LINE
  5
197
330
1F
100
AcDbEntity
  8
0
  6
Continuous
 62
     7
100
AcDbLine
 10
6271.1012250328
 20
5182.7562049964
 30
0.0
 11
6271.8918135905
 21
5182.7455655673
 31
0.0
  0
LINE
  5
198
330
1F
100
AcDbEntity
  8
0
  6
Continuous
 62
     7
100
AcDbLine
 10
6271.8918135905
 20
5182.7455655673
 30
0.0
 11
6272.8048524404
 21
5182.7332870105
 31
0.0
  0
LINE
  5
199
330
1F
100
AcDbEntity
  8
0
  6
Continuous
 62
     7
100
AcDbLine
 10
6272.8048524404
 20
5182.7332870105
 30
0.0
 11
6273.7781068826
 21
5182.7201888898
 31
0.0
  0
LINE
  5
19A
330
1F
100
AcDbEntity
  8
0
  6
Continuous
 62
     7
100
AcDbLine
 10
6273.7781068826
 20
5182.7201888898
 30
0.0
 11
6274.7452667499
 21
5182.7071801761
 31
0.0
  0
LINE
  5
19B
330
1F
100
AcDbEntity
  8
0
  6
Continuous
 62
     7
100
AcDbLine
 10
6274.7452667499
 20
5182.7071801761
 30
0.0
 11
6275.6404093051
 21
5182.6951400379
 31
0.0
  0
LINE
  5
19C
330
1F
100
AcDbEntity
  8
0
  6
Continuous
 62
     7
100
AcDbLine
 10
6275.6404093051
 20
5182.6951400379
 30
0.0
 11
6276.402536645
 21
5182.684888039
 31
0.0
  0
LINE
  5
19D
330
1F
100
AcDbEntity
  8
0
  6
Continuous
 62
     7
100
AcDbLine
 10
6276.402536645
 20
5182.684888039
 30
0.0
 11
6276.9797033215
 21
5182.677124534
 31
0.0
  0
LINE
  5
19E
330
1F
100
AcDbEntity
  8
0
  6
Continuous
 62
     7
100
AcDbLine
 10
6276.9797033215
 20
5182.677124534
 30
0.0
 11
6277.3325926209
 21
5182.6723859647
 31
0.0
  0
LINE
  5
19F
330
1F
100
AcDbEntity
  8
0
  6
Continuous
 62
     7
100
AcDbLine
 10
6277.3325926209
 20
5182.6723859647
 30
0.0
 11
6277.438219502
 21
5182.6709554532
 31
0.0
  0
LINE
  5
1A0
330
1F
100
AcDbEntity
  8
0
  6
Continuous
 62
     7
100
AcDbLine
 10
6270.7530966544
 20
5182.9373435119
 30
0.0
 11
6270.7507199192
 21
5182.7609137634
 31
0.0
  0
LINE
  5
1A1
330
1F
100
AcDbEntity
  8
0
  6
Continuous
 62
     7
100
AcDbLine
 10
6276.6621223235
 20
5182.6814011672
 30
0.0
 11
6276.6645586634
 21
5182.8621671537
 31
0.0
  0
LINE
  5
1A2
330
1F
100
AcDbEntity
  8
0
  6
Continuous
 62
     7
100
AcDbLine
 10
6270.7149869347
 20
5182.7613906005
 30
0.0
 11
6270.717415824
 21
5182.942156587
 31
0.0
  0
LINE
  5
1A3
330
1F
100
AcDbEntity
  8
0
  6
Continuous
 62
     7
100
AcDbLine
 10
6185.5187526488
 20
5215.0634125808
 30
0.0
 11
6189.0187522912
 21
5215.0634125808
 31
0.0
  0
LINE
  5
1A4
330
1F
100
AcDbEntity
  8
0
  6
Continuous
 62
     7
100
AcDbLine
 10
6185.5187526488
 20
5199.4749502281
 30
0.0
 11
6189.0187522912
 21
5199.4749502281
 31
0.0
  0
LINE
  5
1A5
330
1F
100
AcDbEntity
  8
0
  6
Continuous
 62
     7
100
AcDbLine
 10
6185.5187526488
 20
5199.4749502281
 30
0.0
 11
6185.5187526488
 21
5215.0634125808
 31
0.0
  0
LINE
  5
1A6
330
1F
100
AcDbEntity
  8
0
  6
Continuous
 62
     7
100
AcDbLine
 10
6178.0187598014
 20
5220.4693303445
 30
0.0
 11
6178.0187598014
 21
5208.0024973491
 31
0.0
  0
LINE
  5
1A7
330
1F
100
AcDbEntity
  8
0
  6
Continuous
 62
     7
100
AcDbLine
 10
6176.518749311
 20
5195.5486730674
 30
0.0
 11
6176.518749311
 21
5218.9896748403
 31
0.0
  0
LINE
  5
1A8
330
1F
100
AcDbEntity
  8
0
  6
Continuous
 62
     7
100
AcDbLine
 10
6185.5187526488
 20
5191.6807190517
 30
0.0
 11
6189.0187522912
 21
5191.6807190517
 31
0.0
  0
LINE
  5
1A9
330
1F
100
AcDbEntity
  8
0
  6
Continuous
 62
     7
100
AcDbLine
 10
6185.5187526488
 20
5191.6807190517
 30
0.0
 11
6185.5187526488
 21
5199.4749502281
 31
0.0
  0
LINE
  5
1AA
330
1F
100
AcDbEntity
  8
0
  6
Continuous
 62
     7
100
AcDbLine
 10
6185.5187526488
 20
5222.857628856
 30
0.0
 11
6189.0187522912
 21
5222.857628856
 31
0.0
  0
LINE
  5
1AB
330
1F
100
AcDbEntity
  8
0
  6
Continuous
 62
     7
100
AcDbLine
 10
6185.5187526488
 20
5215.0634125808
 30
0.0
 11
6185.5187526488
 21
5222.857628856
 31
0.0
  0
LINE
  5
1AC
330
1F
100
AcDbEntity
  8
0
  6
Continuous
 62
     7
100
AcDbLine
 10
6362.5187555844
 20
5215.0634125808
 30
0.0
 11
6362.5187555844
 21
5199.4749502281
 31
0.0
  0
LINE
  5
1AD
330
1F
100
AcDbEntity
  8
0
  6
Continuous
 62
     7
100
AcDbLine
 10
6362.5187555844
 20
5199.4749502281
 30
0.0
 11
6359.018755942
 21
5199.4749502281
 31
0.0
  0
LINE
  5
1AE
330
1F
100
AcDbEntity
  8
0
  6
Continuous
 62
     7
100
AcDbLine
 10
6362.5187555844
 20
5215.0634125808
 30
0.0
 11
6359.018755942
 21
5215.0634125808
 31
0.0
  0
LINE
  5
1AF
330
1F
100
AcDbEntity
  8
0
  6
Continuous
 62
     7
100
AcDbLine
 10
6370.0187554167
 20
5220.4693303445
 30
0.0
 11
6370.0187554167
 21
5220.4896704296
 31
0.0
  0
LINE
  5
1B0
330
1F
100
AcDbEntity
  8
0
  6
Continuous
 62
     7
100
AcDbLine
 10
6371.5187551969
 20
5217.4194351772
 30
0.0
 11
6371.5187551969
 21
5195.5486730674
 31
0.0
  0
LINE
  5
1B1
330
1F
100
AcDbEntity
  8
0
  6
Continuous
 62
     7
100
AcDbLine
 10
6371.5187551969
 20
5218.9896748403
 30
0.0
 11
6371.5187551969
 21
5217.4194351772
 31
0.0
  0
LINE
  5
1B2
330
1F
100
AcDbEntity
  8
0
  6
Continuous
 62
     7
100
AcDbLine
 10
6362.5187555844
 20
5222.857628856
 30
0.0
 11
6359.018755942
 21
5222.857628856
 31
0.0
  0
LINE
  5
1B3
330
1F
100
AcDbEntity
  8
0
  6
Continuous
 62
     7
100
AcDbLine
 10
6362.5187555844
 20
5222.857628856
 30
0.0
 11
6362.5187555844
 21
5215.0634125808
 31
0.0
  0
LINE
  5
1B4
330
1F
100
AcDbEntity
  8
0
  6
Continuous
 62
     7
100
AcDbLine
 10
6362.5187555844
 20
5191.6807190517
 30
0.0
 11
6359.018755942
 21
5191.6807190517
 31
0.0
  0
LINE
  5
1B5
330
1F
100
AcDbEntity
  8
0
  6
Continuous
 62
     7
100
AcDbLine
 10
6362.5187555844
 20
5199.4749502281
 30
0.0
 11
6362.5187555844
 21
5191.6807190517
 31
0.0
  0
LINE
  5
1B6
330
1F
100
AcDbEntity
  8
0
  6
Continuous
 62
     7
100
AcDbLine
 10
6266.2245294595
 20
5344.7691769341
 30
0.0
 11
6281.8129843617
 21
5344.7691769341
 31
0.0
  0
LINE
  5
1B7
330
1F
100
AcDbEntity
  8
0
  6
Continuous
 62
     7
100
AcDbLine
 10
6281.8129843617
 20
5344.7691769341
 30
0.0
 11
6281.8129843617
 21
5339.2691769639
 31
0.0
  0
LINE
  5
1B8
330
1F
100
AcDbEntity
  8
0
  6
Continuous
 62
     7
100
AcDbLine
 10
6266.2245294595
 20
5344.7691769341
 30
0.0
 11
6266.2245294595
 21
5339.2691769639
 31
0.0
  0
LINE
  5
1B9
330
1F
100
AcDbEntity
  8
0
  6
Continuous
 62
     7
100
AcDbLine
 10
6262.2982522989
 20
5353.769177478
 30
0.0
 11
6285.7392540717
 21
5353.769177478
 31
0.0
  0
LINE
  5
1BA
330
1F
100
AcDbEntity
  8
0
  6
Continuous
 62
     7
100
AcDbLine
 10
6289.607215538
 20
5344.7691769341
 30
0.0
 11
6289.607215538
 21
5339.2691769639
 31
0.0
  0
LINE
  5
1BB
330
1F
100
AcDbEntity
  8
0
  6
Continuous
 62
     7
100
AcDbLine
 10
6281.8129843617
 20
5344.7691769341
 30
0.0
 11
6289.607215538
 21
5344.7691769341
 31
0.0
  0
LINE
  5
1BC
330
1F
100
AcDbEntity
  8
0
  6
Continuous
 62
     7
100
AcDbLine
 10
6258.4302982831
 20
5344.7691769341
 30
0.0
 11
6258.4302982831
 21
5339.2691769639
 31
0.0
  0
LINE
  5
1BD
330
1F
100
AcDbEntity
  8
0
  6
Continuous
 62
     7
100
AcDbLine
 10
6258.4302982831
 20
5344.7691769341
 30
0.0
 11
6266.2245294595
 21
5344.7691769341
 31
0.0
  0
LINE
  5
1BE
330
1F
100
AcDbEntity
  8
0
  6
Continuous
 62
     7
100
AcDbLine
 10
6199.0187522912
 20
5179.269178901
 30
0.0
 11
6268.9786663795
 21
5179.2691842655
 31
0.0
  0
LINE
  5
1BF
330
1F
100
AcDbEntity
  8
0
  6
Continuous
 62
     7
100
AcDbLine
 10
6279.0588474417
 20
5179.2691842655
 30
0.0
 11
6349.018755942
 21
5179.269178901
 31
0.0
  0
LINE
  5
1C0
330
1F
100
AcDbEntity
  8
0
  6
Continuous
 62
     7
100
AcDbLine
 10
6681.2555177239
 20
5271.769178007
 30
0.0
 11
6682.7555282143
 21
5273.2691810468
 31
0.0
  0
LINE
  5
1C1
330
1F
100
AcDbEntity
  8
0
  6
Continuous
 62
     7
100
AcDbLine
 10
6682.7555282143
 20
5298.2691795567
 30
0.0
 11
6681.2555177239
 21
5299.769175146
 31
0.0
  0
LINE
  5
1C2
330
1F
100
AcDbEntity
  8
0
  6
Continuous
 62
     7
100
AcDbLine
 10
6680.7555241612
 20
5271.769178007
 30
0.0
 11
6681.2555177239
 21
5271.769178007
 31
0.0
  0
LINE
  5
1C3
330
1F
100
AcDbEntity
  8
0
  6
Continuous
 62
     7
100
AcDbLine
 10
6681.2555177239
 20
5299.769175146
 30
0.0
 11
6680.7555241612
 21
5299.769175146
 31
0.0
  0
LINE
  5
1C4
330
1F
100
AcDbEntity
  8
0
  6
Continuous
 62
     7
100
AcDbLine
 10
6670.6562323597
 20
5274.638322089
 30
0.0
 11
6670.7555336979
 21
5274.8094693759
 31
0.0
  0
LINE
  5
1C5
330
1F
100
AcDbEntity
  8
0
  6
Continuous
 62
     7
100
AcDbLine
 10
6670.2555401352
 20
5274.5691807011
 30
0.0
 11
6670.6305427578
 21
5274.5691807011
 31
0.0
  0
LINE
  5
1C6
330
1F
100
AcDbEntity
  8
0
  6
Continuous
 62
     7
100
AcDbLine
 10
6667.2555191544
 20
5275.3691793421
 30
0.0
 11
6669.5924682644
 21
5275.3691793421
 31
0.0
  0
LINE
  5
1C7
330
1F
100
AcDbEntity
  8
0
  6
Continuous
 62
     7
100
AcDbLine
 10
6669.5992929962
 20
5275.3810779193
 30
0.0
 11
6669.7867794064
 21
5275.3810779193
 31
0.0
  0
LINE
  5
1C8
330
1F
100
AcDbEntity
  8
0
  6
Continuous
 62
     7
100
AcDbLine
 10
6669.5992929962
 20
5275.3810779193
 30
0.0
 11
6669.7867794064
 21
5275.3810779193
 31
0.0
  0
LINE
  5
1C9
330
1F
100
AcDbEntity
  8
0
  6
Continuous
 62
     7
100
AcDbLine
 10
6629.4055266407
 20
5173.2691721061
 30
0.0
 11
6629.4055266407
 21
5172.3691717723
 31
0.0
  0
LINE
  5
1CA
330
1F
100
AcDbEntity
  8
0
  6
Continuous
 62
     7
100
AcDbLine
 10
6642.6055265692
 20
5172.3691717723
 30
0.0
 11
6642.6055265692
 21
5173.2691721061
 31
0.0
  0
LINE
  5
1CB
330
1F
100
AcDbEntity
  8
0
  6
Continuous
 62
     7
100
AcDbLine
 10
6708.2055194405
 20
5182.7191756109
 30
0.0
 11
6711.1555321243
 21
5182.7191756109
 31
0.0
  0
LINE
  5
1CC
330
1F
100
AcDbEntity
  8
0
  6
Continuous
 62
     7
100
AcDbLine
 10
6688.9555437592
 20
5182.7191756109
 30
0.0
 11
6700.705526593
 21
5182.7191756109
 31
0.0
  0
LINE
  5
1CD
330
1F
100
AcDbEntity
  8
0
  6
Continuous
 62
     7
100
AcDbLine
 10
6711.1555321243
 20
5231.8191722969
 30
0.0
 11
6688.9555437592
 21
5231.8191722969
 31
0.0
  0
LINE
  5
1CE
330
1F
100
AcDbEntity
  8
0
  6
Continuous
 62
     7
100
AcDbLine
 10
6680.7555241612
 20
5178.8191840986
 30
0.0
 11
6681.5555377033
 21
5178.8191840986
 31
0.0
  0
LINE
  5
1CF
330
1F
100
AcDbEntity
  8
0
  6
Continuous
 62
     7
100
AcDbLine
 10
6681.5555377033
 20
5235.7191787103
 30
0.0
 11
6680.7555241612
 21
5235.7191787103
 31
0.0
  0
LINE
  5
1D0
330
1F
100
AcDbEntity
  8
0
  6
Continuous
 62
     7
100
AcDbLine
 10
6700.705526593
 20
5182.7213958839
 30
0.0
 11
6700.705526593
 21
5182.3665396312
 31
0.0
  0
LINE
  5
1D1
330
1F
100
AcDbEntity
  8
0
  6
Continuous
 62
     7
100
AcDbLine
 10
6708.204923394
 20
5182.3656306604
 30
0.0
 11
6708.2055194405
 21
5182.7213958839
 31
0.0
  0
LINE
  5
1D2
330
1F
100
AcDbEntity
  8
0
  6
Continuous
 62
     7
100
AcDbLine
 10
6683.0555183914
 20
5183.869172726
 30
0.0
 11
6688.9555437592
 21
5183.869172726
 31
0.0
  0
LINE
  5
1D3
330
1F
100
AcDbEntity
  8
0
  6
Continuous
 62
     7
100
AcDbLine
 10
6688.9555437592
 20
5230.6691751817
 30
0.0
 11
6683.0555183914
 21
5230.6691751817
 31
0.0
  0
LINE
  5
1D4
330
1F
100
AcDbEntity
  8
0
  6
Continuous
 62
     7
100
AcDbLine
 10
6670.7555336979
 20
5230.6691751817
 30
0.0
 11
6667.2555191544
 21
5230.6691751817
 31
0.0
  0
LINE
  5
1D5
330
1F
100
AcDbEntity
  8
0
  6
Continuous
 62
     7
100
AcDbLine
 10
6633.0473406342
 20
5352.6978706011
 30
0.0
 11
6631.9760365513
 21
5353.769177478
 31
0.0
  0
LINE
  5
1D6
330
1F
100
AcDbEntity
  8
0
  6
Continuous
 62
     7
100
AcDbLine
 10
6607.6518578556
 20
5352.8860033492
 30
0.0
 11
6607.035024288
 21
5352.2691772321
 31
0.0
  0
LINE
  5
1D7
330
1F
100
AcDbEntity
  8
0
  6
Continuous
 62
     7
100
AcDbLine
 10
6608.5350347784
 20
5353.769177478
 30
0.0
 11
6607.8989191082
 21
5353.1330608765
 31
0.0
  0
LINE
  5
1D8
330
1F
100
AcDbEntity
  8
0
  6
Continuous
 62
     7
100
AcDbLine
 10
6633.1179870394
 20
5344.7691769341
 30
0.0
 11
6633.4686858681
 21
5344.971776847
 31
0.0
  0
LINE
  5
1D9
330
1F
100
AcDbEntity
  8
0
  6
Continuous
 62
     7
100
AcDbLine
 10
6633.4760321406
 20
5351.3301265428
 30
0.0
 11
6633.4760321406
 21
5351.7271754334
 31
0.0
  0
LINE
  5
1DA
330
1F
100
AcDbEntity
  8
0
  6
Continuous
 62
     7
100
AcDbLine
 10
6633.4760321406
 20
5349.7426257471
 30
0.0
 11
6633.4760321406
 21
5350.1396765003
 31
0.0
  0
LINE
  5
1DB
330
1F
100
AcDbEntity
  8
0
  6
Continuous
 62
     7
100
AcDbLine
 10
6633.4760321406
 20
5348.1551249513
 30
0.0
 11
6633.4760321406
 21
5348.5521757046
 31
0.0
  0
LINE
  5
1DC
330
1F
100
AcDbEntity
  8
0
  6
Continuous
 62
     7
100
AcDbLine
 10
6633.4760321406
 20
5346.5676260183
 30
0.0
 11
6633.4760321406
 21
5346.9646767715
 31
0.0
  0
LINE
  5
1DD
330
1F
100
AcDbEntity
  8
0
  6
Continuous
 62
     7
100
AcDbLine
 10
6633.4760321406
 20
5344.9801252225
 30
0.0
 11
6633.4760321406
 21
5345.3771759758
 31
0.0
  0
LINE
  5
1DE
330
1F
100
AcDbEntity
  8
0
  6
Continuous
 62
     7
100
AcDbLine
 10
6607.035024288
 20
5346.1708136836
 30
0.0
 11
6607.035024288
 21
5345.7739398817
 31
0.0
  0
LINE
  5
1DF
330
1F
100
AcDbEntity
  8
0
  6
Continuous
 62
     7
100
AcDbLine
 10
6607.035024288
 20
5347.7583144793
 30
0.0
 11
6607.035024288
 21
5347.3614388147
 31
0.0
  0
LINE
  5
1E0
330
1F
100
AcDbEntity
  8
0
  6
Continuous
 62
     7
100
AcDbLine
 10
6607.035024288
 20
5349.345815275
 30
0.0
 11
6607.035024288
 21
5348.9489396104
 31
0.0
  0
LINE
  5
1E1
330
1F
100
AcDbEntity
  8
0
  6
Continuous
 62
     7
100
AcDbLine
 10
6607.035024288
 20
5350.9333142081
 30
0.0
 11
6607.035024288
 21
5350.5364404062
 31
0.0
  0
LINE
  5
1E2
330
1F
100
AcDbEntity
  8
0
  6
Continuous
 62
     7
100
AcDbLine
 10
6607.035024288
 20
5352.2691772321
 30
0.0
 11
6607.035024288
 21
5352.1239393392
 31
0.0
  0
LINE
  5
1E3
330
1F
100
AcDbEntity
  8
0
  6
Continuous
 62
     7
100
AcDbLine
 10
6607.902137759
 20
5353.0262158254
 30
0.0
 11
6607.693029764
 21
5352.9054121116
 31
0.0
  0
LINE
  5
1E4
330
1F
100
AcDbEntity
  8
0
  6
Continuous
 62
     7
100
AcDbLine
 10
6607.8943146494
 20
5351.6285297463
 30
0.0
 11
6607.8943146494
 21
5351.4341981152
 31
0.0
  0
LINE
  5
1E5
330
1F
100
AcDbEntity
  8
0
  6
Continuous
 62
     7
100
AcDbLine
 10
6607.8943146494
 20
5350.0410289505
 30
0.0
 11
6607.8943146494
 21
5349.8466991821
 31
0.0
  0
LINE
  5
1E6
330
1F
100
AcDbEntity
  8
0
  6
Continuous
 62
     7
100
AcDbLine
 10
6607.8943146494
 20
5348.4535300175
 30
0.0
 11
6607.8943146494
 21
5348.2591983864
 31
0.0
  0
LINE
  5
1E7
330
1F
100
AcDbEntity
  8
0
  6
Continuous
 62
     7
100
AcDbLine
 10
6607.8943146494
 20
5346.8660292217
 30
0.0
 11
6607.8943146494
 21
5346.6716994533
 31
0.0
  0
LINE
  5
1E8
330
1F
100
AcDbEntity
  8
0
  6
Continuous
 62
     7
100
AcDbLine
 10
6607.8943146494
 20
5345.278528426
 30
0.0
 11
6607.8943146494
 21
5345.0841986576
 31
0.0
  0
LINE
  5
1E9
330
1F
100
AcDbEntity
  8
0
  6
Continuous
 62
     7
100
AcDbLine
 10
6632.6167417792
 20
5350.6363415161
 30
0.0
 11
6632.6167417792
 21
5350.8296095768
 31
0.0
  0
LINE
  5
1EA
330
1F
100
AcDbEntity
  8
0
  6
Continuous
 62
     7
100
AcDbLine
 10
6632.6167417792
 20
5349.048842583
 30
0.0
 11
6632.6167417792
 21
5349.2421087811
 31
0.0
  0
LINE
  5
1EB
330
1F
100
AcDbEntity
  8
0
  6
Continuous
 62
     7
100
AcDbLine
 10
6632.6167417792
 20
5347.4613417873
 30
0.0
 11
6632.6167417792
 21
5347.654609848
 31
0.0
  0
LINE
  5
1EC
330
1F
100
AcDbEntity
  8
0
  6
Continuous
 62
     7
100
AcDbLine
 10
6632.6167417792
 20
5345.8738409916
 30
0.0
 11
6632.6167417792
 21
5346.0671090523
 31
0.0
  0
LINE
  5
1ED
330
1F
100
AcDbEntity
  8
0
  6
Continuous
 62
     7
100
AcDbLine
 10
6632.6167417792
 20
5352.2238423118
 30
0.0
 11
6632.6167417792
 21
5352.4171085099
 31
0.0
  0
LINE
  5
1EE
330
1F
100
AcDbEntity
  8
0
  6
Continuous
 62
     7
100
AcDbLine
 10
6607.8943146494
 20
5353.2160286793
 30
0.0
 11
6607.8943146494
 21
5353.0216989109
 31
0.0
  0
LINE
  5
1EF
330
1F
100
AcDbEntity
  8
0
  6
Continuous
 62
     7
100
AcDbLine
 10
6670.7555241612
 20
5179.269178901
 30
0.0
 11
6670.7555336979
 21
5169.269178901
 31
0.0
  0
LINE
  5
1F0
330
1F
100
AcDbEntity
  8
0
  6
Continuous
 62
     7
100
AcDbLine
 10
6670.7555241612
 20
5179.269178901
 30
0.0
 11
6680.7555241612
 21
5179.2691842655
 31
0.0
  0
LINE
  5
1F1
330
1F
100
AcDbEntity
  8
0
  6
Continuous
 62
     7
100
AcDbLine
 10
6670.7555241612
 20
5329.2691769639
 30
0.0
 11
6680.7555241612
 21
5329.2691790501
 31
0.0
  0
LINE
  5
1F2
330
1F
100
AcDbEntity
  8
0
  6
Continuous
 62
     7
100
AcDbLine
 10
6670.7555336979
 20
5339.2691769639
 30
0.0
 11
6670.7555241612
 21
5329.2691769639
 31
0.0
  0
LINE
  5
1F3
330
1F
100
AcDbEntity
  8
0
  6
Continuous
 62
     7
100
AcDbLine
 10
6680.7555241612
 20
5329.2691790501
 30
0.0
 11
6680.7555241612
 21
5179.2691842655
 31
0.0
  0
LINE
  5
1F4
330
1F
100
AcDbEntity
  8
0
  6
Continuous
 62
     7
100
AcDbLine
 10
6670.7555241612
 20
5329.2691769639
 30
0.0
 11
6670.7555241612
 21
5179.269178901
 31
0.0
  0
LINE
  5
1F5
330
1F
100
AcDbEntity
  8
0
  6
Continuous
 62
     7
100
AcDbLine
 10
6682.7555282143
 20
5298.2691795567
 30
0.0
 11
6682.7555282143
 21
5273.2691810468
 31
0.0
  0
LINE
  5
1F6
330
1F
100
AcDbEntity
  8
0
  6
Continuous
 62
     7
100
AcDbLine
 10
6681.2555177239
 20
5271.769178007
 30
0.0
 11
6681.2555177239
 21
5299.769175146
 31
0.0
  0
LINE
  5
1F7
330
1F
100
AcDbEntity
  8
0
  6
Continuous
 62
     7
100
AcDbLine
 10
6669.7555167702
 20
5279.0231750348
 30
0.0
 11
6669.7555167702
 21
5286.2691775897
 31
0.0
  0
LINE
  5
1F8
330
1F
100
AcDbEntity
  8
0
  6
Continuous
 62
     7
100
AcDbLine
 10
6670.2555401352
 20
5285.7691765765
 30
0.0
 11
6670.248864415
 21
5286.2691775897
 31
0.0
  0
LINE
  5
1F9
330
1F
100
AcDbEntity
  8
0
  6
Continuous
 62
     7
100
AcDbLine
 10
6670.2555401352
 20
5285.7691765765
 30
0.0
 11
6670.2555401352
 21
5274.5691807011
 31
0.0
  0
LINE
  5
1FA
330
1F
100
AcDbEntity
  8
0
  6
Continuous
 62
     7
100
AcDbLine
 10
6669.5695800808
 20
5279.6562285164
 30
0.0
 11
6669.3683548001
 21
5279.6562285164
 31
0.0
  0
LINE
  5
1FB
330
1F
100
AcDbEntity
  8
0
  6
Continuous
 62
     7
100
AcDbLine
 10
6630.2055252817
 20
5171.5691731313
 30
0.0
 11
6641.8055279282
 21
5171.5691731313
 31
0.0
  0
LINE
  5
1FC
330
1F
100
AcDbEntity
  8
0
  6
Continuous
 62
     7
100
AcDbLine
 10
6624.1834892061
 20
5208.8920370677
 30
0.0
 11
6624.2320222882
 21
5208.7691769937
 31
0.0
  0
LINE
  5
1FD
330
1F
100
AcDbEntity
  8
0
  6
Continuous
 62
     7
100
AcDbLine
 10
6624.4760139015
 20
5207.7691749671
 30
0.0
 11
6624.4794411686
 21
5206.7989901641
 31
0.0
  0
LINE
  5
1FE
330
1F
100
AcDbEntity
  8
0
  6
Continuous
 62
     7
100
AcDbLine
 10
6624.4794411686
 20
5206.7989901641
 30
0.0
 11
6624.4760139015
 21
5206.7691729406
 31
0.0
  0
LINE
  5
1FF
330
1F
100
AcDbEntity
  8
0
  6
Continuous
 62
     7
100
AcDbLine
 10
6624.2320222882
 20
5205.769170914
 30
0.0
 11
6624.2298169163
 21
5205.7633147577
 31
0.0
  0
LINE
  5
200
330
1F
100
AcDbEntity
  8
0
  6
Continuous
 62
     7
100
AcDbLine
 10
6624.2298169163
 20
5205.7633147577
 30
0.0
 11
6623.7555278567
 21
5204.8582629302
 31
0.0
  0
LINE
  5
201
330
1F
100
AcDbEntity
  8
0
  6
Continuous
 62
     7
100
AcDbLine
 10
6622.6664466885
 20
5203.7691817621
 30
0.0
 11
6622.121824148
 21
5203.4508780578
 31
0.0
  0
LINE
  5
202
330
1F
100
AcDbEntity
  8
0
  6
Continuous
 62
     7
100
AcDbLine
 10
6622.121824148
 20
5203.4508780578
 30
0.0
 11
6621.7555387047
 21
5203.2926873306
 31
0.0
  0
LINE
  5
203
330
1F
100
AcDbEntity
  8
0
  6
Continuous
 62
     7
100
AcDbLine
 10
6620.7555366781
 20
5203.0486957172
 30
0.0
 11
6620.0515015152
 21
5203.0240789989
 31
0.0
  0
LINE
  5
204
330
1F
100
AcDbEntity
  8
0
  6
Continuous
 62
     7
100
AcDbLine
 10
6620.0515015152
 20
5203.0240789989
 30
0.0
 11
6619.7555346516
 21
5203.0486957172
 31
0.0
  0
LINE
  5
205
330
1F
100
AcDbEntity
  8
0
  6
Continuous
 62
     7
100
AcDbLine
 10
6618.755532625
 20
5203.2926873306
 30
0.0
 11
6618.0316491154
 21
5203.6474690774
 31
0.0
  0
LINE
  5
206
330
1F
100
AcDbEntity
  8
0
  6
Continuous
 62
     7
100
AcDbLine
 10
6618.0316491154
 20
5203.6474690774
 30
0.0
 11
6617.8446246412
 21
5203.7691817621
 31
0.0
  0
LINE
  5
207
330
1F
100
AcDbEntity
  8
0
  6
Continuous
 62
     7
100
AcDbLine
 10
6616.7555285719
 20
5204.8582629302
 30
0.0
 11
6616.5619475868
 21
5205.1668063739
 31
0.0
  0
LINE
  5
208
330
1F
100
AcDbEntity
  8
0
  6
Continuous
 62
     7
100
AcDbLine
 10
6616.5619475868
 20
5205.1668063739
 30
0.0
 11
6616.2790341404
 21
5205.769170914
 31
0.0
  0
LINE
  5
209
330
1F
100
AcDbEntity
  8
0
  6
Continuous
 62
     7
100
AcDbLine
 10
6616.035042527
 20
5206.7691729406
 30
0.0
 11
6616.0060001639
 21
5207.2062538007
 31
0.0
  0
LINE
  5
20A
330
1F
100
AcDbEntity
  8
0
  6
Continuous
 62
     7
100
AcDbLine
 10
6616.0060001639
 20
5207.2062538007
 30
0.0
 11
6616.035042527
 21
5207.7691749671
 31
0.0
  0
LINE
  5
20B
330
1F
100
AcDbEntity
  8
0
  6
Continuous
 62
     7
100
AcDbLine
 10
6616.2790341404
 20
5208.7691769937
 30
0.0
 11
6616.5013296631
 21
5209.261272941
 31
0.0
  0
LINE
  5
20C
330
1F
100
AcDbEntity
  8
0
  6
Continuous
 62
     7
100
AcDbLine
 10
6616.5013296631
 20
5209.261272941
 30
0.0
 11
6616.7555285719
 21
5209.6800849775
 31
0.0
  0
LINE
  5
20D
330
1F
100
AcDbEntity
  8
0
  6
Continuous
 62
     7
100
AcDbLine
 10
6617.8446246412
 20
5210.7691810468
 30
0.0
 11
6617.9253889349
 21
5210.823465977
 31
0.0
  0
LINE
  5
20E
330
1F
100
AcDbEntity
  8
0
  6
Continuous
 62
     7
100
AcDbLine
 10
6617.9253889349
 20
5210.823465977
 30
0.0
 11
6618.755532625
 21
5211.2456754783
 31
0.0
  0
LINE
  5
20F
330
1F
100
AcDbEntity
  8
0
  6
Continuous
 62
     7
100
AcDbLine
 10
6619.7555346516
 20
5211.4896670917
 30
0.0
 11
6619.9258996275
 21
5211.5063712934
 31
0.0
  0
LINE
  5
210
330
1F
100
AcDbEntity
  8
0
  6
Continuous
 62
     7
100
AcDbLine
 10
6619.9258996275
 20
5211.5063712934
 30
0.0
 11
6620.7555366781
 21
5211.4896670917
 31
0.0
  0
LINE
  5
211
330
1F
100
AcDbEntity
  8
0
  6
Continuous
 62
     7
100
AcDbLine
 10
6621.7555387047
 20
5211.2456754783
 30
0.0
 11
6622.0079643753
 21
5211.1410544256
 31
0.0
  0
LINE
  5
212
330
1F
100
AcDbEntity
  8
0
  6
Continuous
 62
     7
100
AcDbLine
 10
6622.0079643753
 20
5211.1410544256
 30
0.0
 11
6622.6664466885
 21
5210.7691810468
 31
0.0
  0
LINE
  5
213
330
1F
100
AcDbEntity
  8
0
  6
Continuous
 62
     7
100
AcDbLine
 10
6623.7555278567
 20
5209.6800849775
 30
0.0
 11
6624.1834892061
 21
5208.8920370677
 31
0.0
  0
LINE
  5
214
330
1F
100
AcDbEntity
  8
0
  6
Continuous
 62
     7
100
AcDbLine
 10
6621.9325794008
 20
5207.7691749671
 30
0.0
 11
6622.0055354861
 21
5207.2676018814
 31
0.0
  0
LINE
  5
215
330
1F
100
AcDbEntity
  8
0
  6
Continuous
 62
     7
100
AcDbLine
 10
6622.0055354861
 20
5207.2676018814
 30
0.0
 11
6621.9325794008
 21
5206.7691729406
 31
0.0
  0
LINE
  5
216
330
1F
100
AcDbEntity
  8
0
  6
Continuous
 62
     7
100
AcDbLine
 10
6620.7555366781
 20
5205.5921302179
 30
0.0
 11
6620.2539486912
 21
5205.5191741327
 31
0.0
  0
LINE
  5
217
330
1F
100
AcDbEntity
  8
0
  6
Continuous
 62
     7
100
AcDbLine
 10
6620.2539486912
 20
5205.5191741327
 30
0.0
 11
6619.7555346516
 21
5205.5921302179
 31
0.0
  0
LINE
  5
218
330
1F
100
AcDbEntity
  8
0
  6
Continuous
 62
     7
100
AcDbLine
 10
6618.5784770277
 20
5206.7691729406
 30
0.0
 11
6618.5055358437
 21
5207.2707609275
 31
0.0
  0
LINE
  5
219
330
1F
100
AcDbEntity
  8
0
  6
Continuous
 62
     7
100
AcDbLine
 10
6618.5055358437
 20
5207.2707609275
 30
0.0
 11
6618.5784770277
 21
5207.7691749671
 31
0.0
  0
LINE
  5
21A
330
1F
100
AcDbEntity
  8
0
  6
Continuous
 62
     7
100
AcDbLine
 10
6619.7555346516
 20
5208.946232591
 30
0.0
 11
6620.2571077374
 21
5209.019173775
 31
0.0
  0
LINE
  5
21B
330
1F
100
AcDbEntity
  8
0
  6
Continuous
 62
     7
100
AcDbLine
 10
6620.2571077374
 20
5209.019173775
 30
0.0
 11
6620.7555366781
 21
5208.946232591
 31
0.0
  0
LINE
  5
21C
330
1F
100
AcDbEntity
  8
0
  6
Continuous
 62
     7
100
AcDbLine
 10
6711.1555321243
 20
5182.7191756109
 30
0.0
 11
6711.1555321243
 21
5231.8191722969
 31
0.0
  0
LINE
  5
21D
330
1F
100
AcDbEntity
  8
0
  6
Continuous
 62
     7
100
AcDbLine
 10
6688.9555437592
 20
5182.7191756109
 30
0.0
 11
6688.9555437592
 21
5231.8191722969
 31
0.0
  0
LINE
  5
21E
330
1F
100
AcDbEntity
  8
0
  6
Continuous
 62
     7
100
AcDbLine
 10
6680.7555241612
 20
5178.8191840986
 30
0.0
 11
6680.7555241612
 21
5179.2691842655
 31
0.0
  0
LINE
  5
21F
330
1F
100
AcDbEntity
  8
0
  6
Continuous
 62
     7
100
AcDbLine
 10
6683.0555183914
 20
5187.1587083677
 30
0.0
 11
6683.0555183914
 21
5234.2191831211
 31
0.0
  0
LINE
  5
220
330
1F
100
AcDbEntity
  8
0
  6
Continuous
 62
     7
100
AcDbLine
 10
6683.0555183914
 20
5180.3191796878
 30
0.0
 11
6683.0555183914
 21
5187.1587083677
 31
0.0
  0
LINE
  5
221
330
1F
100
AcDbEntity
  8
0
  6
Continuous
 62
     7
100
AcDbLine
 10
6703.7782056359
 20
5182.7710018495
 30
0.0
 11
6703.7782056359
 21
5182.9582945445
 31
0.0
  0
LINE
  5
222
330
1F
100
AcDbEntity
  8
0
  6
Continuous
 62
     7
100
AcDbLine
 10
6705.2741034058
 20
5182.9564020971
 30
0.0
 11
6705.2741034058
 21
5182.7706144193
 31
0.0
  0
LINE
  5
223
330
1F
100
AcDbEntity
  8
0
  6
Continuous
 62
     7
100
AcDbLine
 10
6705.249069455
 20
5182.9577730039
 30
0.0
 11
6705.249069455
 21
5182.7706889251
 31
0.0
  0
LINE
  5
224
330
1F
100
AcDbEntity
  8
0
  6
Continuous
 62
     7
100
AcDbLine
 10
6705.1328702
 20
5182.7710018495
 30
0.0
 11
6705.1328702
 21
5182.9628095964
 31
0.0
  0
LINE
  5
225
330
1F
100
AcDbEntity
  8
0
  6
Continuous
 62
     7
100
AcDbLine
 10
6705.1579041508
 20
5182.7709422449
 30
0.0
 11
6705.1579041508
 21
5182.9626158813
 31
0.0
  0
LINE
  5
226
330
1F
100
AcDbEntity
  8
0
  6
Continuous
 62
     7
100
AcDbLine
 10
6623.7555278567
 20
5206.7691729406
 30
0.0
 11
6623.7555278567
 21
5207.7691749671
 31
0.0
  0
LINE
  5
227
330
1F
100
AcDbEntity
  8
0
  6
Continuous
 62
     7
100
AcDbLine
 10
6624.7555298832
 20
5206.7691729406
 30
0.0
 11
6623.7555278567
 21
5206.7691729406
 31
0.0
  0
LINE
  5
228
330
1F
100
AcDbEntity
  8
0
  6
Continuous
 62
     7
100
AcDbLine
 10
6624.7555298832
 20
5207.7691749671
 30
0.0
 11
6624.7555298832
 21
5206.7691729406
 31
0.0
  0
LINE
  5
229
330
1F
100
AcDbEntity
  8
0
  6
Continuous
 62
     7
100
AcDbLine
 10
6623.7555278567
 20
5207.7691749671
 30
0.0
 11
6624.7555298832
 21
5207.7691749671
 31
0.0
  0
LINE
  5
22A
330
1F
100
AcDbEntity
  8
0
  6
Continuous
 62
     7
100
AcDbLine
 10
6623.7555278567
 20
5204.7691837886
 30
0.0
 11
6623.7555278567
 21
5205.769170914
 31
0.0
  0
LINE
  5
22B
330
1F
100
AcDbEntity
  8
0
  6
Continuous
 62
     7
100
AcDbLine
 10
6624.7555298832
 20
5204.7691837886
 30
0.0
 11
6623.7555278567
 21
5204.7691837886
 31
0.0
  0
LINE
  5
22C
330
1F
100
AcDbEntity
  8
0
  6
Continuous
 62
     7
100
AcDbLine
 10
6624.7555298832
 20
5205.769170914
 30
0.0
 11
6624.7555298832
 21
5204.7691837886
 31
0.0
  0
LINE
  5
22D
330
1F
100
AcDbEntity
  8
0
  6
Continuous
 62
     7
100
AcDbLine
 10
6623.7555278567
 20
5205.769170914
 30
0.0
 11
6624.7555298832
 21
5205.769170914
 31
0.0
  0
LINE
  5
22E
330
1F
100
AcDbEntity
  8
0
  6
Continuous
 62
     7
100
AcDbLine
 10
6623.7555278567
 20
5203.2754019836
 30
0.0
 11
6623.7555278567
 21
5203.7691817621
 31
0.0
  0
LINE
  5
22F
330
1F
100
AcDbEntity
  8
0
  6
Continuous
 62
     7
100
AcDbLine
 10
6623.7555278567
 20
5203.7691817621
 30
0.0
 11
6624.4981719282
 21
5203.7691817621
 31
0.0
  0
LINE
  5
230
330
1F
100
AcDbEntity
  8
0
  6
Continuous
 62
     7
100
AcDbLine
 10
6623.7555278567
 20
5210.7691810468
 30
0.0
 11
6623.7555278567
 21
5211.5118251184
 31
0.0
  0
LINE
  5
231
330
1F
100
AcDbEntity
  8
0
  6
Continuous
 62
     7
100
AcDbLine
 10
6624.4981719282
 20
5210.7691810468
 30
0.0
 11
6623.7555278567
 21
5210.7691810468
 31
0.0
  0
LINE
  5
232
330
1F
100
AcDbEntity
  8
0
  6
Continuous
 62
     7
100
AcDbLine
 10
6623.7555278567
 20
5209.7691790203
 30
0.0
 11
6624.7555298832
 21
5209.7691790203
 31
0.0
  0
LINE
  5
233
330
1F
100
AcDbEntity
  8
0
  6
Continuous
 62
     7
100
AcDbLine
 10
6623.7555278567
 20
5208.7691769937
 30
0.0
 11
6623.7555278567
 21
5209.7691790203
 31
0.0
  0
LINE
  5
234
330
1F
100
AcDbEntity
  8
0
  6
Continuous
 62
     7
100
AcDbLine
 10
6624.7555298832
 20
5208.7691769937
 30
0.0
 11
6623.7555278567
 21
5208.7691769937
 31
0.0
  0
LINE
  5
235
330
1F
100
AcDbEntity
  8
0
  6
Continuous
 62
     7
100
AcDbLine
 10
6624.7555298832
 20
5209.7691790203
 30
0.0
 11
6624.7555298832
 21
5208.7691769937
 31
0.0
  0
LINE
  5
236
330
1F
100
AcDbEntity
  8
0
  6
Continuous
 62
     7
100
AcDbLine
 10
6619.7555346516
 20
5202.7691797355
 30
0.0
 11
6619.7555346516
 21
5203.7691817621
 31
0.0
  0
LINE
  5
237
330
1F
100
AcDbEntity
  8
0
  6
Continuous
 62
     7
100
AcDbLine
 10
6620.7555366781
 20
5202.7691797355
 30
0.0
 11
6619.7555346516
 21
5202.7691797355
 31
0.0
  0
LINE
  5
238
330
1F
100
AcDbEntity
  8
0
  6
Continuous
 62
     7
100
AcDbLine
 10
6620.7555366781
 20
5203.7691817621
 30
0.0
 11
6620.7555366781
 21
5202.7691797355
 31
0.0
  0
LINE
  5
239
330
1F
100
AcDbEntity
  8
0
  6
Continuous
 62
     7
100
AcDbLine
 10
6619.7555346516
 20
5203.7691817621
 30
0.0
 11
6620.7555366781
 21
5203.7691817621
 31
0.0
  0
LINE
  5
23A
330
1F
100
AcDbEntity
  8
0
  6
Continuous
 62
     7
100
AcDbLine
 10
6619.7555346516
 20
5204.7691837886
 30
0.0
 11
6619.7555346516
 21
5205.769170914
 31
0.0
  0
LINE
  5
23B
330
1F
100
AcDbEntity
  8
0
  6
Continuous
 62
     7
100
AcDbLine
 10
6620.7555366781
 20
5204.7691837886
 30
0.0
 11
6619.7555346516
 21
5204.7691837886
 31
0.0
  0
LINE
  5
23C
330
1F
100
AcDbEntity
  8
0
  6
Continuous
 62
     7
100
AcDbLine
 10
6620.7555366781
 20
5205.769170914
 30
0.0
 11
6620.7555366781
 21
5204.7691837886
 31
0.0
  0
LINE
  5
23D
330
1F
100
AcDbEntity
  8
0
  6
Continuous
 62
     7
100
AcDbLine
 10
6619.7555346516
 20
5205.769170914
 30
0.0
 11
6620.7555366781
 21
5205.769170914
 31
0.0
  0
LINE
  5
23E
330
1F
100
AcDbEntity
  8
0
  6
Continuous
 62
     7
100
AcDbLine
 10
6619.7555346516
 20
5206.7691729406
 30
0.0
 11
6619.7555346516
 21
5207.7691749671
 31
0.0
  0
LINE
  5
23F
330
1F
100
AcDbEntity
  8
0
  6
Continuous
 62
     7
100
AcDbLine
 10
6620.7555366781
 20
5206.7691729406
 30
0.0
 11
6619.7555346516
 21
5206.7691729406
 31
0.0
  0
LINE
  5
240
330
1F
100
AcDbEntity
  8
0
  6
Continuous
 62
     7
100
AcDbLine
 10
6620.7555366781
 20
5207.7691749671
 30
0.0
 11
6620.7555366781
 21
5206.7691729406
 31
0.0
  0
LINE
  5
241
330
1F
100
AcDbEntity
  8
0
  6
Continuous
 62
     7
100
AcDbLine
 10
6619.7555346516
 20
5207.7691749671
 30
0.0
 11
6620.7555366781
 21
5207.7691749671
 31
0.0
  0
LINE
  5
242
330
1F
100
AcDbEntity
  8
0
  6
Continuous
 62
     7
100
AcDbLine
 10
6619.7555346516
 20
5208.7691769937
 30
0.0
 11
6619.7555346516
 21
5209.7691790203
 31
0.0
  0
LINE
  5
243
330
1F
100
AcDbEntity
  8
0
  6
Continuous
 62
     7
100
AcDbLine
 10
6620.7555366781
 20
5208.7691769937
 30
0.0
 11
6619.7555346516
 21
5208.7691769937
 31
0.0
  0
LINE
  5
244
330
1F
100
AcDbEntity
  8
0
  6
Continuous
 62
     7
100
AcDbLine
 10
6620.7555366781
 20
5209.7691790203
 30
0.0
 11
6620.7555366781
 21
5208.7691769937
 31
0.0
  0
LINE
  5
245
330
1F
100
AcDbEntity
  8
0
  6
Continuous
 62
     7
100
AcDbLine
 10
6619.7555346516
 20
5209.7691790203
 30
0.0
 11
6620.7555366781
 21
5209.7691790203
 31
0.0
  0
LINE
  5
246
330
1F
100
AcDbEntity
  8
0
  6
Continuous
 62
     7
100
AcDbLine
 10
6619.7555346516
 20
5210.7691810468
 30
0.0
 11
6619.7555346516
 21
5211.7691830734
 31
0.0
  0
LINE
  5
247
330
1F
100
AcDbEntity
  8
0
  6
Continuous
 62
     7
100
AcDbLine
 10
6620.7555366781
 20
5210.7691810468
 30
0.0
 11
6619.7555346516
 21
5210.7691810468
 31
0.0
  0
LINE
  5
248
330
1F
100
AcDbEntity
  8
0
  6
Continuous
 62
     7
100
AcDbLine
 10
6620.7555366781
 20
5211.7691830734
 30
0.0
 11
6620.7555366781
 21
5210.7691810468
 31
0.0
  0
LINE
  5
249
330
1F
100
AcDbEntity
  8
0
  6
Continuous
 62
     7
100
AcDbLine
 10
6619.7555346516
 20
5211.7691830734
 30
0.0
 11
6620.7555366781
 21
5211.7691830734
 31
0.0
  0
LINE
  5
24A
330
1F
100
AcDbEntity
  8
0
  6
Continuous
 62
     7
100
AcDbLine
 10
6622.7555258301
 20
5211.7691830734
 30
0.0
 11
6622.7555258301
 21
5210.7691810468
 31
0.0
  0
LINE
  5
24B
330
1F
100
AcDbEntity
  8
0
  6
Continuous
 62
     7
100
AcDbLine
 10
6621.7555387047
 20
5211.7691830734
 30
0.0
 11
6622.7555258301
 21
5211.7691830734
 31
0.0
  0
LINE
  5
24C
330
1F
100
AcDbEntity
  8
0
  6
Continuous
 62
     7
100
AcDbLine
 10
6621.7555387047
 20
5210.7691810468
 30
0.0
 11
6621.7555387047
 21
5211.7691830734
 31
0.0
  0
LINE
  5
24D
330
1F
100
AcDbEntity
  8
0
  6
Continuous
 62
     7
100
AcDbLine
 10
6622.7555258301
 20
5210.7691810468
 30
0.0
 11
6621.7555387047
 21
5210.7691810468
 31
0.0
  0
LINE
  5
24E
330
1F
100
AcDbEntity
  8
0
  6
Continuous
 62
     7
100
AcDbLine
 10
6622.7555258301
 20
5209.7691790203
 30
0.0
 11
6622.7555258301
 21
5208.7691769937
 31
0.0
  0
LINE
  5
24F
330
1F
100
AcDbEntity
  8
0
  6
Continuous
 62
     7
100
AcDbLine
 10
6621.7555387047
 20
5209.7691790203
 30
0.0
 11
6622.7555258301
 21
5209.7691790203
 31
0.0
  0
LINE
  5
250
330
1F
100
AcDbEntity
  8
0
  6
Continuous
 62
     7
100
AcDbLine
 10
6621.7555387047
 20
5208.7691769937
 30
0.0
 11
6621.7555387047
 21
5209.7691790203
 31
0.0
  0
LINE
  5
251
330
1F
100
AcDbEntity
  8
0
  6
Continuous
 62
     7
100
AcDbLine
 10
6622.7555258301
 20
5208.7691769937
 30
0.0
 11
6621.7555387047
 21
5208.7691769937
 31
0.0
  0
LINE
  5
252
330
1F
100
AcDbEntity
  8
0
  6
Continuous
 62
     7
100
AcDbLine
 10
6622.7555258301
 20
5207.7691749671
 30
0.0
 11
6622.7555258301
 21
5206.7691729406
 31
0.0
  0
LINE
  5
253
330
1F
100
AcDbEntity
  8
0
  6
Continuous
 62
     7
100
AcDbLine
 10
6621.7555387047
 20
5207.7691749671
 30
0.0
 11
6622.7555258301
 21
5207.7691749671
 31
0.0
  0
LINE
  5
254
330
1F
100
AcDbEntity
  8
0
  6
Continuous
 62
     7
100
AcDbLine
 10
6621.7555387047
 20
5206.7691729406
 30
0.0
 11
6621.7555387047
 21
5207.7691749671
 31
0.0
  0
LINE
  5
255
330
1F
100
AcDbEntity
  8
0
  6
Continuous
 62
     7
100
AcDbLine
 10
6622.7555258301
 20
5206.7691729406
 30
0.0
 11
6621.7555387047
 21
5206.7691729406
 31
0.0
  0
LINE
  5
256
330
1F
100
AcDbEntity
  8
0
  6
Continuous
 62
     7
100
AcDbLine
 10
6622.7555258301
 20
5205.769170914
 30
0.0
 11
6622.7555258301
 21
5204.7691837886
 31
0.0
  0
LINE
  5
257
330
1F
100
AcDbEntity
  8
0
  6
Continuous
 62
     7
100
AcDbLine
 10
6621.7555387047
 20
5205.769170914
 30
0.0
 11
6622.7555258301
 21
5205.769170914
 31
0.0
  0
LINE
  5
258
330
1F
100
AcDbEntity
  8
0
  6
Continuous
 62
     7
100
AcDbLine
 10
6621.7555387047
 20
5204.7691837886
 30
0.0
 11
6621.7555387047
 21
5205.769170914
 31
0.0
  0
LINE
  5
259
330
1F
100
AcDbEntity
  8
0
  6
Continuous
 62
     7
100
AcDbLine
 10
6622.7555258301
 20
5204.7691837886
 30
0.0
 11
6621.7555387047
 21
5204.7691837886
 31
0.0
  0
LINE
  5
25A
330
1F
100
AcDbEntity
  8
0
  6
Continuous
 62
     7
100
AcDbLine
 10
6622.7555258301
 20
5203.7691817621
 30
0.0
 11
6622.7555258301
 21
5203.2473132947
 31
0.0
  0
LINE
  5
25B
330
1F
100
AcDbEntity
  8
0
  6
Continuous
 62
     7
100
AcDbLine
 10
6621.7555387047
 20
5203.7691817621
 30
0.0
 11
6622.7555258301
 21
5203.7691817621
 31
0.0
  0
LINE
  5
25C
330
1F
100
AcDbEntity
  8
0
  6
Continuous
 62
     7
100
AcDbLine
 10
6621.7555387047
 20
5202.7691797355
 30
0.0
 11
6621.7555387047
 21
5203.7691817621
 31
0.0
  0
LINE
  5
25D
330
1F
100
AcDbEntity
  8
0
  6
Continuous
 62
     7
100
AcDbLine
 10
6621.997399452
 20
5202.7691797355
 30
0.0
 11
6621.7555387047
 21
5202.7691797355
 31
0.0
  0
LINE
  5
25E
330
1F
100
AcDbEntity
  8
0
  6
Continuous
 62
     7
100
AcDbLine
 10
6618.755532625
 20
5211.7691830734
 30
0.0
 11
6618.755532625
 21
5210.7691810468
 31
0.0
  0
LINE
  5
25F
330
1F
100
AcDbEntity
  8
0
  6
Continuous
 62
     7
100
AcDbLine
 10
6617.7555305985
 20
5211.7691830734
 30
0.0
 11
6618.755532625
 21
5211.7691830734
 31
0.0
  0
LINE
  5
260
330
1F
100
AcDbEntity
  8
0
  6
Continuous
 62
     7
100
AcDbLine
 10
6617.7555305985
 20
5210.7691810468
 30
0.0
 11
6617.7555305985
 21
5211.7691830734
 31
0.0
  0
LINE
  5
261
330
1F
100
AcDbEntity
  8
0
  6
Continuous
 62
     7
100
AcDbLine
 10
6618.755532625
 20
5210.7691810468
 30
0.0
 11
6617.7555305985
 21
5210.7691810468
 31
0.0
  0
LINE
  5
262
330
1F
100
AcDbEntity
  8
0
  6
Continuous
 62
     7
100
AcDbLine
 10
6618.755532625
 20
5209.7691790203
 30
0.0
 11
6618.755532625
 21
5208.7691769937
 31
0.0
  0
LINE
  5
263
330
1F
100
AcDbEntity
  8
0
  6
Continuous
 62
     7
100
AcDbLine
 10
6617.7555305985
 20
5209.7691790203
 30
0.0
 11
6618.755532625
 21
5209.7691790203
 31
0.0
  0
LINE
  5
264
330
1F
100
AcDbEntity
  8
0
  6
Continuous
 62
     7
100
AcDbLine
 10
6617.7555305985
 20
5208.7691769937
 30
0.0
 11
6617.7555305985
 21
5209.7691790203
 31
0.0
  0
LINE
  5
265
330
1F
100
AcDbEntity
  8
0
  6
Continuous
 62
     7
100
AcDbLine
 10
6618.755532625
 20
5208.7691769937
 30
0.0
 11
6617.7555305985
 21
5208.7691769937
 31
0.0
  0
LINE
  5
266
330
1F
100
AcDbEntity
  8
0
  6
Continuous
 62
     7
100
AcDbLine
 10
6618.755532625
 20
5207.7691749671
 30
0.0
 11
6618.755532625
 21
5206.7691729406
 31
0.0
  0
LINE
  5
267
330
1F
100
AcDbEntity
  8
0
  6
Continuous
 62
     7
100
AcDbLine
 10
6617.7555305985
 20
5207.7691749671
 30
0.0
 11
6618.755532625
 21
5207.7691749671
 31
0.0
  0
LINE
  5
268
330
1F
100
AcDbEntity
  8
0
  6
Continuous
 62
     7
100
AcDbLine
 10
6617.7555305985
 20
5206.7691729406
 30
0.0
 11
6617.7555305985
 21
5207.7691749671
 31
0.0
  0
LINE
  5
269
330
1F
100
AcDbEntity
  8
0
  6
Continuous
 62
     7
100
AcDbLine
 10
6618.755532625
 20
5206.7691729406
 30
0.0
 11
6617.7555305985
 21
5206.7691729406
 31
0.0
  0
LINE
  5
26A
330
1F
100
AcDbEntity
  8
0
  6
Continuous
 62
     7
100
AcDbLine
 10
6618.755532625
 20
5205.769170914
 30
0.0
 11
6618.755532625
 21
5204.7691837886
 31
0.0
  0
LINE
  5
26B
330
1F
100
AcDbEntity
  8
0
  6
Continuous
 62
     7
100
AcDbLine
 10
6617.7555305985
 20
5205.769170914
 30
0.0
 11
6618.755532625
 21
5205.769170914
 31
0.0
  0
LINE
  5
26C
330
1F
100
AcDbEntity
  8
0
  6
Continuous
 62
     7
100
AcDbLine
 10
6617.7555305985
 20
5204.7691837886
 30
0.0
 11
6617.7555305985
 21
5205.769170914
 31
0.0
  0
LINE
  5
26D
330
1F
100
AcDbEntity
  8
0
  6
Continuous
 62
     7
100
AcDbLine
 10
6618.755532625
 20
5204.7691837886
 30
0.0
 11
6617.7555305985
 21
5204.7691837886
 31
0.0
  0
LINE
  5
26E
330
1F
100
AcDbEntity
  8
0
  6
Continuous
 62
     7
100
AcDbLine
 10
6618.755532625
 20
5203.7691817621
 30
0.0
 11
6618.755532625
 21
5202.7691797355
 31
0.0
  0
LINE
  5
26F
330
1F
100
AcDbEntity
  8
0
  6
Continuous
 62
     7
100
AcDbLine
 10
6617.7555305985
 20
5203.7691817621
 30
0.0
 11
6618.755532625
 21
5203.7691817621
 31
0.0
  0
LINE
  5
270
330
1F
100
AcDbEntity
  8
0
  6
Continuous
 62
     7
100
AcDbLine
 10
6617.7555305985
 20
5203.1706617216
 30
0.0
 11
6617.7555305985
 21
5203.7691817621
 31
0.0
  0
LINE
  5
271
330
1F
100
AcDbEntity
  8
0
  6
Continuous
 62
     7
100
AcDbLine
 10
6618.755532625
 20
5202.7691797355
 30
0.0
 11
6617.7555305985
 21
5202.7691797355
 31
0.0
  0
LINE
  5
272
330
1F
100
AcDbEntity
  8
0
  6
Continuous
 62
     7
100
AcDbLine
 10
6616.7555285719
 20
5211.5118251184
 30
0.0
 11
6616.7555285719
 21
5210.7691810468
 31
0.0
  0
LINE
  5
273
330
1F
100
AcDbEntity
  8
0
  6
Continuous
 62
     7
100
AcDbLine
 10
6616.7555285719
 20
5210.7691810468
 30
0.0
 11
6616.0128845003
 21
5210.7691810468
 31
0.0
  0
LINE
  5
274
330
1F
100
AcDbEntity
  8
0
  6
Continuous
 62
     7
100
AcDbLine
 10
6616.7555285719
 20
5209.7691790203
 30
0.0
 11
6616.7555285719
 21
5208.7691769937
 31
0.0
  0
LINE
  5
275
330
1F
100
AcDbEntity
  8
0
  6
Continuous
 62
     7
100
AcDbLine
 10
6615.7555265454
 20
5209.7691790203
 30
0.0
 11
6616.7555285719
 21
5209.7691790203
 31
0.0
  0
LINE
  5
276
330
1F
100
AcDbEntity
  8
0
  6
Continuous
 62
     7
100
AcDbLine
 10
6615.7555265454
 20
5208.7691769937
 30
0.0
 11
6615.7555265454
 21
5209.7691790203
 31
0.0
  0
LINE
  5
277
330
1F
100
AcDbEntity
  8
0
  6
Continuous
 62
     7
100
AcDbLine
 10
6616.7555285719
 20
5208.7691769937
 30
0.0
 11
6615.7555265454
 21
5208.7691769937
 31
0.0
  0
LINE
  5
278
330
1F
100
AcDbEntity
  8
0
  6
Continuous
 62
     7
100
AcDbLine
 10
6616.7555285719
 20
5207.7691749671
 30
0.0
 11
6616.7555285719
 21
5206.7691729406
 31
0.0
  0
LINE
  5
279
330
1F
100
AcDbEntity
  8
0
  6
Continuous
 62
     7
100
AcDbLine
 10
6615.7555265454
 20
5207.7691749671
 30
0.0
 11
6616.7555285719
 21
5207.7691749671
 31
0.0
  0
LINE
  5
27A
330
1F
100
AcDbEntity
  8
0
  6
Continuous
 62
     7
100
AcDbLine
 10
6615.7555265454
 20
5206.7691729406
 30
0.0
 11
6615.7555265454
 21
5207.7691749671
 31
0.0
  0
LINE
  5
27B
330
1F
100
AcDbEntity
  8
0
  6
Continuous
 62
     7
100
AcDbLine
 10
6616.7555285719
 20
5206.7691729406
 30
0.0
 11
6615.7555265454
 21
5206.7691729406
 31
0.0
  0
LINE
  5
27C
330
1F
100
AcDbEntity
  8
0
  6
Continuous
 62
     7
100
AcDbLine
 10
6616.7555285719
 20
5205.769170914
 30
0.0
 11
6616.7555285719
 21
5204.7691837886
 31
0.0
  0
LINE
  5
27D
330
1F
100
AcDbEntity
  8
0
  6
Continuous
 62
     7
100
AcDbLine
 10
6615.7555265454
 20
5205.769170914
 30
0.0
 11
6616.7555285719
 21
5205.769170914
 31
0.0
  0
LINE
  5
27E
330
1F
100
AcDbEntity
  8
0
  6
Continuous
 62
     7
100
AcDbLine
 10
6615.7555265454
 20
5204.7691837886
 30
0.0
 11
6615.7555265454
 21
5205.769170914
 31
0.0
  0
LINE
  5
27F
330
1F
100
AcDbEntity
  8
0
  6
Continuous
 62
     7
100
AcDbLine
 10
6616.7555285719
 20
5204.7691837886
 30
0.0
 11
6615.7555265454
 21
5204.7691837886
 31
0.0
  0
LINE
  5
280
330
1F
100
AcDbEntity
  8
0
  6
Continuous
 62
     7
100
AcDbLine
 10
6616.7555285719
 20
5203.2477007249
 30
0.0
 11
6616.7555285719
 21
5203.0265376905
 31
0.0
  0
LINE
  5
281
330
1F
100
AcDbEntity
  8
0
  6
Continuous
 62
     7
100
AcDbLine
 10
6633.7555332211
 20
5199.4749502281
 30
0.0
 11
6633.7555332211
 21
5215.0634125808
 31
0.0
  0
LINE
  5
282
330
1F
100
AcDbEntity
  8
0
  6
Continuous
 62
     7
100
AcDbLine
 10
6620.2555282143
 20
5191.6807190517
 30
0.0
 11
6633.7555332211
 21
5199.4749502281
 31
0.0
  0
LINE
  5
283
330
1F
100
AcDbEntity
  8
0
  6
Continuous
 62
     7
100
AcDbLine
 10
6606.7555381087
 20
5199.4749502281
 30
0.0
 11
6620.2555282143
 21
5191.6807190517
 31
0.0
  0
LINE
  5
284
330
1F
100
AcDbEntity
  8
0
  6
Continuous
 62
     7
100
AcDbLine
 10
6606.7555381087
 20
5215.0634125808
 30
0.0
 11
6606.7555381087
 21
5199.4749502281
 31
0.0
  0
LINE
  5
285
330
1F
100
AcDbEntity
  8
0
  6
Continuous
 62
     7
100
AcDbLine
 10
6620.2555282143
 20
5222.857628856
 30
0.0
 11
6606.7555381087
 21
5215.0634125808
 31
0.0
  0
LINE
  5
286
330
1F
100
AcDbEntity
  8
0
  6
Continuous
 62
     7
100
AcDbLine
 10
6633.7555332211
 20
5215.0634125808
 30
0.0
 11
6620.2555282143
 21
5222.857628856
 31
0.0
  0
LINE
  5
287
330
1F
100
AcDbEntity
  8
0
  6
Continuous
 62
     7
100
AcDbLine
 10
6620.2555282143
 20
5344.7691769341
 30
0.0
 11
6633.7555332211
 21
5344.7691769341
 31
0.0
  0
LINE
  5
288
330
1F
100
AcDbEntity
  8
0
  6
Continuous
 62
     7
100
AcDbLine
 10
6633.7555332211
 20
5344.7691769341
 30
0.0
 11
6633.7555332211
 21
5334.269178007
 31
0.0
  0
LINE
  5
289
330
1F
100
AcDbEntity
  8
0
  6
Continuous
 62
     7
100
AcDbLine
 10
6620.2555282143
 20
5344.7691769341
 30
0.0
 11
6620.2555282143
 21
5334.269178007
 31
0.0
  0
LINE
  5
28A
330
1F
100
AcDbEntity
  8
0
  6
Continuous
 62
     7
100
AcDbLine
 10
6609.1905368593
 20
5352.2691772321
 30
0.0
 11
6607.035024288
 21
5352.2691772321
 31
0.0
  0
LINE
  5
28B
330
1F
100
AcDbEntity
  8
0
  6
Continuous
 62
     7
100
AcDbLine
 10
6614.3952889469
 20
5353.769177478
 30
0.0
 11
6631.9760365513
 21
5353.769177478
 31
0.0
  0
LINE
  5
28C
330
1F
100
AcDbEntity
  8
0
  6
Continuous
 62
     7
100
AcDbLine
 10
6608.5350347784
 20
5353.769177478
 30
0.0
 11
6614.3952889469
 21
5353.769177478
 31
0.0
  0
LINE
  5
28D
330
1F
100
AcDbEntity
  8
0
  6
Continuous
 62
     7
100
AcDbLine
 10
6606.7555381087
 20
5344.7691769341
 30
0.0
 11
6606.7555381087
 21
5334.269178007
 31
0.0
  0
LINE
  5
28E
330
1F
100
AcDbEntity
  8
0
  6
Continuous
 62
     7
100
AcDbLine
 10
6606.7555381087
 20
5344.7691769341
 30
0.0
 11
6620.2555282143
 21
5344.7691769341
 31
0.0
  0
LINE
  5
28F
330
1F
100
AcDbEntity
  8
0
  6
Continuous
 62
     7
100
AcDbLine
 10
6601.2555344132
 20
5332.2691776791
 30
0.0
 11
6601.2555344132
 21
5175.2691761592
 31
0.0
  0
LINE
  5
290
330
1F
100
AcDbEntity
  8
0
  6
Continuous
 62
     7
100
AcDbLine
 10
6601.2555344132
 20
5332.2691776791
 30
0.0
 11
6603.2555315883
 21
5332.2691774421
 31
0.0
  0
LINE
  5
291
330
1F
100
AcDbEntity
  8
0
  6
Continuous
 62
     7
100
AcDbLine
 10
6603.2555315883
 20
5332.2691774421
 30
0.0
 11
6603.2555344132
 21
5175.2691721061
 31
0.0
  0
LINE
  5
292
330
1F
100
AcDbEntity
  8
0
  6
Continuous
 62
     7
100
AcDbLine
 10
6601.2555344132
 20
5175.2691761592
 30
0.0
 11
6603.2555344132
 21
5175.2691721061
 31
0.0
  0
LINE
  5
293
330
1F
100
AcDbEntity
  8
0
  6
Continuous
 62
     7
100
AcDbLine
 10
6603.2555315883
 20
5332.2691774421
 30
0.0
 11
6667.2555191544
 21
5332.2691774421
 31
0.0
  0
LINE
  5
294
330
1F
100
AcDbEntity
  8
0
  6
Continuous
 62
     7
100
AcDbLine
 10
6667.2555191544
 20
5332.2691774421
 30
0.0
 11
6667.2555191544
 21
5175.2691761592
 31
0.0
  0
LINE
  5
295
330
1F
100
AcDbEntity
  8
0
  6
Continuous
 62
     7
100
AcDbLine
 10
6603.2555344132
 20
5175.2691721061
 30
0.0
 11
6667.2555191544
 21
5175.2691761592
 31
0.0
  0
LINE
  5
296
330
1F
100
AcDbEntity
  8
0
  6
Continuous
 62
     7
100
AcDbLine
 10
6669.2555268824
 20
5175.2691721061
 30
0.0
 11
6667.2555191544
 21
5177.2691802123
 31
0.0
  0
LINE
  5
297
330
1F
100
AcDbEntity
  8
0
  6
Continuous
 62
     7
100
AcDbLine
 10
6669.2555268824
 20
5175.2691721061
 30
0.0
 11
6669.2555232075
 21
5173.2691721061
 31
0.0
  0
LINE
  5
298
330
1F
100
AcDbEntity
  8
0
  6
Continuous
 62
     7
100
AcDbLine
 10
6603.2555384663
 20
5173.2691721061
 30
0.0
 11
6669.2555232075
 21
5173.2691721061
 31
0.0
  0
LINE
  5
299
330
1F
100
AcDbEntity
  8
0
  6
Continuous
 62
     7
100
AcDbLine
 10
6603.2555384663
 20
5173.2691721061
 30
0.0
 11
6603.2555344132
 21
5175.2691721061
 31
0.0
  0
LINE
  5
29A
330
1F
100
AcDbEntity
  8
0
  6
Continuous
 62
     7
100
AcDbLine
 10
6669.2555232075
 20
5334.2691746172
 30
0.0
 11
6669.2555310901
 21
5332.26917777
 31
0.0
  0
LINE
  5
29B
330
1F
100
AcDbEntity
  8
0
  6
Continuous
 62
     7
100
AcDbLine
 10
6603.2555315883
 20
5332.2691774421
 30
0.0
 11
6603.2555384663
 21
5334.2691746172
 31
0.0
  0
LINE
  5
29C
330
1F
100
AcDbEntity
  8
0
  6
Continuous
 62
     7
100
AcDbLine
 10
6603.2555384663
 20
5334.2691746172
 30
0.0
 11
6669.2555232075
 21
5334.2691746172
 31
0.0
  0
LINE
  5
29D
330
1F
100
AcDbEntity
  8
0
  6
Continuous
 62
     7
100
AcDbLine
 10
6669.2555310901
 20
5332.26917777
 30
0.0
 11
6667.2555191544
 21
5330.2691771143
 31
0.0
  0
LINE
  5
29E
330
1F
100
AcDbEntity
  8
0
  6
Continuous
 62
     7
100
AcDbLine
 10
6667.2555191544
 20
5221.2691799739
 30
0.0
 11
6669.2555232075
 21
5221.2691799739
 31
0.0
  0
LINE
  5
29F
330
1F
100
AcDbEntity
  8
0
  6
Continuous
 62
     7
100
AcDbLine
 10
6669.2555232075
 20
5175.2791748384
 30
0.0
 11
6669.2555232075
 21
5221.2691799739
 31
0.0
  0
LINE
  5
2A0
330
1F
100
AcDbEntity
  8
0
  6
Continuous
 62
     7
100
AcDbLine
 10
6669.2555232075
 20
5175.2791748384
 30
0.0
 11
6667.2555191544
 21
5177.2791788915
 31
0.0
  0
LINE
  5
2A1
330
1F
100
AcDbEntity
  8
0
  6
Continuous
 62
     7
100
AcDbLine
 10
6669.2555232075
 20
5221.2691799739
 30
0.0
 11
6670.7555336979
 21
5221.2691799739
 31
0.0
  0
LINE
  5
2A2
330
1F
100
AcDbEntity
  8
0
  6
Continuous
 62
     7
100
AcDbLine
 10
6670.2555401352
 20
5175.2691761592
 30
0.0
 11
6670.7555336979
 21
5175.2691761592
 31
0.0
  0
LINE
  5
2A3
330
1F
100
AcDbEntity
  8
0
  6
Continuous
 62
     7
100
AcDbLine
 10
6669.2555232075
 20
5286.2691775897
 30
0.0
 11
6669.2555232075
 21
5332.259179
 31
0.0
  0
LINE
  5
2A4
330
1F
100
AcDbEntity
  8
0
  6
Continuous
 62
     7
100
AcDbLine
 10
6667.2555191544
 20
5286.2691775897
 30
0.0
 11
6669.2555232075
 21
5286.2691775897
 31
0.0
  0
LINE
  5
2A5
330
1F
100
AcDbEntity
  8
0
  6
Continuous
 62
     7
100
AcDbLine
 10
6669.2555232075
 20
5332.259179
 30
0.0
 11
6667.2555191544
 21
5330.2591786722
 31
0.0
  0
LINE
  5
2A6
330
1F
100
AcDbEntity
  8
0
  6
Continuous
 62
     7
100
AcDbLine
 10
6670.7287712124
 20
5286.2691775897
 30
0.0
 11
6669.2555232075
 21
5286.2691775897
 31
0.0
  0
LINE
  5
2A7
330
1F
100
AcDbEntity
  8
0
  6
Continuous
 62
     7
100
AcDbLine
 10
6670.2555353302
 20
5332.2691774421
 30
0.0
 11
6670.7555288929
 21
5332.2691774421
 31
0.0
  0
LINE
  5
2A8
330
1F
100
AcDbEntity
  8
0
  6
Continuous
 62
     7
100
AcDbLine
 10
6629.4055266407
 20
5172.3691717723
 30
0.0
 11
6642.6055265692
 21
5172.3691717723
 31
0.0
  0
LINE
  5
2A9
330
1F
100
AcDbEntity
  8
0
  6
Continuous
 62
     7
100
AcDbLine
 10
6624.1686476496
 20
5203.7691817621
 30
0.0
 11
6624.1669936207
 21
5203.7673191169
 31
0.0
  0
LINE
  5
2AA
330
1F
100
AcDbEntity
  8
0
  6
Continuous
 62
     7
100
AcDbLine
 10
6624.1669936207
 20
5203.7673191169
 30
0.0
 11
6623.7555278567
 21
5203.3560619691
 31
0.0
  0
LINE
  5
2AB
330
1F
100
AcDbEntity
  8
0
  6
Continuous
 62
     7
100
AcDbLine
 10
6616.342408779
 20
5210.7691810468
 30
0.0
 11
6616.3440628079
 21
5210.7710287908
 31
0.0
  0
LINE
  5
2AC
330
1F
100
AcDbEntity
  8
0
  6
Continuous
 62
     7
100
AcDbLine
 10
6616.3440628079
 20
5210.7710287908
 30
0.0
 11
6616.7555285719
 21
5211.1823008398
 31
0.0
  0
LINE
  5
2AD
330
1F
100
AcDbEntity
  8
0
  6
Continuous
 62
     7
100
AcDbLine
 10
6623.7555278567
 20
5211.1823008398
 30
0.0
 11
6623.7573905018
 21
5211.1806468109
 31
0.0
  0
LINE
  5
2AE
330
1F
100
AcDbEntity
  8
0
  6
Continuous
 62
     7
100
AcDbLine
 10
6623.7573905018
 20
5211.1806468109
 30
0.0
 11
6624.1686476496
 21
5210.7691810468
 31
0.0
  0
LINE
  5
2AF
330
1F
100
AcDbEntity
  8
0
  6
Continuous
 62
     7
100
AcDbLine
 10
6681.5555377033
 20
5186.0393927434
 30
0.0
 11
6681.5555377033
 21
5235.7191787103
 31
0.0
  0
LINE
  5
2B0
330
1F
100
AcDbEntity
  8
0
  6
Continuous
 62
     7
100
AcDbLine
 10
6681.5555377033
 20
5178.8191840986
 30
0.0
 11
6681.5555377033
 21
5186.0393927434
 31
0.0
  0
LINE
  5
2B1
330
1F
100
AcDbEntity
  8
0
  6
Continuous
 62
     7
100
AcDbLine
 10
6669.2555268824
 20
5175.2691721061
 30
0.0
 11
6667.2555191544
 21
5175.2691761592
 31
0.0
  0
LINE
  5
2B2
330
1F
100
AcDbEntity
  8
0
  6
Continuous
 62
     7
100
AcDbLine
 10
6667.2555191544
 20
5332.2691774421
 30
0.0
 11
6669.2555310901
 21
5332.26917777
 31
0.0
  0
LINE
  5
2B3
330
1F
100
AcDbEntity
  8
0
  6
Continuous
 62
     7
100
AcDbLine
 10
6260.0187546158
 20
4858.4239683146
 30
0.0
 11
6260.0187546158
 21
4857.9239747519
 31
0.0
  0
LINE
  5
2B4
330
1F
100
AcDbEntity
  8
0
  6
Continuous
 62
     7
100
AcDbLine
 10
6288.0187517548
 20
4857.9239747519
 30
0.0
 11
6288.0187517548
 21
4858.4239683146
 31
0.0
  0
LINE
  5
2B5
330
1F
100
AcDbEntity
  8
0
  6
Continuous
 62
     7
100
AcDbLine
 10
6260.0187546158
 20
4857.9239747519
 30
0.0
 11
6261.5187576556
 21
4856.4239642615
 31
0.0
  0
LINE
  5
2B6
330
1F
100
AcDbEntity
  8
0
  6
Continuous
 62
     7
100
AcDbLine
 10
6286.5187561655
 20
4856.4239642615
 30
0.0
 11
6288.0187517548
 21
4857.9239747519
 31
0.0
  0
LINE
  5
2B7
330
1F
100
AcDbEntity
  8
0
  6
Continuous
 62
     7
100
AcDbLine
 10
6284.723427012
 20
4869.419296741
 30
0.0
 11
6284.718755498
 21
4869.4239757056
 31
0.0
  0
LINE
  5
2B8
330
1F
100
AcDbEntity
  8
0
  6
Continuous
 62
     7
100
AcDbLine
 10
6263.3187583232
 20
4869.4239757056
 30
0.0
 11
6262.8187573099
 21
4868.9239523406
 31
0.0
  0
LINE
  5
2B9
330
1F
100
AcDbEntity
  8
0
  6
Continuous
 62
     7
100
AcDbLine
 10
6284.3995204711
 20
4869.1966435904
 30
0.0
 11
6284.7170716667
 21
4869.380106687
 31
0.0
  0
LINE
  5
2BA
330
1F
100
AcDbEntity
  8
0
  6
Continuous
 62
     7
100
AcDbLine
 10
6285.2187565112
 20
4868.4239587779
 30
0.0
 11
6285.2187565112
 21
4868.5488007063
 31
0.0
  0
LINE
  5
2BB
330
1F
100
AcDbEntity
  8
0
  6
Continuous
 62
     7
100
AcDbLine
 10
6284.4187578702
 20
4869.4239757056
 30
0.0
 11
6284.4187578702
 21
4869.9239692683
 31
0.0
  0
LINE
  5
2BC
330
1F
100
AcDbEntity
  8
0
  6
Continuous
 62
     7
100
AcDbLine
 10
6263.6187559509
 20
4869.9239692683
 30
0.0
 11
6263.6187559509
 21
4869.4239757056
 31
0.0
  0
LINE
  5
2BD
330
1F
100
AcDbEntity
  8
0
  6
Continuous
 62
     7
100
AcDbLine
 10
6284.406859293
 20
4869.0177104468
 30
0.0
 11
6284.406859293
 21
4869.2008755202
 31
0.0
  0
LINE
  5
2BE
330
1F
100
AcDbEntity
  8
0
  6
Continuous
 62
     7
100
AcDbLine
 10
6263.6306545282
 20
4868.455221414
 30
0.0
 11
6263.6306545282
 21
4868.4239587779
 31
0.0
  0
LINE
  5
2BF
330
1F
100
AcDbEntity
  8
0
  6
Continuous
 62
     7
100
AcDbLine
 10
6271.4687547231
 20
4919.5739678139
 30
0.0
 11
6270.0719198728
 21
4919.5739678139
 31
0.0
  0
LINE
  5
2C0
330
1F
100
AcDbEntity
  8
0
  6
Continuous
 62
     7
100
AcDbLine
 10
6270.0719198728
 20
4918.2739607091
 30
0.0
 11
6271.4687547231
 21
4918.2739607091
 31
0.0
  0
LINE
  5
2C1
330
1F
100
AcDbEntity
  8
0
  6
Continuous
 62
     7
100
AcDbLine
 10
6249.4687548423
 20
4850.2239487166
 30
0.0
 11
6249.4687548423
 21
4828.0239603514
 31
0.0
  0
LINE
  5
2C2
330
1F
100
AcDbEntity
  8
0
  6
Continuous
 62
     7
100
AcDbLine
 10
6298.5687589789
 20
4828.0239603514
 30
0.0
 11
6298.5687589789
 21
4850.2239487166
 31
0.0
  0
LINE
  5
2C3
330
1F
100
AcDbEntity
  8
0
  6
Continuous
 62
     7
100
AcDbLine
 10
6245.5687484288
 20
4858.4239683146
 30
0.0
 11
6245.5687484288
 21
4857.6239547724
 31
0.0
  0
LINE
  5
2C4
330
1F
100
AcDbEntity
  8
0
  6
Continuous
 62
     7
100
AcDbLine
 10
6302.4687579417
 20
4857.6239547724
 30
0.0
 11
6302.4687579417
 21
4858.4239683146
 31
0.0
  0
LINE
  5
2C5
330
1F
100
AcDbEntity
  8
0
  6
Continuous
 62
     7
100
AcDbLine
 10
6250.6187519574
 20
4869.9239692683
 30
0.0
 11
6250.6187519574
 21
4868.4239587779
 31
0.0
  0
LINE
  5
2C6
330
1F
100
AcDbEntity
  8
0
  6
Continuous
 62
     7
100
AcDbLine
 10
6250.6187519574
 20
4856.1239740843
 30
0.0
 11
6250.6187519574
 21
4850.2239487166
 31
0.0
  0
LINE
  5
2C7
330
1F
100
AcDbEntity
  8
0
  6
Continuous
 62
     7
100
AcDbLine
 10
6297.4187544131
 20
4850.2239487166
 30
0.0
 11
6297.4187544131
 21
4856.1239740843
 31
0.0
  0
LINE
  5
2C8
330
1F
100
AcDbEntity
  8
0
  6
Continuous
 62
     7
100
AcDbLine
 10
6297.4187544131
 20
4868.4239587779
 30
0.0
 11
6297.4187544131
 21
4869.9239692683
 31
0.0
  0
LINE
  5
2C9
330
1F
100
AcDbEntity
  8
0
  6
Continuous
 62
     7
100
AcDbLine
 10
6197.0287522817
 20
4931.1839542384
 30
0.0
 11
6197.0187536025
 21
4931.1739555592
 31
0.0
  0
LINE
  5
2CA
330
1F
100
AcDbEntity
  8
0
  6
Continuous
 62
     7
100
AcDbLine
 10
6197.0187536025
 20
4906.6739580626
 30
0.0
 11
6197.0287522817
 21
4906.6639593834
 31
0.0
  0
LINE
  5
2CB
330
1F
100
AcDbEntity
  8
0
  6
Continuous
 62
     7
100
AcDbLine
 10
6351.0087559515
 20
4906.6639593834
 30
0.0
 11
6351.0187546307
 21
4906.6739580626
 31
0.0
  0
LINE
  5
2CC
330
1F
100
AcDbEntity
  8
0
  6
Continuous
 62
     7
100
AcDbLine
 10
6351.0187546307
 20
4931.1739555592
 30
0.0
 11
6351.0087559515
 21
4931.1839542384
 31
0.0
  0
LINE
  5
2CD
330
1F
100
AcDbEntity
  8
0
  6
Continuous
 62
     7
100
AcDbLine
 10
6177.7701041246
 20
4931.8957976098
 30
0.0
 11
6176.518749311
 21
4930.6444576973
 31
0.0
  0
LINE
  5
2CE
330
1F
100
AcDbEntity
  8
0
  6
Continuous
 62
     7
100
AcDbLine
 10
6176.518749311
 20
4907.2034559245
 30
0.0
 11
6177.2526165986
 21
4906.469603538
 31
0.0
  0
LINE
  5
2CF
330
1F
100
AcDbEntity
  8
0
  6
Continuous
 62
     7
100
AcDbLine
 10
6179.2234590793
 20
4932.1444681878
 30
0.0
 11
6178.8268050695
 21
4932.1444681878
 31
0.0
  0
LINE
  5
2D0
330
1F
100
AcDbEntity
  8
0
  6
Continuous
 62
     7
100
AcDbLine
 10
6180.8109542871
 20
4932.1444681878
 30
0.0
 11
6180.4143002773
 21
4932.1444681878
 31
0.0
  0
LINE
  5
2D1
330
1F
100
AcDbEntity
  8
0
  6
Continuous
 62
     7
100
AcDbLine
 10
6182.3984494949
 20
4932.1444681878
 30
0.0
 11
6182.001795485
 21
4932.1444681878
 31
0.0
  0
LINE
  5
2D2
330
1F
100
AcDbEntity
  8
0
  6
Continuous
 62
     7
100
AcDbLine
 10
6183.9859596038
 20
4932.1444681878
 30
0.0
 11
6183.5892906928
 21
4932.1444681878
 31
0.0
  0
LINE
  5
2D3
330
1F
100
AcDbEntity
  8
0
  6
Continuous
 62
     7
100
AcDbLine
 10
6185.5187526488
 20
4932.1444681878
 30
0.0
 11
6185.1768008018
 21
4932.1444681878
 31
0.0
  0
LINE
  5
2D4
330
1F
100
AcDbEntity
  8
0
  6
Continuous
 62
     7
100
AcDbLine
 10
6184.3830010438
 20
4905.7034603352
 30
0.0
 11
6184.7797742629
 21
4905.7034603352
 31
0.0
  0
LINE
  5
2D5
330
1F
100
AcDbEntity
  8
0
  6
Continuous
 62
     7
100
AcDbLine
 10
6182.795505836
 20
4905.7034603352
 30
0.0
 11
6183.1922790551
 21
4905.7034603352
 31
0.0
  0
LINE
  5
2D6
330
1F
100
AcDbEntity
  8
0
  6
Continuous
 62
     7
100
AcDbLine
 10
6181.2079957271
 20
4905.7034603352
 30
0.0
 11
6181.6047838474
 21
4905.7034603352
 31
0.0
  0
LINE
  5
2D7
330
1F
100
AcDbEntity
  8
0
  6
Continuous
 62
     7
100
AcDbLine
 10
6179.6205005193
 20
4905.7034603352
 30
0.0
 11
6180.0172737384
 21
4905.7034603352
 31
0.0
  0
LINE
  5
2D8
330
1F
100
AcDbEntity
  8
0
  6
Continuous
 62
     7
100
AcDbLine
 10
6178.0187598014
 20
4905.7034603352
 30
0.0
 11
6178.4297785306
 21
4905.7034603352
 31
0.0
  0
LINE
  5
2D9
330
1F
100
AcDbEntity
  8
0
  6
Continuous
 62
     7
100
AcDbLine
 10
6178.9265385413
 20
4906.5627506966
 30
0.0
 11
6179.119806602
 21
4906.5627506966
 31
0.0
  0
LINE
  5
2DA
330
1F
100
AcDbEntity
  8
0
  6
Continuous
 62
     7
100
AcDbLine
 10
6180.5140486503
 20
4906.5627506966
 30
0.0
 11
6180.707316711
 21
4906.5627506966
 31
0.0
  0
LINE
  5
2DB
330
1F
100
AcDbEntity
  8
0
  6
Continuous
 62
     7
100
AcDbLine
 10
6182.1015438581
 20
4906.5627506966
 30
0.0
 11
6182.2948119188
 21
4906.5627506966
 31
0.0
  0
LINE
  5
2DC
330
1F
100
AcDbEntity
  8
0
  6
Continuous
 62
     7
100
AcDbLine
 10
6183.6890390659
 20
4906.5627506966
 30
0.0
 11
6183.8823071265
 21
4906.5627506966
 31
0.0
  0
LINE
  5
2DD
330
1F
100
AcDbEntity
  8
0
  6
Continuous
 62
     7
100
AcDbLine
 10
6185.2765491748
 20
4906.5627506966
 30
0.0
 11
6185.4749730373
 21
4906.5627506966
 31
0.0
  0
LINE
  5
2DE
330
1F
100
AcDbEntity
  8
0
  6
Continuous
 62
     7
100
AcDbLine
 10
6179.9187323594
 20
4931.2851778264
 30
0.0
 11
6179.7244063163
 21
4931.2851778264
 31
0.0
  0
LINE
  5
2DF
330
1F
100
AcDbEntity
  8
0
  6
Continuous
 62
     7
100
AcDbLine
 10
6181.5062275672
 20
4931.2851778264
 30
0.0
 11
6181.3119015241
 21
4931.2851778264
 31
0.0
  0
LINE
  5
2E0
330
1F
100
AcDbEntity
  8
0
  6
Continuous
 62
     7
100
AcDbLine
 10
6183.0937376762
 20
4931.2851778264
 30
0.0
 11
6182.8993967319
 21
4931.2851778264
 31
0.0
  0
LINE
  5
2E1
330
1F
100
AcDbEntity
  8
0
  6
Continuous
 62
     7
100
AcDbLine
 10
6184.6812328839
 20
4931.2851778264
 30
0.0
 11
6184.4869068408
 21
4931.2851778264
 31
0.0
  0
LINE
  5
2E2
330
1F
100
AcDbEntity
  8
0
  6
Continuous
 62
     7
100
AcDbLine
 10
6178.3312371516
 20
4931.2851778264
 30
0.0
 11
6178.1368962074
 21
4931.2851778264
 31
0.0
  0
LINE
  5
2E3
330
1F
100
AcDbEntity
  8
0
  6
Continuous
 62
     7
100
AcDbLine
 10
6177.3390433335
 20
4906.5627506966
 30
0.0
 11
6177.5323113942
 21
4906.5627506966
 31
0.0
  0
LINE
  5
2E4
330
1F
100
AcDbEntity
  8
0
  6
Continuous
 62
     7
100
AcDbLine
 10
6370.2674124906
 20
4905.9521160121
 30
0.0
 11
6371.5187551969
 21
4907.2034559245
 31
0.0
  0
LINE
  5
2E5
330
1F
100
AcDbEntity
  8
0
  6
Continuous
 62
     7
100
AcDbLine
 10
6371.5187551969
 20
4930.6444576973
 30
0.0
 11
6370.7848948942
 21
4931.378324985
 31
0.0
  0
LINE
  5
2E6
330
1F
100
AcDbEntity
  8
0
  6
Continuous
 62
     7
100
AcDbLine
 10
6368.8140570702
 20
4905.7034603352
 30
0.0
 11
6369.210712477
 21
4905.7034603352
 31
0.0
  0
LINE
  5
2E7
330
1F
100
AcDbEntity
  8
0
  6
Continuous
 62
     7
100
AcDbLine
 10
6367.2265567401
 20
4905.7034603352
 30
0.0
 11
6367.6232126126
 21
4905.7034603352
 31
0.0
  0
LINE
  5
2E8
330
1F
100
AcDbEntity
  8
0
  6
Continuous
 62
     7
100
AcDbLine
 10
6365.6390568757
 20
4905.7034603352
 30
0.0
 11
6366.0357127482
 21
4905.7034603352
 31
0.0
  0
LINE
  5
2E9
330
1F
100
AcDbEntity
  8
0
  6
Continuous
 62
     7
100
AcDbLine
 10
6364.0515570113
 20
4905.7034603352
 30
0.0
 11
6364.4482128838
 21
4905.7034603352
 31
0.0
  0
LINE
  5
2EA
330
1F
100
AcDbEntity
  8
0
  6
Continuous
 62
     7
100
AcDbLine
 10
6362.5187555844
 20
4905.7034603352
 30
0.0
 11
6362.8607130194
 21
4905.7034603352
 31
0.0
  0
LINE
  5
2EB
330
1F
100
AcDbEntity
  8
0
  6
Continuous
 62
     7
100
AcDbLine
 10
6363.6545109147
 20
4932.1444681878
 30
0.0
 11
6363.2577311763
 21
4932.1444681878
 31
0.0
  0
LINE
  5
2EC
330
1F
100
AcDbEntity
  8
0
  6
Continuous
 62
     7
100
AcDbLine
 10
6365.2420107791
 20
4932.1444681878
 30
0.0
 11
6364.8452310407
 21
4932.1444681878
 31
0.0
  0
LINE
  5
2ED
330
1F
100
AcDbEntity
  8
0
  6
Continuous
 62
     7
100
AcDbLine
 10
6366.8295106435
 20
4932.1444681878
 30
0.0
 11
6366.4327309051
 21
4932.1444681878
 31
0.0
  0
LINE
  5
2EE
330
1F
100
AcDbEntity
  8
0
  6
Continuous
 62
     7
100
AcDbLine
 10
6368.4170114392
 20
4932.1444681878
 30
0.0
 11
6368.0202307695
 21
4932.1444681878
 31
0.0
  0
LINE
  5
2EF
330
1F
100
AcDbEntity
  8
0
  6
Continuous
 62
     7
100
AcDbLine
 10
6370.0187554167
 20
4932.1444681878
 30
0.0
 11
6369.6077310996
 21
4932.1444681878
 31
0.0
  0
LINE
  5
2F0
330
1F
100
AcDbEntity
  8
0
  6
Continuous
 62
     7
100
AcDbLine
 10
6369.1109678292
 20
4931.2851778264
 30
0.0
 11
6368.9176988372
 21
4931.2851778264
 31
0.0
  0
LINE
  5
2F1
330
1F
100
AcDbEntity
  8
0
  6
Continuous
 62
     7
100
AcDbLine
 10
6367.5234679648
 20
4931.2851778264
 30
0.0
 11
6367.3301989728
 21
4931.2851778264
 31
0.0
  0
LINE
  5
2F2
330
1F
100
AcDbEntity
  8
0
  6
Continuous
 62
     7
100
AcDbLine
 10
6365.9359681004
 20
4931.2851778264
 30
0.0
 11
6365.7426991084
 21
4931.2851778264
 31
0.0
  0
LINE
  5
2F3
330
1F
100
AcDbEntity
  8
0
  6
Continuous
 62
     7
100
AcDbLine
 10
6364.348468236
 20
4931.2851778264
 30
0.0
 11
6364.1551983127
 21
4931.2851778264
 31
0.0
  0
LINE
  5
2F4
330
1F
100
AcDbEntity
  8
0
  6
Continuous
 62
     7
100
AcDbLine
 10
6362.7609674403
 20
4931.2851778264
 30
0.0
 11
6362.5625305394
 21
4931.2851778264
 31
0.0
  0
LINE
  5
2F5
330
1F
100
AcDbEntity
  8
0
  6
Continuous
 62
     7
100
AcDbLine
 10
6368.1187805304
 20
4906.5627506966
 30
0.0
 11
6368.3131093675
 21
4906.5627506966
 31
0.0
  0
LINE
  5
2F6
330
1F
100
AcDbEntity
  8
0
  6
Continuous
 62
     7
100
AcDbLine
 10
6366.531280666
 20
4906.5627506966
 30
0.0
 11
6366.7256095031
 21
4906.5627506966
 31
0.0
  0
LINE
  5
2F7
330
1F
100
AcDbEntity
  8
0
  6
Continuous
 62
     7
100
AcDbLine
 10
6364.9437808016
 20
4906.5627506966
 30
0.0
 11
6365.1381096387
 21
4906.5627506966
 31
0.0
  0
LINE
  5
2F8
330
1F
100
AcDbEntity
  8
0
  6
Continuous
 62
     7
100
AcDbLine
 10
6363.3562800059
 20
4906.5627506966
 30
0.0
 11
6363.550608843
 21
4906.5627506966
 31
0.0
  0
LINE
  5
2F9
330
1F
100
AcDbEntity
  8
0
  6
Continuous
 62
     7
100
AcDbLine
 10
6369.7062803948
 20
4906.5627506966
 30
0.0
 11
6369.9006092319
 21
4906.5627506966
 31
0.0
  0
LINE
  5
2FA
330
1F
100
AcDbEntity
  8
0
  6
Continuous
 62
     7
100
AcDbLine
 10
6370.6984676936
 20
4931.2851778264
 30
0.0
 11
6370.5051987016
 21
4931.2851778264
 31
0.0
  0
LINE
  5
2FB
330
1F
100
AcDbEntity
  8
0
  6
Continuous
 62
     7
100
AcDbLine
 10
6327.3139669144
 20
4858.3989641661
 30
0.0
 11
6327.3139669144
 21
4858.4239683146
 31
0.0
  0
LINE
  5
2FC
330
1F
100
AcDbEntity
  8
0
  6
Continuous
 62
     7
100
AcDbLine
 10
6327.3139669144
 20
4858.3989641661
 30
0.0
 11
6310.9558186078
 21
4858.3989641661
 31
0.0
  0
LINE
  5
2FD
330
1F
100
AcDbEntity
  8
0
  6
Continuous
 62
     7
100
AcDbLine
 10
6310.9558186078
 20
4858.3989641661
 30
0.0
 11
6310.9558186078
 21
4858.4239683146
 31
0.0
  0
LINE
  5
2FE
330
1F
100
AcDbEntity
  8
0
  6
Continuous
 62
     7
100
AcDbLine
 10
6309.2937728906
 20
4858.3989641661
 30
0.0
 11
6309.2937728906
 21
4858.4239683146
 31
0.0
  0
LINE
  5
2FF
330
1F
100
AcDbEntity
  8
0
  6
Continuous
 62
     7
100
AcDbLine
 10
6309.0258276606
 20
4858.3989641661
 30
0.0
 11
6309.0258276606
 21
4858.4239683146
 31
0.0
  0
LINE
  5
300
330
1F
100
AcDbEntity
  8
0
  6
Continuous
 62
     7
100
AcDbLine
 10
6309.1693630958
 20
4858.3989641661
 30
0.0
 11
6309.0258276606
 21
4858.3989641661
 31
0.0
  0
LINE
  5
301
330
1F
100
AcDbEntity
  8
0
  6
Continuous
 62
     7
100
AcDbLine
 10
6332.4071577335
 20
4858.3989641661
 30
0.0
 11
6332.4071577335
 21
4858.4239683146
 31
0.0
  0
LINE
  5
302
330
1F
100
AcDbEntity
  8
0
  6
Continuous
 62
     7
100
AcDbLine
 10
6330.5356277669
 20
4858.3989641661
 30
0.0
 11
6330.5356277669
 21
4858.4239683146
 31
0.0
  0
LINE
  5
303
330
1F
100
AcDbEntity
  8
0
  6
Continuous
 62
     7
100
AcDbLine
 10
6328.0652350331
 20
4858.3989641661
 30
0.0
 11
6328.0652350331
 21
4858.4239683146
 31
0.0
  0
LINE
  5
304
330
1F
100
AcDbEntity
  8
0
  6
Continuous
 62
     7
100
AcDbLine
 10
6329.8303409064
 20
4858.3989641661
 30
0.0
 11
6329.8303409064
 21
4858.4239683146
 31
0.0
  0
LINE
  5
305
330
1F
100
AcDbEntity
  8
0
  6
Continuous
 62
     7
100
AcDbLine
 10
6333.5841483021
 20
4858.3989641661
 30
0.0
 11
6333.5841483021
 21
4858.4239683146
 31
0.0
  0
LINE
  5
306
330
1F
100
AcDbEntity
  8
0
  6
Continuous
 62
     7
100
AcDbLine
 10
6333.413217082
 20
4858.3989641661
 30
0.0
 11
6333.413217082
 21
4858.4239683146
 31
0.0
  0
LINE
  5
307
330
1F
100
AcDbEntity
  8
0
  6
Continuous
 62
     7
100
AcDbLine
 10
6333.2511222506
 20
4858.3989641661
 30
0.0
 11
6333.2511222506
 21
4858.4239683146
 31
0.0
  0
LINE
  5
308
330
1F
100
AcDbEntity
  8
0
  6
Continuous
 62
     7
100
AcDbLine
 10
6333.6446134889
 20
4858.3989641661
 30
0.0
 11
6333.6446134889
 21
4858.4239683146
 31
0.0
  0
LINE
  5
309
330
1F
100
AcDbEntity
  8
0
  6
Continuous
 62
     7
100
AcDbLine
 10
6333.7124100471
 20
4858.3989641661
 30
0.0
 11
6333.7124100471
 21
4858.4239683146
 31
0.0
  0
LINE
  5
30A
330
1F
100
AcDbEntity
  8
0
  6
Continuous
 62
     7
100
AcDbLine
 10
6333.4386943424
 20
4858.3989641661
 30
0.0
 11
6332.8572510326
 21
4858.3989641661
 31
0.0
  0
LINE
  5
30B
330
1F
100
AcDbEntity
  8
0
  6
Continuous
 62
     7
100
AcDbLine
 10
6333.4386943424
 20
4858.3989641661
 30
0.0
 11
6334.0201339269
 21
4858.3989641661
 31
0.0
  0
LINE
  5
30C
330
1F
100
AcDbEntity
  8
0
  6
Continuous
 62
     7
100
AcDbLine
 10
6349.018755942
 20
4868.4239683146
 30
0.0
 11
6199.0187522912
 21
4868.4239683146
 31
0.0
  0
LINE
  5
30D
330
1F
100
AcDbEntity
  8
0
  6
Continuous
 62
     7
100
AcDbLine
 10
6349.018755942
 20
4868.4239683146
 30
0.0
 11
6349.0187561655
 21
4858.4239683146
 31
0.0
  0
LINE
  5
30E
330
1F
100
AcDbEntity
  8
0
  6
Continuous
 62
     7
100
AcDbLine
 10
6349.0187561655
 20
4858.4239683146
 30
0.0
 11
6199.0187576556
 21
4858.4239683146
 31
0.0
  0
LINE
  5
30F
330
1F
100
AcDbEntity
  8
0
  6
Continuous
 62
     7
100
AcDbLine
 10
6199.0187522912
 20
4868.4239683146
 30
0.0
 11
6199.0187576556
 21
4858.4239683146
 31
0.0
  0
LINE
  5
310
330
1F
100
AcDbEntity
  8
0
  6
Continuous
 62
     7
100
AcDbLine
 10
6359.018755942
 20
4868.4239587779
 30
0.0
 11
6349.018755942
 21
4868.4239683146
 31
0.0
  0
LINE
  5
311
330
1F
100
AcDbEntity
  8
0
  6
Continuous
 62
     7
100
AcDbLine
 10
6199.0187522912
 20
4868.4239683146
 30
0.0
 11
6189.0187522912
 21
4868.4239587779
 31
0.0
  0
LINE
  5
312
330
1F
100
AcDbEntity
  8
0
  6
Continuous
 62
     7
100
AcDbLine
 10
6260.0187546158
 20
4857.9239747519
 30
0.0
 11
6288.0187517548
 21
4857.9239747519
 31
0.0
  0
LINE
  5
313
330
1F
100
AcDbEntity
  8
0
  6
Continuous
 62
     7
100
AcDbLine
 10
6286.5187561655
 20
4856.4239642615
 30
0.0
 11
6261.5187576556
 21
4856.4239642615
 31
0.0
  0
LINE
  5
314
330
1F
100
AcDbEntity
  8
0
  6
Continuous
 62
     7
100
AcDbLine
 10
6263.3187583232
 20
4869.4239757056
 30
0.0
 11
6284.718755498
 21
4869.4239757056
 31
0.0
  0
LINE
  5
315
330
1F
100
AcDbEntity
  8
0
  6
Continuous
 62
     7
100
AcDbLine
 10
6262.8682589674
 20
4868.9156672949
 30
0.0
 11
6262.8187573099
 21
4868.9239523406
 31
0.0
  0
LINE
  5
316
330
1F
100
AcDbEntity
  8
0
  6
Continuous
 62
     7
100
AcDbLine
 10
6271.4687547231
 20
4919.5739678139
 30
0.0
 11
6271.4687547231
 21
4918.2739607091
 31
0.0
  0
LINE
  5
317
330
1F
100
AcDbEntity
  8
0
  6
Continuous
 62
     7
100
AcDbLine
 10
6274.3489554668
 20
4828.0239603514
 30
0.0
 11
6298.5687589789
 21
4828.0239603514
 31
0.0
  0
LINE
  5
318
330
1F
100
AcDbEntity
  8
0
  6
Continuous
 62
     7
100
AcDbLine
 10
6249.4687548423
 20
4828.0239603514
 30
0.0
 11
6274.3489554668
 21
4828.0239603514
 31
0.0
  0
LINE
  5
319
330
1F
100
AcDbEntity
  8
0
  6
Continuous
 62
     7
100
AcDbLine
 10
6274.3489554668
 20
4850.2239487166
 30
0.0
 11
6298.5687589789
 21
4850.2239487166
 31
0.0
  0
LINE
  5
31A
330
1F
100
AcDbEntity
  8
0
  6
Continuous
 62
     7
100
AcDbLine
 10
6249.4687548423
 20
4850.2239487166
 30
0.0
 11
6274.3489554668
 21
4850.2239487166
 31
0.0
  0
LINE
  5
31B
330
1F
100
AcDbEntity
  8
0
  6
Continuous
 62
     7
100
AcDbLine
 10
6247.0687589193
 20
4856.1239740843
 30
0.0
 11
6300.9687549019
 21
4856.1239740843
 31
0.0
  0
LINE
  5
31C
330
1F
100
AcDbEntity
  8
0
  6
Continuous
 62
     7
100
AcDbLine
 10
6185.5187526488
 20
4918.9239642615
 30
0.0
 11
6196.018751576
 21
4918.9239642615
 31
0.0
  0
LINE
  5
31D
330
1F
100
AcDbEntity
  8
0
  6
Continuous
 62
     7
100
AcDbLine
 10
6185.5187526488
 20
4905.4239592547
 30
0.0
 11
6196.018751576
 21
4905.4239592547
 31
0.0
  0
LINE
  5
31E
330
1F
100
AcDbEntity
  8
0
  6
Continuous
 62
     7
100
AcDbLine
 10
6185.5187526488
 20
4905.4239592547
 30
0.0
 11
6185.5187526488
 21
4918.9239642615
 31
0.0
  0
LINE
  5
31F
330
1F
100
AcDbEntity
  8
0
  6
Continuous
 62
     7
100
AcDbLine
 10
6178.0187598014
 20
4919.6572802062
 30
0.0
 11
6178.0187598014
 21
4905.7238153214
 31
0.0
  0
LINE
  5
320
330
1F
100
AcDbEntity
  8
0
  6
Continuous
 62
     7
100
AcDbLine
 10
6176.518749311
 20
4924.7842035288
 30
0.0
 11
6176.518749311
 21
4930.6444576973
 31
0.0
  0
LINE
  5
321
330
1F
100
AcDbEntity
  8
0
  6
Continuous
 62
     7
100
AcDbLine
 10
6176.518749311
 20
4907.2034559245
 30
0.0
 11
6176.518749311
 21
4924.7842035288
 31
0.0
  0
LINE
  5
322
330
1F
100
AcDbEntity
  8
0
  6
Continuous
 62
     7
100
AcDbLine
 10
6178.0187598014
 20
4905.7238153214
 30
0.0
 11
6178.0330053115
 21
4905.7281664605
 31
0.0
  0
LINE
  5
323
330
1F
100
AcDbEntity
  8
0
  6
Continuous
 62
     7
100
AcDbLine
 10
6185.5187526488
 20
4932.4239543671
 30
0.0
 11
6196.018751576
 21
4932.4239543671
 31
0.0
  0
LINE
  5
324
330
1F
100
AcDbEntity
  8
0
  6
Continuous
 62
     7
100
AcDbLine
 10
6185.5187526488
 20
4918.9239642615
 30
0.0
 11
6185.5187526488
 21
4932.4239543671
 31
0.0
  0
LINE
  5
325
330
1F
100
AcDbEntity
  8
0
  6
Continuous
 62
     7
100
AcDbLine
 10
6362.5187555844
 20
4918.9239642615
 30
0.0
 11
6352.0187547946
 21
4918.9239642615
 31
0.0
  0
LINE
  5
326
330
1F
100
AcDbEntity
  8
0
  6
Continuous
 62
     7
100
AcDbLine
 10
6362.5187555844
 20
4932.4239543671
 30
0.0
 11
6352.0187547946
 21
4932.4239543671
 31
0.0
  0
LINE
  5
327
330
1F
100
AcDbEntity
  8
0
  6
Continuous
 62
     7
100
AcDbLine
 10
6362.5187555844
 20
4932.4239543671
 30
0.0
 11
6362.5187555844
 21
4918.9239642615
 31
0.0
  0
LINE
  5
328
330
1F
100
AcDbEntity
  8
0
  6
Continuous
 62
     7
100
AcDbLine
 10
6370.0187554167
 20
4918.1906483168
 30
0.0
 11
6370.0187554167
 21
4932.1241132016
 31
0.0
  0
LINE
  5
329
330
1F
100
AcDbEntity
  8
0
  6
Continuous
 62
     7
100
AcDbLine
 10
6371.5187551969
 20
4913.063710093
 30
0.0
 11
6371.5187551969
 21
4907.2034559245
 31
0.0
  0
LINE
  5
32A
330
1F
100
AcDbEntity
  8
0
  6
Continuous
 62
     7
100
AcDbLine
 10
6371.5187551969
 20
4930.6444576973
 30
0.0
 11
6371.5187551969
 21
4913.063710093
 31
0.0
  0
LINE
  5
32B
330
1F
100
AcDbEntity
  8
0
  6
Continuous
 62
     7
100
AcDbLine
 10
6370.0187554167
 20
4932.1241132016
 30
0.0
 11
6370.004510838
 21
4932.1197620625
 31
0.0
  0
LINE
  5
32C
330
1F
100
AcDbEntity
  8
0
  6
Continuous
 62
     7
100
AcDbLine
 10
6362.5187555844
 20
4905.4239592547
 30
0.0
 11
6352.0187547946
 21
4905.4239592547
 31
0.0
  0
LINE
  5
32D
330
1F
100
AcDbEntity
  8
0
  6
Continuous
 62
     7
100
AcDbLine
 10
6362.5187555844
 20
4918.9239642615
 30
0.0
 11
6362.5187555844
 21
4905.4239592547
 31
0.0
  0
LINE
  5
32E
330
1F
100
AcDbEntity
  8
0
  6
Continuous
 62
     7
100
AcDbLine
 10
6289.607215538
 20
4918.9239642615
 30
0.0
 11
6281.8129843617
 21
4932.4239543671
 31
0.0
  0
LINE
  5
32F
330
1F
100
AcDbEntity
  8
0
  6
Continuous
 62
     7
100
AcDbLine
 10
6281.8129843617
 20
4905.4239592547
 30
0.0
 11
6289.607215538
 21
4918.9239642615
 31
0.0
  0
LINE
  5
330
330
1F
100
AcDbEntity
  8
0
  6
Continuous
 62
     7
100
AcDbLine
 10
6266.2245294595
 20
4905.4239592547
 30
0.0
 11
6281.8129843617
 21
4905.4239592547
 31
0.0
  0
LINE
  5
331
330
1F
100
AcDbEntity
  8
0
  6
Continuous
 62
     7
100
AcDbLine
 10
6258.4302982831
 20
4918.9239642615
 30
0.0
 11
6266.2245294595
 21
4905.4239592547
 31
0.0
  0
LINE
  5
332
330
1F
100
AcDbEntity
  8
0
  6
Continuous
 62
     7
100
AcDbLine
 10
6266.2245294595
 20
4932.4239543671
 30
0.0
 11
6258.4302982831
 21
4918.9239642615
 31
0.0
  0
LINE
  5
333
330
1F
100
AcDbEntity
  8
0
  6
Continuous
 62
     7
100
AcDbLine
 10
6281.8129843617
 20
4932.4239543671
 30
0.0
 11
6266.2245294595
 21
4932.4239543671
 31
0.0
  0
LINE
  5
334
330
1F
100
AcDbEntity
  8
0
  6
Continuous
 62
     7
100
AcDbLine
 10
6349.0087556237
 20
4869.9239692683
 30
0.0
 11
6349.0087556237
 21
4935.9239540095
 31
0.0
  0
LINE
  5
335
330
1F
100
AcDbEntity
  8
0
  6
Continuous
 62
     7
100
AcDbLine
 10
6321.0187553013
 20
4869.9239692683
 30
0.0
 11
6349.0087556237
 21
4869.9239692683
 31
0.0
  0
LINE
  5
336
330
1F
100
AcDbEntity
  8
0
  6
Continuous
 62
     7
100
AcDbLine
 10
6321.0187553013
 20
4869.9239692683
 30
0.0
 11
6227.0187547946
 21
4869.9239692683
 31
0.0
  0
LINE
  5
337
330
1F
100
AcDbEntity
  8
0
  6
Continuous
 62
     7
100
AcDbLine
 10
6199.0287563348
 20
4869.9239692683
 30
0.0
 11
6227.0187547946
 21
4869.9239692683
 31
0.0
  0
LINE
  5
338
330
1F
100
AcDbEntity
  8
0
  6
Continuous
 62
     7
100
AcDbLine
 10
6199.0287563348
 20
4935.9239540095
 30
0.0
 11
6199.0287563348
 21
4869.9239692683
 31
0.0
  0
LINE
  5
339
330
1F
100
AcDbEntity
  8
0
  6
Continuous
 62
     7
100
AcDbLine
 10
6199.0287563348
 20
4935.9239540095
 30
0.0
 11
6349.0087556237
 21
4935.9239540095
 31
0.0
  0
LINE
  5
33A
330
1F
100
AcDbEntity
  8
0
  6
Continuous
 62
     7
100
AcDbLine
 10
6349.0087556237
 20
4937.9239580625
 30
0.0
 11
6349.0087556237
 21
4935.9239540095
 31
0.0
  0
LINE
  5
33B
330
1F
100
AcDbEntity
  8
0
  6
Continuous
 62
     7
100
AcDbLine
 10
6199.0287563348
 20
4935.9239540095
 30
0.0
 11
6199.0287563348
 21
4937.9239580625
 31
0.0
  0
LINE
  5
33C
330
1F
100
AcDbEntity
  8
0
  6
Continuous
 62
     7
100
AcDbLine
 10
6199.0287563348
 20
4937.9239580625
 30
0.0
 11
6349.0087556237
 21
4937.9239580625
 31
0.0
  0
LINE
  5
33D
330
1F
100
AcDbEntity
  8
0
  6
Continuous
 62
     7
100
AcDbLine
 10
6199.0287563348
 20
4869.9239692683
 30
0.0
 11
6197.0287522817
 21
4869.9239692683
 31
0.0
  0
LINE
  5
33E
330
1F
100
AcDbEntity
  8
0
  6
Continuous
 62
     7
100
AcDbLine
 10
6197.0287522817
 20
4935.9239540095
 30
0.0
 11
6197.0287522817
 21
4869.9239692683
 31
0.0
  0
LINE
  5
33F
330
1F
100
AcDbEntity
  8
0
  6
Continuous
 62
     7
100
AcDbLine
 10
6197.0287522817
 20
4935.9239540095
 30
0.0
 11
6199.0287563348
 21
4935.9239540095
 31
0.0
  0
LINE
  5
340
330
1F
100
AcDbEntity
  8
0
  6
Continuous
 62
     7
100
AcDbLine
 10
6351.0087559515
 20
4935.9239540095
 30
0.0
 11
6351.0087559515
 21
4869.9239692683
 31
0.0
  0
LINE
  5
341
330
1F
100
AcDbEntity
  8
0
  6
Continuous
 62
     7
100
AcDbLine
 10
6351.0087559515
 20
4869.9239692683
 30
0.0
 11
6349.0087556237
 21
4869.9239692683
 31
0.0
  0
LINE
  5
342
330
1F
100
AcDbEntity
  8
0
  6
Continuous
 62
     7
100
AcDbLine
 10
6349.0087556237
 20
4935.9239540095
 30
0.0
 11
6351.0087559515
 21
4935.9239540095
 31
0.0
  0
LINE
  5
343
330
1F
100
AcDbEntity
  8
0
  6
Continuous
 62
     7
100
AcDbLine
 10
6199.0287563348
 20
4868.4239587779
 30
0.0
 11
6199.0287563348
 21
4869.9239692683
 31
0.0
  0
LINE
  5
344
330
1F
100
AcDbEntity
  8
0
  6
Continuous
 62
     7
100
AcDbLine
 10
6227.0187547946
 20
4869.9239692683
 30
0.0
 11
6227.0187547946
 21
4868.4239587779
 31
0.0
  0
LINE
  5
345
330
1F
100
AcDbEntity
  8
0
  6
Continuous
 62
     7
100
AcDbLine
 10
6349.0087556237
 20
4869.9239692683
 30
0.0
 11
6349.0087556237
 21
4868.4239587779
 31
0.0
  0
LINE
  5
346
330
1F
100
AcDbEntity
  8
0
  6
Continuous
 62
     7
100
AcDbLine
 10
6321.0187553013
 20
4868.4239587779
 30
0.0
 11
6321.0187553013
 21
4869.9239692683
 31
0.0
  0
LINE
  5
347
330
1F
100
AcDbEntity
  8
0
  6
Continuous
 62
     7
100
AcDbLine
 10
6198.0187556291
 20
4937.9239580625
 30
0.0
 11
6198.0187556291
 21
4936.923956036
 31
0.0
  0
LINE
  5
348
330
1F
100
AcDbEntity
  8
0
  6
Continuous
 62
     7
100
AcDbLine
 10
6197.0187536025
 20
4935.9239540095
 30
0.0
 11
6196.018751576
 21
4935.9239540095
 31
0.0
  0
LINE
  5
349
330
1F
100
AcDbEntity
  8
0
  6
Continuous
 62
     7
100
AcDbLine
 10
6197.0187536025
 20
4871.9239733214
 30
0.0
 11
6196.018751576
 21
4871.9239733214
 31
0.0
  0
LINE
  5
34A
330
1F
100
AcDbEntity
  8
0
  6
Continuous
 62
     7
100
AcDbLine
 10
6197.0187536025
 20
4935.9239540095
 30
0.0
 11
6197.0187536025
 21
4871.9239733214
 31
0.0
  0
LINE
  5
34B
330
1F
100
AcDbEntity
  8
0
  6
Continuous
 62
     7
100
AcDbLine
 10
6196.018751576
 20
4935.9239540095
 30
0.0
 11
6196.018751576
 21
4871.9239733214
 31
0.0
  0
LINE
  5
34C
330
1F
100
AcDbEntity
  8
0
  6
Continuous
 62
     7
100
AcDbLine
 10
6199.0287563348
 20
4937.9239580625
 30
0.0
 11
6198.0187556291
 21
4937.9239580625
 31
0.0
  0
LINE
  5
34D
330
1F
100
AcDbEntity
  8
0
  6
Continuous
 62
     7
100
AcDbLine
 10
6199.0287563348
 20
4936.923956036
 30
0.0
 11
6198.0187556291
 21
4936.923956036
 31
0.0
  0
LINE
  5
34E
330
1F
100
AcDbEntity
  8
0
  6
Continuous
 62
     7
100
AcDbLine
 10
6350.0187544668
 20
4936.9239560359
 30
0.0
 11
6350.0187544668
 21
4937.9239580625
 31
0.0
  0
LINE
  5
34F
330
1F
100
AcDbEntity
  8
0
  6
Continuous
 62
     7
100
AcDbLine
 10
6350.0187544668
 20
4936.9239560359
 30
0.0
 11
6349.0087556237
 21
4936.9239560359
 31
0.0
  0
LINE
  5
350
330
1F
100
AcDbEntity
  8
0
  6
Continuous
 62
     7
100
AcDbLine
 10
6350.0187544668
 20
4937.9239580625
 30
0.0
 11
6349.0087556237
 21
4937.9239580625
 31
0.0
  0
LINE
  5
351
330
1F
100
AcDbEntity
  8
0
  6
Continuous
 62
     7
100
AcDbLine
 10
6352.0187566573
 20
4935.9239540094
 30
0.0
 11
6351.0187546307
 21
4935.9239540094
 31
0.0
  0
LINE
  5
352
330
1F
100
AcDbEntity
  8
0
  6
Continuous
 62
     7
100
AcDbLine
 10
6352.0187566573
 20
4871.9239733213
 30
0.0
 11
6351.0187546307
 21
4871.9239733213
 31
0.0
  0
LINE
  5
353
330
1F
100
AcDbEntity
  8
0
  6
Continuous
 62
     7
100
AcDbLine
 10
6352.0187566573
 20
4871.9239733213
 30
0.0
 11
6352.0187566573
 21
4935.9239540094
 31
0.0
  0
LINE
  5
354
330
1F
100
AcDbEntity
  8
0
  6
Continuous
 62
     7
100
AcDbLine
 10
6351.0187546307
 20
4871.9239733213
 30
0.0
 11
6351.0187546307
 21
4935.9239540094
 31
0.0
  0
LINE
  5
355
330
1F
100
AcDbEntity
  8
0
  6
Continuous
 62
     7
100
AcDbLine
 10
6245.5687484288
 20
4857.6239547724
 30
0.0
 11
6260.3187522435
 21
4857.6239547724
 31
0.0
  0
LINE
  5
356
330
1F
100
AcDbEntity
  8
0
  6
Continuous
 62
     7
100
AcDbLine
 10
6287.718754127
 20
4857.6239547724
 30
0.0
 11
6302.4687579417
 21
4857.6239547724
 31
0.0
  0
LWPOLYLINE
  5
357
330
1F
100
AcDbEntity
  8
0
  6
Continuous
 62
     7
100
AcDbPolyline
 90
        3
 70
   128
 43
0.0
 10
6179.5120239258
 20
5194.9158058504
 10
6179.7903150967
 20
5194.4343327525
 10
6180.0088545823
 20
5194.0560237506
  0
LWPOLYLINE
  5
358
330
1F
100
AcDbEntity
  8
0
  6
Continuous
 62
     7
100
AcDbPolyline
 90
        3
 70
   128
 43
0.0
 10
6181.0989379883
 20
5194.9158058504
 10
6181.3778106005
 20
5194.4343291711
 10
6181.5963497901
 20
5194.0560237506
  0
LWPOLYLINE
  5
359
330
1F
100
AcDbEntity
  8
0
  6
Continuous
 62
     7
100
AcDbPolyline
 90
        3
 70
   128
 43
0.0
 10
6182.6858520508
 20
5194.9158058504
 10
6182.9653100237
 20
5194.4343267856
 10
6183.1838598991
 20
5194.0560237506
  0
LWPOLYLINE
  5
35A
330
1F
100
AcDbEntity
  8
0
  6
Continuous
 62
     7
100
AcDbPolyline
 90
        3
 70
   128
 43
0.0
 10
6184.2727661133
 20
5194.9158058504
 10
6184.5528156212
 20
5194.4343327525
 10
6184.7713551068
 20
5194.0560237506
  0
LWPOLYLINE
  5
35B
330
1F
100
AcDbEntity
  8
0
  6
Continuous
 62
     7
100
AcDbPolyline
 90
        3
 70
   128
 43
0.0
 10
6179.2259216309
 20
5220.4883591274
 10
6178.9493480002
 20
5220.0073297738
 10
6178.7309458995
 20
5219.6293667892
  0
LWPOLYLINE
  5
35C
330
1F
100
AcDbEntity
  8
0
  6
Continuous
 62
     7
100
AcDbPolyline
 90
        3
 70
   128
 43
0.0
 10
6180.8128356934
 20
5220.4883591274
 10
6180.5368514674
 20
5220.0073250053
 10
6180.3184411073
 20
5219.6293667892
  0
LWPOLYLINE
  5
35D
330
1F
100
AcDbEntity
  8
0
  6
Continuous
 62
     7
100
AcDbPolyline
 90
        3
 70
   128
 43
0.0
 10
6182.3997497559
 20
5220.4883591274
 10
6182.124349102
 20
5220.0073273895
 10
6181.9059363151
 20
5219.6293667892
  0
LWPOLYLINE
  5
35E
330
1F
100
AcDbEntity
  8
0
  6
Continuous
 62
     7
100
AcDbPolyline
 90
        3
 70
   128
 43
0.0
 10
6183.9866638184
 20
5220.4883591274
 10
6183.7118485247
 20
5220.0073297738
 10
6183.493446424
 20
5219.6293667892
  0
LWPOLYLINE
  5
35F
330
1F
100
AcDbEntity
  8
0
  6
Continuous
 62
     7
100
AcDbPolyline
 90
        3
 70
   128
 43
0.0
 10
6185.4972839355
 20
5220.3552023509
 10
6185.2654969826
 20
5219.9487374861
 10
6185.0809416318
 20
5219.6293667892
  0
LWPOLYLINE
  5
360
330
1F
100
AcDbEntity
  8
0
  6
Continuous
 62
     7
100
AcDbPolyline
 90
        3
 70
   128
 43
0.0
 10
6177.921295166
 20
5194.9158058504
 10
6178.2028094992
 20
5194.4343267856
 10
6178.4213593745
 20
5194.0560237506
  0
LWPOLYLINE
  5
361
330
1F
100
AcDbEntity
  8
0
  6
Continuous
 62
     7
100
AcDbPolyline
 90
        3
 70
   128
 43
0.0
 10
6178.8330078125
 20
5194.0560088495
 10
6179.1135021969
 20
5194.5374784429
 10
6179.3320438409
 20
5194.915776048
  0
LWPOLYLINE
  5
362
330
1F
100
AcDbEntity
  8
0
  6
Continuous
 62
     7
100
AcDbPolyline
 90
        3
 70
   128
 43
0.0
 10
6180.419921875
 20
5194.0560088495
 10
6180.7009974047
 20
5194.5374784429
 10
6180.9195390487
 20
5194.915776048
  0
LWPOLYLINE
  5
363
330
1F
100
AcDbEntity
  8
0
  6
Continuous
 62
     7
100
AcDbPolyline
 90
        3
 70
   128
 43
0.0
 10
6182.0068359375
 20
5194.0560088495
 10
6182.2884968278
 20
5194.5374808284
 10
6182.5070491576
 20
5194.915776048
  0
LWPOLYLINE
  5
364
330
1F
100
AcDbEntity
  8
0
  6
Continuous
 62
     7
100
AcDbPolyline
 90
        3
 70
   128
 43
0.0
 10
6183.5975646973
 20
5194.0560088495
 10
6183.8760027214
 20
5194.5374784429
 10
6184.0945443654
 20
5194.915776048
  0
LWPOLYLINE
  5
365
330
1F
100
AcDbEntity
  8
0
  6
Continuous
 62
     7
100
AcDbPolyline
 90
        3
 70
   128
 43
0.0
 10
6185.1844787598
 20
5194.0560088495
 10
6185.372059162
 20
5194.3791960296
 10
6185.5187526488
 20
5194.6331308225
  0
LWPOLYLINE
  5
366
330
1F
100
AcDbEntity
  8
0
  6
Continuous
 62
     7
100
AcDbPolyline
 90
        3
 70
   128
 43
0.0
 10
6180.1223754883
 20
5219.6225718597
 10
6179.8476380116
 20
5220.104044894
 10
6179.6290984893
 20
5220.4823539594
  0
LWPOLYLINE
  5
367
330
1F
100
AcDbEntity
  8
0
  6
Continuous
 62
     7
100
AcDbPolyline
 90
        3
 70
   128
 43
0.0
 10
6181.713104248
 20
5219.6225718597
 10
6181.4351478155
 20
5220.104048491
 10
6181.2166085983
 20
5220.4823539594
  0
LWPOLYLINE
  5
368
330
1F
100
AcDbEntity
  8
0
  6
Continuous
 62
     7
100
AcDbPolyline
 90
        3
 70
   128
 43
0.0
 10
6183.3000183105
 20
5219.6225718597
 10
6183.0226430233
 20
5220.104048491
 10
6182.804103806
 20
5220.4823539594
  0
LWPOLYLINE
  5
369
330
1F
100
AcDbEntity
  8
0
  6
Continuous
 62
     7
100
AcDbPolyline
 90
        3
 70
   128
 43
0.0
 10
6184.886932373
 20
5219.6225718597
 10
6184.6101382311
 20
5220.104048491
 10
6184.3915990138
 20
5220.4823539594
  0
LWPOLYLINE
  5
36A
330
1F
100
AcDbEntity
  8
0
  6
Continuous
 62
     7
100
AcDbPolyline
 90
        3
 70
   128
 43
0.0
 10
6178.5354614258
 20
5219.6225718597
 10
6178.2601424988
 20
5220.104048491
 10
6178.0416032815
 20
5220.4823539594
  0
LWPOLYLINE
  5
36B
330
1F
100
AcDbEntity
  8
0
  6
Continuous
 62
     7
100
AcDbPolyline
 90
        3
 70
   128
 43
0.0
 10
6368.408203125
 20
5220.4823539594
 10
6368.130264168
 20
5220.0008744942
 10
6367.9117186511
 20
5219.6225718597
  0
LWPOLYLINE
  5
36C
330
1F
100
AcDbEntity
  8
0
  6
Continuous
 62
     7
100
AcDbPolyline
 90
        3
 70
   128
 43
0.0
 10
6366.8174743652
 20
5220.4823539594
 10
6366.5427637874
 20
5220.0008747924
 10
6366.3242187867
 20
5219.6225718597
  0
LWPOLYLINE
  5
36D
330
1F
100
AcDbEntity
  8
0
  6
Continuous
 62
     7
100
AcDbPolyline
 90
        3
 70
   128
 43
0.0
 10
6365.2305603027
 20
5220.4823539594
 10
6364.955263923
 20
5220.0008747924
 10
6364.7367189223
 20
5219.6225718597
  0
LWPOLYLINE
  5
36E
330
1F
100
AcDbEntity
  8
0
  6
Continuous
 62
     7
100
AcDbPolyline
 90
        3
 70
   128
 43
0.0
 10
6363.6436462402
 20
5220.4823539594
 10
6363.3677640586
 20
5220.0008747924
 10
6363.1492190579
 20
5219.6225718597
  0
LWPOLYLINE
  5
36F
330
1F
100
AcDbEntity
  8
0
  6
Continuous
 62
     7
100
AcDbPolyline
 90
        3
 70
   128
 43
0.0
 10
6368.7019348145
 20
5194.915776048
 10
6368.98361405
 20
5194.4343063833
 10
6369.2021568822
 20
5194.0560088495
  0
LWPOLYLINE
  5
370
330
1F
100
AcDbEntity
  8
0
  6
Continuous
 62
     7
100
AcDbPolyline
 90
        3
 70
   128
 43
0.0
 10
6367.115020752
 20
5194.915776048
 10
6367.3961141298
 20
5194.4343063833
 10
6367.6146565521
 20
5194.0560088495
  0
LWPOLYLINE
  5
371
330
1F
100
AcDbEntity
  8
0
  6
Continuous
 62
     7
100
AcDbPolyline
 90
        3
 70
   128
 43
0.0
 10
6365.5281066895
 20
5194.915776048
 10
6365.8086141137
 20
5194.4343065324
 10
6366.0271566877
 20
5194.0560088495
  0
LWPOLYLINE
  5
372
330
1F
100
AcDbEntity
  8
0
  6
Continuous
 62
     7
100
AcDbPolyline
 90
        3
 70
   128
 43
0.0
 10
6363.941192627
 20
5194.915776048
 10
6364.2211142493
 20
5194.4343065324
 10
6364.4396568233
 20
5194.0560088495
  0
LWPOLYLINE
  5
373
330
1F
100
AcDbEntity
  8
0
  6
Continuous
 62
     7
100
AcDbPolyline
 90
        3
 70
   128
 43
0.0
 10
6362.5183105469
 20
5194.6331308225
 10
6362.7054593601
 20
5194.3099419109
 10
6362.8521569589
 20
5194.0560088495
  0
LWPOLYLINE
  5
374
330
1F
100
AcDbEntity
  8
0
  6
Continuous
 62
     7
100
AcDbPolyline
 90
        3
 70
   128
 43
0.0
 10
6369.9951171875
 20
5220.4823539594
 10
6369.717763906
 20
5220.0008747178
 10
6369.4992189811
 20
5219.6225718597
  0
LWPOLYLINE
  5
375
330
1F
100
AcDbEntity
  8
0
  6
Continuous
 62
     7
100
AcDbPolyline
 90
        3
 70
   128
 43
0.0
 10
6369.3046569824
 20
5219.6293667892
 10
6369.0285938523
 20
5220.1104064701
 10
6368.8101897532
 20
5220.4883591274
  0
LWPOLYLINE
  5
376
330
1F
100
AcDbEntity
  8
0
  6
Continuous
 62
     7
100
AcDbPolyline
 90
        3
 70
   128
 43
0.0
 10
6367.7177429199
 20
5219.6293667892
 10
6367.4410939879
 20
5220.1104064701
 10
6367.2226898888
 20
5220.4883591274
  0
LWPOLYLINE
  5
377
330
1F
100
AcDbEntity
  8
0
  6
Continuous
 62
     7
100
AcDbPolyline
 90
        3
 70
   128
 43
0.0
 10
6366.1308288574
 20
5219.6293667892
 10
6365.8535941235
 20
5220.1104064701
 10
6365.6351900244
 20
5220.4883591274
  0
LWPOLYLINE
  5
378
330
1F
100
AcDbEntity
  8
0
  6
Continuous
 62
     7
100
AcDbPolyline
 90
        3
 70
   128
 43
0.0
 10
6364.5439147949
 20
5219.6293667892
 10
6364.2660935912
 20
5220.1104063211
 10
6364.04769016
 20
5220.4883591274
  0
LWPOLYLINE
  5
379
330
1F
100
AcDbEntity
  8
0
  6
Continuous
 62
     7
100
AcDbPolyline
 90
        3
 70
   128
 43
0.0
 10
6362.9531860352
 20
5219.6293667892
 10
6362.7216831893
 20
5220.0358384606
 10
6362.5371333727
 20
5220.3552023509
  0
LWPOLYLINE
  5
37A
330
1F
100
AcDbEntity
  8
0
  6
Continuous
 62
     7
100
AcDbPolyline
 90
        3
 70
   128
 43
0.0
 10
6368.0267333984
 20
5194.0560237506
 10
6368.3068022873
 20
5194.537503017
 10
6368.525351263
 20
5194.9158058504
  0
LWPOLYLINE
  5
37B
330
1F
100
AcDbEntity
  8
0
  6
Continuous
 62
     7
100
AcDbPolyline
 90
        3
 70
   128
 43
0.0
 10
6366.4398193359
 20
5194.0560237506
 10
6366.7193022712
 20
5194.5375028679
 10
6366.9378513986
 20
5194.9158058504
  0
LWPOLYLINE
  5
37C
330
1F
100
AcDbEntity
  8
0
  6
Continuous
 62
     7
100
AcDbPolyline
 90
        3
 70
   128
 43
0.0
 10
6364.8529052734
 20
5194.0560237506
 10
6365.1318024068
 20
5194.5375028679
 10
6365.3503515342
 20
5194.9158058504
  0
LWPOLYLINE
  5
37D
330
1F
100
AcDbEntity
  8
0
  6
Continuous
 62
     7
100
AcDbPolyline
 90
        3
 70
   128
 43
0.0
 10
6363.2659912109
 20
5194.0560237506
 10
6363.5443020263
 20
5194.5375031661
 10
6363.7628516698
 20
5194.9158058504
  0
LWPOLYLINE
  5
37E
330
1F
100
AcDbEntity
  8
0
  6
Continuous
 62
     7
100
AcDbPolyline
 90
        3
 70
   128
 43
0.0
 10
6369.6136474609
 20
5194.0560237506
 10
6369.8943022076
 20
5194.537503017
 10
6370.1128515931
 20
5194.9158058504
  0
LWPOLYLINE
  5
37F
330
1F
100
AcDbEntity
  8
0
  6
Continuous
 62
     7
100
AcDbPolyline
 90
        3
 70
   128
 43
0.0
 10
6260.8032226562
 20
5350.9249025026
 10
6261.2826881054
 20
5350.6492893234
 10
6261.6575396204
 20
5350.4327339122
  0
LWPOLYLINE
  5
380
330
1F
100
AcDbEntity
  8
0
  6
Continuous
 62
     7
100
AcDbPolyline
 90
        3
 70
   128
 43
0.0
 10
6260.8032226562
 20
5349.3374017069
 10
6261.2826881054
 20
5349.0617885277
 10
6261.6575396204
 20
5348.8452331165
  0
LWPOLYLINE
  5
381
330
1F
100
AcDbEntity
  8
0
  6
Continuous
 62
     7
100
AcDbPolyline
 90
        3
 70
   128
 43
0.0
 10
6260.8032226562
 20
5347.7499027738
 10
6261.2826881054
 20
5347.4742895946
 10
6261.6575396204
 20
5347.2577341834
  0
LWPOLYLINE
  5
382
330
1F
100
AcDbEntity
  8
0
  6
Continuous
 62
     7
100
AcDbPolyline
 90
        3
 70
   128
 43
0.0
 10
6260.8032226562
 20
5346.1624019781
 10
6261.2826881054
 20
5345.8867887989
 10
6261.6575396204
 20
5345.6702333877
  0
LWPOLYLINE
  5
383
330
1F
100
AcDbEntity
  8
0
  6
Continuous
 62
     7
100
AcDbPolyline
 90
        3
 70
   128
 43
0.0
 10
6286.3693237305
 20
5351.2219552884
 10
6286.8536054186
 20
5351.5001078622
 10
6287.2319108391
 20
5351.7186519692
  0
LWPOLYLINE
  5
384
330
1F
100
AcDbEntity
  8
0
  6
Continuous
 62
     7
100
AcDbPolyline
 90
        3
 70
   128
 43
0.0
 10
6286.3693237305
 20
5349.6344544927
 10
6286.8536057168
 20
5349.9126075934
 10
6287.2319108391
 20
5350.1311530361
  0
LWPOLYLINE
  5
385
330
1F
100
AcDbEntity
  8
0
  6
Continuous
 62
     7
100
AcDbPolyline
 90
        3
 70
   128
 43
0.0
 10
6286.3693237305
 20
5348.0469555596
 10
6286.8536054186
 20
5348.3251081334
 10
6287.2319108391
 20
5348.5436522404
  0
LWPOLYLINE
  5
386
330
1F
100
AcDbEntity
  8
0
  6
Continuous
 62
     7
100
AcDbPolyline
 90
        3
 70
   128
 43
0.0
 10
6286.3693237305
 20
5346.4594547639
 10
6286.8536054186
 20
5346.7376073377
 10
6287.2319108391
 20
5346.9561514446
  0
LWPOLYLINE
  5
387
330
1F
100
AcDbEntity
  8
0
  6
Continuous
 62
     7
100
AcDbPolyline
 90
        3
 70
   128
 43
0.0
 10
6286.3693237305
 20
5344.8719558308
 10
6286.8536054186
 20
5345.1501084046
 10
6287.2319108391
 20
5345.3686525116
  0
LWPOLYLINE
  5
388
330
1F
100
AcDbEntity
  8
0
  6
Continuous
 62
     7
100
AcDbPolyline
 90
        3
 70
   128
 43
0.0
 10
6260.9786987305
 20
5352.4104998449
 10
6261.3603003359
 20
5352.1919517551
 10
6261.6575396204
 20
5352.0202347079
  0
LWPOLYLINE
  5
389
330
1F
100
AcDbEntity
  8
0
  6
Continuous
 62
     7
100
AcDbPolyline
 90
        3
 70
   128
 43
0.0
 10
6261.6653442383
 20
5350.2480898986
 10
6261.1838838077
 20
5349.9699408589
 10
6260.8055806303
 20
5349.751402531
  0
LWPOLYLINE
  5
38A
330
1F
100
AcDbEntity
  8
0
  6
Continuous
 62
     7
100
AcDbPolyline
 90
        3
 70
   128
 43
0.0
 10
6261.6653442383
 20
5348.6605909655
 10
6261.1838835095
 20
5348.3824413989
 10
6260.8055806303
 20
5348.1639017353
  0
LWPOLYLINE
  5
38B
330
1F
100
AcDbEntity
  8
0
  6
Continuous
 62
     7
100
AcDbPolyline
 90
        3
 70
   128
 43
0.0
 10
6261.6653442383
 20
5347.0730901698
 10
6261.1838838077
 20
5346.7949411301
 10
6260.8055806303
 20
5346.5764028022
  0
LWPOLYLINE
  5
38C
330
1F
100
AcDbEntity
  8
0
  6
Continuous
 62
     7
100
AcDbPolyline
 90
        3
 70
   128
 43
0.0
 10
6261.6653442383
 20
5345.485589374
 10
6261.1838832113
 20
5345.2074413667
 10
6260.8055806303
 20
5344.9889020065
  0
LWPOLYLINE
  5
38D
330
1F
100
AcDbEntity
  8
0
  6
Continuous
 62
     7
100
AcDbPolyline
 90
        3
 70
   128
 43
0.0
 10
6287.2314453125
 20
5350.5451519975
 10
6286.7548318253
 20
5350.8207665884
 10
6286.3799742007
 20
5351.0373243133
  0
LWPOLYLINE
  5
38E
330
1F
100
AcDbEntity
  8
0
  6
Continuous
 62
     7
100
AcDbPolyline
 90
        3
 70
   128
 43
0.0
 10
6287.2314453125
 20
5348.9576512018
 10
6286.7548318253
 20
5349.2332657926
 10
6286.3799742007
 20
5349.4498235175
  0
LWPOLYLINE
  5
38F
330
1F
100
AcDbEntity
  8
0
  6
Continuous
 62
     7
100
AcDbPolyline
 90
        3
 70
   128
 43
0.0
 10
6287.2314453125
 20
5347.3701522687
 10
6286.7548318253
 20
5347.6457668596
 10
6286.3799742007
 20
5347.8623245845
  0
LWPOLYLINE
  5
390
330
1F
100
AcDbEntity
  8
0
  6
Continuous
 62
     7
100
AcDbPolyline
 90
        3
 70
   128
 43
0.0
 10
6287.2314453125
 20
5345.782651473
 10
6286.7548318253
 20
5346.0582660638
 10
6286.3799742007
 20
5346.2748237887
  0
LWPOLYLINE
  5
391
330
1F
100
AcDbEntity
  8
0
  6
Continuous
 62
     7
100
AcDbPolyline
 90
        3
 70
   128
 43
0.0
 10
6287.2314453125
 20
5352.1326527933
 10
6286.7548315298
 20
5352.4082658293
 10
6286.3799742007
 20
5352.6248232463
  0
LWPOLYLINE
  5
392
330
1F
100
AcDbEntity
  8
0
  6
Continuous
 62
     7
100
AcDbPolyline
 90
        3
 70
   128
 43
0.0
 10
6261.6653442383
 20
5351.8355906943
 10
6261.1838835095
 20
5351.5574411277
 10
6260.8055806303
 20
5351.3389014641
  0
LWPOLYLINE
  5
393
330
1F
100
AcDbEntity
  8
0
  6
Continuous
 62
     7
100
AcDbPolyline
 90
        3
 70
   128
 43
0.0
 10
6312.572479248
 20
5192.8240255454
 10
6312.9389297664
 20
5193.7928073313
 10
6313.6844670916
 20
5194.111158047
  0
LWPOLYLINE
  5
394
330
1F
100
AcDbEntity
  8
0
  6
Continuous
 62
     7
100
AcDbPolyline
 90
        4
 70
   128
 43
0.0
 10
6314.3768310547
 20
5192.203049455
 10
6314.3517748449
 20
5192.9068580452
 10
6314.247432548
 20
5193.2404342698
 10
6313.9549976731
 20
5193.4066013435
  0
LWPOLYLINE
  5
395
330
1F
100
AcDbEntity
  8
0
  6
Continuous
 62
     7
100
AcDbPolyline
 90
        4
 70
   128
 43
0.0
 10
6313.6825561523
 20
5193.4066013435
 10
6313.3921338979
 20
5193.2379798082
 10
6313.2882714371
 20
5192.9028679162
 10
6313.2609537387
 20
5192.1965078453
  0
LWPOLYLINE
  5
396
330
1F
100
AcDbEntity
  8
0
  6
Continuous
 62
     7
100
AcDbPolyline
 90
        3
 70
   128
 43
0.0
 10
6313.9533996582
 20
5194.111158047
 10
6314.8525174811
 20
5193.6092469423
 10
6315.0786458099
 20
5192.8145633081
  0
LWPOLYLINE
  5
397
330
1F
100
AcDbEntity
  8
0
  6
Continuous
 62
     7
100
AcDbPolyline
 90
        3
 70
   128
 43
0.0
 10
6311.9964599609
 20
5190.0918231347
 10
6311.9167144978
 20
5191.0045539339
 10
6311.5290811801
 20
5191.6147665122
  0
LWPOLYLINE
  5
398
330
1F
100
AcDbEntity
  8
0
  6
Continuous
 62
     7
100
AcDbPolyline
 90
        3
 70
   128
 43
0.0
 10
6310.5850219727
 20
5188.8891802171
 10
6311.6525706056
 20
5189.2616378025
 10
6311.9999057198
 20
5190.0918231347
  0
LWPOLYLINE
  5
399
330
1F
100
AcDbEntity
  8
0
  6
Continuous
 62
     7
100
AcDbPolyline
 90
        3
 70
   128
 43
0.0
 10
6311.1991882324
 20
5190.2435914615
 10
6310.9454907678
 20
5189.7654366051
 10
6310.5226418519
 20
5189.666976128
  0
LWPOLYLINE
  5
39A
330
1F
100
AcDbEntity
  8
0
  6
Continuous
 62
     7
100
AcDbPolyline
 90
        3
 70
   128
 43
0.0
 10
6310.7872009277
 20
5191.2711904386
 10
6311.163671346
 20
5190.745275051
 10
6311.2008235002
 20
5190.2435914615
  0
LWPOLYLINE
  5
39B
330
1F
100
AcDbEntity
  8
0
  6
Continuous
 62
     7
100
AcDbPolyline
 90
        3
 70
   128
 43
0.0
 10
6309.2918395996
 20
5193.8567654231
 10
6309.4222979929
 20
5192.9382933617
 10
6309.8459726715
 20
5192.339767609
  0
LWPOLYLINE
  5
39C
330
1F
100
AcDbEntity
  8
0
  6
Continuous
 62
     7
100
AcDbPolyline
 90
        3
 70
   128
 43
0.0
 10
6310.9550476074
 20
5195.2882156709
 10
6309.7079104705
 20
5194.8204789088
 10
6309.2937728906
 20
5193.8567654231
  0
LWPOLYLINE
  5
39D
330
1F
100
AcDbEntity
  8
0
  6
Continuous
 62
     7
100
AcDbPolyline
 90
        3
 70
   128
 43
0.0
 10
6310.0967407227
 20
5193.8045070508
 10
6310.4467947876
 20
5194.4050991481
 10
6311.0063707972
 20
5194.523353968
  0
LWPOLYLINE
  5
39E
330
1F
100
AcDbEntity
  8
0
  6
Continuous
 62
     7
100
AcDbPolyline
 90
        3
 70
   128
 43
0.0
 10
6310.8329772949
 20
5192.4056605438
 10
6310.2559247176
 20
5193.1120245961
 10
6310.0978022957
 20
5193.8045070508
  0
LWPOLYLINE
  5
39F
330
1F
100
AcDbEntity
  8
0
  6
Continuous
 62
     7
100
AcDbPolyline
 90
        3
 70
   128
 43
0.0
 10
6330.1582336426
 20
5192.9731265644
 10
6329.6408314106
 20
5193.1408002594
 10
6329.2626811707
 20
5193.3456257919
  0
LWPOLYLINE
  5
3A0
330
1F
100
AcDbEntity
  8
0
  6
Continuous
 62
     7
100
AcDbPolyline
 90
        7
 70
   128
 43
0.0
 10
6330.1582336426
 20
5193.1327776054
 10
6330.1816656485
 20
5193.1236206961
 10
6330.1959225051
 20
5193.1026243573
 10
6330.2050790334
 20
5193.0529520849
 10
6330.1959225051
 20
5193.0032798124
 10
6330.1816656485
 20
5192.9822834736
 10
6330.1585240805
 20
5192.9731265644
  0
LWPOLYLINE
  5
3A1
330
1F
100
AcDbEntity
  8
0
  6
Continuous
 62
     7
100
AcDbPolyline
 90
        3
 70
   128
 43
0.0
 10
6329.9980163574
 20
5193.185989652
 10
6330.0228197084
 20
5193.1431415403
 10
6330.0609363759
 20
5193.1327776054
  0
LWPOLYLINE
  5
3A2
330
1F
100
AcDbEntity
  8
0
  6
Continuous
 62
     7
100
AcDbPolyline
 90
        3
 70
   128
 43
0.0
 10
6330.5282592773
 20
5193.185989652
 10
6330.505967718
 20
5193.2272368487
 10
6330.4690605545
 20
5193.2392016986
  0
LWPOLYLINE
  5
3A3
330
1F
100
AcDbEntity
  8
0
  6
Continuous
 62
     7
100
AcDbPolyline
 90
        3
 70
   128
 43
0.0
 10
6330.4672241211
 20
5193.1327776054
 10
6330.5145254348
 20
5193.1514404203
 10
6330.5312095726
 20
5193.185989652
  0
LWPOLYLINE
  5
3A4
330
1F
100
AcDbEntity
  8
0
  6
Continuous
 62
     7
100
AcDbPolyline
 90
        3
 70
   128
 43
0.0
 10
6332.0693969727
 20
5193.5674593786
 10
6331.3232194796
 20
5193.4028892648
 10
6330.8018146599
 20
5193.1061343292
  0
LWPOLYLINE
  5
3A5
330
1F
100
AcDbEntity
  8
0
  6
Continuous
 62
     7
100
AcDbPolyline
 90
        3
 70
   128
 43
0.0
 10
6330.0590515137
 20
5193.2392016986
 10
6330.0171966367
 20
5193.2189272556
 10
6329.9988655889
 20
5193.185989652
  0
LWPOLYLINE
  5
3A6
330
1F
100
AcDbEntity
  8
0
  6
Continuous
 62
     7
100
AcDbPolyline
 90
        3
 70
   128
 43
0.0
 10
6330.9135437012
 20
5195.1774255374
 10
6330.9944822786
 20
5195.1437297877
 10
6331.0544936502
 20
5195.1152876953
  0
LWPOLYLINE
  5
3A7
330
1F
100
AcDbEntity
  8
0
  6
Continuous
 62
     7
100
AcDbPolyline
 90
        3
 70
   128
 43
0.0
 10
6330.7952880859
 20
5193.7537089923
 10
6330.9139258612
 20
5193.8081765102
 10
6330.9480211282
 20
5193.9045087436
  0
LWPOLYLINE
  5
3A8
330
1F
100
AcDbEntity
  8
0
  6
Continuous
 62
     7
100
AcDbPolyline
 90
        3
 70
   128
 43
0.0
 10
6329.7920227051
 20
5193.7537089923
 10
6329.9098592145
 20
5193.8097027047
 10
6329.9456535423
 20
5193.9045087436
  0
LWPOLYLINE
  5
3A9
330
1F
100
AcDbEntity
  8
0
  6
Continuous
 62
     7
100
AcDbPolyline
 90
        3
 70
   128
 43
0.0
 10
6329.7958374023
 20
5188.4004519323
 10
6329.7890350515
 20
5190.9175924582
 10
6329.4800220573
 20
5192.8711132148
  0
LWPOLYLINE
  5
3AA
330
1F
100
AcDbEntity
  8
0
  6
Continuous
 62
     7
100
AcDbPolyline
 90
        3
 70
   128
 43
0.0
 10
6329.3533325195
 20
5193.2126031259
 10
6329.8899346786
 20
5190.5508737748
 10
6329.8747687185
 20
5188.3870557884
  0
LWPOLYLINE
  5
3AB
330
1F
100
AcDbEntity
  8
0
  6
Continuous
 62
     7
100
AcDbPolyline
 90
        3
 70
   128
 43
0.0
 10
6331.0394287109
 20
5193.0109755138
 10
6330.8486296453
 20
5192.6874236619
 10
6330.7573123419
 20
5192.4053923229
  0
LWPOLYLINE
  5
3AC
330
1F
100
AcDbEntity
  8
0
  6
Continuous
 62
     7
100
AcDbPolyline
 90
        3
 70
   128
 43
0.0
 10
6332.2257995605
 20
5191.5128276685
 10
6332.3080023715
 20
5191.1959253175
 10
6332.3461412037
 20
5190.9417108634
  0
LWPOLYLINE
  5
3AD
330
1F
100
AcDbEntity
  8
0
  6
Continuous
 62
     7
100
AcDbPolyline
 90
        3
 70
   128
 43
0.0
 10
6331.657409668
 20
5192.5617353061
 10
6331.8329053767
 20
5192.3265110229
 10
6331.9535254085
 20
5192.1318517068
  0
LWPOLYLINE
  5
3AE
330
1F
100
AcDbEntity
  8
0
  6
Continuous
 62
     7
100
AcDbPolyline
 90
        3
 70
   128
 43
0.0
 10
6331.7794799805
 20
5194.5919738153
 10
6331.8349492104
 20
5194.5196729671
 10
6331.8705222154
 20
5194.4588617423
  0
LWPOLYLINE
  5
3AF
330
1F
100
AcDbEntity
  8
0
  6
Continuous
 62
     7
100
AcDbPolyline
 90
        3
 70
   128
 43
0.0
 10
6331.8672180176
 20
5194.4588617423
 10
6332.2491022402
 20
5195.2644332765
 10
6332.3584383869
 20
5195.9535525182
  0
LWPOLYLINE
  5
3B0
330
1F
100
AcDbEntity
  8
0
  6
Continuous
 62
     7
100
AcDbPolyline
 90
        3
 70
   128
 43
0.0
 10
6332.3554992676
 20
5195.9535525182
 10
6331.4876895517
 20
5195.6310529771
 10
6330.9169708336
 20
5195.1774255374
  0
ARC
  5
3B1
330
1F
100
AcDbEntity
  8
0
  6
Continuous
 62
     7
100
AcDbCircle
 10
6330.6708721639
 20
5193.0140823309
 30
0.0
 40
1.585913521714675
100
AcDbArc
 50
20.0204496941
 51
78.793270219
  0
LWPOLYLINE
  5
3B2
330
1F
100
AcDbEntity
  8
0
  6
Continuous
 62
     7
100
AcDbPolyline
 90
        3
 70
   128
 43
0.0
 10
6328.2127380371
 20
5193.6118201354
 10
6328.3536834898
 20
5194.049279749
 10
6328.5087010408
 20
5194.3746552804
  0
LWPOLYLINE
  5
3B3
330
1F
100
AcDbEntity
  8
0
  6
Continuous
 62
     7
100
AcDbPolyline
 90
        3
 70
   128
 43
0.0
 10
6328.5064697266
 20
5194.3746552804
 10
6328.1381519595
 20
5195.2663025152
 10
6328.0652350331
 20
5196.0245565513
  0
LWPOLYLINE
  5
3B4
330
1F
100
AcDbEntity
  8
0
  6
Continuous
 62
     7
100
AcDbPolyline
 90
        3
 70
   128
 43
0.0
 10
6328.0639648438
 20
5196.0245565513
 10
6329.1013603887
 20
5195.7194692637
 10
6329.8303409064
 20
5195.2838496307
  0
LWPOLYLINE
  5
3B5
330
1F
100
AcDbEntity
  8
0
  6
Continuous
 62
     7
100
AcDbPolyline
 90
        3
 70
   128
 43
0.0
 10
6329.8301696777
 20
5195.2838496307
 10
6330.225332168
 20
5195.3179741273
 10
6330.5356277669
 20
5195.2882752756
  0
LWPOLYLINE
  5
3B6
330
1F
100
AcDbEntity
  8
0
  6
Continuous
 62
     7
100
AcDbPolyline
 90
        3
 70
   128
 43
0.0
 10
6330.5320739746
 20
5195.2882752756
 10
6331.5259350761
 20
5195.8494692919
 10
6332.4071577335
 20
5196.0334227422
  0
LWPOLYLINE
  5
3B7
330
1F
100
AcDbEntity
  8
0
  6
Continuous
 62
     7
100
AcDbPolyline
 90
        3
 70
   128
 43
0.0
 10
6332.405090332
 20
5196.0334227422
 10
6332.2449047842
 20
5195.0703643322
 10
6331.910580262
 20
5194.3790809253
  0
LWPOLYLINE
  5
3B8
330
1F
100
AcDbEntity
  8
0
  6
Continuous
 62
     7
100
AcDbPolyline
 90
        3
 70
   128
 43
0.0
 10
6331.9091796875
 20
5194.3790809253
 10
6332.1589556038
 20
5193.9082395324
 10
6332.2044758642
 20
5193.4983924964
  0
LWPOLYLINE
  5
3B9
330
1F
100
AcDbEntity
  8
0
  6
Continuous
 62
     7
100
AcDbPolyline
 90
        3
 70
   128
 43
0.0
 10
6330.8753967285
 20
5191.4587364534
 10
6331.6407428215
 20
5191.3689027463
 10
6332.2266897702
 20
5191.5128276685
  0
LWPOLYLINE
  5
3BA
330
1F
100
AcDbEntity
  8
0
  6
Continuous
 62
     7
100
AcDbPolyline
 90
        3
 70
   128
 43
0.0
 10
6330.810546875
 20
5190.9034595827
 10
6330.843719135
 20
5191.214996435
 10
6330.8769612158
 20
5191.4587364534
  0
LWPOLYLINE
  5
3BB
330
1F
100
AcDbEntity
  8
0
  6
Continuous
 62
     7
100
AcDbPolyline
 90
        3
 70
   128
 43
0.0
 10
6332.3440551758
 20
5190.9417108634
 10
6331.4860721072
 20
5190.773669647
 10
6330.8125807488
 20
5190.9034595827
  0
LWPOLYLINE
  5
3BC
330
1F
100
AcDbEntity
  8
0
  6
Continuous
 62
     7
100
AcDbPolyline
 90
        3
 70
   128
 43
0.0
 10
6331.1309814453
 20
5192.5132171253
 10
6331.4321375578
 20
5192.5099316157
 10
6331.6608107233
 20
5192.5617353061
  0
LWPOLYLINE
  5
3BD
330
1F
100
AcDbEntity
  8
0
  6
Continuous
 62
     7
100
AcDbPolyline
 90
        3
 70
   128
 43
0.0
 10
6330.9936523438
 20
5192.0519814828
 10
6331.0679010071
 20
5192.3118388539
 10
6331.1337864542
 20
5192.5132171253
  0
LWPOLYLINE
  5
3BE
330
1F
100
AcDbEntity
  8
0
  6
Continuous
 62
     7
100
AcDbPolyline
 90
        3
 70
   128
 43
0.0
 10
6331.9511413574
 20
5192.1318517068
 10
6331.4219518405
 20
5192.0010505834
 10
6330.9958091521
 20
5192.0519814828
  0
LWPOLYLINE
  5
3BF
330
1F
100
AcDbEntity
  8
0
  6
Continuous
 62
     7
100
AcDbPolyline
 90
        3
 70
   128
 43
0.0
 10
6329.4868469238
 20
5195.186261926
 10
6329.0161022445
 20
5195.6275343663
 10
6328.5663573587
 20
5195.8648906091
  0
LWPOLYLINE
  5
3C0
330
1F
100
AcDbEntity
  8
0
  6
Continuous
 62
     7
100
AcDbPolyline
 90
        3
 70
   128
 43
0.0
 10
6328.3653259277
 20
5193.877925072
 10
6329.1713212492
 20
5194.966333414
 10
6330.2073179329
 20
5195.243944321
  0
LWPOLYLINE
  5
3C1
330
1F
100
AcDbEntity
  8
0
  6
Continuous
 62
     7
100
AcDbPolyline
 90
        3
 70
   128
 43
0.0
 10
6329.5669555664
 20
5194.6939722637
 10
6328.8632453949
 20
5194.2845038573
 10
6328.366685524
 20
5193.877925072
  0
LWPOLYLINE
  5
3C2
330
1F
100
AcDbEntity
  8
0
  6
Continuous
 62
     7
100
AcDbPolyline
 90
        3
 70
   128
 43
0.0
 10
6330.9669494629
 20
5194.6496264079
 10
6330.1636484018
 20
5194.3679756419
 10
6329.5686243618
 20
5194.6939722637
  0
LWPOLYLINE
  5
3C3
330
1F
100
AcDbEntity
  8
0
  6
Continuous
 62
     7
100
AcDbPolyline
 90
        3
 70
   128
 43
0.0
 10
6332.0198059082
 20
5193.9932153562
 10
6331.4636685614
 20
5194.4095555237
 10
6330.9701568031
 20
5194.6496264079
  0
LWPOLYLINE
  5
3C4
330
1F
100
AcDbEntity
  8
0
  6
Continuous
 62
     7
100
AcDbPolyline
 90
        3
 70
   128
 43
0.0
 10
6330.8601379395
 20
5195.1996729711
 10
6330.7227810755
 20
5195.2438678147
 10
6330.6109531367
 20
5195.2750132421
  0
LWPOLYLINE
  5
3C5
330
1F
100
AcDbEntity
  8
0
  6
Continuous
 62
     7
100
AcDbPolyline
 90
        3
 70
   128
 43
0.0
 10
6331.657409668
 20
5195.8117083648
 10
6331.1833381172
 20
5195.5063305852
 10
6330.8637587869
 20
5195.1996729711
  0
LWPOLYLINE
  5
3C6
330
1F
100
AcDbEntity
  8
0
  6
Continuous
 62
     7
100
AcDbPolyline
 90
        3
 70
   128
 43
0.0
 10
6330.8715820312
 20
5193.3900163511
 10
6331.5298785158
 20
5193.5931781568
 10
6332.0702648306
 20
5193.5674593786
  0
LWPOLYLINE
  5
3C7
330
1F
100
AcDbEntity
  8
0
  6
Continuous
 62
     7
100
AcDbPolyline
 90
        3
 70
   128
 43
0.0
 10
6329.6852111816
 20
5193.3368043044
 10
6330.350724241
 20
5193.790633544
 10
6330.8725690985
 20
5193.3900163511
  0
LWPOLYLINE
  5
3C8
330
1F
100
AcDbEntity
  8
0
  6
Continuous
 62
     7
100
AcDbPolyline
 90
        3
 70
   128
 43
0.0
 10
6328.3576965332
 20
5193.6295376161
 10
6329.1207338474
 20
5193.5544805207
 10
6329.6884036207
 20
5193.3368043044
  0
LWPOLYLINE
  5
3C9
330
1F
100
AcDbEntity
  8
0
  6
Continuous
 62
     7
100
AcDbPolyline
 90
        3
 70
   128
 43
0.0
 10
6329.2617797852
 20
5193.3456257919
 10
6328.7708308425
 20
5193.5544744848
 10
6328.3580018723
 20
5193.6295376161
  0
LWPOLYLINE
  5
3CA
330
1F
100
AcDbEntity
  8
0
  6
Continuous
 62
     7
100
AcDbPolyline
 90
        3
 70
   128
 43
0.0
 10
6330.1849365234
 20
5188.3516357282
 10
6330.1518877891
 20
5189.3566387564
 10
6330.2206470216
 20
5190.1434705594
  0
LWPOLYLINE
  5
3CB
330
1F
100
AcDbEntity
  8
0
  6
Continuous
 62
     7
100
AcDbPolyline
 90
        3
 70
   128
 43
0.0
 10
6330.2192687988
 20
5190.1434705594
 10
6330.2374719312
 20
5189.1374458838
 10
6330.2605821336
 20
5188.3472249845
  0
LWPOLYLINE
  5
3CC
330
1F
100
AcDbEntity
  8
0
  6
Continuous
 62
     7
100
AcDbPolyline
 90
        6
 70
   128
 43
0.0
 10
6330.3489685059
 20
5192.9687009195
 10
6330.3278292794
 20
5192.9816632165
 10
6330.31704828
 20
5193.0051317971
 10
6330.311854808
 20
5193.056548287
 10
6330.3251265002
 20
5193.1063513036
 10
6330.3670546556
 20
5193.1327776054
  0
LWPOLYLINE
  5
3CD
330
1F
100
AcDbEntity
  8
0
  6
Continuous
 62
     7
100
AcDbPolyline
 90
        3
 70
   128
 43
0.0
 10
6330.7991027832
 20
5193.1061343292
 10
6330.5615848053
 20
5192.9806286625
 10
6330.3492589438
 20
5192.9687009195
  0
LWPOLYLINE
  5
3CE
330
1F
100
AcDbEntity
  8
0
  6
Continuous
 62
     7
100
AcDbPolyline
 90
        3
 70
   128
 43
0.0
 10
6329.776763916
 20
5195.26613215
 10
6329.6134051601
 20
5195.2295901868
 10
6329.4888584459
 20
5195.186261926
  0
LWPOLYLINE
  5
3CF
330
1F
100
AcDbEntity
  8
0
  6
Continuous
 62
     7
100
AcDbPolyline
 90
        3
 70
   128
 43
0.0
 10
6329.9446105957
 20
5193.9045087436
 10
6329.8892336413
 20
5194.0172374488
 10
6329.7948761428
 20
5194.0508679489
  0
LWPOLYLINE
  5
3D0
330
1F
100
AcDbEntity
  8
0
  6
Continuous
 62
     7
100
AcDbPolyline
 90
        3
 70
   128
 43
0.0
 10
6329.7920227051
 20
5194.0508679489
 10
6329.6801216285
 20
5193.9977594291
 10
6329.6440763915
 20
5193.9045087436
  0
LWPOLYLINE
  5
3D1
330
1F
100
AcDbEntity
  8
0
  6
Continuous
 62
     7
100
AcDbPolyline
 90
        3
 70
   128
 43
0.0
 10
6329.6432495117
 20
5193.9045087436
 10
6329.7000721664
 20
5193.7895197864
 10
6329.7948761428
 20
5193.7537089923
  0
LWPOLYLINE
  5
3D2
330
1F
100
AcDbEntity
  8
0
  6
Continuous
 62
     7
100
AcDbPolyline
 90
        3
 70
   128
 43
0.0
 10
6329.4792175293
 20
5192.8711132148
 10
6329.4146947286
 20
5192.4930611355
 10
6329.2937053883
 20
5192.2147021631
  0
LWPOLYLINE
  5
3D3
330
1F
100
AcDbEntity
  8
0
  6
Continuous
 62
     7
100
AcDbPolyline
 90
        4
 70
   128
 43
0.0
 10
6329.2922973633
 20
5192.2147021631
 10
6328.5387230348
 20
5190.088365335
 10
6328.8599168175
 20
5189.0185508256
 10
6329.7993204141
 20
5188.4004519323
  0
LWPOLYLINE
  5
3D4
330
1F
100
AcDbEntity
  8
0
  6
Continuous
 62
     7
100
AcDbPolyline
 90
        3
 70
   128
 43
0.0
 10
6329.8721313477
 20
5188.3870557884
 10
6330.0478692541
 20
5188.3596693408
 10
6330.1853051925
 20
5188.3516357282
  0
LWPOLYLINE
  5
3D5
330
1F
100
AcDbEntity
  8
0
  6
Continuous
 62
     7
100
AcDbPolyline
 90
        3
 70
   128
 43
0.0
 10
6330.2040100098
 20
5195.243944321
 10
6331.428487222
 20
5194.8219111381
 10
6332.0212698126
 20
5193.9932153562
  0
LWPOLYLINE
  5
3D6
330
1F
100
AcDbEntity
  8
0
  6
Continuous
 62
     7
100
AcDbPolyline
 90
        3
 70
   128
 43
0.0
 10
6330.2574157715
 20
5188.3472249845
 10
6330.4405569537
 20
5188.3578198339
 10
6330.5798804903
 20
5188.3827046493
  0
LWPOLYLINE
  5
3D7
330
1F
100
AcDbEntity
  8
0
  6
Continuous
 62
     7
100
AcDbPolyline
 90
        3
 70
   128
 43
0.0
 10
6330.5778503418
 20
5188.3827046493
 10
6330.5171335182
 20
5191.1455776286
 10
6331.0944287622
 20
5193.1949005464
  0
LWPOLYLINE
  5
3D8
330
1F
100
AcDbEntity
  8
0
  6
Continuous
 62
     7
100
AcDbPolyline
 90
        3
 70
   128
 43
0.0
 10
6331.0928344727
 20
5193.1949005464
 10
6330.6422172616
 20
5192.9079248755
 10
6330.2473051989
 20
5192.7734957078
  0
LWPOLYLINE
  5
3D9
330
1F
100
AcDbEntity
  8
0
  6
Continuous
 62
     7
100
AcDbPolyline
 90
        3
 70
   128
 43
0.0
 10
6330.2459716797
 20
5192.7734957078
 10
6329.7353498948
 20
5192.9897223504
 10
6329.3558022523
 20
5193.2126031259
  0
LWPOLYLINE
  5
3DA
330
1F
100
AcDbEntity
  8
0
  6
Continuous
 62
     7
100
AcDbPolyline
 90
        3
 70
   128
 43
0.0
 10
6330.7571411133
 20
5192.4053923229
 10
6330.572864995
 20
5190.162896996
 10
6330.6374064231
 20
5188.3961454967
  0
LWPOLYLINE
  5
3DB
330
1F
100
AcDbEntity
  8
0
  6
Continuous
 62
     7
100
AcDbPolyline
 90
        3
 70
   128
 43
0.0
 10
6330.6350708008
 20
5188.3961454967
 10
6330.6529507651
 20
5188.3976879678
 10
6330.6651449347
 20
5188.3990810254
  0
LWPOLYLINE
  5
3DC
330
1F
100
AcDbEntity
  8
0
  6
Continuous
 62
     7
100
AcDbPolyline
 90
        3
 70
   128
 43
0.0
 10
6330.6617736816
 20
5188.3990810254
 10
6331.8850562296
 20
5189.1943178496
 10
6332.3281443262
 20
5190.26397625
  0
LWPOLYLINE
  5
3DD
330
1F
100
AcDbEntity
  8
0
  6
Continuous
 62
     7
100
AcDbPolyline
 90
        3
 70
   128
 43
0.0
 10
6332.3249816895
 20
5190.26397625
 10
6331.4612914661
 20
5190.1351073282
 10
6330.7835383856
 20
5190.25139967
  0
LWPOLYLINE
  5
3DE
330
1F
100
AcDbEntity
  8
0
  6
Continuous
 62
     7
100
AcDbPolyline
 90
        3
 70
   128
 43
0.0
 10
6330.7800292969
 20
5190.25139967
 10
6330.8108893486
 20
5189.5251156484
 10
6330.8415225291
 20
5188.954894338
  0
LWPOLYLINE
  5
3DF
330
1F
100
AcDbEntity
  8
0
  6
Continuous
 62
     7
100
AcDbPolyline
 90
        3
 70
   128
 43
0.0
 10
6330.8410644531
 20
5188.954894338
 10
6330.7336056473
 20
5191.1920150409
 10
6331.178787961
 20
5192.8931073287
  0
LWPOLYLINE
  5
3E0
330
1F
100
AcDbEntity
  8
0
  6
Continuous
 62
     7
100
AcDbPolyline
 90
        3
 70
   128
 43
0.0
 10
6331.1767578125
 20
5192.8931073287
 10
6331.102104188
 20
5192.9586166153
 10
6331.04262115
 20
5193.0109755138
  0
LWPOLYLINE
  5
3E1
330
1F
100
AcDbEntity
  8
0
  6
Continuous
 62
     7
100
AcDbPolyline
 90
        3
 70
   128
 43
0.0
 10
6331.0775756836
 20
5193.0550233463
 10
6331.1507213519
 20
5192.9926402683
 10
6331.2069027269
 20
5192.9443524221
  0
LWPOLYLINE
  5
3E2
330
1F
100
AcDbEntity
  8
0
  6
Continuous
 62
     7
100
AcDbPolyline
 90
        3
 70
   128
 43
0.0
 10
6331.2034606934
 20
5192.9443524221
 10
6331.2540236894
 20
5193.0235976247
 10
6331.2940223658
 20
5193.0839912036
  0
LWPOLYLINE
  5
3E3
330
1F
100
AcDbEntity
  8
0
  6
Continuous
 62
     7
100
AcDbPolyline
 90
        3
 70
   128
 43
0.0
 10
6328.4950256348
 20
5190.5204550365
 10
6328.917130113
 20
5191.6731814813
 10
6329.3292446578
 20
5192.547400389
  0
LWPOLYLINE
  5
3E4
330
1F
100
AcDbEntity
  8
0
  6
Continuous
 62
     7
100
AcDbPolyline
 90
        4
 70
   128
 43
0.0
 10
6329.3266296387
 20
5192.547400389
 10
6329.3560941721
 20
5192.9922877124
 10
6329.0767829219
 20
5193.3381543103
 10
6328.2159602785
 20
5193.6118201354
  0
LWPOLYLINE
  5
3E5
330
1F
100
AcDbEntity
  8
0
  6
Continuous
 62
     7
100
AcDbPolyline
 90
        3
 70
   128
 43
0.0
 10
6332.202911377
 20
5195.7894758323
 10
6332.0453030597
 20
5195.0904831084
 10
6331.7818938339
 20
5194.5919738153
  0
LWPOLYLINE
  5
3E6
330
1F
100
AcDbEntity
  8
0
  6
Continuous
 62
     7
100
AcDbPolyline
 90
        3
 70
   128
 43
0.0
 10
6332.202911377
 20
5193.4983924964
 10
6331.5225026926
 20
5193.3746164384
 10
6331.0800230646
 20
5193.0550233463
  0
LWPOLYLINE
  5
3E7
330
1F
100
AcDbEntity
  8
0
  6
Continuous
 62
     7
100
AcDbPolyline
 90
        3
 70
   128
 43
0.0
 10
6329.5402526855
 20
5194.6186319927
 10
6328.7788497868
 20
5194.1381263461
 10
6328.2829260969
 20
5193.645332847
  0
LWPOLYLINE
  5
3E8
330
1F
100
AcDbEntity
  8
0
  6
Continuous
 62
     7
100
AcDbPolyline
 90
        3
 70
   128
 43
0.0
 10
6328.2814025879
 20
5193.645332847
 10
6329.3568340336
 20
5194.081803442
 10
6330.2649742508
 20
5194.1706732849
  0
LWPOLYLINE
  5
3E9
330
1F
100
AcDbEntity
  8
0
  6
Continuous
 62
     7
100
AcDbPolyline
 90
        3
 70
   128
 43
0.0
 10
6328.5636901855
 20
5195.8648906091
 10
6329.2688204338
 20
5195.5798469161
 10
6329.7772555196
 20
5195.26613215
  0
LWPOLYLINE
  5
3EA
330
1F
100
AcDbEntity
  8
0
  6
Continuous
 62
     7
100
AcDbPolyline
 90
        3
 70
   128
 43
0.0
 10
6328.2585144043
 20
5195.8161042074
 10
6328.8805773283
 20
5195.4688221266
 10
6329.2980975056
 20
5195.0975404123
  0
LWPOLYLINE
  5
3EB
330
1F
100
AcDbEntity
  8
0
  6
Continuous
 62
     7
100
AcDbPolyline
 90
        3
 70
   128
 43
0.0
 10
6330.6083679199
 20
5195.2750132421
 10
6331.1652902062
 20
5195.6410772561
 10
6331.6576740289
 20
5195.8117083648
  0
LWPOLYLINE
  5
3EC
330
1F
100
AcDbEntity
  8
0
  6
Continuous
 62
     7
100
AcDbPolyline
 90
       11
 70
   128
 43
0.0
 10
6330.9783935547
 20
5194.569756184
 10
6330.4490563452
 20
5194.3059823951
 10
6329.8652921703
 20
5194.3905464639
 10
6329.6925603596
 20
5194.4893892927
 10
6329.6133943765
 20
5194.5494603632
 10
6329.5752741116
 20
5194.5819701606
 10
6329.5567572225
 20
5194.5989893559
 10
6329.5484418609
 20
5194.6082413932
 10
6329.5447540986
 20
5194.6132124253
 10
6329.5430572815
 20
5194.6158043343
 10
6329.5420704925
 20
5194.6186319927
  0
LWPOLYLINE
  5
3ED
330
1F
100
AcDbEntity
  8
0
  6
Continuous
 62
     7
100
AcDbPolyline
 90
        3
 70
   128
 43
0.0
 10
6328.1440734863
 20
5195.9402457813
 10
6328.2700066198
 20
5195.0679552929
 10
6328.5486622298
 20
5194.4322929719
  0
LWPOLYLINE
  5
3EE
330
1F
100
AcDbEntity
  8
0
  6
Continuous
 62
     7
100
AcDbPolyline
 90
        3
 70
   128
 43
0.0
 10
6330.9478759766
 20
5193.9045087436
 10
6330.8935468511
 20
5194.0211913751
 10
6330.7972213769
 20
5194.0552786926
  0
LWPOLYLINE
  5
3EF
330
1F
100
AcDbEntity
  8
0
  6
Continuous
 62
     7
100
AcDbPolyline
 90
        3
 70
   128
 43
0.0
 10
6330.2612304688
 20
5194.1706732849
 10
6331.3868251976
 20
5193.9827547666
 10
6332.1637882436
 20
5193.5570285657
  0
LWPOLYLINE
  5
3F0
330
1F
100
AcDbEntity
  8
0
  6
Continuous
 62
     7
100
AcDbPolyline
 90
        3
 70
   128
 43
0.0
 10
6331.0508728027
 20
5195.1152876953
 10
6331.6522557349
 20
5195.5739980605
 10
6332.2032949472
 20
5195.7894758323
  0
LWPOLYLINE
  5
3F1
330
1F
100
AcDbEntity
  8
0
  6
Continuous
 62
     7
100
AcDbPolyline
 90
        3
 70
   128
 43
0.0
 10
6329.2961120605
 20
5195.0975404123
 10
6329.3791359492
 20
5195.1369063537
 10
6329.4444790626
 20
5195.1641337017
  0
LWPOLYLINE
  5
3F2
330
1F
100
AcDbEntity
  8
0
  6
Continuous
 62
     7
100
AcDbPolyline
 90
        3
 70
   128
 43
0.0
 10
6329.4410705566
 20
5195.1641337017
 10
6328.7813131817
 20
5195.7148295738
 10
6328.1449785972
 20
5195.9402457813
  0
LWPOLYLINE
  5
3F3
330
1F
100
AcDbEntity
  8
0
  6
Continuous
 62
     7
100
AcDbPolyline
 90
        3
 70
   128
 43
0.0
 10
6330.6503295898
 20
5193.9045087436
 10
6330.7031960297
 20
5193.7889419479
 10
6330.7972213769
 20
5193.7537089923
  0
LWPOLYLINE
  5
3F4
330
1F
100
AcDbEntity
  8
0
  6
Continuous
 62
     7
100
AcDbPolyline
 90
        3
 70
   128
 43
0.0
 10
6331.2911987305
 20
5193.0839912036
 10
6332.2764655918
 20
5191.7069123977
 10
6332.4453121567
 20
5190.3866724113
  0
LWPOLYLINE
  5
3F5
330
1F
100
AcDbEntity
  8
0
  6
Continuous
 62
     7
100
AcDbPolyline
 90
        3
 70
   128
 43
0.0
 10
6328.6018371582
 20
5194.5077375511
 10
6328.3243000026
 20
5195.2194261751
 10
6328.2603359366
 20
5195.8161042074
  0
LWPOLYLINE
  5
3F6
330
1F
100
AcDbEntity
  8
0
  6
Continuous
 62
     7
100
AcDbPolyline
 90
        3
 70
   128
 43
0.0
 10
6330.2612304688
 20
5188.2644341329
 10
6328.6860321
 20
5189.0974433189
 10
6328.4953235233
 20
5190.5204550365
  0
LWPOLYLINE
  5
3F7
330
1F
100
AcDbEntity
  8
0
  6
Continuous
 62
     7
100
AcDbPolyline
 90
        3
 70
   128
 43
0.0
 10
6330.7952880859
 20
5194.0552786926
 10
6330.6836088806
 20
5193.9996044136
 10
6330.6508621717
 20
5193.9045087436
  0
LWPOLYLINE
  5
3F8
330
1F
100
AcDbEntity
  8
0
  6
Continuous
 62
     7
100
AcDbPolyline
 90
        3
 70
   128
 43
0.0
 10
6332.4432373047
 20
5190.3866724113
 10
6331.621963874
 20
5188.7548624237
 10
6330.2650226796
 20
5188.2644341329
  0
LWPOLYLINE
  5
3F9
330
1F
100
AcDbEntity
  8
0
  6
Continuous
 62
     7
100
AcDbPolyline
 90
        3
 70
   128
 43
0.0
 10
6330.7952880859
 20
5193.8441888431
 10
6330.8452129058
 20
5193.8659799367
 10
6330.8588153267
 20
5193.9044789413
  0
LWPOLYLINE
  5
3FA
330
1F
100
AcDbEntity
  8
0
  6
Continuous
 62
     7
100
AcDbPolyline
 90
        3
 70
   128
 43
0.0
 10
6330.7952880859
 20
5193.9647690395
 10
6330.7530981172
 20
5193.9425313539
 10
6330.7399673903
 20
5193.9044789413
  0
LWPOLYLINE
  5
3FB
330
1F
100
AcDbEntity
  8
0
  6
Continuous
 62
     7
100
AcDbPolyline
 90
        3
 70
   128
 43
0.0
 10
6330.8563232422
 20
5193.9044789413
 10
6330.8371013322
 20
5193.9511481286
 10
6330.7985997343
 20
5193.9647690395
  0
LWPOLYLINE
  5
3FC
330
1F
100
AcDbEntity
  8
0
  6
Continuous
 62
     7
100
AcDbPolyline
 90
        3
 70
   128
 43
0.0
 10
6330.738067627
 20
5193.9044789413
 10
6330.7609682533
 20
5193.8582700351
 10
6330.7985997343
 20
5193.8441888431
  0
LWPOLYLINE
  5
3FD
330
1F
100
AcDbEntity
  8
0
  6
Continuous
 62
     7
100
AcDbPolyline
 90
        3
 70
   128
 43
0.0
 10
6333.5227966309
 20
5195.4913035968
 10
6333.4663844998
 20
5195.4613005075
 10
6333.4148226822
 20
5195.4556451181
  0
LWPOLYLINE
  5
3FE
330
1F
100
AcDbEntity
  8
0
  6
Continuous
 62
     7
100
AcDbPolyline
 90
        3
 70
   128
 43
0.0
 10
6333.5609436035
 20
5195.5957905391
 10
6333.553682692
 20
5195.5324102513
 10
6333.5248118782
 20
5195.4913035968
  0
LWPOLYLINE
  5
3FF
330
1F
100
AcDbEntity
  8
0
  6
Continuous
 62
     7
100
AcDbPolyline
 90
        3
 70
   128
 43
0.0
 10
6333.4121704102
 20
5195.728068147
 10
6333.5326742218
 20
5195.6894572129
 10
6333.5646464074
 20
5195.5957905391
  0
LWPOLYLINE
  5
400
330
1F
100
AcDbEntity
  8
0
  6
Continuous
 62
     7
100
AcDbPolyline
 90
        3
 70
   128
 43
0.0
 10
6333.6143493652
 20
5195.4921082595
 10
6333.6392887505
 20
5195.5502106151
 10
6333.6446134889
 20
5195.5994413236
  0
LWPOLYLINE
  5
401
330
1F
100
AcDbEntity
  8
0
  6
Continuous
 62
     7
100
AcDbPolyline
 90
        3
 70
   128
 43
0.0
 10
6333.5266113281
 20
5195.4194203952
 10
6333.5830541437
 20
5195.4541972813
 10
6333.6150458598
 20
5195.4921082595
  0
LWPOLYLINE
  5
402
330
1F
100
AcDbEntity
  8
0
  6
Continuous
 62
     7
100
AcDbPolyline
 90
        3
 70
   128
 43
0.0
 10
6333.5838317871
 20
5195.7465008834
 10
6333.4922221706
 20
5195.78703348
 10
6333.413217082
 20
5195.7942442039
  0
LWPOLYLINE
  5
403
330
1F
100
AcDbEntity
  8
0
  6
Continuous
 62
     7
100
AcDbPolyline
 90
        3
 70
   128
 43
0.0
 10
6333.6410522461
 20
5195.5994413236
 10
6333.6281371764
 20
5195.6894473854
 10
6333.5841483021
 20
5195.7465008834
  0
LWPOLYLINE
  5
404
330
1F
100
AcDbEntity
  8
0
  6
Continuous
 62
     7
100
AcDbPolyline
 90
        3
 70
   128
 43
0.0
 10
6326.1871337891
 20
5194.111158047
 10
6327.0877605318
 20
5193.6092567605
 10
6327.3139408374
 20
5192.8145633081
  0
LWPOLYLINE
  5
405
330
1F
100
AcDbEntity
  8
0
  6
Continuous
 62
     7
100
AcDbPolyline
 90
        3
 70
   128
 43
0.0
 10
6324.8100280762
 20
5192.8240255454
 10
6325.1741667935
 20
5193.7927901872
 10
6325.9196876133
 20
5194.111158047
  0
LWPOLYLINE
  5
406
330
1F
100
AcDbEntity
  8
0
  6
Continuous
 62
     7
100
AcDbPolyline
 90
        4
 70
   128
 43
0.0
 10
6326.6105651855
 20
5192.203049455
 10
6326.5869668391
 20
5192.906859997
 10
6326.4826283578
 20
5193.240439013
 10
6326.1901883924
 20
5193.4066013435
  0
LWPOLYLINE
  5
407
330
1F
100
AcDbEntity
  8
0
  6
Continuous
 62
     7
100
AcDbPolyline
 90
        4
 70
   128
 43
0.0
 10
6325.9162902832
 20
5193.4066013435
 10
6325.6273511759
 20
5193.2379822511
 10
6325.5234998925
 20
5192.9028665426
 10
6325.4961742604
 20
5192.1965078453
  0
LWPOLYLINE
  5
408
330
1F
100
AcDbEntity
  8
0
  6
Continuous
 62
     7
100
AcDbPolyline
 90
        3
 70
   128
 43
0.0
 10
6329.8530578613
 20
5193.9031825403
 10
6329.8326324521
 20
5193.9482553747
 10
6329.7948761428
 20
5193.9617143014
  0
LWPOLYLINE
  5
409
330
1F
100
AcDbEntity
  8
0
  6
Continuous
 62
     7
100
AcDbPolyline
 90
        3
 70
   128
 43
0.0
 10
6329.7920227051
 20
5193.8428924421
 10
6329.840919405
 20
5193.8652553357
 10
6329.8552668238
 20
5193.9031825403
  0
LWPOLYLINE
  5
40A
330
1F
100
AcDbEntity
  8
0
  6
Continuous
 62
     7
100
AcDbPolyline
 90
        3
 70
   128
 43
0.0
 10
6329.7309875488
 20
5193.9031825403
 10
6329.7569477332
 20
5193.8571869237
 10
6329.7948761428
 20
5193.8428924421
  0
LWPOLYLINE
  5
40B
330
1F
100
AcDbEntity
  8
0
  6
Continuous
 62
     7
100
AcDbPolyline
 90
        3
 70
   128
 43
0.0
 10
6329.7920227051
 20
5193.9617143014
 10
6329.7489875275
 20
5193.9404711324
 10
6329.7345599675
 20
5193.9031825403
  0
LWPOLYLINE
  5
40C
330
1F
100
AcDbEntity
  8
0
  6
Continuous
 62
     7
100
AcDbPolyline
 90
        6
 70
   128
 43
0.0
 10
6229.7325134277
 20
5169.5421383718
 10
6231.340401124
 20
5169.6688886418
 10
6231.8376252096
 20
5169.8899015822
 10
6232.0180525602
 20
5170.2158944584
 10
6231.4905978035
 20
5171.0205795697
 10
6230.0187608743
 20
5171.5032205919
  0
LWPOLYLINE
  5
40D
330
1F
100
AcDbEntity
  8
0
  6
Continuous
 62
     7
100
AcDbPolyline
 90
        6
 70
   128
 43
0.0
 10
6230.0186157227
 20
5171.5032205919
 10
6228.5147420369
 20
5170.9966788223
 10
6228.1231760915
 20
5170.5732868424
 10
6228.0246713796
 20
5170.1699449899
 10
6228.4134577536
 20
5169.7642455975
 10
6229.7329566026
 20
5169.5421383718
  0
LWPOLYLINE
  5
40E
330
1F
100
AcDbEntity
  8
0
  6
Continuous
 62
     7
100
AcDbPolyline
 90
        6
 70
   128
 43
0.0
 10
6317.7299499512
 20
5169.5421383718
 10
6319.3404066743
 20
5169.6688888287
 10
6319.8376235965
 20
5169.8899036586
 10
6320.0180574452
 20
5170.2158967277
 10
6319.4905973104
 20
5171.0205821219
 10
6318.0187566722
 20
5171.5032205919
  0
LWPOLYLINE
  5
40F
330
1F
100
AcDbEntity
  8
0
  6
Continuous
 62
     7
100
AcDbPolyline
 90
        6
 70
   128
 43
0.0
 10
6318.0160522461
 20
5171.5032205919
 10
6316.514744917
 20
5170.9966756177
 10
6316.1231778673
 20
5170.5732851462
 10
6316.0246747939
 20
5170.1699438486
 10
6316.41346325
 20
5169.7642457247
 10
6317.732959851
 20
5169.5421383718
  0
LWPOLYLINE
  5
410
330
1F
100
AcDbEntity
  8
0
  6
Continuous
 62
     7
100
AcDbPolyline
 90
        3
 70
   128
 43
0.0
 10
6228.3821105957
 20
5170.8631412128
 10
6230.2710342438
 20
5170.5718528923
 10
6231.6730430865
 20
5170.8667472938
  0
LWPOLYLINE
  5
411
330
1F
100
AcDbEntity
  8
0
  6
Continuous
 62
     7
100
AcDbPolyline
 90
        3
 70
   128
 43
0.0
 10
6316.3833618164
 20
5170.8631412128
 10
6318.271033538
 20
5170.5718532134
 10
6319.6730426097
 20
5170.8667472938
  0
LWPOLYLINE
  5
412
330
1F
100
AcDbEntity
  8
0
  6
Continuous
 62
     7
100
AcDbPolyline
 90
        5
 70
   128
 43
0.0
 10
6287.6319885254
 20
5196.31211916
 10
6285.7491171835
 20
5195.6129612362
 10
6284.0740875081
 20
5196.3973343374
 10
6283.3979676665
 20
5198.1914428584
 10
6284.3358999634
 20
5200.0615791419
  0
LWPOLYLINE
  5
413
330
1F
100
AcDbEntity
  8
0
  6
Continuous
 62
     7
100
AcDbPolyline
 90
        5
 70
   128
 43
0.0
 10
6284.3322753906
 20
5200.0615791419
 10
6286.1653974349
 20
5200.5933140164
 10
6287.7342152959
 20
5199.8037906349
 10
6288.3965769477
 20
5198.1327639559
 10
6287.6352033162
 20
5196.31211916
  0
LWPOLYLINE
  5
414
330
1F
100
AcDbEntity
  8
0
  6
Continuous
 62
     7
100
AcDbPolyline
 90
        5
 70
   128
 43
0.0
 10
6263.8969421387
 20
5196.9292507509
 10
6262.3607152869
 20
5195.9744256647
 10
6260.4703504156
 20
5196.3798802032
 10
6259.4151053607
 20
5198.1463816617
 10
6259.9224856639
 20
5199.96248642
  0
LWPOLYLINE
  5
415
330
1F
100
AcDbEntity
  8
0
  6
Continuous
 62
     7
100
AcDbPolyline
 90
        5
 70
   128
 43
0.0
 10
6259.9220275879
 20
5199.96248642
 10
6261.4472293322
 20
5200.8926510981
 10
6263.3276648602
 20
5200.4827016849
 10
6264.3790713945
 20
5198.7442827585
 10
6263.8971766973
 20
5196.9292507509
  0
LWPOLYLINE
  5
416
330
1F
100
AcDbEntity
  8
0
  6
Continuous
 62
     7
100
AcDbPolyline
 90
        5
 70
   128
 43
0.0
 10
6177.5207519531
 20
5194.5861772636
 10
6177.4016482407
 20
5198.2030833696
 10
6177.3206432024
 20
5203.5449426542
 10
6177.2398483313
 20
5209.7670859376
 10
6177.1594992423
 20
5215.3217838148
  0
LWPOLYLINE
  5
417
330
1F
100
AcDbEntity
  8
0
  6
Continuous
 62
     7
100
AcDbPolyline
 90
        3
 70
   128
 43
0.0
 10
6177.1583557129
 20
5219.5948109964
 10
6177.6483477965
 20
5215.3218802046
 10
6178.0187598014
 20
5208.0024973491
  0
LWPOLYLINE
  5
418
330
1F
100
AcDbEntity
  8
0
  6
Continuous
 62
     7
100
AcDbPolyline
 90
        3
 70
   128
 43
0.0
 10
6177.1583557129
 20
5215.3217838148
 10
6177.1594992423
 20
5218.5474852711
 10
6177.1594992423
 20
5219.5948109964
  0
LWPOLYLINE
  5
419
330
1F
100
AcDbEntity
  8
0
  6
Continuous
 62
     7
100
AcDbPolyline
 90
        5
 70
   128
 43
0.0
 10
6177.1583557129
 20
5219.5948109964
 10
6177.418415646
 20
5212.8072287199
 10
6177.5875828645
 20
5204.7881936028
 10
6177.7567236421
 20
5197.830155125
 10
6177.924614265
 20
5194.9856326917
  0
LWPOLYLINE
  5
41A
330
1F
100
AcDbEntity
  8
0
  6
Continuous
 62
     7
100
AcDbPolyline
 90
        5
 70
   128
 43
0.0
 10
6178.7300109863
 20
5219.62167779
 10
6178.7792708027
 20
5219.3746765236
 10
6178.8269130166
 20
5218.6544224223
 10
6179.121680541
 20
5207.4077720005
 10
6179.5121094728
 20
5194.9856326917
  0
LWPOLYLINE
  5
41B
330
1F
100
AcDbEntity
  8
0
  6
Continuous
 62
     7
100
AcDbPolyline
 90
        5
 70
   128
 43
0.0
 10
6180.3169250488
 20
5219.62167779
 10
6180.3667646023
 20
5219.374676511
 10
6180.4144137114
 20
5218.6544224733
 10
6180.709181701
 20
5207.4077721226
 10
6181.0996046806
 20
5194.9856326917
  0
LWPOLYLINE
  5
41C
330
1F
100
AcDbEntity
  8
0
  6
Continuous
 62
     7
100
AcDbPolyline
 90
        5
 70
   128
 43
0.0
 10
6181.9038391113
 20
5219.62167779
 10
6181.9542729089
 20
5219.3746765258
 10
6182.0019059183
 20
5218.6544224627
 10
6182.2966888469
 20
5207.4077722162
 10
6182.6871147895
 20
5194.9856326917
  0
LWPOLYLINE
  5
41D
330
1F
100
AcDbEntity
  8
0
  6
Continuous
 62
     7
100
AcDbPolyline
 90
        5
 70
   128
 43
0.0
 10
6183.4907531738
 20
5219.62167779
 10
6183.5417681533
 20
5219.3746765269
 10
6183.5894010093
 20
5218.6544224619
 10
6183.8841810716
 20
5207.4077721582
 10
6184.2746099973
 20
5194.9856326917
  0
LWPOLYLINE
  5
41E
330
1F
100
AcDbEntity
  8
0
  6
Continuous
 62
     7
100
AcDbPolyline
 90
        3
 70
   128
 43
0.0
 10
6185.0776672363
 20
5219.62167779
 10
6185.3259797917
 20
5214.1180300088
 10
6185.5187526488
 20
5205.1147566179
  0
ARC
  5
41F
330
1F
100
AcDbEntity
  8
0
  6
Continuous
 62
     7
100
AcDbCircle
 10
6230.7588339485
 20
5202.6124280899
 30
0.0
 40
53.01687925015295
100
AcDbArc
 50
174.1648257719
 51
189.2400179105
  0
LWPOLYLINE
  5
420
330
1F
100
AcDbEntity
  8
0
  6
Continuous
 62
     7
100
AcDbPolyline
 90
        5
 70
   128
 43
0.0
 10
6179.2221069336
 20
5220.4802230934
 10
6179.6205949681
 20
5207.2692291944
 10
6179.9164948084
 20
5195.0538751167
 10
6179.9920291624
 20
5194.1501138183
 10
6180.0173780465
 20
5194.0994755367
  0
LWPOLYLINE
  5
421
330
1F
100
AcDbEntity
  8
0
  6
Continuous
 62
     7
100
AcDbPolyline
 90
        5
 70
   128
 43
0.0
 10
6180.8090209961
 20
5220.4802230934
 10
6181.2080973311
 20
5207.2692293267
 10
6181.5039907278
 20
5195.0538751224
 10
6181.579535149
 20
5194.1501138459
 10
6181.6048732543
 20
5194.0994755367
  0
LWPOLYLINE
  5
422
330
1F
100
AcDbEntity
  8
0
  6
Continuous
 62
     7
100
AcDbPolyline
 90
        5
 70
   128
 43
0.0
 10
6182.3959350586
 20
5220.4802230934
 10
6182.7956010621
 20
5207.2692293518
 10
6183.0914857942
 20
5195.0538750214
 10
6183.1670358053
 20
5194.1501138277
 10
6183.1923833633
 20
5194.0994755367
  0
LWPOLYLINE
  5
423
330
1F
100
AcDbEntity
  8
0
  6
Continuous
 62
     7
100
AcDbPolyline
 90
        5
 70
   128
 43
0.0
 10
6183.9828491211
 20
5220.4802230934
 10
6184.3830964522
 20
5207.2692292165
 10
6184.6789953331
 20
5195.0538751171
 10
6184.7545296868
 20
5194.1501138183
 10
6184.7798785711
 20
5194.0994755367
  0
LWPOLYLINE
  5
424
330
1F
100
AcDbEntity
  8
0
  6
Continuous
 62
     7
100
AcDbPolyline
 90
        8
 70
   128
 43
0.0
 10
6178.0395507812
 20
5220.4344914297
 10
6178.4342295778
 20
5207.0481352498
 10
6178.7270053646
 20
5195.0431838226
 10
6178.8017878729
 20
5194.0839387202
 10
6178.8080407868
 20
5194.0701736996
 10
6178.8103764807
 20
5194.0689653151
 10
6178.8127064305
 20
5194.0700130172
 10
6178.8265964532
 20
5194.1100702623
  0
LWPOLYLINE
  5
425
330
1F
100
AcDbEntity
  8
0
  6
Continuous
 62
     7
100
AcDbPolyline
 90
        8
 70
   128
 43
0.0
 10
6179.6264648438
 20
5220.4344914297
 10
6180.0217242388
 20
5207.0481352503
 10
6180.3145185042
 20
5195.0431839502
 10
6180.3892845228
 20
5194.0839387276
 10
6180.3955364152
 20
5194.0701737018
 10
6180.3978718477
 20
5194.0689653159
 10
6180.4002016107
 20
5194.0700130171
 10
6180.414091661
 20
5194.1100702623
  0
LWPOLYLINE
  5
426
330
1F
100
AcDbEntity
  8
0
  6
Continuous
 62
     7
100
AcDbPolyline
 90
        8
 70
   128
 43
0.0
 10
6181.2133789062
 20
5220.4344914297
 10
6181.6092315049
 20
5207.048135482
 10
6181.902014196
 20
5195.0431839577
 10
6181.9767796957
 20
5194.083938727
 10
6181.9830316123
 20
5194.0701737016
 10
6181.9853670514
 20
5194.0689653159
 10
6181.9876968192
 20
5194.0700130171
 10
6182.0015868688
 20
5194.1100702623
  0
LWPOLYLINE
  5
427
330
1F
100
AcDbEntity
  8
0
  6
Continuous
 62
     7
100
AcDbPolyline
 90
        8
 70
   128
 43
0.0
 10
6182.8002929688
 20
5220.4344914297
 10
6183.1967301023
 20
5207.0481352498
 10
6183.4895058891
 20
5195.0431838226
 10
6183.5642883974
 20
5194.0839387202
 10
6183.5705413113
 20
5194.0701736996
 10
6183.5728770052
 20
5194.0689653151
 10
6183.5752069551
 20
5194.0700130172
 10
6183.5890969777
 20
5194.1100702623
  0
LWPOLYLINE
  5
428
330
1F
100
AcDbEntity
  8
0
  6
Continuous
 62
     7
100
AcDbPolyline
 90
        8
 70
   128
 43
0.0
 10
6184.3910217285
 20
5220.4344914297
 10
6184.7842247633
 20
5207.0481352503
 10
6185.0770190287
 20
5195.0431839502
 10
6185.1517850473
 20
5194.0839387276
 10
6185.1580369397
 20
5194.0701737018
 10
6185.1603723722
 20
5194.0689653159
 10
6185.1627021352
 20
5194.0700130171
 10
6185.1765921855
 20
5194.1100702623
  0
LWPOLYLINE
  5
429
330
1F
100
AcDbEntity
  8
0
  6
Continuous
 62
     7
100
AcDbPolyline
 90
        5
 70
   128
 43
0.0
 10
6177.1583557129
 20
5215.3217838148
 10
6177.3555290222
 20
5206.4485765553
 10
6177.4808395156
 20
5200.6134451368
 10
6177.6081108272
 20
5196.424476212
 10
6177.7358761573
 20
5194.9536846021
  0
LWPOLYLINE
  5
42A
330
1F
100
AcDbEntity
  8
0
  6
Continuous
 62
     7
100
AcDbPolyline
 90
        5
 70
   128
 43
0.0
 10
6178.5354614258
 20
5219.5766762832
 10
6178.9308777554
 20
5207.0397293394
 10
6179.2235029191
 20
5195.8180443812
 10
6179.2983042154
 20
5194.9996743805
 10
6179.3233862663
 20
5194.9536846021
  0
LWPOLYLINE
  5
42B
330
1F
100
AcDbEntity
  8
0
  6
Continuous
 62
     7
100
AcDbPolyline
 90
        5
 70
   128
 43
0.0
 10
6180.1223754883
 20
5219.5766762832
 10
6180.5183730096
 20
5207.03972919
 10
6180.811013061
 20
5195.8180444842
 10
6180.8858088295
 20
5194.9996744015
 10
6180.910881474
 20
5194.9536846021
  0
LWPOLYLINE
  5
42C
330
1F
100
AcDbEntity
  8
0
  6
Continuous
 62
     7
100
AcDbPolyline
 90
        5
 70
   128
 43
0.0
 10
6181.7092895508
 20
5219.5766762832
 10
6182.1058818575
 20
5207.0397294757
 10
6182.3985084703
 20
5195.8180444893
 10
6182.4733039083
 20
5194.9996743996
 10
6182.4983766818
 20
5194.9536846021
  0
LWPOLYLINE
  5
42D
330
1F
100
AcDbEntity
  8
0
  6
Continuous
 62
     7
100
AcDbPolyline
 90
        5
 70
   128
 43
0.0
 10
6183.3000183105
 20
5219.5766762832
 10
6183.6933782799
 20
5207.0397293394
 10
6183.9860034436
 20
5195.8180443812
 10
6184.0608047399
 20
5194.9996743805
 10
6184.0858867908
 20
5194.9536846021
  0
LWPOLYLINE
  5
42E
330
1F
100
AcDbEntity
  8
0
  6
Continuous
 62
     7
100
AcDbPolyline
 90
        5
 70
   128
 43
0.0
 10
6184.886932373
 20
5219.5766762832
 10
6185.1027002354
 20
5215.1079279059
 10
6185.240417835
 20
5208.9675525874
 10
6185.3783498798
 20
5202.3262135763
 10
6185.5187526488
 20
5197.1388355831
  0
LWPOLYLINE
  5
42F
330
1F
100
AcDbEntity
  8
0
  6
Continuous
 62
     7
100
AcDbPolyline
 90
        9
 70
   128
 43
0.0
 10
6370.0180053711
 20
5220.4693303445
 10
6370.2634229736
 20
5207.0997122228
 10
6370.4511573903
 20
5195.4526239599
 10
6370.4970154405
 20
5194.5740630923
 10
6370.5009602408
 20
5194.558943374
 10
6370.5024488554
 20
5194.5569007365
 10
6370.5031951561
 20
5194.5566594443
 10
6370.5039427727
 20
5194.5569339812
 10
6370.5129803674
 20
5194.5861772636
  0
LWPOLYLINE
  5
430
330
1F
100
AcDbEntity
  8
0
  6
Continuous
 62
     7
100
AcDbPolyline
 90
       14
 70
   128
 43
0.0
 10
6369.6060180664
 20
5194.0994755367
 10
6369.593401279
 20
5194.056959561
 10
6369.5910576878
 20
5194.0570861625
 10
6369.5887229737
 20
5194.0595603353
 10
6369.5825369328
 20
5194.0770540095
 10
6369.5098934443
 20
5195.0637754594
 10
6369.2106681669
 20
5207.2696094238
 10
6368.9147779889
 20
5219.4758988679
 10
6368.8389842584
 20
5220.4778781393
 10
6368.828288579
 20
5220.5129369605
 10
6368.8265178052
 20
5220.5142698053
 10
6368.8247510764
 20
5220.514206445
 10
6368.8200614631
 20
5220.5069048758
 10
6368.8138633551
 20
5220.4802230934
  0
LWPOLYLINE
  5
431
330
1F
100
AcDbEntity
  8
0
  6
Continuous
 62
     7
100
AcDbPolyline
 90
       14
 70
   128
 43
0.0
 10
6368.0191040039
 20
5194.0994755367
 10
6368.0059008461
 20
5194.0569595613
 10
6368.0035571924
 20
5194.0570861627
 10
6368.0012224257
 20
5194.0595603355
 10
6367.99503629
 20
5194.0770540094
 10
6367.9223934078
 20
5195.0637754577
 10
6367.6231687543
 20
5207.2696094363
 10
6367.3272768417
 20
5219.4758988683
 10
6367.2514896613
 20
5220.4778781292
 10
6367.2407934369
 20
5220.5129369514
 10
6367.2390223396
 20
5220.5142697967
 10
6367.23725521
 20
5220.5142064372
 10
6367.2325641193
 20
5220.5069048705
 10
6367.226363025
 20
5220.4802230934
  0
LWPOLYLINE
  5
432
330
1F
100
AcDbEntity
  8
0
  6
Continuous
 62
     7
100
AcDbPolyline
 90
       14
 70
   128
 43
0.0
 10
6366.4321899414
 20
5194.0994755367
 10
6366.4184009801
 20
5194.0569595613
 10
6366.4160573247
 20
5194.0570861627
 10
6366.4137225561
 20
5194.0595603354
 10
6366.4075364138
 20
5194.0770540092
 10
6366.3348936666
 20
5195.0637754593
 10
6366.0356679718
 20
5207.2696094188
 10
6365.739777752
 20
5219.475898867
 10
6365.663984071
 20
5220.4778781393
 10
6365.6532883875
 20
5220.5129369606
 10
6365.651517613
 20
5220.5142698053
 10
6365.6497508836
 20
5220.514206445
 10
6365.6450612692
 20
5220.5069048758
 10
6365.6388631606
 20
5220.4802230934
  0
LWPOLYLINE
  5
433
330
1F
100
AcDbEntity
  8
0
  6
Continuous
 62
     7
100
AcDbPolyline
 90
       14
 70
   128
 43
0.0
 10
6364.8414611816
 20
5194.0994755367
 10
6364.8309013186
 20
5194.0569595607
 10
6364.8285577853
 20
5194.0570861623
 10
6364.826223118
 20
5194.0595603351
 10
6364.8200371538
 20
5194.0770540094
 10
6364.7473936356
 20
5195.0637754653
 10
6364.4481681244
 20
5207.2696094282
 10
6364.1522778567
 20
5219.4758988674
 10
6364.0764842117
 20
5220.4778781394
 10
6364.0657885251
 20
5220.5129369606
 10
6364.0640177503
 20
5220.5142698054
 10
6364.0622510204
 20
5220.5142064451
 10
6364.0575614051
 20
5220.5069048758
 10
6364.0513632962
 20
5220.4802230934
  0
LWPOLYLINE
  5
434
330
1F
100
AcDbEntity
  8
0
  6
Continuous
 62
     7
100
AcDbPolyline
 90
        8
 70
   128
 43
0.0
 10
6363.2545471191
 20
5194.0994755367
 10
6363.2443542363
 20
5194.0575945261
 10
6363.242165296
 20
5194.0567290114
 10
6363.2399842548
 20
5194.05793595
 10
6363.2342039016
 20
5194.0708153366
 10
6363.1664820549
 20
5194.9355054498
 10
6362.8880677005
 20
5205.8689761197
 10
6362.5187555844
 20
5220.1927349904
  0
LWPOLYLINE
  5
435
330
1F
100
AcDbEntity
  8
0
  6
Continuous
 62
     7
100
AcDbPolyline
 90
        9
 70
   128
 43
0.0
 10
6370.0180053711
 20
5220.4693303445
 10
6370.0129915346
 20
5220.4870471786
 10
6370.0108390862
 20
5220.4909329955
 10
6370.0097659165
 20
5220.4919406266
 10
6370.0086951711
 20
5220.4922059741
 10
6370.0070942347
 20
5220.4910173642
 10
6370.0055003613
 20
5220.487666128
 10
6370.002332729
 20
5220.4748047214
 10
6369.9960451158
 20
5220.4344914297
  0
LWPOLYLINE
  5
436
330
1F
100
AcDbEntity
  8
0
  6
Continuous
 62
     7
100
AcDbPolyline
 90
       10
 70
   128
 43
0.0
 10
6369.2016601562
 20
5194.1342250446
 10
6369.1775476536
 20
5194.1832238601
 10
6369.105877219
 20
5195.2130136243
 10
6368.8093917056
 20
5207.4937638187
 10
6368.5166035171
 20
5219.5048395352
 10
6368.4420340764
 20
5220.4168008677
 10
6368.4231553885
 20
5220.496622108
 10
6368.4223762794
 20
5220.497015232
 10
6368.4215992138
 20
5220.4967888705
 10
6368.4169881562
 20
5220.4802230934
  0
LWPOLYLINE
  5
437
330
1F
100
AcDbEntity
  8
0
  6
Continuous
 62
     7
100
AcDbPolyline
 90
       10
 70
   128
 43
0.0
 10
6367.6147460938
 20
5194.1342250446
 10
6367.5900477006
 20
5194.1832238608
 10
6367.5183773541
 20
5195.2130136278
 10
6367.221891814
 20
5207.4937638225
 10
6366.9291036447
 20
5219.5048395355
 10
6366.8545342117
 20
5220.4168008677
 10
6366.8356555241
 20
5220.496622108
 10
6366.834876415
 20
5220.497015232
 10
6366.8340993494
 20
5220.4967888705
 10
6366.8294882918
 20
5220.4802230934
  0
LWPOLYLINE
  5
438
330
1F
100
AcDbEntity
  8
0
  6
Continuous
 62
     7
100
AcDbPolyline
 90
       10
 70
   128
 43
0.0
 10
6366.024017334
 20
5194.1342250446
 10
6366.0025478362
 20
5194.1832238608
 10
6365.9308774897
 20
5195.2130136278
 10
6365.6343919582
 20
5207.4937638226
 10
6365.3416029232
 20
5219.5048395304
 10
6365.2670344005
 20
5220.4168008681
 10
6365.2481556568
 20
5220.496622108
 10
6365.2473765483
 20
5220.497015232
 10
6365.2465994834
 20
5220.4967888705
 10
6365.2419884274
 20
5220.4802230934
  0
LWPOLYLINE
  5
439
330
1F
100
AcDbEntity
  8
0
  6
Continuous
 62
     7
100
AcDbPolyline
 90
       10
 70
   128
 43
0.0
 10
6364.4371032715
 20
5194.1342250446
 10
6364.4150472337
 20
5194.1832238595
 10
6364.3433768568
 20
5195.2130136217
 10
6364.0468910887
 20
5207.493763803
 10
6363.7541030622
 20
5219.5048395305
 10
6363.6795345362
 20
5220.4168008681
 10
6363.6606557924
 20
5220.496622108
 10
6363.6598766839
 20
5220.497015232
 10
6363.659099619
 20
5220.4967888705
 10
6363.654488563
 20
5220.4802230934
  0
ARC
  5
43A
330
1F
100
AcDbEntity
  8
0
  6
Continuous
 62
     7
100
AcDbCircle
 10
6402.0251290154
 20
5200.5685082288
 30
0.0
 40
39.69982253017874
100
AcDbArc
 50
174.3414753316
 51
189.3272613352
  0
LWPOLYLINE
  5
43B
330
1F
100
AcDbEntity
  8
0
  6
Continuous
 62
     7
100
AcDbPolyline
 90
       14
 70
   128
 43
0.0
 10
6370.2926635742
 20
5194.925014768
 10
6370.2866097187
 20
5194.9105303965
 10
6370.2842631442
 20
5194.9098872301
 10
6370.2819267195
 20
5194.9117629471
 10
6370.2680898873
 20
5194.970628175
 10
6370.1955110267
 20
5196.0316684909
 10
6369.8961357334
 20
5207.7084362245
 10
6369.6004338099
 20
5218.8410435855
 10
6369.5244462154
 20
5219.6392913187
 10
6369.5212905274
 20
5219.64392561
 10
6369.5181454699
 20
5219.6449953289
 10
6369.5134504485
 20
5219.639563978
 10
6369.5087860471
 20
5219.6252230526
 10
6369.4995286459
 20
5219.5766762832
  0
LWPOLYLINE
  5
43C
330
1F
100
AcDbEntity
  8
0
  6
Continuous
 62
     7
100
AcDbPolyline
 90
       14
 70
   128
 43
0.0
 10
6368.7019348145
 20
5194.925014768
 10
6368.6991098569
 20
5194.9105303965
 10
6368.6967632851
 20
5194.9098872302
 10
6368.6944268638
 20
5194.9117629471
 10
6368.6805900592
 20
5194.9706281754
 10
6368.6080107502
 20
5196.0316684871
 10
6368.3086358609
 20
5207.7084362248
 10
6368.0129339255
 20
5218.8410435847
 10
6367.9369464572
 20
5219.6392913193
 10
6367.9337907369
 20
5219.6439256105
 10
6367.9306456514
 20
5219.6449953292
 10
6367.925950598
 20
5219.6395639781
 10
6367.9212861796
 20
5219.6252230526
 10
6367.9120287815
 20
5219.5766762832
  0
LWPOLYLINE
  5
43D
330
1F
100
AcDbEntity
  8
0
  6
Continuous
 62
     7
100
AcDbPolyline
 90
       14
 70
   128
 43
0.0
 10
6367.115020752
 20
5194.925014768
 10
6367.1116095248
 20
5194.9105303965
 10
6367.1092629509
 20
5194.9098872301
 10
6367.1069265269
 20
5194.9117629471
 10
6367.0930897005
 20
5194.9706281751
 10
6367.0205107885
 20
5196.0316684898
 10
6366.7211359965
 20
5207.7084362293
 10
6366.4254335793
 20
5218.8410435827
 10
6366.3494464134
 20
5219.6392913183
 10
6366.3462907482
 20
5219.6439256098
 10
6366.3431457102
 20
5219.6449953288
 10
6366.3384507104
 20
5219.6395639779
 10
6366.3337863203
 20
5219.6252230526
 10
6366.3245289171
 20
5219.5766762832
  0
LWPOLYLINE
  5
43E
330
1F
100
AcDbEntity
  8
0
  6
Continuous
 62
     7
100
AcDbPolyline
 90
       14
 70
   128
 43
0.0
 10
6365.5281066895
 20
5194.925014768
 10
6365.5241096604
 20
5194.9105303965
 10
6365.5217630865
 20
5194.9098872301
 10
6365.5194266625
 20
5194.9117629471
 10
6365.5055898361
 20
5194.9706281751
 10
6365.4330109241
 20
5196.0316684898
 10
6365.1336361502
 20
5207.7084362292
 10
6364.8379337238
 20
5218.8410435829
 10
6364.7619465482
 20
5219.6392913183
 10
6364.7587908832
 20
5219.6439256098
 10
6364.7556458454
 20
5219.6449953288
 10
6364.7509508459
 20
5219.6395639779
 10
6364.7462864559
 20
5219.6252230526
 10
6364.7370290527
 20
5219.5766762832
  0
LWPOLYLINE
  5
43F
330
1F
100
AcDbEntity
  8
0
  6
Continuous
 62
     7
100
AcDbPolyline
 90
       14
 70
   128
 43
0.0
 10
6363.941192627
 20
5194.925014768
 10
6363.936609795
 20
5194.9105303965
 10
6363.93426322
 20
5194.9098872301
 10
6363.9319267947
 20
5194.911762947
 10
6363.9180899578
 20
5194.9706281749
 10
6363.8455111392
 20
5196.0316684909
 10
6363.5461353713
 20
5207.7084362101
 10
6363.2504341079
 20
5218.8410435827
 10
6363.174445271
 20
5219.6392913199
 10
6363.1712896359
 20
5219.6439256114
 10
6363.1681446666
 20
5219.6449953304
 10
6363.1634498511
 20
5219.6395639794
 10
6363.1587857538
 20
5219.6252230539
 10
6363.1495291883
 20
5219.5766762832
  0
LWPOLYLINE
  5
440
330
1F
100
AcDbEntity
  8
0
  6
Continuous
 62
     7
100
AcDbPolyline
 90
       14
 70
   128
 43
0.0
 10
6370.1019287109
 20
5194.9537591079
 10
6370.0960475738
 20
5194.9273729711
 10
6370.0889402245
 20
5194.9153009042
 10
6370.0865900649
 20
5194.9158491907
 10
6370.0842488052
 20
5194.9186086832
 10
6370.0780453512
 20
5194.9362200766
 10
6370.0051490923
 20
5195.8729223581
 10
6369.7048310374
 20
5207.3628301151
 10
6369.4079127194
 20
5218.7414933706
 10
6369.3319118065
 20
5219.5999567279
 10
6369.3176119035
 20
5219.6323227855
 10
6369.315241453
 20
5219.6326240285
 10
6369.3128755744
 20
5219.6313951325
 10
6369.3065870138
 20
5219.62167779
  0
LWPOLYLINE
  5
441
330
1F
100
AcDbEntity
  8
0
  6
Continuous
 62
     7
100
AcDbPolyline
 90
       14
 70
   128
 43
0.0
 10
6368.5150146484
 20
5194.9537591079
 10
6368.5085475763
 20
5194.9273729708
 10
6368.5014404827
 20
5194.9153009039
 10
6368.4990903843
 20
5194.9158491905
 10
6368.4967491748
 20
5194.918608683
 10
6368.4905458056
 20
5194.9362200767
 10
6368.4176492048
 20
5195.8729223626
 10
6368.1173306978
 20
5207.3628301149
 10
6367.8204128783
 20
5218.741493374
 10
6367.7444115904
 20
5219.5999567284
 10
6367.730111589
 20
5219.6323227856
 10
6367.7277411301
 20
5219.6326240285
 10
6367.725375246
 20
5219.6313951325
 10
6367.7190866837
 20
5219.62167779
  0
LWPOLYLINE
  5
442
330
1F
100
AcDbEntity
  8
0
  6
Continuous
 62
     7
100
AcDbPolyline
 90
       14
 70
   128
 43
0.0
 10
6366.9281005859
 20
5194.9537591079
 10
6366.9210477095
 20
5194.9273729707
 10
6366.9139406254
 20
5194.9153009039
 10
6366.9115905336
 20
5194.9158491906
 10
6366.9092493319
 20
5194.9186086832
 10
6366.9030459876
 20
5194.9362200771
 10
6366.830148659
 20
5195.8729223564
 10
6366.5298308656
 20
5207.3628301165
 10
6366.2329131367
 20
5218.7414933755
 10
6366.1569117091
 20
5219.5999567282
 10
6366.1426117219
 20
5219.6323227855
 10
6366.1402412645
 20
5219.6326240285
 10
6366.1378753813
 20
5219.6313951325
 10
6366.1315868193
 20
5219.62167779
  0
LWPOLYLINE
  5
443
330
1F
100
AcDbEntity
  8
0
  6
Continuous
 62
     7
100
AcDbPolyline
 90
       14
 70
   128
 43
0.0
 10
6365.3373718262
 20
5194.9537591079
 10
6365.3335478541
 20
5194.9273729708
 10
6365.326440734
 20
5194.9153009038
 10
6365.3240906166
 20
5194.9158491903
 10
6365.3217493836
 20
5194.9186086827
 10
6365.3155459319
 20
5194.936220076
 10
6365.242648355
 20
5195.8729223539
 10
6364.9423309639
 20
5207.3628301156
 10
6364.6454125139
 20
5218.7414933689
 10
6364.5694119083
 20
5219.5999567288
 10
6364.5551118677
 20
5219.6323227856
 10
6364.5527414048
 20
5219.6326240286
 10
6364.550375518
 20
5219.6313951325
 10
6364.5440869549
 20
5219.62167779
  0
LWPOLYLINE
  5
444
330
1F
100
AcDbEntity
  8
0
  6
Continuous
 62
     7
100
AcDbPolyline
 90
       14
 70
   128
 43
0.0
 10
6363.7504577637
 20
5194.9537591079
 10
6363.7460479897
 20
5194.9273729708
 10
6363.7389408696
 20
5194.9153009038
 10
6363.7365907522
 20
5194.9158491903
 10
6363.7342495192
 20
5194.9186086827
 10
6363.7280460675
 20
5194.9362200759
 10
6363.6551484906
 20
5195.8729223539
 10
6363.3548310995
 20
5207.3628301154
 10
6363.0579123008
 20
5218.7414933671
 10
6362.9819117703
 20
5219.5999567274
 10
6362.9676119649
 20
5219.6323227854
 10
6362.9652415227
 20
5219.6326240285
 10
6362.9628756495
 20
5219.6313951325
 10
6362.9565870905
 20
5219.62167779
  0
LWPOLYLINE
  5
445
330
1F
100
AcDbEntity
  8
0
  6
Continuous
 62
     7
100
AcDbPolyline
 90
       18
 70
   128
 43
0.0
 10
6260.9558105469
 20
5352.4290722797
 10
6260.9581740787
 20
5352.4289037188
 10
6260.9577185727
 20
5352.4289419357
 10
6260.9557897739
 20
5352.4293107892
 10
6260.949807695
 20
5352.4307850138
 10
6260.9465088823
 20
5352.4322572142
 10
6260.9457237033
 20
5352.4333599386
 10
6260.9471393761
 20
5352.4350115696
 10
6260.9515157757
 20
5352.4366600487
 10
6261.2348534223
 20
5352.4596302216
 10
6264.7668182895
 20
5352.5527673862
 10
6273.821524102
 20
5352.6779255179
 10
6285.6463095115
 20
5352.8669410914
 10
6286.5331305941
 20
5352.9156589941
 10
6286.5451598168
 20
5352.9197476247
 10
6286.5466714531
 20
5352.9212786104
 10
6286.5468397701
 20
5352.9228085854
 10
6286.5303865218
 20
5352.9319752941
  0
LWPOLYLINE
  5
446
330
1F
100
AcDbEntity
  8
0
  6
Continuous
 62
     7
100
AcDbPolyline
 90
        8
 70
   128
 43
0.0
 10
6287.2123718262
 20
5352.1240958014
 10
6274.0196669309
 20
5351.7273111374
 10
6261.8132682021
 20
5351.4279906823
 10
6260.8414069162
 20
5351.3554036733
 10
6260.8289207791
 20
5351.3492046022
 10
6260.8282822802
 20
5351.3468611028
 10
6260.8298126203
 20
5351.3445071364
 10
6260.8674577022
 20
5351.3302457521
  0
LWPOLYLINE
  5
447
330
1F
100
AcDbEntity
  8
0
  6
Continuous
 62
     7
100
AcDbPolyline
 90
        8
 70
   128
 43
0.0
 10
6287.2123718262
 20
5350.5365950057
 10
6274.0196668924
 20
5350.1398123436
 10
6261.8132682022
 20
5349.840489873
 10
6260.8414069162
 20
5349.7679028783
 10
6260.8289207791
 20
5349.7617038065
 10
6260.8282822802
 20
5349.759360307
 10
6260.8298126203
 20
5349.7570063405
 10
6260.8674577022
 20
5349.7427449563
  0
LWPOLYLINE
  5
448
330
1F
100
AcDbEntity
  8
0
  6
Continuous
 62
     7
100
AcDbPolyline
 90
        8
 70
   128
 43
0.0
 10
6287.2123718262
 20
5348.94909421
 10
6274.0196669089
 20
5348.5523116128
 10
6261.8132682004
 20
5348.252990953
 10
6260.8414069161
 20
5348.1804039445
 10
6260.8289207791
 20
5348.1742048734
 10
6260.8282822802
 20
5348.171861374
 10
6260.8298126203
 20
5348.1695074076
 10
6260.8674577022
 20
5348.1552460233
  0
LWPOLYLINE
  5
449
330
1F
100
AcDbEntity
  8
0
  6
Continuous
 62
     7
100
AcDbPolyline
 90
        8
 70
   128
 43
0.0
 10
6287.2123718262
 20
5347.3615952769
 10
6274.0196668927
 20
5346.9648126146
 10
6261.8132682022
 20
5346.6654901442
 10
6260.8414069162
 20
5346.5929031495
 10
6260.8289207791
 20
5346.5867040778
 10
6260.8282822802
 20
5346.5843605782
 10
6260.8298126203
 20
5346.5820066117
 10
6260.8674577022
 20
5346.5677452275
  0
LWPOLYLINE
  5
44A
330
1F
100
AcDbEntity
  8
0
  6
Continuous
 62
     7
100
AcDbPolyline
 90
        8
 70
   128
 43
0.0
 10
6287.2123718262
 20
5345.7740944812
 10
6274.0196668925
 20
5345.3773118273
 10
6261.8132681981
 20
5345.077990369
 10
6260.841406915
 20
5345.0054025419
 10
6260.8289207789
 20
5344.9992033093
 10
6260.8282822803
 20
5344.9968597725
 10
6260.8298126205
 20
5344.9945057821
 10
6260.8674577022
 20
5344.9802444318
  0
LWPOLYLINE
  5
44B
330
1F
100
AcDbEntity
  8
0
  6
Continuous
 62
     7
100
AcDbPolyline
 90
       10
 70
   128
 43
0.0
 10
6287.1589660645
 20
5351.7184526661
 10
6287.1685067148
 20
5351.7122407235
 10
6287.1718448538
 20
5351.7060188936
 10
6287.164856414
 20
5351.6997772894
 10
6287.1434541657
 20
5351.6935093195
 10
6286.0713889995
 20
5351.6192147794
 10
6273.7972198289
 20
5351.3261009237
 10
6261.7837331996
 20
5351.0299006455
 10
6260.8955350376
 20
5350.9581513205
 10
6260.8596420431
 20
5350.9332657793
  0
LWPOLYLINE
  5
44C
330
1F
100
AcDbEntity
  8
0
  6
Continuous
 62
     7
100
AcDbPolyline
 90
       10
 70
   128
 43
0.0
 10
6287.1589660645
 20
5350.1309537331
 10
6287.1685067148
 20
5350.1247417903
 10
6287.1718448539
 20
5350.1185199605
 10
6287.164856414
 20
5350.1122783563
 10
6287.1434541656
 20
5350.1060103866
 10
6286.0713889979
 20
5350.031715843
 10
6273.7972198493
 20
5349.7386000114
 10
6261.7837331876
 20
5349.442401751
 10
6260.8955350386
 20
5349.3706503749
 10
6260.8596420431
 20
5349.3457649836
  0
LWPOLYLINE
  5
44D
330
1F
100
AcDbEntity
  8
0
  6
Continuous
 62
     7
100
AcDbPolyline
 90
       10
 70
   128
 43
0.0
 10
6287.1589660645
 20
5348.5434529373
 10
6287.1685067148
 20
5348.5372409947
 10
6287.1718448538
 20
5348.5310191648
 10
6287.164856414
 20
5348.5247775606
 10
6287.1434541657
 20
5348.5185095907
 10
6286.0713889995
 20
5348.4442150506
 10
6273.7972198304
 20
5348.1511011463
 10
6261.7837331995
 20
5347.8549009245
 10
6260.8955350375
 20
5347.7831516021
 10
6260.8596420431
 20
5347.7582660505
  0
LWPOLYLINE
  5
44E
330
1F
100
AcDbEntity
  8
0
  6
Continuous
 62
     7
100
AcDbPolyline
 90
       10
 70
   128
 43
0.0
 10
6287.1589660645
 20
5346.9559540043
 10
6287.1685067148
 20
5346.9497420608
 10
6287.1718448539
 20
5346.9435202307
 10
6287.164856414
 20
5346.9372786275
 10
6287.1434541656
 20
5346.9310106603
 10
6286.0713889987
 20
5346.8567160595
 10
6273.7972198502
 20
5346.5636002429
 10
6261.7837331877
 20
5346.2674020222
 10
6260.8955350386
 20
5346.1956506461
 10
6260.8596420431
 20
5346.1707652548
  0
LWPOLYLINE
  5
44F
330
1F
100
AcDbEntity
  8
0
  6
Continuous
 62
     7
100
AcDbPolyline
 90
        8
 70
   128
 43
0.0
 10
6287.1589660645
 20
5345.3684532085
 10
6287.1694322237
 20
5345.361340712
 10
6287.1717243684
 20
5345.3577798272
 10
6287.1711109241
 20
5345.3542133784
 10
6287.164099455
 20
5345.3494462537
 10
6286.5257707968
 20
5345.2921194061
 10
6278.566541485
 20
5345.0675196569
 10
6264.2197793865
 20
5344.7691769341
  0
LWPOLYLINE
  5
450
330
1F
100
AcDbEntity
  8
0
  6
Continuous
 62
     7
100
AcDbPolyline
 90
        8
 70
   128
 43
0.0
 10
6286.3159179688
 20
5352.8094802985
 10
6273.8132769233
 20
5352.4175595864
 10
6262.5941176997
 20
5352.1218508698
 10
6261.6981912706
 20
5352.0501408428
 10
6261.6863121883
 20
5352.0440169929
 10
6261.6855661351
 20
5352.0417021585
 10
6261.6868387583
 20
5352.0393769376
 10
6261.7211377764
 20
5352.0252880642
  0
LWPOLYLINE
  5
451
330
1F
100
AcDbEntity
  8
0
  6
Continuous
 62
     7
100
AcDbPolyline
 90
        8
 70
   128
 43
0.0
 10
6286.3159179688
 20
5351.2219813654
 10
6273.8132769317
 20
5350.8300602632
 10
6262.5941177035
 20
5350.534350956
 10
6261.6981912719
 20
5350.4626417129
 10
6261.6863121885
 20
5350.456518027
 10
6261.685566135
 20
5350.4542032314
 10
6261.686838758
 20
5350.4518780354
 10
6261.7211377764
 20
5350.4377891311
  0
LWPOLYLINE
  5
452
330
1F
100
AcDbEntity
  8
0
  6
Continuous
 62
     7
100
AcDbPolyline
 90
        8
 70
   128
 43
0.0
 10
6286.3159179688
 20
5349.6344805697
 10
6273.813276923
 20
5349.2425598583
 10
6262.5941177067
 20
5348.9468499256
 10
6261.6981912717
 20
5348.8751409303
 10
6261.6863121885
 20
5348.8690172335
 10
6261.685566135
 20
5348.8667024353
 10
6261.6868387581
 20
5348.8643772376
 10
6261.7211377764
 20
5348.8502883354
  0
LWPOLYLINE
  5
453
330
1F
100
AcDbEntity
  8
0
  6
Continuous
 62
     7
100
AcDbPolyline
 90
        8
 70
   128
 43
0.0
 10
6286.3159179688
 20
5348.0469816366
 10
6273.8132769601
 20
5347.6550591545
 10
6262.5941177034
 20
5347.359351228
 10
6261.6981912719
 20
5347.2876419841
 10
6261.6863121885
 20
5347.2815182982
 10
6261.685566135
 20
5347.2792035026
 10
6261.686838758
 20
5347.2768783067
 10
6261.7211377764
 20
5347.2627894023
  0
LWPOLYLINE
  5
454
330
1F
100
AcDbEntity
  8
0
  6
Continuous
 62
     7
100
AcDbPolyline
 90
        8
 70
   128
 43
0.0
 10
6286.3159179688
 20
5346.4594808409
 10
6273.8132769235
 20
5346.0675601389
 10
6262.5941177035
 20
5345.7718504193
 10
6261.6981912719
 20
5345.7001411891
 10
6261.6863121885
 20
5345.6940175026
 10
6261.685566135
 20
5345.6917027069
 10
6261.686838758
 20
5345.6893775108
 10
6261.7211377764
 20
5345.6752886066
  0
LWPOLYLINE
  5
455
330
1F
100
AcDbEntity
  8
0
  6
Continuous
 62
     7
100
AcDbPolyline
 90
        9
 70
   128
 43
0.0
 10
6286.3578796387
 20
5352.6207217017
 10
6274.2531942156
 20
5352.2282376028
 10
6262.7615682985
 20
5351.9319751754
 10
6261.7283442152
 20
5351.8601970033
 10
6261.6970116032
 20
5351.8533799966
 10
6261.6846898738
 20
5351.8464759976
 10
6261.6851610988
 20
5351.8441521268
 10
6261.6879819998
 20
5351.8418162076
 10
6261.7027422929
 20
5351.8355497161
  0
LWPOLYLINE
  5
456
330
1F
100
AcDbEntity
  8
0
  6
Continuous
 62
     7
100
AcDbPolyline
 90
        9
 70
   128
 43
0.0
 10
6286.3578796387
 20
5351.0332227686
 10
6274.253194235
 20
5350.6407368105
 10
6262.7615682983
 20
5350.3444750361
 10
6261.7283442122
 20
5350.2726966739
 10
6261.6970116018
 20
5350.2658794047
 10
6261.6846898735
 20
5350.2589752356
 10
6261.6851610988
 20
5350.2566513352
 10
6261.6879819999
 20
5350.2543154017
 10
6261.7027422929
 20
5350.2480489204
  0
LWPOLYLINE
  5
457
330
1F
100
AcDbEntity
  8
0
  6
Continuous
 62
     7
100
AcDbPolyline
 90
        9
 70
   128
 43
0.0
 10
6286.3578796387
 20
5349.4457219729
 10
6274.2531942181
 20
5349.0532377393
 10
6262.7615682985
 20
5348.75697546
 10
6261.7283442152
 20
5348.685197273
 10
6261.6970116032
 20
5348.6783802671
 10
6261.6846898738
 20
5348.6714762687
 10
6261.6851610988
 20
5348.669152398
 10
6261.6879819998
 20
5348.6668164788
 10
6261.7027422929
 20
5348.6605499873
  0
LWPOLYLINE
  5
458
330
1F
100
AcDbEntity
  8
0
  6
Continuous
 62
     7
100
AcDbPolyline
 90
        9
 70
   128
 43
0.0
 10
6286.3578796387
 20
5347.8582230398
 10
6274.2531942348
 20
5347.4657370751
 10
6262.7615682993
 20
5347.1694752402
 10
6261.728344212
 20
5347.0976969526
 10
6261.6970116018
 20
5347.0908796794
 10
6261.6846898735
 20
5347.0839755074
 10
6261.6851610988
 20
5347.0816516065
 10
6261.6879819999
 20
5347.0793156727
 10
6261.7027422929
 20
5347.0730491916
  0
LWPOLYLINE
  5
459
330
1F
100
AcDbEntity
  8
0
  6
Continuous
 62
     7
100
AcDbPolyline
 90
        9
 70
   128
 43
0.0
 10
6286.3578796387
 20
5346.2707222441
 10
6274.2531942555
 20
5345.8782361884
 10
6262.7615682984
 20
5345.5819757325
 10
6261.7283442152
 20
5345.5101975441
 10
6261.6970116032
 20
5345.5033805382
 10
6261.6846898738
 20
5345.4964765399
 10
6261.6851610988
 20
5345.4941526692
 10
6261.6879819998
 20
5345.49181675
 10
6261.7027422929
 20
5345.4855502585
  0
LWPOLYLINE
  5
45A
330
1F
100
AcDbEntity
  8
0
  6
Continuous
 62
     7
100
AcDbPolyline
 90
        3
 70
   128
 43
0.0
 10
6669.7578430176
 20
5275.4465983251
 10
6670.0234788269
 20
5274.9939873917
 10
6670.2298505333
 20
5274.638322089
  0
LWPOLYLINE
  5
45B
330
1F
100
AcDbEntity
  8
0
  6
Continuous
 62
     7
100
AcDbPolyline
 90
        3
 70
   128
 43
0.0
 10
6700.7026672363
 20
5182.3654816488
 10
6702.720813259
 20
5181.3541016449
 10
6704.4555230168
 20
5181.0215459207
  0
LWPOLYLINE
  5
45C
330
1F
100
AcDbEntity
  8
0
  6
Continuous
 62
     7
100
AcDbPolyline
 90
        3
 70
   128
 43
0.0
 10
6704.4525146484
 20
5181.0215459207
 10
6706.6464942251
 20
5181.5191912959
 10
6708.204923394
 20
5182.3656306604
  0
LWPOLYLINE
  5
45D
330
1F
100
AcDbEntity
  8
0
  6
Continuous
 62
     7
100
AcDbPolyline
 90
        3
 70
   128
 43
0.0
 10
6607.0327758789
 20
5350.5401191303
 10
6607.5173000808
 20
5350.2621477845
 10
6607.8952683237
 20
5350.0437409619
  0
LWPOLYLINE
  5
45E
330
1F
100
AcDbEntity
  8
0
  6
Continuous
 62
     7
100
AcDbPolyline
 90
        3
 70
   128
 43
0.0
 10
6607.0327758789
 20
5348.9526201973
 10
6607.5172994847
 20
5348.674647819
 10
6607.8952683237
 20
5348.4562420288
  0
LWPOLYLINE
  5
45F
330
1F
100
AcDbEntity
  8
0
  6
Continuous
 62
     7
100
AcDbPolyline
 90
        3
 70
   128
 43
0.0
 10
6607.0327758789
 20
5347.3651194015
 10
6607.5173000808
 20
5347.0871480557
 10
6607.8952683237
 20
5346.8687412331
  0
LWPOLYLINE
  5
460
330
1F
100
AcDbEntity
  8
0
  6
Continuous
 62
     7
100
AcDbPolyline
 90
        3
 70
   128
 43
0.0
 10
6607.0327758789
 20
5345.7776204685
 10
6607.5172997827
 20
5345.4996475633
 10
6607.8952683237
 20
5345.2812404374
  0
LWPOLYLINE
  5
461
330
1F
100
AcDbEntity
  8
0
  6
Continuous
 62
     7
100
AcDbPolyline
 90
        3
 70
   128
 43
0.0
 10
6632.6065063477
 20
5350.8250796238
 10
6633.0903804458
 20
5351.1032321966
 10
6633.4686858681
 20
5351.3217763046
  0
LWPOLYLINE
  5
462
330
1F
100
AcDbEntity
  8
0
  6
Continuous
 62
     7
100
AcDbPolyline
 90
        3
 70
   128
 43
0.0
 10
6632.6065063477
 20
5349.2375806907
 10
6633.0903804458
 20
5349.5157332635
 10
6633.4686858681
 20
5349.7342773715
  0
LWPOLYLINE
  5
463
330
1F
100
AcDbEntity
  8
0
  6
Continuous
 62
     7
100
AcDbPolyline
 90
        3
 70
   128
 43
0.0
 10
6632.6065063477
 20
5347.650079895
 10
6633.0903804458
 20
5347.9282324678
 10
6633.4686858681
 20
5348.1467765758
  0
LWPOLYLINE
  5
464
330
1F
100
AcDbEntity
  8
0
  6
Continuous
 62
     7
100
AcDbPolyline
 90
        3
 70
   128
 43
0.0
 10
6632.6065063477
 20
5346.0625809619
 10
6633.0903804458
 20
5346.3407335347
 10
6633.4686858681
 20
5346.5592776427
  0
LWPOLYLINE
  5
465
330
1F
100
AcDbEntity
  8
0
  6
Continuous
 62
     7
100
AcDbPolyline
 90
        3
 70
   128
 43
0.0
 10
6632.6065063477
 20
5352.4125804195
 10
6632.8593318856
 20
5352.5572449407
 10
6633.0560876158
 20
5352.6709255764
  0
LWPOLYLINE
  5
466
330
1F
100
AcDbEntity
  8
0
  6
Continuous
 62
     7
100
AcDbPolyline
 90
        3
 70
   128
 43
0.0
 10
6607.0327758789
 20
5352.1276199261
 10
6607.5172994847
 20
5351.8496475478
 10
6607.8952683237
 20
5351.6312417576
  0
LWPOLYLINE
  5
467
330
1F
100
AcDbEntity
  8
0
  6
Continuous
 62
     7
100
AcDbPolyline
 90
        3
 70
   128
 43
0.0
 10
6607.8987121582
 20
5351.4387150297
 10
6607.4206614238
 20
5351.1605671816
 10
6607.0423556593
 20
5350.9420276621
  0
LWPOLYLINE
  5
468
330
1F
100
AcDbEntity
  8
0
  6
Continuous
 62
     7
100
AcDbPolyline
 90
        3
 70
   128
 43
0.0
 10
6607.8987121582
 20
5349.8512160966
 10
6607.4206611256
 20
5349.5730677216
 10
6607.0423556593
 20
5349.3545268664
  0
LWPOLYLINE
  5
469
330
1F
100
AcDbEntity
  8
0
  6
Continuous
 62
     7
100
AcDbPolyline
 90
        3
 70
   128
 43
0.0
 10
6607.8987121582
 20
5348.2637153009
 10
6607.4206614238
 20
5347.9855674528
 10
6607.0423556593
 20
5347.7670279333
  0
LWPOLYLINE
  5
46A
330
1F
100
AcDbEntity
  8
0
  6
Continuous
 62
     7
100
AcDbPolyline
 90
        3
 70
   128
 43
0.0
 10
6607.8987121582
 20
5346.6762145052
 10
6607.4206608274
 20
5346.3980676894
 10
6607.0423556593
 20
5346.1795271376
  0
LWPOLYLINE
  5
46B
330
1F
100
AcDbEntity
  8
0
  6
Continuous
 62
     7
100
AcDbPolyline
 90
        3
 70
   128
 43
0.0
 10
6607.8987121582
 20
5345.0887155721
 10
6607.6077649791
 20
5344.9186542659
 10
6607.3764694956
 20
5344.7850392202
  0
LWPOLYLINE
  5
46C
330
1F
100
AcDbEntity
  8
0
  6
Continuous
 62
     7
100
AcDbPolyline
 90
        3
 70
   128
 43
0.0
 10
6633.4686279297
 20
5350.1482763329
 10
6632.9916019985
 20
5350.4238897417
 10
6632.6167417792
 20
5350.6404486487
  0
LWPOLYLINE
  5
46D
330
1F
100
AcDbEntity
  8
0
  6
Continuous
 62
     7
100
AcDbPolyline
 90
        3
 70
   128
 43
0.0
 10
6633.4686279297
 20
5348.5607773999
 10
6632.9916022996
 20
5348.8363902867
 10
6632.6167417792
 20
5349.0529478529
  0
LWPOLYLINE
  5
46E
330
1F
100
AcDbEntity
  8
0
  6
Continuous
 62
     7
100
AcDbPolyline
 90
        3
 70
   128
 43
0.0
 10
6633.4686279297
 20
5346.9732766041
 10
6632.9916019985
 20
5347.2488900129
 10
6632.6167417792
 20
5347.4654489199
  0
LWPOLYLINE
  5
46F
330
1F
100
AcDbEntity
  8
0
  6
Continuous
 62
     7
100
AcDbPolyline
 90
        3
 70
   128
 43
0.0
 10
6633.4686279297
 20
5345.3857776711
 10
6632.9916017029
 20
5345.6613895251
 10
6632.6167417792
 20
5345.8779481241
  0
LWPOLYLINE
  5
470
330
1F
100
AcDbEntity
  8
0
  6
Continuous
 62
     7
100
AcDbPolyline
 90
        3
 70
   128
 43
0.0
 10
6633.4686279297
 20
5351.7357771287
 10
6632.9916019985
 20
5352.0113905374
 10
6632.6167417792
 20
5352.2279494444
  0
LWPOLYLINE
  5
471
330
1F
100
AcDbEntity
  8
0
  6
Continuous
 62
     7
100
AcDbPolyline
 90
        3
 70
   128
 43
0.0
 10
6669.7540283203
 20
5279.0231750348
 10
6670.0375654932
 20
5275.5959541078
 10
6670.2555401352
 20
5274.5691807011
  0
LWPOLYLINE
  5
472
330
1F
100
AcDbEntity
  8
0
  6
Continuous
 62
     7
100
AcDbPolyline
 90
        6
 70
   128
 43
0.0
 10
6669.3649291992
 20
5279.6562285164
 10
6669.5369581402
 20
5275.6549244216
 10
6669.5786239277
 20
5275.3496210105
 10
6669.5803502222
 20
5275.3486403719
 10
6669.5820773691
 20
5275.3489164462
 10
6669.5924682644
 20
5275.3787011841
  0
LWPOLYLINE
  5
473
330
1F
100
AcDbEntity
  8
0
  6
Continuous
 62
     7
100
AcDbPolyline
 90
        3
 70
   128
 43
0.0
 10
6670.7534790039
 20
5284.4086186031
 10
6670.7316794188
 20
5285.4514963543
 10
6670.7128567723
 20
5286.2691775897
  0
LWPOLYLINE
  5
474
330
1F
100
AcDbEntity
  8
0
  6
Continuous
 62
     7
100
AcDbPolyline
 90
        8
 70
   128
 43
0.0
 10
6670.654296875
 20
5274.7205094436
 10
6670.6320141238
 20
5274.5735105497
 10
6670.6273883724
 20
5274.562456193
 10
6670.6227681874
 20
5274.5587906633
 10
6670.6181510465
 20
5274.5622030086
 10
6670.6135344073
 20
5274.5723733465
 10
6670.5572632236
 20
5275.1059556376
 10
6670.2555401352
 20
5285.7691765765
  0
LWPOLYLINE
  5
475
330
1F
100
AcDbEntity
  8
0
  6
Continuous
 62
     7
100
AcDbPolyline
 90
        3
 70
   128
 43
0.0
 10
6669.7578430176
 20
5275.532794092
 10
6669.6481270345
 20
5277.0680438762
 10
6669.5627255467
 20
5279.6632246116
  0
LWPOLYLINE
  5
476
330
1F
100
AcDbEntity
  8
0
  6
Continuous
 62
     7
100
AcDbPolyline
 90
        3
 70
   128
 43
0.0
 10
6669.7540283203
 20
5275.5080805162
 10
6669.6496361295
 20
5277.1809310661
 10
6669.5695800808
 20
5279.6562285164
  0
LWPOLYLINE
  5
477
330
1F
100
AcDbEntity
  8
0
  6
Continuous
 62
     7
100
AcDbPolyline
 90
        3
 70
   128
 43
0.0
 10
6669.7540283203
 20
5275.5080805162
 10
6669.7555167702
 20
5276.8785206687
 10
6669.7555167702
 20
5279.0231750348
  0
LWPOLYLINE
  5
478
330
1F
100
AcDbEntity
  8
0
  6
Continuous
 62
     7
100
AcDbPolyline
 90
        4
 70
   128
 43
0.0
 10
6624.0196228027
 20
5203.2624528745
 10
6622.5548421272
 20
5203.2035386621
 10
6621.9721807436
 20
5202.7713575555
 10
6621.8353344229
 20
5202.0593778232
  0
LWPOLYLINE
  5
479
330
1F
100
AcDbEntity
  8
0
  6
Continuous
 62
     7
100
AcDbPolyline
 90
        4
 70
   128
 43
0.0
 10
6615.8828735352
 20
5204.0010587314
 10
6617.2939676998
 20
5203.6665462785
 10
6617.7712881017
 20
5203.1318065838
 10
6617.7326126126
 20
5202.4188236335
  0
LWPOLYLINE
  5
47A
330
1F
100
AcDbEntity
  8
0
  6
Continuous
 62
     7
100
AcDbPolyline
 90
        3
 70
   128
 43
0.0
 10
6701.3931274414
 20
5182.7489332298
 10
6704.9049936913
 20
5182.9693022584
 10
6707.5055224922
 20
5182.7521667818
  0
LWPOLYLINE
  5
47B
330
1F
100
AcDbEntity
  8
0
  6
Continuous
 62
     7
100
AcDbPolyline
 90
        6
 70
   128
 43
0.0
 10
6720.3712463379
 20
5196.9292507509
 10
6719.285296992
 20
5195.9744256647
 10
6718.9179303091
 20
5195.9443319272
 10
6718.6218147391
 20
5196.1294253946
 10
6718.5301323111
 20
5197.891971171
 10
6719.517199519
 20
5199.96248642
  0
LWPOLYLINE
  5
47C
330
1F
100
AcDbEntity
  8
0
  6
Continuous
 62
     7
100
AcDbPolyline
 90
        6
 70
   128
 43
0.0
 10
6719.5167541504
 20
5199.96248642
 10
6720.5823524165
 20
5200.8926510981
 10
6720.9287735867
 20
5200.9166938586
 10
6721.2020439104
 20
5200.7313393697
 10
6721.2909872789
 20
5198.9960310753
 10
6720.3722281483
 20
5196.9292507509
  0
LWPOLYLINE
  5
47D
330
1F
100
AcDbEntity
  8
0
  6
Continuous
 62
     7
100
AcDbPolyline
 90
        6
 70
   128
 43
0.0
 10
6718.9788818359
 20
5195.9315435031
 10
6720.5627693524
 20
5197.3144198246
 10
6721.3387729129
 20
5200.1528595661
 10
6721.1395968247
 20
5200.7375409213
 10
6720.9681405355
 20
5200.897205354
 10
6720.7466049221
 20
5200.9107963184
  0
LWPOLYLINE
  5
47E
330
1F
100
AcDbEntity
  8
0
  6
Continuous
 62
     7
100
AcDbPolyline
 90
        9
 70
   128
 43
0.0
 10
6619.5220947266
 20
5220.4693237347
 10
6611.7363456786
 20
5217.2406065395
 10
6607.5236814725
 20
5209.942562087
 10
6608.6661993604
 20
5201.5965642604
 10
6614.7130747249
 20
5195.7357483482
 10
6623.0900232661
 20
5194.9014148531
 10
6630.1436574031
 20
5199.4920531173
 10
6632.7240285365
 20
5207.499808969
 10
6629.6340061453
 20
5215.3217838148
  0
LWPOLYLINE
  5
47F
330
1F
100
AcDbEntity
  8
0
  6
Continuous
 62
     7
100
AcDbPolyline
 90
        3
 70
   128
 43
0.0
 10
6621.1929321289
 20
5219.5948109964
 10
6630.2697339952
 20
5215.3216666487
 10
6633.4556771544
 20
5208.0024973491
  0
LWPOLYLINE
  5
480
330
1F
100
AcDbEntity
  8
0
  6
Continuous
 62
     7
100
AcDbPolyline
 90
        3
 70
   128
 43
0.0
 10
6629.6310424805
 20
5215.3217838148
 10
6625.3123707328
 20
5218.5472095334
 10
6621.1930645731
 20
5219.5948109964
  0
ARC
  5
481
330
1F
100
AcDbEntity
  8
0
  6
Continuous
 62
     7
100
AcDbCircle
 10
6620.272932411
 20
5207.2239088804
 30
0.0
 40
13.20341290678573
100
AcDbArc
 50
112.2702829639
 51
3.3806204349
  0
LWPOLYLINE
  5
482
330
1F
100
AcDbEntity
  8
0
  6
Continuous
 62
     7
100
AcDbPolyline
 90
        3
 70
   128
 43
0.0
 10
6621.1929321289
 20
5219.5948109964
 10
6626.6319053061
 20
5217.8597517362
 10
6629.9502832916
 20
5214.8349777797
  0
LWPOLYLINE
  5
483
330
1F
100
AcDbEntity
  8
0
  6
Continuous
 62
     7
100
AcDbPolyline
 90
        8
 70
   128
 43
0.0
 10
6609.188079834
 20
5352.2691772321
 10
6630.548413313
 20
5352.5766022669
 10
6632.933207382
 20
5352.6538162935
 10
6633.0581954577
 20
5352.6688366031
 10
6633.0616395414
 20
5352.6713174976
 10
6633.0611319594
 20
5352.6725540879
 10
6633.0590746667
 20
5352.6737878538
 10
6633.0298019675
 20
5352.6803337971
  0
LWPOLYLINE
  5
484
330
1F
100
AcDbEntity
  8
0
  6
Continuous
 62
     7
100
AcDbPolyline
 90
        3
 70
   128
 43
0.0
 10
6609.1117858887
 20
5353.1284377912
 10
6607.9738100737
 20
5352.9812550788
 10
6607.6730920103
 20
5352.8647673318
  0
LINE
  5
485
330
1F
100
AcDbEntity
  8
0
  6
Continuous
 62
     7
100
AcDbLine
 10
6607.9025268555
 20
5353.1284377912
 30
0.0
 11
6609.1124547747
 21
5353.1284377912
 31
0.0
  0
LWPOLYLINE
  5
486
330
1F
100
AcDbEntity
  8
0
  6
Continuous
 62
     7
100
AcDbPolyline
 90
        8
 70
   128
 43
0.0
 10
6609.188079834
 20
5352.2691772321
 10
6607.165722302
 20
5352.1632887221
 10
6607.107485616
 20
5352.1534092857
 10
6607.0924001689
 20
5352.1484030742
 10
6607.0871814639
 20
5352.1433446629
 10
6607.0883647705
 20
5352.1399472126
 10
6607.0923786724
 20
5352.1365344766
 10
6607.1110500124
 20
5352.1273908207
  0
LWPOLYLINE
  5
487
330
1F
100
AcDbEntity
  8
0
  6
Continuous
 62
     7
100
AcDbPolyline
 90
       15
 70
   128
 43
0.0
 10
6633.4114074707
 20
5351.3216179797
 10
6633.4273205761
 20
5351.3154516477
 10
6633.4314857564
 20
5351.3123623677
 10
6633.4324348003
 20
5351.3108151292
 10
6633.4324503546
 20
5351.3092657509
 10
6633.4222622801
 20
5351.3030459081
 10
6633.3965204284
 20
5351.2967971096
 10
6632.316517977
 20
5351.222738443
 10
6620.1209784129
 20
5350.9308880678
 10
6608.0878279018
 20
5350.6360804635
 10
6607.1027590177
 20
5350.5646720451
 10
6607.0888234375
 20
5350.5585629485
 10
6607.0872995692
 20
5350.556252164
 10
6607.0874965769
 20
5350.5539320471
 10
6607.1110500124
 20
5350.539890025
  0
LWPOLYLINE
  5
488
330
1F
100
AcDbEntity
  8
0
  6
Continuous
 62
     7
100
AcDbPolyline
 90
       15
 70
   128
 43
0.0
 10
6633.4114074707
 20
5349.7341190467
 10
6633.4273205758
 20
5349.7279517038
 10
6633.4314857563
 20
5349.724861963
 10
6633.4324348003
 20
5349.723314513
 10
6633.4324503548
 20
5349.7217649388
 10
6633.4222622814
 20
5349.715544481
 10
6633.3965204309
 20
5349.7092953101
 10
6632.3165179913
 20
5349.6352379715
 10
6620.1209784492
 20
5349.3433871959
 10
6608.0878278974
 20
5349.0485813595
 10
6607.1027590187
 20
5348.977172975
 10
6607.0888234373
 20
5348.9710640454
 10
6607.0872995687
 20
5348.9687532933
 10
6607.0874965763
 20
5348.9664331943
 10
6607.1110500124
 20
5348.9523910919
  0
LWPOLYLINE
  5
489
330
1F
100
AcDbEntity
  8
0
  6
Continuous
 62
     7
100
AcDbPolyline
 90
       15
 70
   128
 43
0.0
 10
6633.4114074707
 20
5348.1466182509
 10
6633.4273205761
 20
5348.1404519141
 10
6633.4314857565
 20
5348.1373626348
 10
6633.4324348003
 20
5348.135815398
 10
6633.4324503546
 20
5348.1342660224
 10
6633.4222622799
 20
5348.1280462016
 10
6633.396520428
 20
5348.1217974374
 10
6632.3165179848
 20
5348.0477377767
 10
6620.1209784118
 20
5347.7558883396
 10
6608.0878278977
 20
5347.4610805484
 10
6607.1027590187
 20
5347.3896721798
 10
6607.0888234373
 20
5347.3835632496
 10
6607.0872995687
 20
5347.3812524973
 10
6607.0874965763
 20
5347.3789323983
 10
6607.1110500124
 20
5347.3648902962
  0
LWPOLYLINE
  5
48A
330
1F
100
AcDbEntity
  8
0
  6
Continuous
 62
     7
100
AcDbPolyline
 90
       15
 70
   128
 43
0.0
 10
6633.4114074707
 20
5346.5591174552
 10
6633.4273205761
 20
5346.5529511236
 10
6633.4314857564
 20
5346.5498618435
 10
6633.4324348003
 20
5346.5483146049
 10
6633.4324503546
 20
5346.5467652264
 10
6633.4222622801
 20
5346.5405453821
 10
6633.3965204285
 20
5346.5342965812
 10
6632.3165179763
 20
5346.4602379645
 10
6620.1209784125
 20
5346.168387465
 10
6608.0878279015
 20
5345.873579597
 10
6607.1027590161
 20
5345.8021735666
 10
6607.0888234365
 20
5345.7960641989
 10
6607.0872995684
 20
5345.7937532575
 10
6607.0874965763
 20
5345.7914329577
 10
6607.1110500124
 20
5345.7773895005
  0
LWPOLYLINE
  5
48B
330
1F
100
AcDbEntity
  8
0
  6
Continuous
 62
     7
100
AcDbPolyline
 90
        7
 70
   128
 43
0.0
 10
6633.4114074707
 20
5344.9716185221
 10
6633.431758838
 20
5344.9620290937
 10
6633.4325299231
 20
5344.9604257131
 10
6633.4322657444
 20
5344.9588199631
 10
6633.3480168558
 20
5344.9394010215
 10
6633.1407203189
 20
5344.9199021102
 10
6629.1303021935
 20
5344.7691769341
  0
LWPOLYLINE
  5
48C
330
1F
100
AcDbEntity
  8
0
  6
Continuous
 62
     7
100
AcDbPolyline
 90
        8
 70
   128
 43
0.0
 10
6632.5378417969
 20
5352.4125319907
 10
6620.1151897279
 20
5352.0220698739
 10
6608.8746969858
 20
5351.7272411741
 10
6607.9570308722
 20
5351.6558823532
 10
6607.9443824634
 20
5351.6497745498
 10
6607.9430656797
 20
5351.6474644141
 10
6607.9433335962
 20
5351.6451450806
 10
6607.9655421999
 20
5351.6311095098
  0
LWPOLYLINE
  5
48D
330
1F
100
AcDbEntity
  8
0
  6
Continuous
 62
     7
100
AcDbPolyline
 90
        8
 70
   128
 43
0.0
 10
6632.5378417969
 20
5350.825031195
 10
6620.1151896864
 20
5350.4345711713
 10
6608.8746969799
 20
5350.1397410412
 10
6607.9570308723
 20
5350.0683815401
 10
6607.9443824634
 20
5350.0622737586
 10
6607.9430656796
 20
5350.0599636271
 10
6607.9433335961
 20
5350.0576442959
 10
6607.9655421999
 20
5350.0436087141
  0
LWPOLYLINE
  5
48E
330
1F
100
AcDbEntity
  8
0
  6
Continuous
 62
     7
100
AcDbPolyline
 90
        8
 70
   128
 43
0.0
 10
6632.5378417969
 20
5349.2375322619
 10
6620.1151897231
 20
5348.8470704058
 10
6608.8746969858
 20
5348.552241445
 10
6607.9570308722
 20
5348.4808826244
 10
6607.9443824634
 20
5348.474774821
 10
6607.9430656797
 20
5348.4724646853
 10
6607.9433335962
 20
5348.4701453518
 10
6607.9655421999
 20
5348.456109781
  0
LWPOLYLINE
  5
48F
330
1F
100
AcDbEntity
  8
0
  6
Continuous
 62
     7
100
AcDbPolyline
 90
        8
 70
   128
 43
0.0
 10
6632.5378417969
 20
5347.6500314662
 10
6620.1151896821
 20
5347.259571624
 10
6608.8746969797
 20
5346.964741327
 10
6607.9570308723
 20
5346.8933818109
 10
6607.9443824634
 20
5346.8872740299
 10
6607.9430656796
 20
5346.8849638985
 10
6607.9433335961
 20
5346.8826445674
 10
6607.9655421999
 20
5346.8686089853
  0
LWPOLYLINE
  5
490
330
1F
100
AcDbEntity
  8
0
  6
Continuous
 62
     7
100
AcDbPolyline
 90
        8
 70
   128
 43
0.0
 10
6632.5378417969
 20
5346.0625325331
 10
6620.1151897248
 20
5345.6720706454
 10
6608.8746969868
 20
5345.3772420552
 10
6607.9570308738
 20
5345.3058808585
 10
6607.9443824645
 20
5345.2997733281
 10
6607.9430656805
 20
5345.2974633492
 10
6607.9433335969
 20
5345.2951441981
 10
6607.9655421999
 20
5345.2811100522
  0
LWPOLYLINE
  5
491
330
1F
100
AcDbEntity
  8
0
  6
Continuous
 62
     7
100
AcDbPolyline
 90
       11
 70
   128
 43
0.0
 10
6633.4228515625
 20
5351.7271754334
 10
6633.3746038253
 20
5351.7018336206
 10
6632.4710446963
 20
5351.6262972352
 10
6620.2563966504
 20
5351.3304731164
 10
6608.0488757356
 20
5351.0310435723
 10
6607.0944681889
 20
5350.9585309806
 10
6607.0856312306
 20
5350.9523019014
 10
6607.0855861198
 20
5350.9499482643
 10
6607.0870021008
 20
5350.9475866974
 10
6607.0933824287
 20
5350.9428443054
 10
6607.1144921807
 20
5350.9333142081
  0
LWPOLYLINE
  5
492
330
1F
100
AcDbEntity
  8
0
  6
Continuous
 62
     7
100
AcDbPolyline
 90
       11
 70
   128
 43
0.0
 10
6633.4228515625
 20
5350.1396765003
 10
6633.3746038258
 20
5350.1143346384
 10
6632.4710446959
 20
5350.0387983529
 10
6620.2563966891
 20
5349.7429721643
 10
6608.0488757415
 20
5349.4435439723
 10
6607.0944681888
 20
5349.3710320541
 10
6607.0856312307
 20
5349.3648029557
 10
6607.0855861199
 20
5349.3624493156
 10
6607.087002101
 20
5349.3600877475
 10
6607.0933824289
 20
5349.3553453576
 10
6607.1144921807
 20
5349.345815275
  0
LWPOLYLINE
  5
493
330
1F
100
AcDbEntity
  8
0
  6
Continuous
 62
     7
100
AcDbPolyline
 90
       11
 70
   128
 43
0.0
 10
6633.4228515625
 20
5348.5521757046
 10
6633.3746038253
 20
5348.5268338918
 10
6632.4710446963
 20
5348.4512975064
 10
6620.2563966507
 20
5348.1554733988
 10
6608.0488757331
 20
5347.8560440292
 10
6607.0944681889
 20
5347.7835312496
 10
6607.0856312305
 20
5347.7773021767
 10
6607.0855861197
 20
5347.7749485406
 10
6607.0870021007
 20
5347.7725869741
 10
6607.0933824287
 20
5347.7678445814
 10
6607.1144921807
 20
5347.7583144793
  0
LWPOLYLINE
  5
494
330
1F
100
AcDbEntity
  8
0
  6
Continuous
 62
     7
100
AcDbPolyline
 90
       11
 70
   128
 43
0.0
 10
6633.4228515625
 20
5346.9646767715
 10
6633.3746038257
 20
5346.9393349096
 10
6632.4710446942
 20
5346.863798624
 10
6620.2563966718
 20
5346.567972435
 10
6608.0488757292
 20
5346.2685444664
 10
6607.0944681887
 20
5346.1960304871
 10
6607.085631231
 20
5346.1898013176
 10
6607.0855861203
 20
5346.1874476661
 10
6607.0870021013
 20
5346.1850860935
 10
6607.0933824291
 20
5346.1803437114
 10
6607.1144921807
 20
5346.1708136836
  0
LWPOLYLINE
  5
495
330
1F
100
AcDbEntity
  8
0
  6
Continuous
 62
     7
100
AcDbPolyline
 90
        5
 70
   128
 43
0.0
 10
6633.4228515625
 20
5345.3771759758
 10
6629.2955438348
 20
5345.1704476632
 10
6623.1876824327
 20
5345.0362651867
 10
6616.27750047
 20
5344.9013560048
 10
6610.4565544155
 20
5344.7691769341
  0
LWPOLYLINE
  5
496
330
1F
100
AcDbEntity
  8
0
  6
Continuous
 62
     7
100
AcDbPolyline
 90
        3
 70
   128
 43
0.0
 10
6609.1117858887
 20
5353.1284377912
 10
6608.1828574497
 20
5353.0715662323
 10
6607.9480333355
 20
5353.0259047637
  0
LWPOLYLINE
  5
497
330
1F
100
AcDbEntity
  8
0
  6
Continuous
 62
     7
100
AcDbPolyline
 90
        5
 70
   128
 43
0.0
 10
6632.568359375
 20
5352.2238031963
 10
6632.525044177
 20
5352.1987289243
 10
6631.7067907956
 20
5352.1239394639
 10
6620.4860011615
 20
5351.8313221492
 10
6607.9480333355
 20
5351.4384058306
  0
LWPOLYLINE
  5
498
330
1F
100
AcDbEntity
  8
0
  6
Continuous
 62
     7
100
AcDbPolyline
 90
        5
 70
   128
 43
0.0
 10
6632.568359375
 20
5350.6363042632
 10
6632.525044179
 20
5350.6112288735
 10
6631.7067908093
 20
5350.5364385732
 10
6620.4860011767
 20
5350.2438215811
 10
6607.9480333355
 20
5349.8509050349
  0
LWPOLYLINE
  5
499
330
1F
100
AcDbEntity
  8
0
  6
Continuous
 62
     7
100
AcDbPolyline
 90
        5
 70
   128
 43
0.0
 10
6632.568359375
 20
5349.0488034675
 10
6632.525044179
 20
5349.0237280826
 10
6631.7067908114
 20
5348.9489377701
 10
6620.4860011629
 20
5348.6563224212
 10
6607.9480333355
 20
5348.2634061018
  0
LWPOLYLINE
  5
49A
330
1F
100
AcDbEntity
  8
0
  6
Continuous
 62
     7
100
AcDbPolyline
 90
        5
 70
   128
 43
0.0
 10
6632.568359375
 20
5347.4613045344
 10
6632.5250441797
 20
5347.436229082
 10
6631.7067908082
 20
5347.3614389426
 10
6620.4860011845
 20
5347.0688214189
 10
6607.9480333355
 20
5346.6759053061
  0
LWPOLYLINE
  5
49B
330
1F
100
AcDbEntity
  8
0
  6
Continuous
 62
     7
100
AcDbPolyline
 90
        5
 70
   128
 43
0.0
 10
6632.568359375
 20
5345.8738037387
 10
6632.5250441789
 20
5345.8487283537
 10
6631.7067908096
 20
5345.7739380412
 10
6620.4860011439
 20
5345.481322692
 10
6607.9480333355
 20
5345.0884045103
  0
LWPOLYLINE
  5
49C
330
1F
100
AcDbEntity
  8
0
  6
Continuous
 62
     7
100
AcDbPolyline
 90
        3
 70
   128
 43
0.0
 10
6670.7534790039
 20
5175.2736763099
 10
6669.9961527033
 20
5175.2767531513
 10
6669.2555232075
 20
5175.2791748384
  0
LWPOLYLINE
  5
49D
330
1F
100
AcDbEntity
  8
0
  6
Continuous
 62
     7
100
AcDbPolyline
 90
        3
 70
   128
 43
0.0
 10
6669.2543029785
 20
5332.259179
 10
6670.1919451011
 20
5332.2622553142
 10
6670.7555336979
 20
5332.2646738032
  0
LWPOLYLINE
  5
49E
330
1F
100
AcDbEntity
  8
0
  6
Continuous
 62
     7
100
AcDbPolyline
 90
        3
 70
   128
 43
0.0
 10
6262.825012207
 20
4868.9160249228
 10
6263.2764120999
 20
4868.6555430222
 10
6263.6306545282
 20
4868.450870275
  0
LWPOLYLINE
  5
49F
330
1F
100
AcDbEntity
  8
0
  6
Continuous
 62
     7
100
AcDbPolyline
 90
        3
 70
   128
 43
0.0
 10
6285.2096557617
 20
4868.556906938
 10
6284.7611051595
 20
4868.8173781003
 10
6284.406859293
 20
4869.0220317835
  0
LWPOLYLINE
  5
4A0
330
1F
100
AcDbEntity
  8
0
  6
Continuous
 62
     7
100
AcDbPolyline
 90
        3
 70
   128
 43
0.0
 10
6178.4362792969
 20
4905.7107917065
 10
6178.7166199011
 20
4906.1922640604
 10
6178.9351663137
 20
4906.5705589051
  0
LWPOLYLINE
  5
4A1
330
1F
100
AcDbEntity
  8
0
  6
Continuous
 62
     7
100
AcDbPolyline
 90
        3
 70
   128
 43
0.0
 10
6180.0231933594
 20
4905.7107917065
 10
6180.3041151089
 20
4906.1922640604
 10
6180.5226615215
 20
4906.5705589051
  0
LWPOLYLINE
  5
4A2
330
1F
100
AcDbEntity
  8
0
  6
Continuous
 62
     7
100
AcDbPolyline
 90
        3
 70
   128
 43
0.0
 10
6181.6101074219
 20
4905.7107917065
 10
6181.8916252178
 20
4906.1922640604
 10
6182.1101716304
 20
4906.5705589051
  0
LWPOLYLINE
  5
4A3
330
1F
100
AcDbEntity
  8
0
  6
Continuous
 62
     7
100
AcDbPolyline
 90
        3
 70
   128
 43
0.0
 10
6183.2008361816
 20
4905.7107917065
 10
6183.4791204256
 20
4906.1922640604
 10
6183.6976668382
 20
4906.5705589051
  0
LWPOLYLINE
  5
4A4
330
1F
100
AcDbEntity
  8
0
  6
Continuous
 62
     7
100
AcDbPolyline
 90
        3
 70
   128
 43
0.0
 10
6184.7877502441
 20
4905.7107917065
 10
6185.0666156334
 20
4906.1922640604
 10
6185.285162046
 20
4906.5705589051
  0
LWPOLYLINE
  5
4A5
330
1F
100
AcDbEntity
  8
0
  6
Continuous
 62
     7
100
AcDbPolyline
 90
        3
 70
   128
 43
0.0
 10
6179.7256469727
 20
4931.2773547167
 10
6179.4507750805
 20
4931.7588313481
 10
6179.2322358632
 20
4932.1371368165
  0
LWPOLYLINE
  5
4A6
330
1F
100
AcDbEntity
  8
0
  6
Continuous
 62
     7
100
AcDbPolyline
 90
        3
 70
   128
 43
0.0
 10
6181.3163757324
 20
4931.2773547167
 10
6181.0382702883
 20
4931.7588313481
 10
6180.819731071
 20
4932.1371368165
  0
LWPOLYLINE
  5
4A7
330
1F
100
AcDbEntity
  8
0
  6
Continuous
 62
     7
100
AcDbPolyline
 90
        3
 70
   128
 43
0.0
 10
6182.9032897949
 20
4931.2773547167
 10
6182.6257654961
 20
4931.7588313481
 10
6182.4072262788
 20
4932.1371368165
  0
LWPOLYLINE
  5
4A8
330
1F
100
AcDbEntity
  8
0
  6
Continuous
 62
     7
100
AcDbPolyline
 90
        3
 70
   128
 43
0.0
 10
6184.4902038574
 20
4931.2773547167
 10
6184.2132713897
 20
4931.7588337335
 10
6183.9947214866
 20
4932.1371368165
  0
LWPOLYLINE
  5
4A9
330
1F
100
AcDbEntity
  8
0
  6
Continuous
 62
     7
100
AcDbPolyline
 90
        3
 70
   128
 43
0.0
 10
6178.1387329102
 20
4931.2773547167
 10
6177.9451558366
 20
4931.6170703812
 10
6177.7909657502
 20
4931.8839958901
  0
LWPOLYLINE
  5
4AA
330
1F
100
AcDbEntity
  8
0
  6
Continuous
 62
     7
100
AcDbPolyline
 90
        3
 70
   128
 43
0.0
 10
6179.1114807129
 20
4906.5705887074
 10
6179.393437869
 20
4906.089112022
 10
6179.6119770551
 20
4905.7108066077
  0
LWPOLYLINE
  5
4AB
330
1F
100
AcDbEntity
  8
0
  6
Continuous
 62
     7
100
AcDbPolyline
 90
        3
 70
   128
 43
0.0
 10
6180.7022094727
 20
4906.5705887074
 10
6180.9809372922
 20
4906.0891096366
 10
6181.199487164
 20
4905.7108066077
  0
LWPOLYLINE
  5
4AC
330
1F
100
AcDbEntity
  8
0
  6
Continuous
 62
     7
100
AcDbPolyline
 90
        3
 70
   128
 43
0.0
 10
6182.2891235352
 20
4906.5705887074
 10
6182.5684428908
 20
4906.0891156015
 10
6182.7869823718
 20
4905.7108066077
  0
LWPOLYLINE
  5
4AD
330
1F
100
AcDbEntity
  8
0
  6
Continuous
 62
     7
100
AcDbPolyline
 90
        3
 70
   128
 43
0.0
 10
6183.8760375977
 20
4906.5705887074
 10
6184.1559380986
 20
4906.0891156015
 10
6184.3744775796
 20
4905.7108066077
  0
LWPOLYLINE
  5
4AE
330
1F
100
AcDbEntity
  8
0
  6
Continuous
 62
     7
100
AcDbPolyline
 90
        3
 70
   128
 43
0.0
 10
6180.4046630859
 20
4932.1371219153
 10
6180.1275885752
 20
4931.6556390615
 10
6179.9090317035
 20
4931.2773398156
  0
LWPOLYLINE
  5
4AF
330
1F
100
AcDbEntity
  8
0
  6
Continuous
 62
     7
100
AcDbPolyline
 90
        3
 70
   128
 43
0.0
 10
6181.9915771484
 20
4932.1371219153
 10
6181.715083783
 20
4931.6556390615
 10
6181.4965269113
 20
4931.2773398156
  0
LWPOLYLINE
  5
4B0
330
1F
100
AcDbEntity
  8
0
  6
Continuous
 62
     7
100
AcDbPolyline
 90
        3
 70
   128
 43
0.0
 10
6183.5784912109
 20
4932.1371219153
 10
6183.3025835022
 20
4931.6556450284
 10
6183.0840370202
 20
4931.2773398156
  0
LWPOLYLINE
  5
4B1
330
1F
100
AcDbEntity
  8
0
  6
Continuous
 62
     7
100
AcDbPolyline
 90
        3
 70
   128
 43
0.0
 10
6185.1654052734
 20
4932.1371219153
 10
6184.8900890997
 20
4931.6556390615
 10
6184.671532228
 20
4931.2773398156
  0
LWPOLYLINE
  5
4B2
330
1F
100
AcDbEntity
  8
0
  6
Continuous
 62
     7
100
AcDbPolyline
 90
        3
 70
   128
 43
0.0
 10
6178.8177490234
 20
4932.1371219153
 10
6178.5400829777
 20
4931.6556450284
 10
6178.3215364957
 20
4931.2773398156
  0
LWPOLYLINE
  5
4B3
330
1F
100
AcDbEntity
  8
0
  6
Continuous
 62
     7
100
AcDbPolyline
 90
        3
 70
   128
 43
0.0
 10
6177.5245666504
 20
4906.5705887074
 10
6177.8059423663
 20
4906.0891156015
 10
6178.0244818473
 20
4905.7108066077
  0
LWPOLYLINE
  5
4B4
330
1F
100
AcDbEntity
  8
0
  6
Continuous
 62
     7
100
AcDbPolyline
 90
        3
 70
   128
 43
0.0
 10
6369.5983886719
 20
4932.1371368165
 10
6369.3208890386
 20
4931.6556574961
 10
6369.1023437822
 20
4931.2773547167
  0
LWPOLYLINE
  5
4B5
330
1F
100
AcDbEntity
  8
0
  6
Continuous
 62
     7
100
AcDbPolyline
 90
        3
 70
   128
 43
0.0
 10
6368.0114746094
 20
4932.1371368165
 10
6367.7333889161
 20
4931.6556576452
 10
6367.5148439178
 20
4931.2773547167
  0
LWPOLYLINE
  5
4B6
330
1F
100
AcDbEntity
  8
0
  6
Continuous
 62
     7
100
AcDbPolyline
 90
        3
 70
   128
 43
0.0
 10
6366.4207458496
 20
4932.1371368165
 10
6366.1458890517
 20
4931.6556576452
 10
6365.9273440534
 20
4931.2773547167
  0
LWPOLYLINE
  5
4B7
330
1F
100
AcDbEntity
  8
0
  6
Continuous
 62
     7
100
AcDbPolyline
 90
        3
 70
   128
 43
0.0
 10
6364.8338317871
 20
4932.1371368165
 10
6364.5583890356
 20
4931.6556574961
 10
6364.339844189
 20
4931.2773547167
  0
LWPOLYLINE
  5
4B8
330
1F
100
AcDbEntity
  8
0
  6
Continuous
 62
     7
100
AcDbPolyline
 90
        3
 70
   128
 43
0.0
 10
6363.2469177246
 20
4932.1371368165
 10
6362.9708889078
 20
4931.655657347
 10
6362.7523433933
 20
4931.2773547167
  0
LWPOLYLINE
  5
4B9
330
1F
100
AcDbEntity
  8
0
  6
Continuous
 62
     7
100
AcDbPolyline
 90
        3
 70
   128
 43
0.0
 10
6368.3052062988
 20
4906.5705589051
 10
6368.586744012
 20
4906.0890920711
 10
6368.8052821489
 20
4905.7107917065
  0
LWPOLYLINE
  5
4BA
330
1F
100
AcDbEntity
  8
0
  6
Continuous
 62
     7
100
AcDbPolyline
 90
        3
 70
   128
 43
0.0
 10
6366.7182922363
 20
4906.5705589051
 10
6366.9992440158
 20
4906.0890921457
 10
6367.2177818188
 20
4905.7107917065
  0
LWPOLYLINE
  5
4BB
330
1F
100
AcDbEntity
  8
0
  6
Continuous
 62
     7
100
AcDbPolyline
 90
        3
 70
   128
 43
0.0
 10
6365.1313781738
 20
4906.5705589051
 10
6365.4117441514
 20
4906.0890921457
 10
6365.6302819544
 20
4905.7107917065
  0
LWPOLYLINE
  5
4BC
330
1F
100
AcDbEntity
  8
0
  6
Continuous
 62
     7
100
AcDbPolyline
 90
        3
 70
   128
 43
0.0
 10
6363.5444641113
 20
4906.5705589051
 10
6363.8242437709
 20
4906.0890918475
 10
6364.04278209
 20
4905.7107917065
  0
LWPOLYLINE
  5
4BD
330
1F
100
AcDbEntity
  8
0
  6
Continuous
 62
     7
100
AcDbPolyline
 90
        3
 70
   128
 43
0.0
 10
6369.8959350586
 20
4906.5705589051
 10
6370.0923522911
 20
4906.2308520517
 10
6370.2465434143
 20
4905.9639326329
  0
LWPOLYLINE
  5
4BE
330
1F
100
AcDbEntity
  8
0
  6
Continuous
 62
     7
100
AcDbPolyline
 90
        3
 70
   128
 43
0.0
 10
6368.9193725586
 20
4931.2773398156
 10
6368.6440734948
 20
4931.7588164263
 10
6368.4255293155
 20
4932.1371219153
  0
LWPOLYLINE
  5
4BF
330
1F
100
AcDbEntity
  8
0
  6
Continuous
 62
     7
100
AcDbPolyline
 90
        3
 70
   128
 43
0.0
 10
6367.3324584961
 20
4931.2773398156
 10
6367.0565735545
 20
4931.7588165009
 10
6366.8380294511
 20
4932.1371219153
  0
LWPOLYLINE
  5
4C0
330
1F
100
AcDbEntity
  8
0
  6
Continuous
 62
     7
100
AcDbPolyline
 90
        3
 70
   128
 43
0.0
 10
6365.7455444336
 20
4931.2773398156
 10
6365.4690736901
 20
4931.7588165009
 10
6365.2505295867
 20
4932.1371219153
  0
LWPOLYLINE
  5
4C1
330
1F
100
AcDbEntity
  8
0
  6
Continuous
 62
     7
100
AcDbPolyline
 90
        3
 70
   128
 43
0.0
 10
6364.1586303711
 20
4931.2773398156
 10
6363.8815735622
 20
4931.75881665
 10
6363.663028791
 20
4932.1371219153
  0
LWPOLYLINE
  5
4C2
330
1F
100
AcDbEntity
  8
0
  6
Continuous
 62
     7
100
AcDbPolyline
 90
        3
 70
   128
 43
0.0
 10
6367.6300048828
 20
4905.7108066077
 10
6367.9099274059
 20
4906.192285731
 10
6368.1284765297
 20
4906.5705887074
  0
LWPOLYLINE
  5
4C3
330
1F
100
AcDbEntity
  8
0
  6
Continuous
 62
     7
100
AcDbPolyline
 90
        3
 70
   128
 43
0.0
 10
6366.0430908203
 20
4905.7108066077
 10
6366.3224270253
 20
4906.1922860292
 10
6366.5409766653
 20
4906.5705887074
  0
LWPOLYLINE
  5
4C4
330
1F
100
AcDbEntity
  8
0
  6
Continuous
 62
     7
100
AcDbPolyline
 90
        3
 70
   128
 43
0.0
 10
6364.4561767578
 20
4905.7108066077
 10
6364.7349271609
 20
4906.1922860292
 10
6364.9534768009
 20
4906.5705887074
  0
LWPOLYLINE
  5
4C5
330
1F
100
AcDbEntity
  8
0
  6
Continuous
 62
     7
100
AcDbPolyline
 90
        3
 70
   128
 43
0.0
 10
6362.8692626953
 20
4905.7108066077
 10
6363.1474270331
 20
4906.1922858801
 10
6363.3659760052
 20
4906.5705887074
  0
LWPOLYLINE
  5
4C6
330
1F
100
AcDbEntity
  8
0
  6
Continuous
 62
     7
100
AcDbPolyline
 90
        3
 70
   128
 43
0.0
 10
6369.2169189453
 20
4905.7108066077
 10
6369.497427088
 20
4906.1922859547
 10
6369.7159763941
 20
4906.5705887074
  0
LWPOLYLINE
  5
4C7
330
1F
100
AcDbEntity
  8
0
  6
Continuous
 62
     7
100
AcDbPolyline
 90
        3
 70
   128
 43
0.0
 10
6370.5062866211
 20
4931.2773398156
 10
6370.2315736172
 20
4931.7588165754
 10
6370.0130291799
 20
4932.1371219153
  0
LINE
  5
4C8
330
1F
100
AcDbEntity
  8
0
  6
Continuous
 62
     7
100
AcDbLine
 10
6329.8301696777
 20
4858.3989641661
 30
0.0
 11
6330.5356277669
 21
4858.3989641661
 31
0.0
  0
LINE
  5
4C9
330
1F
100
AcDbEntity
  8
0
  6
Continuous
 62
     7
100
AcDbLine
 10
6333.5838317871
 20
4858.3989641661
 30
0.0
 11
6333.413217082
 21
4858.3989641661
 31
0.0
  0
LINE
  5
4CA
330
1F
100
AcDbEntity
  8
0
  6
Continuous
 62
     7
100
AcDbLine
 10
6333.6410522461
 20
4858.3989641661
 30
0.0
 11
6333.5841483021
 21
4858.3989641661
 31
0.0
  0
LWPOLYLINE
  5
4CB
330
1F
100
AcDbEntity
  8
0
  6
Continuous
 62
     7
100
AcDbPolyline
 90
        8
 70
   128
 43
0.0
 10
6262.8173828125
 20
4868.9239523406
 10
6273.8324826262
 20
4869.1592904921
 10
6283.9506785185
 20
4869.3388491514
 10
6284.7087832368
 20
4869.384804018
 10
6284.7193646996
 20
4869.3885028119
 10
6284.7205532959
 20
4869.389881045
 10
6284.7204782695
 20
4869.3912552639
 10
6284.703601017
 20
4869.3994483943
  0
LWPOLYLINE
  5
4CC
330
1F
100
AcDbEntity
  8
0
  6
Continuous
 62
     7
100
AcDbPolyline
 90
       10
 70
   128
 43
0.0
 10
6263.6413574219
 20
4868.4551618094
 10
6263.6133942304
 20
4868.461548547
 10
6263.6063905682
 20
4868.4647417682
 10
6263.6039615805
 20
4868.4679357321
 10
6263.6047800199
 20
4868.4700657749
 10
6263.6074760661
 20
4868.4721966292
 10
6263.6233716576
 20
4868.4778843388
 10
6264.4185902067
 20
4868.5478188998
 10
6273.8261513699
 20
4868.8257799097
 10
6284.335587039
 20
4869.1963157649
  0
LWPOLYLINE
  5
4CD
330
1F
100
AcDbEntity
  8
0
  6
Continuous
 62
     7
100
AcDbPolyline
 90
        3
 70
   128
 43
0.0
 10
6283.7104797363
 20
4868.4239587779
 10
6284.9222867688
 20
4868.4950778298
 10
6285.1855418229
 20
4868.5488007063
  0
LWPOLYLINE
  5
4CE
330
1F
100
AcDbEntity
  8
0
  6
Continuous
 62
     7
100
AcDbPolyline
 90
        5
 70
   128
 43
0.0
 10
6265.8348083496
 20
4868.4239587779
 10
6273.2744543541
 20
4868.6259331959
 10
6278.7778550897
 20
4868.756890582
 10
6282.8869026469
 20
4868.8862800751
 10
6284.3761629009
 20
4869.0175912375
  0
LWPOLYLINE
  5
4CF
330
1F
100
AcDbEntity
  8
0
  6
Continuous
 62
     7
100
AcDbPolyline
 90
        9
 70
   128
 43
0.0
 10
6178.0166625977
 20
4919.6572802062
 10
6177.8362371907
 20
4931.026238918
 10
6177.7917245457
 20
4931.8844676793
 10
6177.7852350644
 20
4931.9161040276
 10
6177.7841448696
 20
4931.9175134447
 10
6177.7835988436
 20
4931.9177638739
 10
6177.7830521974
 20
4931.9177042763
 10
6177.7801262471
 20
4931.9119282866
 10
6177.7761986995
 20
4931.8897030348
  0
LWPOLYLINE
  5
4D0
330
1F
100
AcDbEntity
  8
0
  6
Continuous
 62
     7
100
AcDbPolyline
 90
        8
 70
   128
 43
0.0
 10
6177.2727966309
 20
4906.4898989195
 10
6177.2693416863
 20
4906.4829330597
 10
6177.2675545236
 20
4906.4807233809
 10
6177.2657649419
 20
4906.4800416036
 10
6177.2630742699
 20
4906.4829978474
 10
6177.2603741352
 20
4906.4919958524
 10
6177.2440353803
 20
4906.6612733664
 10
6177.1594992423
 20
4909.5454863305
  0
LWPOLYLINE
  5
4D1
330
1F
100
AcDbEntity
  8
0
  6
Continuous
 62
     7
100
AcDbPolyline
 90
        3
 70
   128
 43
0.0
 10
6177.1583557129
 20
4917.9864279027
 10
6177.6483477965
 20
4908.9097350694
 10
6178.0187598014
 20
4905.7238153214
  0
LWPOLYLINE
  5
4D2
330
1F
100
AcDbEntity
  8
0
  6
Continuous
 62
     7
100
AcDbPolyline
 90
        3
 70
   128
 43
0.0
 10
6177.1583557129
 20
4909.5454863305
 10
6177.1594992423
 20
4913.8671217429
 10
6177.1594992423
 20
4917.9864279027
  0
LWPOLYLINE
  5
4D3
330
1F
100
AcDbEntity
  8
0
  6
Continuous
 62
     7
100
AcDbPolyline
 90
        7
 70
   128
 43
0.0
 10
6178.0166625977
 20
4919.6572802062
 10
6178.3318728171
 20
4906.6609584768
 10
6178.4119188363
 20
4905.7115990389
 10
6178.4152521675
 20
4905.7068827089
 10
6178.416914777
 20
4905.7060792289
 10
6178.4185744593
 20
4905.7063409417
 10
6178.4382870937
 20
4905.7778171296
  0
LWPOLYLINE
  5
4D4
330
1F
100
AcDbEntity
  8
0
  6
Continuous
 62
     7
100
AcDbPolyline
 90
       11
 70
   128
 43
0.0
 10
6179.2297363281
 20
4932.0557317729
 10
6179.244657387
 20
4932.0525205427
 10
6179.2571416341
 20
4932.0237545334
 10
6179.3295648342
 20
4930.9552291728
 10
6179.6290750979
 20
4918.4843506326
 10
6179.9249623122
 20
4906.5557094243
 10
6180.0008388273
 20
4905.7090783415
 10
6180.0039910258
 20
4905.7061812117
 10
6180.005563441
 20
4905.7061475001
 10
6180.0071332143
 20
4905.7070813863
 10
6180.0257972026
 20
4905.7778171296
  0
LWPOLYLINE
  5
4D5
330
1F
100
AcDbEntity
  8
0
  6
Continuous
 62
     7
100
AcDbPolyline
 90
       11
 70
   128
 43
0.0
 10
6180.8166503906
 20
4932.0557317729
 10
6180.8321527914
 20
4932.0525205447
 10
6180.8446369237
 20
4932.0237545343
 10
6180.9170649632
 20
4930.9552292244
 10
6181.2165702947
 20
4918.4843506251
 10
6181.5124643345
 20
4906.5557094798
 10
6181.58835352
 20
4905.7090783417
 10
6181.5915042994
 20
4905.7061812075
 10
6181.5930758833
 20
4905.706147494
 10
6181.5946447406
 20
4905.7070813784
 10
6181.6132924104
 20
4905.7778171296
  0
LWPOLYLINE
  5
4D6
330
1F
100
AcDbEntity
  8
0
  6
Continuous
 62
     7
100
AcDbPolyline
 90
       11
 70
   128
 43
0.0
 10
6182.4035644531
 20
4932.0557317729
 10
6182.4196556268
 20
4932.0525205515
 10
6182.4321460881
 20
4932.0237545565
 10
6182.5045701628
 20
4930.9552293053
 10
6182.8040808813
 20
4918.4843509179
 10
6183.0999595704
 20
4906.5557094809
 10
6183.1758487261
 20
4905.7090783417
 10
6183.1789995063
 20
4905.7061812075
 10
6183.1805710904
 20
4905.706147494
 10
6183.1821399481
 20
4905.7070813784
 10
6183.2007876182
 20
4905.7778171296
  0
LWPOLYLINE
  5
4D7
330
1F
100
AcDbEntity
  8
0
  6
Continuous
 62
     7
100
AcDbPolyline
 90
       11
 70
   128
 43
0.0
 10
6183.9942932129
 20
4932.0557317729
 10
6184.0071579115
 20
4932.0525205427
 10
6184.0196421586
 20
4932.0237545334
 10
6184.0920653587
 20
4930.9552291728
 10
6184.3915756225
 20
4918.4843506326
 10
6184.6874628367
 20
4906.5557094243
 10
6184.7633393518
 20
4905.7090783415
 10
6184.7664915503
 20
4905.7061812117
 10
6184.7680639655
 20
4905.7061475001
 10
6184.7696337389
 20
4905.7070813863
 10
6184.7882977271
 20
4905.7778171296
  0
LWPOLYLINE
  5
4D8
330
1F
100
AcDbEntity
  8
0
  6
Continuous
 62
     7
100
AcDbPolyline
 90
        5
 70
   128
 43
0.0
 10
6178.1387329102
 20
4931.2563738818
 10
6178.533945647
 20
4918.6926990545
 10
6178.82666529
 20
4907.4752923716
 10
6178.9014387351
 20
4906.6498850985
 10
6178.9264491344
 20
4906.6263041491
  0
LWPOLYLINE
  5
4D9
330
1F
100
AcDbEntity
  8
0
  6
Continuous
 62
     7
100
AcDbPolyline
 90
        5
 70
   128
 43
0.0
 10
6179.7256469727
 20
4931.2563738818
 10
6180.1214412699
 20
4918.6926990505
 10
6180.4141605309
 20
4907.475292371
 10
6180.4889339707
 20
4906.6498850989
 10
6180.5139443422
 20
4906.6263041491
  0
LWPOLYLINE
  5
4DA
330
1F
100
AcDbEntity
  8
0
  6
Continuous
 62
     7
100
AcDbPolyline
 90
        5
 70
   128
 43
0.0
 10
6181.3125610352
 20
4931.2563738818
 10
6181.7089514806
 20
4918.6926991914
 10
6182.0016562327
 20
4907.4752922711
 10
6182.0764339532
 20
4906.6498850847
 10
6182.1014544511
 20
4906.6263041491
  0
LWPOLYLINE
  5
4DB
330
1F
100
AcDbEntity
  8
0
  6
Continuous
 62
     7
100
AcDbPolyline
 90
        5
 70
   128
 43
0.0
 10
6182.9032897949
 20
4931.2563738818
 10
6183.2964461716
 20
4918.6926990545
 10
6183.5891658145
 20
4907.4752923716
 10
6183.6639392596
 20
4906.6498850985
 10
6183.6889496589
 20
4906.6263041491
  0
LWPOLYLINE
  5
4DC
330
1F
100
AcDbEntity
  8
0
  6
Continuous
 62
     7
100
AcDbPolyline
 90
        5
 70
   128
 43
0.0
 10
6184.4902038574
 20
4931.2563738818
 10
6184.8839416742
 20
4918.6926990484
 10
6185.1766610223
 20
4907.4752923705
 10
6185.2514344674
 20
4906.6498850985
 10
6185.2764448667
 20
4906.6263041491
  0
LWPOLYLINE
  5
4DD
330
1F
100
AcDbEntity
  8
0
  6
Continuous
 62
     7
100
AcDbPolyline
 90
       13
 70
   128
 43
0.0
 10
6178.8177490234
 20
4932.0786050553
 10
6178.837283785
 20
4932.1519379292
 10
6178.8388650006
 20
4932.1521085683
 10
6178.8404433272
 20
4932.1512763705
 10
6178.8435915819
 20
4932.1466900846
 10
6178.9172225983
 20
4931.2732868681
 10
6179.2193906174
 20
4919.1449475459
 10
6179.5186809079
 20
4906.7337857833
 10
6179.5949902259
 20
4905.756052663
 10
6179.6077860862
 20
4905.7223593589
 10
6179.6109701113
 20
4905.7213328104
 10
6179.6141494934
 20
4905.7224305396
 10
6179.6205005193
 20
4905.7281664605
  0
LWPOLYLINE
  5
4DE
330
1F
100
AcDbEntity
  8
0
  6
Continuous
 62
     7
100
AcDbPolyline
 90
       13
 70
   128
 43
0.0
 10
6180.4046630859
 20
4932.0786050553
 10
6180.424778992
 20
4932.1519379292
 10
6180.4263602073
 20
4932.1521085683
 10
6180.4279385334
 20
4932.1512763704
 10
6180.4310867874
 20
4932.1466900846
 10
6180.5047178339
 20
4931.2732868685
 10
6180.8069012056
 20
4919.1449478405
 10
6181.1061766351
 20
4906.7337857914
 10
6181.1824853954
 20
4905.7560526624
 10
6181.1952812964
 20
4905.7223593589
 10
6181.1984653239
 20
4905.7213328105
 10
6181.2016447058
 20
4905.7224305396
 10
6181.2079957271
 20
4905.7281664605
  0
LWPOLYLINE
  5
4DF
330
1F
100
AcDbEntity
  8
0
  6
Continuous
 62
     7
100
AcDbPolyline
 90
       13
 70
   128
 43
0.0
 10
6181.9915771484
 20
4932.0786050553
 10
6182.0122927502
 20
4932.1519379132
 10
6182.0138745903
 20
4932.1521085524
 10
6182.0154533965
 20
4932.1512763549
 10
6182.0186022028
 20
4932.1466900698
 10
6182.0922082143
 20
4931.2732868446
 10
6182.3943960774
 20
4919.1449477028
 10
6182.6936702357
 20
4906.7337856889
 10
6182.7699935026
 20
4905.756052654
 10
6182.7827915188
 20
4905.7223593595
 10
6182.7859756645
 20
4905.7213328116
 10
6182.7891550389
 20
4905.7224305406
 10
6182.795505836
 20
4905.7281664605
  0
LWPOLYLINE
  5
4E0
330
1F
100
AcDbEntity
  8
0
  6
Continuous
 62
     7
100
AcDbPolyline
 90
       13
 70
   128
 43
0.0
 10
6183.5784912109
 20
4932.0786050553
 10
6183.5997845347
 20
4932.1519379311
 10
6183.6013658353
 20
4932.1521085708
 10
6183.6029442543
 20
4932.1512763737
 10
6183.6060927111
 20
4932.1466900895
 10
6183.6797129059
 20
4931.2732867839
 10
6183.9818911381
 20
4919.1449475481
 10
6184.2811748681
 20
4906.7337857492
 10
6184.3574883076
 20
4905.7560526502
 10
6184.3702867515
 20
4905.7223593596
 10
6184.3734709229
 20
4905.7213328119
 10
6184.3766502957
 20
4905.722430541
 10
6184.3830010438
 20
4905.7281664605
  0
LWPOLYLINE
  5
4E1
330
1F
100
AcDbEntity
  8
0
  6
Continuous
 62
     7
100
AcDbPolyline
 90
        6
 70
   128
 43
0.0
 10
6185.1654052734
 20
4932.0786050553
 10
6185.1849365837
 20
4932.1498027179
 10
6185.1877151559
 20
4932.1520862994
 10
6185.1904846932
 20
4932.1512377318
 10
6185.2552000951
 20
4931.4865829842
 10
6185.5187526488
 20
4921.7102578873
  0
ARC
  5
4E2
330
1F
100
AcDbEntity
  8
0
  6
Continuous
 62
     7
100
AcDbCircle
 10
6218.1389586742
 20
4913.6453334944
 30
0.0
 40
41.20988861592998
100
AcDbArc
 50
173.9531816841
 51
189.7776603026
  0
LWPOLYLINE
  5
4E3
330
1F
100
AcDbEntity
  8
0
  6
Continuous
 62
     7
100
AcDbPolyline
 90
       12
 70
   128
 43
0.0
 10
6178.3294677734
 20
4931.2647483344
 10
6178.3374863753
 20
4931.2902945489
 10
6178.3406046825
 20
4931.2969375104
 10
6178.3437082242
 20
4931.2992873348
 10
6178.3467977627
 20
4931.2975430285
 10
6178.3498740604
 20
4931.291903598
 10
6178.355989983
 20
4931.2697353898
 10
6178.4277118545
 20
4930.3494459477
 10
6178.7232942492
 20
4919.1304466954
 10
6179.0159382355
 20
4907.6594892377
 10
6179.0901749471
 20
4906.6856747625
 10
6179.1151723409
 20
4906.6468528504
  0
LWPOLYLINE
  5
4E4
330
1F
100
AcDbEntity
  8
0
  6
Continuous
 62
     7
100
AcDbPolyline
 90
       12
 70
   128
 43
0.0
 10
6179.9163818359
 20
4931.2647483344
 10
6179.924974899
 20
4931.290294582
 10
6179.9280849401
 20
4931.2969375519
 10
6179.931181931
 20
4931.299287381
 10
6179.9342665051
 20
4931.2975430759
 10
6179.937339296
 20
4931.2919036435
 10
6179.9434520622
 20
4931.2697354241
 10
6180.0152243939
 20
4930.3494459392
 10
6180.310789342
 20
4919.130446527
 10
6180.6034308817
 20
4907.6594892068
 10
6180.6776834966
 20
4906.68567479
 10
6180.7026675487
 20
4906.6468528504
  0
LWPOLYLINE
  5
4E5
330
1F
100
AcDbEntity
  8
0
  6
Continuous
 62
     7
100
AcDbPolyline
 90
       12
 70
   128
 43
0.0
 10
6181.5032958984
 20
4931.2647483344
 10
6181.5124701067
 20
4931.2902945821
 10
6181.5155801474
 20
4931.296937552
 10
6181.5186771378
 20
4931.2992873809
 10
6181.5217617112
 20
4931.2975430757
 10
6181.5248345013
 20
4931.291903643
 10
6181.530947266
 20
4931.269735423
 10
6181.6027196322
 20
4930.3494459245
 10
6181.8982994454
 20
4919.1304466679
 10
6182.190929923
 20
4907.6594891299
 10
6182.2651809735
 20
4906.6856747683
 10
6182.2901776576
 20
4906.6468528504
  0
LWPOLYLINE
  5
4E6
330
1F
100
AcDbEntity
  8
0
  6
Continuous
 62
     7
100
AcDbPolyline
 90
       12
 70
   128
 43
0.0
 10
6183.0902099609
 20
4931.2647483344
 10
6183.0999868998
 20
4931.2902945489
 10
6183.103105207
 20
4931.2969375104
 10
6183.1062087487
 20
4931.2992873348
 10
6183.1092982872
 20
4931.2975430285
 10
6183.1123745849
 20
4931.2919035979
 10
6183.1184905075
 20
4931.2697353898
 10
6183.1902123796
 20
4930.3494459474
 10
6183.4857946731
 20
4919.1304466902
 10
6183.7784388186
 20
4907.6594892392
 10
6183.8526754753
 20
4906.6856747626
 10
6183.8776728654
 20
4906.6468528504
  0
LWPOLYLINE
  5
4E7
330
1F
100
AcDbEntity
  8
0
  6
Continuous
 62
     7
100
AcDbPolyline
 90
       12
 70
   128
 43
0.0
 10
6184.6809387207
 20
4931.2647483344
 10
6184.6875509317
 20
4931.2905078212
 10
6184.6906982386
 20
4931.2970969191
 10
6184.6938322007
 20
4931.2992956416
 10
6184.6969534748
 20
4931.297310316
 10
6184.7000627178
 20
4931.2913472691
 10
6184.7062477379
 20
4931.2683133195
 10
6184.7788899619
 20
4930.3277673935
 10
6185.0781299339
 20
4918.8983823734
 10
6185.3740611339
 20
4907.4952483089
 10
6185.4495901531
 20
4906.6505892132
 10
6185.4748687291
 20
4906.6263488526
  0
LWPOLYLINE
  5
4E8
330
1F
100
AcDbEntity
  8
0
  6
Continuous
 62
     7
100
AcDbPolyline
 90
        9
 70
   128
 43
0.0
 10
6370.0180053711
 20
4918.1906483168
 10
6370.2012790987
 20
4906.8216784101
 10
6370.2458075984
 20
4905.9634554013
 10
6370.2522960463
 20
4905.9318226575
 10
6370.253385007
 20
4905.9304136947
 10
6370.2539302785
 20
4905.9301634722
 10
6370.2544760743
 20
4905.9302232621
 10
6370.2573957393
 20
4905.9360000076
 10
6370.2613099994
 20
4905.9582254881
  0
LWPOLYLINE
  5
4E9
330
1F
100
AcDbEntity
  8
0
  6
Continuous
 62
     7
100
AcDbPolyline
 90
        8
 70
   128
 43
0.0
 10
6370.7618713379
 20
4931.3580296034
 10
6370.768171888
 20
4931.3649891933
 10
6370.7699606088
 20
4931.3671960035
 10
6370.7717515309
 20
4931.3678752319
 10
6370.7744436472
 20
4931.364915997
 10
6370.7771443769
 20
4931.3559162507
 10
6370.7934749796
 20
4931.1866465624
 10
6370.8780150445
 20
4928.3024421925
  0
LWPOLYLINE
  5
4EA
330
1F
100
AcDbEntity
  8
0
  6
Continuous
 62
     7
100
AcDbPolyline
 90
        3
 70
   128
 43
0.0
 10
6370.8763122559
 20
4919.8615006203
 10
6370.3891556714
 20
4928.9381926832
 10
6370.0187554167
 20
4932.1241132016
  0
LWPOLYLINE
  5
4EB
330
1F
100
AcDbEntity
  8
0
  6
Continuous
 62
     7
100
AcDbPolyline
 90
        3
 70
   128
 43
0.0
 10
6370.8763122559
 20
4928.3024421925
 10
6370.8780150445
 20
4923.9808049491
 10
6370.8780150445
 20
4919.8615006203
  0
LWPOLYLINE
  5
4EC
330
1F
100
AcDbEntity
  8
0
  6
Continuous
 62
     7
100
AcDbPolyline
 90
       13
 70
   128
 43
0.0
 10
6369.2169189453
 20
4905.7693234677
 10
6369.2002251851
 20
4905.6959907471
 10
6369.1986436491
 20
4905.695820165
 10
6369.1970650472
 20
4905.696652425
 10
6369.1939163701
 20
4905.7012388468
 10
6369.1202950904
 20
4906.5746345371
 10
6368.8181161497
 20
4918.7029773611
 10
6368.5188355504
 20
4931.1141425899
 10
6368.4425202436
 20
4932.0918758491
 10
6368.4297241075
 20
4932.1255691623
 10
6368.4265403899
 20
4932.1265957119
 10
6368.4233614299
 20
4932.1254979833
 10
6368.4170114392
 20
4932.1197620625
  0
LWPOLYLINE
  5
4ED
330
1F
100
AcDbEntity
  8
0
  6
Continuous
 62
     7
100
AcDbPolyline
 90
       13
 70
   128
 43
0.0
 10
6367.6300048828
 20
4905.7693234677
 10
6367.6127260399
 20
4905.6959907463
 10
6367.611144553
 20
4905.6958201642
 10
6367.6095659922
 20
4905.6966524243
 10
6367.6064173748
 20
4905.7012388462
 10
6367.5327947438
 20
4906.5746345385
 10
6367.2306167478
 20
4918.7029773845
 10
6366.9313357027
 20
4931.1141425978
 10
6366.8550207356
 20
4932.0918758504
 10
6366.8422241638
 20
4932.1255691626
 10
6366.8390402602
 20
4932.1265957121
 10
6366.835861091
 20
4932.1254979834
 10
6366.8295106435
 20
4932.1197620625
  0
LWPOLYLINE
  5
4EE
330
1F
100
AcDbEntity
  8
0
  6
Continuous
 62
     7
100
AcDbPolyline
 90
       13
 70
   128
 43
0.0
 10
6366.0430908203
 20
4905.7693234677
 10
6366.0252250188
 20
4905.6959907473
 10
6366.0236434938
 20
4905.6958201653
 10
6366.0220649041
 20
4905.6966524253
 10
6366.0189162546
 20
4905.7012388472
 10
6365.9452950936
 20
4906.5746345382
 10
6365.6431159557
 20
4918.7029773663
 10
6365.3438358389
 20
4931.1141425978
 10
6365.2675208711
 20
4932.0918758504
 10
6365.2547242994
 20
4932.1255691626
 10
6365.2515403958
 20
4932.1265957121
 10
6365.2483612266
 20
4932.1254979834
 10
6365.2420107791
 20
4932.1197620625
  0
LWPOLYLINE
  5
4EF
330
1F
100
AcDbEntity
  8
0
  6
Continuous
 62
     7
100
AcDbPolyline
 90
       13
 70
   128
 43
0.0
 10
6364.4561767578
 20
4905.7693234677
 10
6364.4377251507
 20
4905.6959907472
 10
6364.4361436243
 20
4905.6958201652
 10
6364.4345650331
 20
4905.6966524252
 10
6364.4314163803
 20
4905.7012388471
 10
6364.3577953504
 20
4906.5746345397
 10
6364.055616092
 20
4918.7029773662
 10
6363.7563359745
 20
4931.1141425978
 10
6363.6800210067
 20
4932.0918758504
 10
6363.667224435
 20
4932.1255691626
 10
6363.6640405314
 20
4932.1265957121
 10
6363.6608613622
 20
4932.1254979834
 10
6363.6545109147
 20
4932.1197620625
  0
LWPOLYLINE
  5
4F0
330
1F
100
AcDbEntity
  8
0
  6
Continuous
 62
     7
100
AcDbPolyline
 90
        6
 70
   128
 43
0.0
 10
6362.8692626953
 20
4905.7693234677
 10
6362.8525687346
 20
4905.6981258805
 10
6362.8497894903
 20
4905.6958423909
 10
6362.8470194184
 20
4905.6966910689
 10
6362.7823117425
 20
4906.3613419641
 10
6362.5187555844
 20
4916.1376706357
  0
LWPOLYLINE
  5
4F1
330
1F
100
AcDbEntity
  8
0
  6
Continuous
 62
     7
100
AcDbPolyline
 90
        8
 70
   128
 43
0.0
 10
6370.0180053711
 20
4918.1906483168
 10
6369.7119512418
 20
4931.0591126261
 10
6369.6337105815
 20
4932.1181009648
 10
6369.6271492455
 20
4932.1406126438
 10
6369.6222539089
 20
4932.1464389612
 10
6369.6204249185
 20
4932.1460161729
 10
6369.6185999998
 20
4932.1441131681
 10
6369.6077310996
 20
4932.1051440234
  0
LWPOLYLINE
  5
4F2
330
1F
100
AcDbEntity
  8
0
  6
Continuous
 62
     7
100
AcDbPolyline
 90
       13
 70
   128
 43
0.0
 10
6368.8049316406
 20
4905.792181849
 10
6368.7929906076
 20
4905.7952766444
 10
6368.780635305
 20
4905.8231126087
 10
6368.7090045849
 20
4906.8696953254
 10
6368.4127286091
 20
4919.1414600694
 10
6368.1199492407
 20
4931.1496049231
 10
6368.0450447603
 20
4932.1232564995
 10
6368.0387793693
 20
4932.142362556
 10
6368.0364391049
 20
4932.1455530705
 10
6368.0341046844
 20
4932.1464561021
 10
6368.0306151284
 20
4932.1433532816
 10
6368.0271415522
 20
4932.1346834415
 10
6368.0202307695
 20
4932.1051440234
  0
LWPOLYLINE
  5
4F3
330
1F
100
AcDbEntity
  8
0
  6
Continuous
 62
     7
100
AcDbPolyline
 90
       13
 70
   128
 43
0.0
 10
6367.2142028809
 20
4905.792181849
 10
6367.205490737
 20
4905.7952766443
 10
6367.1931354378
 20
4905.8231126086
 10
6367.1215045747
 20
4906.8696953238
 10
6366.8252287447
 20
4919.1414600695
 10
6366.5324493763
 20
4931.1496049231
 10
6366.4575448959
 20
4932.1232564995
 10
6366.4512795049
 20
4932.142362556
 10
6366.4489392405
 20
4932.1455530705
 10
6366.44660482
 20
4932.1464561021
 10
6366.443115264
 20
4932.1433532816
 10
6366.4396416878
 20
4932.1346834415
 10
6366.4327309051
 20
4932.1051440234
  0
LWPOLYLINE
  5
4F4
330
1F
100
AcDbEntity
  8
0
  6
Continuous
 62
     7
100
AcDbPolyline
 90
       13
 70
   128
 43
0.0
 10
6365.6272888184
 20
4905.792181849
 10
6365.6179904266
 20
4905.7952766449
 10
6365.6056355135
 20
4905.82311261
 10
6365.5340047352
 20
4906.8696953315
 10
6365.2377288859
 20
4919.1414600786
 10
6364.9449495118
 20
4931.1496049239
 10
6364.8700450315
 20
4932.1232564996
 10
6364.8637796405
 20
4932.142362556
 10
6364.8614393761
 20
4932.1455530705
 10
6364.8591049556
 20
4932.1464561021
 10
6364.8556153996
 20
4932.1433532816
 10
6364.8521418234
 20
4932.1346834415
 10
6364.8452310407
 20
4932.1051440234
  0
LWPOLYLINE
  5
4F5
330
1F
100
AcDbEntity
  8
0
  6
Continuous
 62
     7
100
AcDbPolyline
 90
       13
 70
   128
 43
0.0
 10
6364.0403747559
 20
4905.792181849
 10
6364.0304900904
 20
4905.7952766445
 10
6364.0181347839
 20
4905.8231126086
 10
6363.9465042285
 20
4906.8696953263
 10
6363.6502290213
 20
4919.1414600781
 10
6363.3574485241
 20
4931.1496049158
 10
6363.2825450029
 20
4932.1232564988
 10
6363.2762796972
 20
4932.1423625556
 10
6363.2739394581
 20
4932.1455530703
 10
6363.2716050587
 20
4932.1464561019
 10
6363.2681155258
 20
4932.1433532815
 10
6363.2646419613
 20
4932.1346834415
 10
6363.2577311763
 20
4932.1051440234
  0
LWPOLYLINE
  5
4F6
330
1F
100
AcDbEntity
  8
0
  6
Continuous
 62
     7
100
AcDbPolyline
 90
        5
 70
   128
 43
0.0
 10
6369.8959350586
 20
4906.59153974
 10
6369.5035643804
 20
4919.1552202817
 10
6369.2108486685
 20
4930.3726223371
 10
6369.1360770161
 20
4931.1980443588
 10
6369.1110618928
 20
4931.2216243739
  0
LWPOLYLINE
  5
4F7
330
1F
100
AcDbEntity
  8
0
  6
Continuous
 62
     7
100
AcDbPolyline
 90
        5
 70
   128
 43
0.0
 10
6368.3052062988
 20
4906.59153974
 10
6367.9160644917
 20
4919.1552202806
 10
6367.6233483224
 20
4930.3726223332
 10
6367.5485771829
 20
4931.198044359
 10
6367.5235620284
 20
4931.2216243739
  0
LWPOLYLINE
  5
4F8
330
1F
100
AcDbEntity
  8
0
  6
Continuous
 62
     7
100
AcDbPolyline
 90
        5
 70
   128
 43
0.0
 10
6366.7182922363
 20
4906.59153974
 10
6366.3285646886
 20
4919.155220282
 10
6366.035848456
 20
4930.3726223332
 10
6365.9610773168
 20
4931.198044359
 10
6365.936062164
 20
4931.2216243739
  0
LWPOLYLINE
  5
4F9
330
1F
100
AcDbEntity
  8
0
  6
Continuous
 62
     7
100
AcDbPolyline
 90
        5
 70
   128
 43
0.0
 10
6365.1313781738
 20
4906.59153974
 10
6364.7410647215
 20
4919.1552202903
 10
6364.4483486113
 20
4930.3726223398
 10
6364.3735764482
 20
4931.1980443585
 10
6364.3485613683
 20
4931.2216243739
  0
LWPOLYLINE
  5
4FA
330
1F
100
AcDbEntity
  8
0
  6
Continuous
 62
     7
100
AcDbPolyline
 90
        5
 70
   128
 43
0.0
 10
6363.5444641113
 20
4906.59153974
 10
6363.1535639532
 20
4919.1552202716
 10
6362.8608487469
 20
4930.3726223398
 10
6362.7860765838
 20
4931.1980443585
 10
6362.7610615039
 20
4931.2216243739
  0
ARC
  5
4FB
330
1F
100
AcDbEntity
  8
0
  6
Continuous
 62
     7
100
AcDbCircle
 10
6330.0202507643
 20
4924.2168207329
 30
0.0
 40
41.0875476742839
100
AcDbArc
 50
353.9151599349
 51
9.7869301554
  0
LWPOLYLINE
  5
4FC
330
1F
100
AcDbEntity
  8
0
  6
Continuous
 62
     7
100
AcDbPolyline
 90
       12
 70
   128
 43
0.0
 10
6369.7052001953
 20
4906.5831652875
 10
6369.700034071
 20
4906.5576191617
 10
6369.6969222411
 20
4906.5509765314
 10
6369.6938238484
 20
4906.5486272211
 10
6369.6907382312
 20
4906.5503722005
 10
6369.6876647274
 20
4906.5560124393
 10
6369.6815514127
 20
4906.5781825743
 10
6369.6097937719
 20
4907.4984740998
 10
6369.3142173893
 20
4918.7174737777
 10
6369.0215781328
 20
4930.1884242992
 10
6368.9473291841
 20
4931.1622542168
 10
6368.9223386863
 20
4931.2010756726
  0
LWPOLYLINE
  5
4FD
330
1F
100
AcDbEntity
  8
0
  6
Continuous
 62
     7
100
AcDbPolyline
 90
       12
 70
   128
 43
0.0
 10
6368.1182861328
 20
4906.5831652875
 10
6368.1125335397
 20
4906.5576191627
 10
6368.1094214736
 20
4906.5509765329
 10
6368.1063229103
 20
4906.5486272229
 10
6368.1032371822
 20
4906.5503722026
 10
6368.1001636218
 20
4906.5560124417
 10
6368.0940503341
 20
4906.578182577
 10
6368.0222943338
 20
4907.498474101
 10
6367.7267170241
 20
4918.7174737668
 10
6367.4340782388
 20
4930.1884242988
 10
6367.3598293179
 20
4931.1622542168
 10
6367.3348388219
 20
4931.2010756726
  0
LWPOLYLINE
  5
4FE
330
1F
100
AcDbEntity
  8
0
  6
Continuous
 62
     7
100
AcDbPolyline
 90
       12
 70
   128
 43
0.0
 10
6366.527557373
 20
4906.5831652875
 10
6366.5250336677
 20
4906.5576191627
 10
6366.5219215797
 20
4906.5509765327
 10
6366.5188229826
 20
4906.5486272226
 10
6366.5157372106
 20
4906.550372202
 10
6366.5126635976
 20
4906.5560124408
 10
6366.5065501851
 20
4906.5781825754
 10
6366.4347941045
 20
4907.4984740989
 10
6366.1392171576
 20
4918.7174737664
 10
6365.8465784246
 20
4930.1884242995
 10
6365.7723294566
 20
4931.1622542169
 10
6365.7473389575
 20
4931.2010756726
  0
LWPOLYLINE
  5
4FF
330
1F
100
AcDbEntity
  8
0
  6
Continuous
 62
     7
100
AcDbPolyline
 90
       12
 70
   128
 43
0.0
 10
6364.9406433105
 20
4906.5831652875
 10
6364.9375338033
 20
4906.5576191627
 10
6364.9344217151
 20
4906.5509765327
 10
6364.9313231179
 20
4906.5486272226
 10
6364.9282373456
 20
4906.550372202
 10
6364.9251637324
 20
4906.5560124408
 10
6364.9190503194
 20
4906.5781825754
 10
6364.8472942488
 20
4907.498474099
 10
6364.5517172994
 20
4918.7174737667
 10
6364.2590775048
 20
4930.1884242905
 10
6364.1848296243
 20
4931.1622542171
 10
6364.1598390931
 20
4931.2010756726
  0
LWPOLYLINE
  5
500
330
1F
100
AcDbEntity
  8
0
  6
Continuous
 62
     7
100
AcDbPolyline
 90
       12
 70
   128
 43
0.0
 10
6363.353729248
 20
4906.5831652875
 10
6363.3499583757
 20
4906.5574059295
 10
6363.3468090109
 20
4906.5508171815
 10
6363.3436734412
 20
4906.5486189912
 10
6363.340550976
 20
4906.5506050071
 10
6363.337440925
 20
4906.5565688781
 10
6363.3312553034
 20
4906.57960478
 10
6363.2586293414
 20
4907.5201522417
 10
6362.9593770873
 20
4918.9495377876
 10
6362.6634494033
 20
4930.3526661757
 10
6362.5879247368
 20
4931.1973403014
 10
6362.5626460234
 20
4931.2215796704
  0
LWPOLYLINE
  5
501
330
1F
100
AcDbEntity
  8
0
  6
Continuous
 62
     7
100
AcDbPolyline
 90
        9
 70
   128
 43
0.0
 10
6266.7808532715
 20
4929.9889629508
 10
6261.6538988089
 20
4923.3002577972
 10
6261.6545713797
 20
4914.8727081792
 10
6266.8178941851
 20
4908.215792524
 10
6274.9857028249
 20
4906.1635897332
 10
6282.6580996825
 20
4909.6297443125
 10
6286.471638039
 20
4917.1327007442
 10
6284.7023951395
 20
4925.3584507532
 10
6278.1144565487
 20
4930.5869541163
  0
LWPOLYLINE
  5
502
330
1F
100
AcDbEntity
  8
0
  6
Continuous
 62
     7
100
AcDbPolyline
 90
        3
 70
   128
 43
0.0
 10
6268.6653137207
 20
4930.0670377011
 10
6278.664983367
 20
4930.9049208986
 10
6285.0837594414
 20
4926.1591038699
  0
LWPOLYLINE
  5
503
330
1F
100
AcDbEntity
  8
0
  6
Continuous
 62
     7
100
AcDbPolyline
 90
        3
 70
   128
 43
0.0
 10
6278.1143188477
 20
4930.5869541163
 10
6272.7590981009
 20
4931.219443023
 10
6268.6678728605
 20
4930.0670377011
  0
ARC
  5
504
330
1F
100
AcDbEntity
  8
0
  6
Continuous
 62
     7
100
AcDbCircle
 10
6274.0561647539
 20
4918.8929056627
 30
0.0
 40
13.20309096500226
100
AcDbArc
 50
142.2283577443
 51
33.3903889454
  0
LWPOLYLINE
  5
505
330
1F
100
AcDbEntity
  8
0
  6
Continuous
 62
     7
100
AcDbPolyline
 90
        3
 70
   128
 43
0.0
 10
6268.6653137207
 20
4930.0670377011
 10
6274.2455761116
 20
4931.2838499776
 10
6278.6317578101
 20
4930.3235015864
  0
LWPOLYLINE
  5
506
330
1F
100
AcDbEntity
  8
0
  6
Continuous
 62
     7
100
AcDbPolyline
 90
        3
 70
   128
 43
0.0
 10
6198.0285644531
 20
4869.9239692683
 10
6198.3918371208
 20
4869.1524953198
 10
6199.0287563348
 20
4868.9239523406
  0
LWPOLYLINE
  5
507
330
1F
100
AcDbEntity
  8
0
  6
Continuous
 62
     7
100
AcDbPolyline
 90
        3
 70
   128
 43
0.0
 10
6197.0252990723
 20
4869.9239692683
 10
6197.2495168246
 20
4868.9875473747
 10
6197.7429351354
 20
4868.4239587779
  0
LWPOLYLINE
  5
508
330
1F
100
AcDbEntity
  8
0
  6
Continuous
 62
     7
100
AcDbPolyline
 90
        3
 70
   128
 43
0.0
 10
6350.2922058105
 20
4868.4239587779
 10
6350.8648813668
 20
4869.1833403031
 10
6351.0087559515
 20
4869.9239692683
  0
LWPOLYLINE
  5
509
330
1F
100
AcDbEntity
  8
0
  6
Continuous
 62
     7
100
AcDbPolyline
 90
        3
 70
   128
 43
0.0
 10
6349.006652832
 20
4868.9239523406
 10
6349.7802202316
 20
4869.2870448276
 10
6350.0087557876
 20
4869.9239692683
  0
ENDSEC
  0
SECTION
  2
OBJECTS
  0
DICTIONARY
  5
C
330
0
100
AcDbDictionary
281
     1
  3
ACAD_GROUP
350
D
  3
ACAD_LAYOUT
350
1A
  3
ACAD_MLINESTYLE
350
17
  3
ACAD_PLOTSETTINGS
350
19
  3
ACAD_PLOTSTYLENAME
350
E
  3
ACAD_SCALELIST
350
47
  3
DWGPROPS
350
50A
  0
DICTIONARY
  5
D
102
{ACAD_REACTORS
330
C
102
}
330
C
100
AcDbDictionary
281
     1
  0
DICTIONARY
  5
1A
102
{ACAD_REACTORS
330
C
102
}
330
C
100
AcDbDictionary
281
     1
  3
Layout1
350
1E
  3
Layout2
350
26
  3
Model
350
22
  0
DICTIONARY
  5
17
102
{ACAD_REACTORS
330
C
102
}
330
C
100
AcDbDictionary
281
     1
  3
Standard
350
18
  0
DICTIONARY
  5
19
102
{ACAD_REACTORS
330
C
102
}
330
C
100
AcDbDictionary
281
     1
  0
ACDBDICTIONARYWDFLT
  5
E
102
{ACAD_REACTORS
330
C
102
}
330
C
100
AcDbDictionary
281
     1
  3
Normal
350
F
100
AcDbDictionaryWithDefault
340
F
  0
DICTIONARY
  5
47
102
{ACAD_REACTORS
330
C
102
}
330
C
100
AcDbDictionary
281
     1
  3
A0
350
48
  3
A1
350
49
  3
A2
350
4A
  3
A3
350
4B
  3
A4
350
4C
  3
A5
350
4D
  3
A6
350
4E
  3
A7
350
4F
  3
A8
350
50
  3
A9
350
51
  3
B0
350
52
  3
B1
350
53
  3
B2
350
54
  3
B3
350
55
  3
B4
350
56
  3
B5
350
57
  3
B6
350
58
  3
B7
350
59
  3
B8
350
5A
  3
B9
350
5B
  3
C0
350
5C
  3
C1
350
5D
  3
C2
350
5E
  3
C3
350
5F
  3
C4
350
60
  3
C5
350
61
  3
C6
350
62
  3
C7
350
63
  3
C8
350
64
  3
C9
350
65
  3
D0
350
66
  3
D1
350
67
  3
D2
350
68
  0
XRECORD
  5
50A
102
{ACAD_REACTORS
330
C
102
}
330
C
100
AcDbXrecord
280
     1
  1
DWGPROPS COOKIE
  2

  3

  4

  6

  7

  8
radek.stransky
  9

300
=
301
=
302
=
303
=
304
=
305
=
306
=
307
=
308
=
309
=
 40
0.0
 41
2459103.374387824
 42
2459103.374438519
  1

 90
        0
  0
LAYOUT
  5
1E
102
{ACAD_REACTORS
330
1A
102
}
330
1A
100
AcDbPlotSettings
  1

  2
none_device
  4

  6

 40
0.0
 41
0.0
 42
0.0
 43
0.0
 44
0.0
 45
0.0
 46
0.0
 47
0.0
 48
0.0
 49
0.0
140
0.0
141
0.0
142
1.0
143
1.0
 70
   688
 72
     1
 73
     0
 74
     5
  7

 75
    16
147
1.0
148
0.0
149
0.0
100
AcDbLayout
  1
Layout1
 70
     1
 71
     1
 10
0.0
 20
0.0
 11
420.0
 21
297.0
 12
0.0
 22
0.0
 32
0.0
 14
1.0000000000E+20
 24
1.0000000000E+20
 34
1.0000000000E+20
 15
-1.0000000000E+20
 25
-1.0000000000E+20
 35
-1.0000000000E+20
146
0.0
 13
0.0
 23
0.0
 33
0.0
 16
1.0
 26
0.0
 36
0.0
 17
0.0
 27
1.0
 37
0.0
 76
     0
330
1B
  0
LAYOUT
  5
26
102
{ACAD_REACTORS
330
1A
102
}
330
1A
100
AcDbPlotSettings
  1

  2
none_device
  4

  6

 40
0.0
 41
0.0
 42
0.0
 43
0.0
 44
0.0
 45
0.0
 46
0.0
 47
0.0
 48
0.0
 49
0.0
140
0.0
141
0.0
142
1.0
143
1.0
 70
   688
 72
     1
 73
     0
 74
     5
  7

 75
    16
147
1.0
148
0.0
149
0.0
100
AcDbLayout
  1
Layout2
 70
     1
 71
     2
 10
0.0
 20
0.0
 11
0.0
 21
0.0
 12
0.0
 22
0.0
 32
0.0
 14
0.0
 24
0.0
 34
0.0
 15
0.0
 25
0.0
 35
0.0
146
0.0
 13
0.0
 23
0.0
 33
0.0
 16
1.0
 26
0.0
 36
0.0
 17
0.0
 27
1.0
 37
0.0
 76
     0
330
23
  0
LAYOUT
  5
22
102
{ACAD_REACTORS
330
1A
102
}
330
1A
100
AcDbPlotSettings
  1

  2
none_device
  4
ANSI_A_(11.00_x_8.50_Inches)
  6

 40
6.35
 41
19.05
 42
6.35000508
 43
19.05000254
 44
279.4
 45
215.9
 46
-2424.3826925867
 47
-1927.0940449927
 48
0.0
 49
0.0
140
0.0
141
0.0
142
0.0156109353
143
1.0
 70
  1696
 72
     0
 73
     0
 74
     0
  7

 75
     0
147
0.0179189148
148
-1300.4909072572
149
0.0
100
AcDbLayout
  1
Model
 70
     1
 71
     0
 10
0.0
 20
0.0
 11
420.0
 21
297.0
 12
0.0
 22
0.0
 32
0.0
 14
6176.518749311
 24
4814.7239608875
 34
0.0
 15
6724.4555315883
 25
5353.769177478
 35
0.0
146
0.0
 13
0.0
 23
0.0
 33
0.0
 16
1.0
 26
0.0
 36
0.0
 17
0.0
 27
1.0
 37
0.0
 76
     0
330
1F
331
29
  0
MLINESTYLE
  5
18
102
{ACAD_REACTORS
330
17
102
}
330
17
100
AcDbMlineStyle
  2
Standard
 70
     0
  3

 62
   256
 51
90.0
 52
90.0
 71
     2
 49
0.5
 62
   256
  6
BYLAYER
 49
-0.5
 62
   256
  6
BYLAYER
  0
ACDBPLACEHOLDER
  5
F
102
{ACAD_REACTORS
330
E
102
}
330
E
  0
SCALE
  5
48
102
{ACAD_REACTORS
330
47
102
}
330
47
100
AcDbScale
 70
     0
300
1:1
140
1.0
141
1.0
290
     1
  0
SCALE
  5
49
102
{ACAD_REACTORS
330
47
102
}
330
47
100
AcDbScale
 70
     0
300
1:2
140
1.0
141
2.0
290
     0
  0
SCALE
  5
4A
102
{ACAD_REACTORS
330
47
102
}
330
47
100
AcDbScale
 70
     0
300
1:4
140
1.0
141
4.0
290
     0
  0
SCALE
  5
4B
102
{ACAD_REACTORS
330
47
102
}
330
47
100
AcDbScale
 70
     0
300
1:5
140
1.0
141
5.0
290
     0
  0
SCALE
  5
4C
102
{ACAD_REACTORS
330
47
102
}
330
47
100
AcDbScale
 70
     0
300
1:8
140
1.0
141
8.0
290
     0
  0
SCALE
  5
4D
102
{ACAD_REACTORS
330
47
102
}
330
47
100
AcDbScale
 70
     0
300
1:10
140
1.0
141
10.0
290
     0
  0
SCALE
  5
4E
102
{ACAD_REACTORS
330
47
102
}
330
47
100
AcDbScale
 70
     0
300
1:16
140
1.0
141
16.0
290
     0
  0
SCALE
  5
4F
102
{ACAD_REACTORS
330
47
102
}
330
47
100
AcDbScale
 70
     0
300
1:20
140
1.0
141
20.0
290
     0
  0
SCALE
  5
50
102
{ACAD_REACTORS
330
47
102
}
330
47
100
AcDbScale
 70
     0
300
1:30
140
1.0
141
30.0
290
     0
  0
SCALE
  5
51
102
{ACAD_REACTORS
330
47
102
}
330
47
100
AcDbScale
 70
     0
300
1:40
140
1.0
141
40.0
290
     0
  0
SCALE
  5
52
102
{ACAD_REACTORS
330
47
102
}
330
47
100
AcDbScale
 70
     0
300
1:50
140
1.0
141
50.0
290
     0
  0
SCALE
  5
53
102
{ACAD_REACTORS
330
47
102
}
330
47
100
AcDbScale
 70
     0
300
1:100
140
1.0
141
100.0
290
     0
  0
SCALE
  5
54
102
{ACAD_REACTORS
330
47
102
}
330
47
100
AcDbScale
 70
     0
300
2:1
140
2.0
141
1.0
290
     0
  0
SCALE
  5
55
102
{ACAD_REACTORS
330
47
102
}
330
47
100
AcDbScale
 70
     0
300
4:1
140
4.0
141
1.0
290
     0
  0
SCALE
  5
56
102
{ACAD_REACTORS
330
47
102
}
330
47
100
AcDbScale
 70
     0
300
8:1
140
8.0
141
1.0
290
     0
  0
SCALE
  5
57
102
{ACAD_REACTORS
330
47
102
}
330
47
100
AcDbScale
 70
     0
300
10:1
140
10.0
141
1.0
290
     0
  0
SCALE
  5
58
102
{ACAD_REACTORS
330
47
102
}
330
47
100
AcDbScale
 70
     0
300
100:1
140
100.0
141
1.0
290
     0
  0
SCALE
  5
59
102
{ACAD_REACTORS
330
47
102
}
330
47
100
AcDbScale
 70
     0
300
1/128" = 1'-0"
140
0.0078125
141
12.0
290
     0
  0
SCALE
  5
5A
102
{ACAD_REACTORS
330
47
102
}
330
47
100
AcDbScale
 70
     0
300
1/64" = 1'-0"
140
0.015625
141
12.0
290
     0
  0
SCALE
  5
5B
102
{ACAD_REACTORS
330
47
102
}
330
47
100
AcDbScale
 70
     0
300
1/32" = 1'-0"
140
0.03125
141
12.0
290
     0
  0
SCALE
  5
5C
102
{ACAD_REACTORS
330
47
102
}
330
47
100
AcDbScale
 70
     0
300
1/16" = 1'-0"
140
0.0625
141
12.0
290
     0
  0
SCALE
  5
5D
102
{ACAD_REACTORS
330
47
102
}
330
47
100
AcDbScale
 70
     0
300
3/32" = 1'-0"
140
0.09375
141
12.0
290
     0
  0
SCALE
  5
5E
102
{ACAD_REACTORS
330
47
102
}
330
47
100
AcDbScale
 70
     0
300
1/8" = 1'-0"
140
0.125
141
12.0
290
     0
  0
SCALE
  5
5F
102
{ACAD_REACTORS
330
47
102
}
330
47
100
AcDbScale
 70
     0
300
3/16" = 1'-0"
140
0.1875
141
12.0
290
     0
  0
SCALE
  5
60
102
{ACAD_REACTORS
330
47
102
}
330
47
100
AcDbScale
 70
     0
300
1/4" = 1'-0"
140
0.25
141
12.0
290
     0
  0
SCALE
  5
61
102
{ACAD_REACTORS
330
47
102
}
330
47
100
AcDbScale
 70
     0
300
3/8" = 1'-0"
140
0.375
141
12.0
290
     0
  0
SCALE
  5
62
102
{ACAD_REACTORS
330
47
102
}
330
47
100
AcDbScale
 70
     0
300
1/2" = 1'-0"
140
0.5
141
12.0
290
     0
  0
SCALE
  5
63
102
{ACAD_REACTORS
330
47
102
}
330
47
100
AcDbScale
 70
     0
300
3/4" = 1'-0"
140
0.75
141
12.0
290
     0
  0
SCALE
  5
64
102
{ACAD_REACTORS
330
47
102
}
330
47
100
AcDbScale
 70
     0
300
1" = 1'-0"
140
1.0
141
12.0
290
     0
  0
SCALE
  5
65
102
{ACAD_REACTORS
330
47
102
}
330
47
100
AcDbScale
 70
     0
300
1-1/2" = 1'-0"
140
1.5
141
12.0
290
     0
  0
SCALE
  5
66
102
{ACAD_REACTORS
330
47
102
}
330
47
100
AcDbScale
 70
     0
300
3" = 1'-0"
140
3.0
141
12.0
290
     0
  0
SCALE
  5
67
102
{ACAD_REACTORS
330
47
102
}
330
47
100
AcDbScale
 70
     0
300
6" = 1'-0"
140
6.0
141
12.0
290
     0
  0
SCALE
  5
68
102
{ACAD_REACTORS
330
47
102
}
330
47
100
AcDbScale
 70
     0
300
1'-0" = 1'-0"
140
12.0
141
12.0
290
     0
  0
ENDSEC
  0
EOF
