  0
SECTION
  2
HEADER
  9
$ACADVER
  1
AC1015
  9
$ACADMAINTVER
 70
     6
  9
$DWGCODEPAGE
  3
ANSI_1250
  9
$INSBASE
 10
0.0
 20
0.0
 30
0.0
  9
$EXTMIN
 10
0.0
 20
0.0
 30
0.0
  9
$EXTMAX
 10
20000.0
 20
10000.0
 30
0.0
  9
$LIMMIN
 10
0.0
 20
0.0
  9
$LIMMAX
 10
20000.0
 20
10000.0
  9
$ORTHOMODE
 70
     0
  9
$REGENMODE
 70
     1
  9
$FILLMODE
 70
     1
  9
$QTEXTMODE
 70
     0
  9
$MIRRTEXT
 70
     1
  9
$LTSCALE
 40
1.0
  9
$ATTMODE
 70
     1
  9
$TEXTSIZE
 40
2.0
  9
$TRACEWID
 40
1.0
  9
$TEXTSTYLE
  7
Standard
  9
$CLAYER
  8
0
  9
$CELTYPE
  6
ByLayer
  9
$CECOLOR
 62
   256
  9
$CELTSCALE
 40
1.0
  9
$DISPSILH
 70
     0
  9
$DIMSCALE
 40
1.0
  9
$DIMASZ
 40
2.0
  9
$DIMEXO
 40
1.0
  9
$DIMDLI
 40
3.75
  9
$DIMRND
 40
0.0
  9
$DIMDLE
 40
0.0
  9
$DIMEXE
 40
1.0
  9
$DIMTP
 40
0.0
  9
$DIMTM
 40
0.0
  9
$DIMTXT
 40
2.0
  9
$DIMCEN
 40
2.5
  9
$DIMTSZ
 40
0.0
  9
$DIMTOL
 70
     0
  9
$DIMLIM
 70
     0
  9
$DIMTIH
 70
     1
  9
$DIMTOH
 70
     1
  9
$DIMSE1
 70
     0
  9
$DIMSE2
 70
     0
  9
$DIMTAD
 70
     1
  9
$DIMZIN
 70
     0
  9
$DIMBLK
  1

  9
$DIMASO
 70
     1
  9
$DIMSHO
 70
     1
  9
$DIMPOST
  1

  9
$DIMAPOST
  1

  9
$DIMALT
 70
     0
  9
$DIMALTD
 70
     3
  9
$DIMALTF
 40
0.0393700787
  9
$DIMLFAC
 40
1.0
  9
$DIMTOFL
 70
     1
  9
$DIMTVP
 40
0.0
  9
$DIMTIX
 70
     0
  9
$DIMSOXD
 70
     0
  9
$DIMSAH
 70
     0
  9
$DIMBLK1
  1

  9
$DIMBLK2
  1

  9
$DIMSTYLE
  2
ISO-25
  9
$DIMCLRD
 70
     0
  9
$DIMCLRE
 70
     0
  9
$DIMCLRT
 70
     0
  9
$DIMTFAC
 40
1.0
  9
$DIMGAP
 40
1.524
  9
$DIMJUST
 70
     0
  9
$DIMSD1
 70
     0
  9
$DIMSD2
 70
     0
  9
$DIMTOLJ
 70
     0
  9
$DIMTZIN
 70
     0
  9
$DIMALTZ
 70
     0
  9
$DIMALTTZ
 70
     0
  9
$DIMUPT
 70
     0
  9
$DIMDEC
 70
     2
  9
$DIMTDEC
 70
     0
  9
$DIMALTU
 70
     2
  9
$DIMALTTD
 70
     3
  9
$DIMTXSTY
  7
Standard
  9
$DIMAUNIT
 70
     0
  9
$DIMADEC
 70
     2
  9
$DIMALTRND
 40
0.0
  9
$DIMAZIN
 70
     0
  9
$DIMDSEP
 70
    44
  9
$DIMATFIT
 70
     3
  9
$DIMFRAC
 70
     0
  9
$DIMLDRBLK
  1

  9
$DIMLUNIT
 70
     2
  9
$DIMLWD
 70
    -2
  9
$DIMLWE
 70
    -2
  9
$DIMTMOVE
 70
     0
  9
$LUNITS
 70
     2
  9
$LUPREC
 70
     3
  9
$SKETCHINC
 40
1.0
  9
$FILLETRAD
 40
10.0
  9
$AUNITS
 70
     0
  9
$AUPREC
 70
     2
  9
$MENU
  1
.
  9
$ELEVATION
 40
0.0
  9
$PELEVATION
 40
0.0
  9
$THICKNESS
 40
0.0
  9
$LIMCHECK
 70
     0
  9
$CHAMFERA
 40
0.0
  9
$CHAMFERB
 40
0.0
  9
$CHAMFERC
 40
0.0
  9
$CHAMFERD
 40
0.0
  9
$SKPOLY
 70
     0
  9
$TDCREATE
 40
2459115.45691007
  9
$TDUCREATE
 40
2459115.373576736
  9
$TDUPDATE
 40
2459115.456910243
  9
$TDUUPDATE
 40
2459115.37357691
  9
$TDINDWG
 40
0.0000000116
  9
$TDUSRTIMER
 40
0.0000000116
  9
$USRTIMER
 70
     1
  9
$ANGBASE
 50
0.0
  9
$ANGDIR
 70
     0
  9
$PDMODE
 70
     0
  9
$PDSIZE
 40
-1.0
  9
$PLINEWID
 40
0.0
  9
$SPLFRAME
 70
     0
  9
$SPLINETYPE
 70
     6
  9
$SPLINESEGS
 70
     8
  9
$HANDSEED
  5
FE
  9
$SURFTAB1
 70
     6
  9
$SURFTAB2
 70
     6
  9
$SURFTYPE
 70
     6
  9
$SURFU
 70
     6
  9
$SURFV
 70
     6
  9
$UCSBASE
  2

  9
$UCSNAME
  2

  9
$UCSORG
 10
0.0
 20
0.0
 30
0.0
  9
$UCSXDIR
 10
1.0
 20
0.0
 30
0.0
  9
$UCSYDIR
 10
0.0
 20
1.0
 30
0.0
  9
$UCSORTHOREF
  2

  9
$UCSORTHOVIEW
 70
     0
  9
$UCSORGTOP
 10
0.0
 20
0.0
 30
0.0
  9
$UCSORGBOTTOM
 10
0.0
 20
0.0
 30
0.0
  9
$UCSORGLEFT
 10
0.0
 20
0.0
 30
0.0
  9
$UCSORGRIGHT
 10
0.0
 20
0.0
 30
0.0
  9
$UCSORGFRONT
 10
0.0
 20
0.0
 30
0.0
  9
$UCSORGBACK
 10
0.0
 20
0.0
 30
0.0
  9
$PUCSBASE
  2

  9
$PUCSNAME
  2

  9
$PUCSORG
 10
0.0
 20
0.0
 30
0.0
  9
$PUCSXDIR
 10
1.0
 20
0.0
 30
0.0
  9
$PUCSYDIR
 10
0.0
 20
1.0
 30
0.0
  9
$PUCSORTHOREF
  2

  9
$PUCSORTHOVIEW
 70
     0
  9
$PUCSORGTOP
 10
0.0
 20
0.0
 30
0.0
  9
$PUCSORGBOTTOM
 10
0.0
 20
0.0
 30
0.0
  9
$PUCSORGLEFT
 10
0.0
 20
0.0
 30
0.0
  9
$PUCSORGRIGHT
 10
0.0
 20
0.0
 30
0.0
  9
$PUCSORGFRONT
 10
0.0
 20
0.0
 30
0.0
  9
$PUCSORGBACK
 10
0.0
 20
0.0
 30
0.0
  9
$USERI1
 70
     0
  9
$USERI2
 70
     0
  9
$USERI3
 70
     0
  9
$USERI4
 70
     0
  9
$USERI5
 70
     0
  9
$USERR1
 40
0.0
  9
$USERR2
 40
0.0
  9
$USERR3
 40
0.0
  9
$USERR4
 40
0.0
  9
$USERR5
 40
0.0
  9
$WORLDVIEW
 70
     1
  9
$SHADEDGE
 70
     3
  9
$SHADEDIF
 70
    70
  9
$TILEMODE
 70
     1
  9
$MAXACTVP
 70
    64
  9
$PINSBASE
 10
0.0
 20
0.0
 30
0.0
  9
$PLIMCHECK
 70
     0
  9
$PEXTMIN
 10
1.0000000000E+20
 20
1.0000000000E+20
 30
1.0000000000E+20
  9
$PEXTMAX
 10
-1.0000000000E+20
 20
-1.0000000000E+20
 30
-1.0000000000E+20
  9
$PLIMMIN
 10
0.0
 20
0.0
  9
$PLIMMAX
 10
420.0
 20
297.0
  9
$UNITMODE
 70
     0
  9
$VISRETAIN
 70
     1
  9
$PLINEGEN
 70
     0
  9
$PSLTSCALE
 70
     1
  9
$TREEDEPTH
 70
  3020
  9
$CMLSTYLE
  2
Standard
  9
$CMLJUST
 70
     0
  9
$CMLSCALE
 40
20.0
  9
$PROXYGRAPHICS
 70
     1
  9
$MEASUREMENT
 70
     1
  9
$CELWEIGHT
370
    -1
  9
$ENDCAPS
280
     0
  9
$JOINSTYLE
280
     0
  9
$LWDISPLAY
290
     1
  9
$INSUNITS
 70
     4
  9
$HYPERLINKBASE
  1

  9
$STYLESHEET
  1

  9
$XEDIT
290
     1
  9
$CEPSNTYPE
380
     0
  9
$PSTYLEMODE
290
     1
  9
$FINGERPRINTGUID
  2
{1c53a999-279b-4ae1-8ef5-424d2420e320}
  9
$VERSIONGUID
  2
{FAEB1C32-E019-11D5-929B-00C0DF256EC4}
  9
$EXTNAMES
290
     1
  9
$PSVPSCALE
 40
0.0
  9
$OLESTARTUP
290
     0
  0
ENDSEC
  0
SECTION
  2
CLASSES
  0
CLASS
  1
ACDBDICTIONARYWDFLT
  2
AcDbDictionaryWithDefault
  3
ObjectDBX Classes
 90
        0
280
     0
281
     0
  0
CLASS
  1
VISUALSTYLE
  2
AcDbVisualStyle
  3
ObjectDBX Classes
 90
     4095
280
     0
281
     0
  0
CLASS
  1
MATERIAL
  2
AcDbMaterial
  3
ObjectDBX Classes
 90
     1153
280
     0
281
     0
  0
CLASS
  1
SCALE
  2
AcDbScale
  3
ObjectDBX Classes
 90
     1153
280
     0
281
     0
  0
CLASS
  1
TABLESTYLE
  2
AcDbTableStyle
  3
ObjectDBX Classes
 90
     4095
280
     0
281
     0
  0
CLASS
  1
MLEADERSTYLE
  2
AcDbMLeaderStyle
  3
ACDB_MLEADERSTYLE_CLASS
 90
     4095
280
     0
281
     0
  0
CLASS
  1
SUN
  2
AcDbSun
  3
SCENEOE
 90
     1153
280
     0
281
     0
  0
CLASS
  1
ACDBPLACEHOLDER
  2
AcDbPlaceHolder
  3
ObjectDBX Classes
 90
        0
280
     0
281
     0
  0
CLASS
  1
LAYOUT
  2
AcDbLayout
  3
ObjectDBX Classes
 90
        0
280
     0
281
     0
  0
ENDSEC
  0
SECTION
  2
TABLES
  0
TABLE
  2
VPORT
  5
8
330
0
100
AcDbSymbolTable
 70
     1
  0
VPORT
  5
29
330
8
100
AcDbSymbolTableRecord
100
AcDbViewportTableRecord
  2
*Active
 70
     0
 10
0.0
 20
0.0
 11
1.0
 21
1.0
 12
10000.0
 22
5000.0
 13
0.0
 23
0.0
 14
10.0
 24
10.0
 15
10.0
 25
10.0
 16
0.0
 26
0.0
 36
1.0
 17
0.0
 27
0.0
 37
0.0
 40
10000.0
 41
2.0
 42
50.0
 43
0.0
 44
0.0
 50
0.0
 51
0.0
 71
     0
 72
  2000
 73
     1
 74
     3
 75
     0
 76
     0
 77
     0
 78
     0
281
     0
 65
     1
110
0.0
120
0.0
130
0.0
111
1.0
121
0.0
131
0.0
112
0.0
122
1.0
132
0.0
 79
     0
146
0.0
  0
ENDTAB
  0
TABLE
  2
LTYPE
  5
5
330
0
100
AcDbSymbolTable
 70
     6
  0
LTYPE
  5
14
330
5
100
AcDbSymbolTableRecord
100
AcDbLinetypeTableRecord
  2
ByBlock
 70
     0
  3

 72
    65
 73
     0
 40
0.0
  0
LTYPE
  5
15
330
5
100
AcDbSymbolTableRecord
100
AcDbLinetypeTableRecord
  2
ByLayer
 70
     0
  3

 72
    65
 73
     0
 40
0.0
  0
LTYPE
  5
16
330
5
100
AcDbSymbolTableRecord
100
AcDbLinetypeTableRecord
  2
Continuous
 70
     0
  3
Solid line
 72
    65
 73
     0
 40
0.0
  0
LTYPE
  5
6E
330
5
100
AcDbSymbolTableRecord
100
AcDbLinetypeTableRecord
  2
HIDDEN
 70
     0
  3
Hidden __ __ __ __ __ __ __ __ __ __ __ __ __ __
 72
    65
 73
     2
 40
1.905
 49
1.27
 74
     0
 49
-0.635
 74
     0
  0
LTYPE
  5
6F
330
5
100
AcDbSymbolTableRecord
100
AcDbLinetypeTableRecord
  2
PHANTOM
 70
     0
  3
Phantom ______  __  __  ______  __  __  ______
 72
    65
 73
     6
 40
12.7
 49
6.35
 74
     0
 49
-1.27
 74
     0
 49
1.27
 74
     0
 49
-1.27
 74
     0
 49
1.27
 74
     0
 49
-1.27
 74
     0
  0
LTYPE
  5
70
330
5
100
AcDbSymbolTableRecord
100
AcDbLinetypeTableRecord
  2
CENTER
 70
     0
  3
Center ____ _ ____ _ ____ _ ____ _ ____ _ ____
 72
    65
 73
     4
 40
10.16
 49
6.35
 74
     0
 49
-1.27
 74
     0
 49
1.27
 74
     0
 49
-1.27
 74
     0
  0
LTYPE
  5
71
330
5
100
AcDbSymbolTableRecord
100
AcDbLinetypeTableRecord
  2
CENTERX2
 70
     0
  3
Center (2x) ________  __  ________  __  _____
 72
    65
 73
     4
 40
20.32
 49
12.7
 74
     0
 49
-2.54
 74
     0
 49
2.54
 74
     0
 49
-2.54
 74
     0
  0
LTYPE
  5
72
330
5
100
AcDbSymbolTableRecord
100
AcDbLinetypeTableRecord
  2
DOT2
 70
     0
  3
Dot (.5x) ........................................
 72
    65
 73
     2
 40
0.635
 49
0.0
 74
     0
 49
-0.635
 74
     0
  0
ENDTAB
  0
TABLE
  2
LAYER
  5
2
330
0
100
AcDbSymbolTable
 70
    13
  0
LAYER
  5
10
330
2
100
AcDbSymbolTableRecord
100
AcDbLayerTableRecord
  2
0
 70
     0
 62
     7
  6
Continuous
370
    -3
390
F
  0
LAYER
  5
73
330
2
100
AcDbSymbolTableRecord
100
AcDbLayerTableRecord
  2
FORMAT
 70
     0
 62
     7
  6
Continuous
370
    -3
390
F
  0
LAYER
  5
74
330
2
100
AcDbSymbolTableRecord
100
AcDbLayerTableRecord
  2
OSA
 70
     0
 62
     7
  6
CENTER
370
    -3
390
F
  0
LAYER
  5
75
330
2
100
AcDbSymbolTableRecord
100
AcDbLayerTableRecord
  2
0_35
 70
     0
 62
     7
  6
Continuous
370
    35
390
F
  0
LAYER
  5
76
330
2
100
AcDbSymbolTableRecord
100
AcDbLayerTableRecord
  2
0_5
 70
     0
 62
     7
  6
Continuous
370
    50
390
F
  0
LAYER
  5
77
330
2
100
AcDbSymbolTableRecord
100
AcDbLayerTableRecord
  2
0_25
 70
     0
 62
     7
  6
Continuous
370
    25
390
F
  0
LAYER
  5
78
330
2
100
AcDbSymbolTableRecord
100
AcDbLayerTableRecord
  2
0_18
 70
     0
 62
     7
  6
Continuous
370
    -3
390
F
  0
LAYER
  5
79
330
2
100
AcDbSymbolTableRecord
100
AcDbLayerTableRecord
  2
SLD-0
 70
     0
 62
   179
  6
Continuous
370
    -3
390
F
  0
LAYER
  5
7A
330
2
100
AcDbSymbolTableRecord
100
AcDbLayerTableRecord
  2
KOTY
 70
     0
 62
     7
  6
Continuous
370
    -3
390
F
  0
LAYER
  5
7B
330
2
100
AcDbSymbolTableRecord
100
AcDbLayerTableRecord
  2
SILNA
 70
     0
 62
   179
  6
Continuous
370
    -3
390
F
  0
LAYER
  5
7C
330
2
100
AcDbSymbolTableRecord
100
AcDbLayerTableRecord
  2
0_18_1
 70
     0
 62
   179
  6
Continuous
370
    -3
390
F
  0
LAYER
  5
7D
330
2
100
AcDbSymbolTableRecord
100
AcDbLayerTableRecord
  2
0_35_1
 70
     0
 62
   179
  6
Continuous
370
    35
390
F
  0
LAYER
  5
7E
330
2
100
AcDbSymbolTableRecord
100
AcDbLayerTableRecord
  2
0_5_1
 70
     0
 62
   179
  6
Continuous
370
    50
390
F
  0
ENDTAB
  0
TABLE
  2
STYLE
  5
3
330
0
100
AcDbSymbolTable
 70
     1
  0
STYLE
  5
11
330
3
100
AcDbSymbolTableRecord
100
AcDbTextStyleTableRecord
  2
Standard
 70
     0
 40
0.0
 41
1.0
 50
0.0
 71
     0
 42
2.0
  3
txt
  4

  0
ENDTAB
  0
TABLE
  2
VIEW
  5
6
330
0
100
AcDbSymbolTable
 70
     0
  0
ENDTAB
  0
TABLE
  2
UCS
  5
7
330
0
100
AcDbSymbolTable
 70
     0
  0
ENDTAB
  0
TABLE
  2
APPID
  5
9
330
0
100
AcDbSymbolTable
 70
     1
  0
APPID
  5
12
330
9
100
AcDbSymbolTableRecord
100
AcDbRegAppTableRecord
  2
ACAD
 70
     0
  0
ENDTAB
  0
TABLE
  2
DIMSTYLE
  5
A
330
0
100
AcDbSymbolTable
 70
     1
100
AcDbDimStyleTable
  0
DIMSTYLE
105
27
330
A
100
AcDbSymbolTableRecord
100
AcDbDimStyleTableRecord
  2
ISO-25
 70
     0
 41
2.5
 42
0.625
 43
3.75
 44
1.25
 73
     0
 74
     0
 77
     1
 78
     8
140
2.5
141
2.5
143
0.0393700787
147
0.625
171
     3
172
     1
178
     0
271
     2
272
     2
274
     3
278
    44
283
     0
284
     8
340
11
  0
ENDTAB
  0
TABLE
  2
BLOCK_RECORD
  5
1
330
0
100
AcDbSymbolTable
 70
     1
  0
BLOCK_RECORD
  5
1F
330
1
100
AcDbSymbolTableRecord
100
AcDbBlockTableRecord
  2
*Model_Space
340
22
  0
BLOCK_RECORD
  5
1B
330
1
100
AcDbSymbolTableRecord
100
AcDbBlockTableRecord
  2
*Paper_Space
340
1E
  0
BLOCK_RECORD
  5
23
330
1
100
AcDbSymbolTableRecord
100
AcDbBlockTableRecord
  2
*Paper_Space0
340
26
  0
ENDTAB
  0
ENDSEC
  0
SECTION
  2
BLOCKS
  0
BLOCK
  5
20
330
1F
100
AcDbEntity
  8
0
100
AcDbBlockBegin
  2
*Model_Space
 70
     0
 10
0.0
 20
0.0
 30
0.0
  3
*Model_Space
  1

  0
ENDBLK
  5
21
330
1F
100
AcDbEntity
  8
0
100
AcDbBlockEnd
  0
BLOCK
  5
1C
330
1B
100
AcDbEntity
 67
     1
  8
0
100
AcDbBlockBegin
  2
*Paper_Space
 70
     0
 10
0.0
 20
0.0
 30
0.0
  3
*Paper_Space
  1

  0
ENDBLK
  5
1D
330
1B
100
AcDbEntity
 67
     1
  8
0
100
AcDbBlockEnd
  0
BLOCK
  5
24
330
23
100
AcDbEntity
  8
0
100
AcDbBlockBegin
  2
*Paper_Space0
 70
     0
 10
0.0
 20
0.0
 30
0.0
  3
*Paper_Space0
  1

  0
ENDBLK
  5
25
330
23
100
AcDbEntity
  8
0
100
AcDbBlockEnd
  0
ENDSEC
  0
SECTION
  2
ENTITIES
  0
LINE
  5
7F
330
1F
100
AcDbEntity
  8
0
  6
Continuous
 62
     7
370
    25
100
AcDbLine
 10
8791.0
 20
5830.2597333592
 30
0.0
 11
8791.0
 21
5828.2597333592
 31
0.0
  0
LINE
  5
80
330
1F
100
AcDbEntity
  8
0
  6
Continuous
 62
     7
370
    25
100
AcDbLine
 10
8814.0
 20
5828.2597333592
 30
0.0
 11
8814.0
 21
5830.2597333592
 31
0.0
  0
LINE
  5
81
330
1F
100
AcDbEntity
  8
0
  6
Continuous
 62
     7
370
    25
100
AcDbLine
 10
8814.0
 20
5830.2597333592
 30
0.0
 11
8802.5
 21
5831.2597333592
 31
0.0
  0
LINE
  5
82
330
1F
100
AcDbEntity
  8
0
  6
Continuous
 62
     7
370
    25
100
AcDbLine
 10
8802.5
 20
5831.2597333592
 30
0.0
 11
8791.0
 21
5830.2597333592
 31
0.0
  0
LINE
  5
83
330
1F
100
AcDbEntity
  8
0
  6
Continuous
 62
     7
370
    25
100
AcDbLine
 10
8659.0
 20
5830.2597333592
 30
0.0
 11
8647.5
 21
5831.2597333592
 31
0.0
  0
LINE
  5
84
330
1F
100
AcDbEntity
  8
0
  6
Continuous
 62
     7
370
    25
100
AcDbLine
 10
8647.5
 20
5831.2597333592
 30
0.0
 11
8636.0
 21
5830.2597333592
 31
0.0
  0
LINE
  5
85
330
1F
100
AcDbEntity
  8
0
  6
Continuous
 62
     7
370
    25
100
AcDbLine
 10
8636.0
 20
5830.2597333592
 30
0.0
 11
8636.0
 21
5828.2597333592
 31
0.0
  0
LINE
  5
86
330
1F
100
AcDbEntity
  8
0
  6
Continuous
 62
     7
370
    25
100
AcDbLine
 10
8659.0
 20
5828.2597333592
 30
0.0
 11
8659.0
 21
5830.2597333592
 31
0.0
  0
ARC
  5
87
330
1F
100
AcDbEntity
  8
0
  6
Continuous
 62
     7
370
    25
100
AcDbCircle
 10
8893.9119005384
 20
5793.2502868934
 30
0.0
 40
3.000000000000051
100
AcDbArc
 50
342.5706944515
 51
70.9987753651
  0
ARC
  5
88
330
1F
100
AcDbEntity
  8
0
  6
Continuous
 62
     7
370
    25
100
AcDbCircle
 10
8892.7131371971
 20
5789.4318720996
 30
0.0
 40
2.999999519064681
100
AcDbArc
 50
254.0891734518
 51
342.5707091774
  0
ARC
  5
89
330
1F
100
AcDbEntity
  8
0
  6
Continuous
 62
     7
370
    25
100
AcDbCircle
 10
8556.0880994616
 20
5793.2502868934
 30
0.0
 40
3.000000000000596
100
AcDbArc
 50
108.9775228776
 51
197.4293055486
  0
ARC
  5
8A
330
1F
100
AcDbEntity
  8
0
  6
Continuous
 62
     7
370
    25
100
AcDbCircle
 10
8557.2868628034
 20
5789.4318721001
 30
0.0
 40
2.99999951968552
100
AcDbArc
 50
197.4292908293
 51
285.9437684499
  0
ARC
  5
8B
330
1F
100
AcDbEntity
  8
0
  6
Continuous
 62
     7
370
    25
100
AcDbCircle
 10
8586.041189519
 20
5697.8409011099
 30
0.0
 40
3.000000000000703
100
AcDbArc
 50
108.3827141938
 51
197.4293055485
  0
ARC
  5
8C
330
1F
100
AcDbEntity
  8
0
  6
Continuous
 62
     7
370
    25
100
AcDbCircle
 10
8587.2395477582
 20
5694.0237767247
 30
0.0
 40
2.999999530851859
100
AcDbArc
 50
197.4292909574
 51
286.5392981446
  0
ARC
  5
8D
330
1F
100
AcDbEntity
  8
0
  6
Continuous
 62
     7
370
    25
100
AcDbCircle
 10
8863.9588104811
 20
5697.8409011099
 30
0.0
 40
3.000000000000969
100
AcDbArc
 50
342.5706944515
 51
71.5894146939
  0
ARC
  5
8E
330
1F
100
AcDbEntity
  8
0
  6
Continuous
 62
     7
370
    25
100
AcDbCircle
 10
8862.7604522424
 20
5694.023776724
 30
0.0
 40
2.999999530133497
100
AcDbArc
 50
253.4991170188
 51
342.5707090504
  0
ARC
  5
8F
330
1F
100
AcDbEntity
  8
0
  6
Continuous
 62
     7
370
    25
100
AcDbCircle
 10
8615.9941822688
 20
5602.4318252795
 30
0.0
 40
3.000000000000051
100
AcDbArc
 50
107.7888845483
 51
197.4293055485
  0
ARC
  5
90
330
1F
100
AcDbEntity
  8
0
  6
Continuous
 62
     7
370
    25
100
AcDbCircle
 10
8617.1923300154
 20
5598.6153714121
 30
0.0
 40
2.999999541907861
100
AcDbArc
 50
197.4292910814
 51
287.1328654671
  0
ARC
  5
91
330
1F
100
AcDbEntity
  8
0
  6
Continuous
 62
     7
370
    25
100
AcDbCircle
 10
8834.0058177312
 20
5602.4318252795
 30
0.0
 40
3.000000000000051
100
AcDbArc
 50
342.5706944515
 51
72.1810328169
  0
ARC
  5
92
330
1F
100
AcDbEntity
  8
0
  6
Continuous
 62
     7
370
    25
100
AcDbCircle
 10
8832.8076699852
 20
5598.6153714115
 30
0.0
 40
2.999999541214414
100
AcDbArc
 50
252.9042773248
 51
342.5707089261
  0
LWPOLYLINE
  5
93
330
1F
100
AcDbEntity
  8
0
  6
Continuous
 62
     7
370
    25
100
AcDbPolyline
 90
       51
 70
   128
 43
0.0
 10
8904.1831911583
 20
5825.6608553346
 10
8903.8753532451
 20
5825.6587190209
 10
8903.0102042664
 20
5825.6570419423
 10
8901.3925168053
 20
5825.6556051248
 10
8899.0816475869
 20
5825.6545654938
 10
8894.8791091387
 20
5825.6536955542
 10
8890.8925342242
 20
5825.6533704189
 10
8886.2078308958
 20
5825.6532810864
 10
8880.0755490385
 20
5825.6534088803
 10
8873.1187315801
 20
5825.6537331663
 10
8865.8279891445
 20
5825.654170381
 10
8857.870049126
 20
5825.654704092
 10
8851.2430326835
 20
5825.6551655581
 10
8843.0572601954
 20
5825.6557309307
 10
8834.411127445
 20
5825.6563100688
 10
8825.2607589468
 20
5825.6568948166
 10
8815.6270128764
 20
5825.6574614939
 10
8802.0536736974
 20
5825.658181357
 10
8792.3573726859
 20
5825.6586227898
 10
8782.4171751768
 20
5825.6590180262
 10
8772.2851359647
 20
5825.6593586541
 10
8763.0331172415
 20
5825.6596138163
 10
8753.6736150247
 20
5825.6598147966
 10
8744.1591533426
 20
5825.6599627443
 10
8732.9965750585
 20
5825.6600604744
 10
8721.8028299611
 20
5825.6600771377
 10
8710.528934265
 20
5825.6600143442
 10
8699.2146340685
 20
5825.6598649382
 10
8684.1196894047
 20
5825.6595434357
 10
8671.505480266
 20
5825.6591606113
 10
8659.1760132438
 20
5825.6586878248
 10
8647.8604613376
 20
5825.658170464
 10
8636.9106289771
 20
5825.6576023574
 10
8628.6814207697
 20
5825.6571345124
 10
8619.9190763626
 20
5825.6565928764
 10
8611.51662298
 20
5825.6560387999
 10
8603.5180759345
 20
5825.6554927286
 10
8596.6895572163
 20
5825.6550192397
 10
8590.2235943806
 20
5825.6545735899
 10
8584.0929367749
 20
5825.6541686974
 10
8577.4780217823
 20
5825.6537660389
 10
8571.8632103297
 20
5825.6534864729
 10
8566.7569550155
 20
5825.6533177817
 10
8562.5114520303
 20
5825.6532831334
 10
8558.7254765528
 20
5825.6533891882
 10
8555.3861325895
 20
5825.6536636929
 10
8551.9287620177
 20
5825.6542784868
 10
8549.3086675315
 20
5825.655215709
 10
8547.4059803064
 20
5825.6565606663
 10
8546.2327706855
 20
5825.6584094829
 10
8545.8168088417
 20
5825.6608553346
  0
ARC
  5
94
330
1F
100
AcDbEntity
  8
0
  6
Continuous
 62
     7
370
    25
100
AcDbCircle
 10
8547.7250377991
 20
5826.2597347748
 30
0.0
 40
1.999998584435132
100
AcDbArc
 50
90.0001530158
 51
197.4239672593
  0
LINE
  5
95
330
1F
100
AcDbEntity
  8
0
  6
Continuous
 62
     7
370
    25
100
AcDbLine
 10
8547.7250324579
 20
5828.2597333592
 30
0.0
 11
8902.2749675421
 21
5828.2597333592
 31
0.0
  0
ARC
  5
96
330
1F
100
AcDbEntity
  8
0
  6
Continuous
 62
     7
370
    25
100
AcDbCircle
 10
8902.2749622009
 20
5826.2597347748
 30
0.0
 40
1.999998584433199
100
AcDbArc
 50
342.5760327406
 51
89.9998469843
  0
LWPOLYLINE
  5
97
330
1F
100
AcDbEntity
  8
0
  6
Continuous
 62
     7
370
    25
100
AcDbPolyline
 90
       17
 70
   128
 43
0.0
 10
8725.0514395338
 20
5481.7606017238
 10
8732.3500030543
 20
5482.0675576115
 10
8739.5962893189
 20
5482.972831712
 10
8746.9484985572
 20
5484.5050722491
 10
8754.1407895076
 20
5486.6076884874
 10
8760.9802710491
 20
5489.18461917
 10
8767.576075078
 20
5492.239767014
 10
8774.0575251468
 20
5495.8454288554
 10
8780.2049076728
 20
5499.8916390009
 10
8785.7572370828
 20
5504.1585383838
 10
8790.9559420299
 20
5508.7821185639
 10
8795.8817654517
 20
5513.8528052676
 10
8800.4072917523
 20
5519.2634305637
 10
8804.6960523259
 20
5525.2768833972
 10
8808.5098860692
 20
5531.6479575315
 10
8811.9136588867
 20
5538.5863467981
 10
8814.7388786273
 20
5545.8875238988
  0
LINE
  5
98
330
1F
100
AcDbEntity
  8
0
  6
Continuous
 62
     7
370
    25
100
AcDbLine
 10
8724.9485604662
 20
5481.7606017238
 30
0.0
 11
8725.0514395338
 21
5481.7606017238
 31
0.0
  0
LWPOLYLINE
  5
99
330
1F
100
AcDbEntity
  8
0
  6
Continuous
 62
     7
370
    25
100
AcDbPolyline
 90
       16
 70
   128
 43
0.0
 10
8635.2611213727
 20
5545.8875238988
 10
8637.9119157277
 20
5538.985703821
 10
8641.1151336284
 20
5532.343452538
 10
8644.7850234274
 20
5526.0782567746
 10
8649.3091488297
 20
5519.6313647265
 10
8655.6549885779
 20
5512.1891141432
 10
8660.9171668478
 20
5507.0382602414
 10
8665.7764066867
 20
5502.9157789493
 10
8670.9512875824
 20
5499.0796064264
 10
8680.1207712712
 20
5493.448791581
 10
8687.44215019
 20
5489.8623038718
 10
8694.1287356597
 20
5487.2054836474
 10
8701.0208350138
 20
5485.0371557752
 10
8706.829611106
 20
5483.6403165632
 10
8715.6921200908
 20
5482.2522869538
 10
8724.9485604662
 20
5481.7606017238
  0
LWPOLYLINE
  5
9A
330
1F
100
AcDbEntity
  8
0
  6
Continuous
 62
     7
370
    25
100
AcDbPolyline
 90
        7
 70
   128
 43
0.0
 10
8545.8168088417
 20
5825.6608553346
 10
8548.1148765815
 20
5818.3496561543
 10
8559.9657674201
 20
5780.6666522333
 10
8566.376433987
 20
5760.3017610162
 10
8595.4150454204
 20
5668.4358942512
 10
8615.0810472259
 20
5607.0827659526
 10
8635.2611213727
 20
5545.8875238988
  0
LWPOLYLINE
  5
9B
330
1F
100
AcDbEntity
  8
0
  6
Continuous
 62
     7
370
    25
100
AcDbPolyline
 90
       10
 70
   128
 43
0.0
 10
8814.7388786273
 20
5545.8875238988
 10
8817.8797773994
 20
5555.2482746921
 10
8830.2559550664
 20
5592.7407417501
 10
8854.5849545796
 20
5668.4358942512
 10
8880.8132146069
 20
5751.3800121201
 10
8883.623566013
 20
5760.3017610162
 10
8898.3358787535
 20
5807.0600506093
 10
8900.2941757064
 20
5813.2887501909
 10
8904.0824693165
 20
5825.3403923688
 10
8904.1831911583
 20
5825.6608553346
  0
LWPOLYLINE
  5
9C
330
1F
100
AcDbEntity
  8
0
  6
Continuous
 62
     7
370
    25
100
AcDbPolyline
 90
        9
 70
   128
 43
0.0
 10
8724.9485604662
 20
5481.7606017238
 10
8724.9486497756
 20
5481.0274732881
 10
8724.9487728434
 20
5480.350156045
 10
8724.9489265927
 20
5479.7455843488
 10
8724.9491071794
 20
5479.2288737625
 10
8724.9493100885
 20
5478.8129431364
 10
8724.9495302469
 20
5478.5081916103
 10
8724.9497621501
 20
5478.3222386127
 10
8724.95
 20
5478.2597333592
  0
ARC
  5
9D
330
1F
100
AcDbEntity
  8
0
  6
Continuous
 62
     7
370
    25
100
AcDbCircle
 10
8724.95
 20
5573.5673531383
 30
0.0
 40
95.30761977901423
100
AcDbArc
 50
197.4471884233
 51
270.0
  0
ARC
  5
9E
330
1F
100
AcDbEntity
  8
0
  6
Continuous
 62
     7
370
    25
100
AcDbCircle
 10
8635.7294052242
 20
5543.9447699144
 30
0.0
 40
1.998395058399985
100
AcDbArc
 50
103.5521300242
 51
148.4103304209
  0
ARC
  5
9F
330
1F
100
AcDbEntity
  8
0
  6
Continuous
 62
     7
370
    25
100
AcDbCircle
 10
8814.2705947758
 20
5543.9447699144
 30
0.0
 40
1.998395058383281
100
AcDbArc
 50
31.5896695789
 51
76.447869976
  0
ARC
  5
A0
330
1F
100
AcDbEntity
  8
0
  6
Continuous
 62
     7
370
    25
100
AcDbCircle
 10
8725.05
 20
5573.5673531383
 30
0.0
 40
95.30761977901057
100
AcDbArc
 50
270.0
 51
342.5528115767
  0
LWPOLYLINE
  5
A1
330
1F
100
AcDbEntity
  8
0
  6
Continuous
 62
     7
370
    25
100
AcDbPolyline
 90
        9
 70
   128
 43
0.0
 10
8725.0514395338
 20
5481.7606017238
 10
8725.0513502244
 20
5481.0274732881
 10
8725.0512271566
 20
5480.350156045
 10
8725.0510734073
 20
5479.7455843488
 10
8725.0508928206
 20
5479.2288737625
 10
8725.0506899115
 20
5478.8129431364
 10
8725.0504697531
 20
5478.5081916103
 10
8725.0502378499
 20
5478.3222386127
 10
8725.05
 20
5478.2597333592
  0
LINE
  5
A2
330
1F
100
AcDbEntity
  8
0
  6
Continuous
 62
     7
370
    25
100
AcDbLine
 10
8725.05
 20
5478.2597333592
 30
0.0
 11
8724.95
 21
5478.2597333592
 31
0.0
  0
LINE
  5
A3
330
1F
100
AcDbEntity
  8
0
  6
Continuous
 62
     7
370
    25
100
AcDbLine
 10
8634.027129558
 20
5544.9915938565
 30
0.0
 11
8545.8170338608
 21
5825.6600801658
 31
0.0
  0
LINE
  5
A4
330
1F
100
AcDbEntity
  8
0
  6
Continuous
 62
     7
370
    25
100
AcDbLine
 10
8545.8168088417
 20
5825.6608553346
 30
0.0
 11
8545.8170338608
 21
5825.6600801658
 31
0.0
  0
LINE
  5
A5
330
1F
100
AcDbEntity
  8
0
  6
Continuous
 62
     7
370
    25
100
AcDbLine
 10
8904.1829661392
 20
5825.6600801658
 30
0.0
 11
8904.1831911583
 21
5825.6608553346
 31
0.0
  0
LINE
  5
A6
330
1F
100
AcDbEntity
  8
0
  6
Continuous
 62
     7
370
    25
100
AcDbLine
 10
8904.1829661392
 20
5825.6600801658
 30
0.0
 11
8815.972870442
 21
5544.9915938565
 31
0.0
  0
ARC
  5
A7
330
1F
100
AcDbEntity
  8
0
  6
Continuous
 62
     7
370
    25
100
AcDbCircle
 10
8547.7250212946
 20
5826.2597333592
 30
0.0
 40
2.0
100
AcDbArc
 50
90.0
 51
197.4471884233
  0
ARC
  5
A8
330
1F
100
AcDbEntity
  8
0
  6
Continuous
 62
     7
370
    25
100
AcDbCircle
 10
8902.2749787054
 20
5826.2597333592
 30
0.0
 40
2.000000000001119
100
AcDbArc
 50
342.5528115768
 51
90.0
  0
LINE
  5
A9
330
1F
100
AcDbEntity
  8
0
  6
Continuous
 62
     7
370
    25
100
AcDbLine
 10
8814.0
 20
5830.2597333592
 30
0.0
 11
8791.0
 21
5830.2597333592
 31
0.0
  0
LINE
  5
AA
330
1F
100
AcDbEntity
  8
0
  6
Continuous
 62
     7
370
    25
100
AcDbLine
 10
8636.0
 20
5830.2597333592
 30
0.0
 11
8659.0
 21
5830.2597333592
 31
0.0
  0
LINE
  5
AB
330
1F
100
AcDbEntity
  8
0
  6
Continuous
 62
     7
370
    25
100
AcDbLine
 10
8896.7741622909
 20
5792.3517004143
 30
0.0
 11
8895.5753981791
 21
5788.5332847721
 31
0.0
  0
LINE
  5
AC
330
1F
100
AcDbEntity
  8
0
  6
Continuous
 62
     7
370
    25
100
AcDbLine
 10
8554.4246018209
 20
5788.5332847721
 30
0.0
 11
8553.2258377091
 21
5792.3517004143
 31
0.0
  0
LINE
  5
AD
330
1F
100
AcDbEntity
  8
0
  6
Continuous
 62
     7
370
    25
100
AcDbLine
 10
8584.3772867669
 20
5693.1251893875
 30
0.0
 11
8583.1789277665
 21
5696.9423146309
 31
0.0
  0
LINE
  5
AE
330
1F
100
AcDbEntity
  8
0
  6
Continuous
 62
     7
370
    25
100
AcDbLine
 10
8866.8210722335
 20
5696.9423146309
 30
0.0
 11
8865.6227132331
 21
5693.1251893875
 31
0.0
  0
LINE
  5
AF
330
1F
100
AcDbEntity
  8
0
  6
Continuous
 62
     7
370
    25
100
AcDbLine
 10
8614.3300690153
 20
5597.7167840657
 30
0.0
 11
8613.1319205163
 21
5601.5332388004
 31
0.0
  0
LINE
  5
B0
330
1F
100
AcDbEntity
  8
0
  6
Continuous
 62
     7
370
    25
100
AcDbLine
 10
8836.8680794837
 20
5601.5332388004
 30
0.0
 11
8835.6699309847
 21
5597.7167840657
 31
0.0
  0
ARC
  5
B1
330
1F
100
AcDbEntity
  8
0
  6
Continuous
 62
     7
370
    25
100
AcDbCircle
 10
9954.9476901399
 20
5826.2597333592
 30
0.0
 40
2.000000000000321
100
AcDbArc
 50
342.052760919
 51
90.000032456
  0
LINE
  5
B2
330
1F
100
AcDbEntity
  8
0
  6
Continuous
 62
     7
370
    25
100
AcDbLine
 10
9848.7729841772
 20
5481.7606010497
 30
0.0
 11
9956.8492292721
 21
5825.6395627155
 31
0.0
  0
ARC
  5
B3
330
1F
100
AcDbEntity
  8
0
  6
Continuous
 62
     7
370
    25
100
AcDbCircle
 10
9282.5905921004
 20
5791.3164843063
 30
0.0
 40
4.877821466478387
100
AcDbArc
 50
183.0406300139
 51
264.9537219364
  0
ARC
  5
B4
330
1F
100
AcDbEntity
  8
0
  6
Continuous
 62
     7
370
    25
100
AcDbCircle
 10
9282.7973354663
 20
5791.2477711874
 30
0.0
 40
4.832211984770289
100
AcDbArc
 50
262.4393857605
 51
357.7148854249
  0
ARC
  5
B5
330
1F
100
AcDbEntity
  8
0
  6
Continuous
 62
     7
370
    25
100
AcDbCircle
 10
9282.5933414888
 20
5695.9124157558
 30
0.0
 40
4.882072385438926
100
AcDbArc
 50
182.1443290154
 51
264.9265715912
  0
ARC
  5
B6
330
1F
100
AcDbEntity
  8
0
  6
Continuous
 62
     7
370
    25
100
AcDbCircle
 10
9282.7860946793
 20
5695.8558131988
 30
0.0
 40
4.846742621469446
100
AcDbArc
 50
262.597052295
 51
358.5044894849
  0
ARC
  5
B7
330
1F
100
AcDbEntity
  8
0
  6
Continuous
 62
     7
370
    25
100
AcDbCircle
 10
9282.5971228467
 20
5600.5106253672
 30
0.0
 40
4.888995391741738
100
AcDbArc
 50
181.2638704053
 51
264.8897186506
  0
ARC
  5
B8
330
1F
100
AcDbEntity
  8
0
  6
Continuous
 62
     7
370
    25
100
AcDbCircle
 10
9282.7743383867
 20
5600.4654020084
 30
0.0
 40
4.863089279067395
100
AcDbArc
 50
262.7621578971
 51
359.280168645
  0
LINE
  5
B9
330
1F
100
AcDbEntity
  8
0
  6
Continuous
 62
     7
370
    25
100
AcDbLine
 10
9506.1727114745
 20
5830.2597333592
 30
0.0
 11
9506.1727114745
 21
5828.2597333592
 31
0.0
  0
LINE
  5
BA
330
1F
100
AcDbEntity
  8
0
  6
Continuous
 62
     7
370
    25
100
AcDbLine
 10
9529.1727114745
 20
5828.2597333592
 30
0.0
 11
9529.1727114745
 21
5830.2597333592
 31
0.0
  0
LINE
  5
BB
330
1F
100
AcDbEntity
  8
0
  6
Continuous
 62
     7
370
    25
100
AcDbLine
 10
9529.1727114745
 20
5830.2597333592
 30
0.0
 11
9517.6727114745
 21
5831.2597333592
 31
0.0
  0
LINE
  5
BC
330
1F
100
AcDbEntity
  8
0
  6
Continuous
 62
     7
370
    25
100
AcDbLine
 10
9517.6727114745
 20
5831.2597333592
 30
0.0
 11
9506.1727114745
 21
5830.2597333592
 31
0.0
  0
ARC
  5
BD
330
1F
100
AcDbEntity
  8
0
  6
Continuous
 62
     7
370
    25
100
AcDbCircle
 10
9524.1113571529
 20
5826.4455337864
 30
0.0
 40
253.9951976537206
100
AcDbArc
 50
359.8229933657
 51
0.4092473541
  0
LINE
  5
BE
330
1F
100
AcDbEntity
  8
0
  6
Continuous
 62
     7
370
    25
100
AcDbLine
 10
9778.1000756249
 20
5828.2597333592
 30
0.0
 11
9954.9071094334
 21
5828.2597333592
 31
0.0
  0
LWPOLYLINE
  5
BF
330
1F
100
AcDbEntity
  8
0
  6
Continuous
 62
     7
370
    25
100
AcDbPolyline
 90
       16
 70
   128
 43
0.0
 10
9825.49202607
 20
5545.8875238988
 10
9826.9514388603
 20
5538.985703821
 10
9828.846837794
 20
5532.343452538
 10
9830.9930433846
 20
5526.0782567746
 10
9833.4877930725
 20
5519.6313647265
 10
9836.6294801008
 20
5512.1891141432
 10
9838.9059090693
 20
5507.0382602414
 10
9840.7508393626
 20
5502.9157789493
 10
9842.4571771493
 20
5499.0796064264
 10
9844.8739152097
 20
5493.448791581
 10
9846.2991943986
 20
5489.8623038718
 10
9847.255923515
 20
5487.2054836474
 10
9847.948807291
 20
5485.0371557752
 10
9848.3380972663
 20
5483.6403165632
 10
9848.6695517643
 20
5482.2522869538
 10
9848.7729766269
 20
5481.7606017238
  0
LWPOLYLINE
  5
C0
330
1F
100
AcDbEntity
  8
0
  6
Continuous
 62
     7
370
    25
100
AcDbPolyline
 90
        7
 70
   128
 43
0.0
 10
9778.105342733
 20
5825.6608553346
 10
9779.3229276415
 20
5818.3496561543
 10
9785.6116273867
 20
5780.6666522333
 10
9789.0208065804
 20
5760.3017610162
 10
9804.5278424834
 20
5668.4358942512
 10
9815.0262735996
 20
5607.0827659526
 10
9825.49202607
 20
5545.8875238988
  0
ARC
  5
C1
330
1F
100
AcDbEntity
  8
0
  6
Continuous
 62
     7
370
    25
100
AcDbCircle
 10
9259.6727114745
 20
5826.2597333592
 30
0.0
 40
2.0
100
AcDbArc
 50
90.0
 51
180.0
  0
LINE
  5
C2
330
1F
100
AcDbEntity
  8
0
  6
Continuous
 62
     7
370
    25
100
AcDbLine
 10
9778.091987452
 20
5825.6600801658
 30
0.0
 11
9778.091987452
 21
5828.2597333592
 31
0.0
  0
LINE
  5
C3
330
1F
100
AcDbEntity
  8
0
  6
Continuous
 62
     7
370
    25
100
AcDbLine
 10
9778.091987452
 20
5825.6600801658
 30
0.0
 11
9257.6727114745
 21
5825.6600801658
 31
0.0
  0
LINE
  5
C4
330
1F
100
AcDbEntity
  8
0
  6
Continuous
 62
     7
370
    25
100
AcDbLine
 10
9257.6727114745
 20
5825.6600801658
 30
0.0
 11
9257.6727114745
 21
5826.2597333592
 31
0.0
  0
LINE
  5
C5
330
1F
100
AcDbEntity
  8
0
  6
Continuous
 62
     7
370
    25
100
AcDbLine
 10
9259.6727114745
 20
5828.2597333592
 30
0.0
 11
9778.091987452
 21
5828.2597333592
 31
0.0
  0
LINE
  5
C6
330
1F
100
AcDbEntity
  8
0
  6
Continuous
 62
     7
370
    25
100
AcDbLine
 10
9778.105342733
 20
5825.6608553346
 30
0.0
 11
9778.091987452
 21
5825.6600801658
 31
0.0
  0
LINE
  5
C7
330
1F
100
AcDbEntity
  8
0
  6
Continuous
 62
     7
370
    25
100
AcDbLine
 10
9778.091987452
 20
5828.2597333592
 30
0.0
 11
9778.1000756249
 21
5828.2597333592
 31
0.0
  0
ARC
  5
C8
330
1F
100
AcDbEntity
  8
0
  6
Continuous
 62
     7
370
    25
100
AcDbCircle
 10
9820.380778849
 20
5558.5401719755
 30
0.0
 40
13.64603794181728
100
AcDbArc
 50
276.8518203553
 51
291.9970630277
  0
LWPOLYLINE
  5
C9
330
1F
100
AcDbEntity
  8
0
  6
Continuous
 62
     7
370
    25
100
AcDbPolyline
 90
        6
 70
   128
 43
0.0
 10
9822.0087783765
 20
5544.9915938565
 10
9812.7843590864
 20
5606.616449967
 10
9803.22671603
 20
5668.1970680972
 10
9788.6090992736
 20
5760.236543488
 10
9780.0878865926
 20
5813.2770797479
 10
9778.091987452
 20
5825.6600801658
  0
ELLIPSE
  5
CA
330
1F
100
AcDbEntity
  8
0
  6
Continuous
 62
     7
370
    25
100
AcDbEllipse
 10
9282.6727114745
 20
5600.5181475224
 30
0.0
 11
5.0
 21
0.0
 31
0.0
210
0.0
220
0.0
230
1.0
 40
0.9539937634
 41
6.258234534922054
 42
9.450049280848411
  0
ELLIPSE
  5
CB
330
1F
100
AcDbEntity
  8
0
  6
Continuous
 62
     7
370
    25
100
AcDbEllipse
 10
9282.6727114745
 20
5695.9175238593
 30
0.0
 11
5.0
 21
0.0
 31
0.0
210
0.0
220
0.0
230
1.0
 40
0.9539937634
 41
6.241738855434452
 42
9.466143209945002
  0
ELLIPSE
  5
CC
330
1F
100
AcDbEntity
  8
0
  6
Continuous
 62
     7
370
    25
100
AcDbEllipse
 10
9282.6727114745
 20
5791.3169001961
 30
0.0
 11
5.0
 21
0.0
 31
0.0
210
0.0
220
0.0
230
1.0
 40
0.9539937634
 41
6.225410835931452
 42
9.482013112922987
  0
LINE
  5
CD
330
1F
100
AcDbEntity
  8
0
  6
Continuous
 62
     7
370
    25
100
AcDbLine
 10
9822.0087783765
 20
5544.9915938565
 30
0.0
 11
9257.6727114745
 21
5544.9915938565
 31
0.0
  0
LINE
  5
CE
330
1F
100
AcDbEntity
  8
0
  6
Continuous
 62
     7
370
    25
100
AcDbLine
 10
9257.6727114745
 20
5544.9915938565
 30
0.0
 11
9257.6727114745
 21
5825.6600801658
 31
0.0
  0
LWPOLYLINE
  5
CF
330
1F
100
AcDbEntity
  8
0
  6
Continuous
 62
     7
370
    25
100
AcDbPolyline
 90
       21
 70
   128
 43
0.0
 10
9282.6727114745
 20
5788.5332847721
 10
9283.1329995997
 20
5788.5844782543
 10
9283.751661242
 20
5788.8345794859
 10
9284.2486795483
 20
5789.2659606532
 10
9284.5680195062
 20
5789.8299868878
 10
9284.6736778982
 20
5790.4630685814
 10
9284.5537424471
 20
5791.0938305646
 10
9284.2217349246
 20
5791.6511591263
 10
9283.715086712
 20
5792.0722196222
 10
9283.0909186475
 20
5792.3095406768
 10
9282.6727114745
 20
5792.3517004143
 10
9282.0103419919
 20
5792.2440760845
 10
9281.4226496543
 20
5791.933336938
 10
9280.9758922798
 20
5791.4545164683
 10
9280.7204383108
 20
5790.8615979396
 10
9280.6850883244
 20
5790.2214283685
 10
9280.8738278502
 20
5789.6061820565
 10
9281.2653779502
 20
5789.0852234485
 10
9281.8155942466
 20
5788.7172867331
 10
9282.4624439356
 20
5788.5438539546
 10
9282.6727114745
 20
5788.5332847721
  0
LWPOLYLINE
  5
D0
330
1F
100
AcDbEntity
  8
0
  6
Continuous
 62
     7
370
    25
100
AcDbPolyline
 90
       21
 70
   128
 43
0.0
 10
9282.6727114745
 20
5693.1251893875
 10
9283.1328440496
 20
5693.1763655693
 10
9283.7512966208
 20
5693.4263822815
 10
9284.2481469643
 20
5693.8576176675
 10
9284.5673790042
 20
5694.4214532945
 10
9284.6730016898
 20
5695.054321044
 10
9284.5531067698
 20
5695.6848698669
 10
9284.2212114462
 20
5696.2420100845
 10
9283.7147344507
 20
5696.6629282868
 10
9283.0907773181
 20
5696.9001691408
 10
9282.6727114745
 20
5696.9423146309
 10
9282.0105658336
 20
5696.8347266717
 10
9281.4230721012
 20
5696.5240925366
 10
9280.9764657043
 20
5696.0454338798
 10
9280.7210980637
 20
5695.4527157225
 10
9280.6857600236
 20
5694.812762491
 10
9280.8744357666
 20
5694.1977240959
 10
9281.2658535458
 20
5693.6769415411
 10
9281.8158839017
 20
5693.3091291667
 10
9282.4625149937
 20
5693.1357549982
 10
9282.6727114745
 20
5693.1251893875
  0
LWPOLYLINE
  5
D1
330
1F
100
AcDbEntity
  8
0
  6
Continuous
 62
     7
370
    25
100
AcDbPolyline
 90
       21
 70
   128
 43
0.0
 10
9282.6727114745
 20
5597.7167840657
 10
9283.1327632237
 20
5597.767951258
 10
9283.7511071587
 20
5598.0179240529
 10
9284.2478702264
 20
5598.4490836888
 10
9284.5670461907
 20
5599.0128202737
 10
9284.6726503228
 20
5599.6455768548
 10
9284.5527764633
 20
5600.2760149168
 10
9284.2209394397
 20
5600.8330572682
 10
9283.714551411
 20
5601.2539015328
 10
9283.0907038814
 20
5601.4911007135
 10
9282.6727114745
 20
5601.5332388004
 10
9282.0106821448
 20
5601.4256697399
 10
9281.4232916104
 20
5601.1150901702
 10
9280.9767636635
 20
5600.6365155936
 10
9280.7214408802
 20
5600.043901552
 10
9280.6861090475
 20
5599.4040607334
 10
9280.8747516482
 20
5598.7891303747
 10
9281.2661006717
 20
5598.2684392996
 10
9281.8160344103
 20
5597.9006915344
 10
9282.4625519164
 20
5597.7273478205
 10
9282.6727114745
 20
5597.7167840657
  0
ARC
  5
D2
330
1F
100
AcDbEntity
  8
0
  6
Continuous
 62
     7
370
    25
100
AcDbCircle
 10
9844.0030077664
 20
5483.2597331581
 30
0.0
 40
4.999999798807039
100
AcDbArc
 50
270.000000797
 51
342.5528294636
  0
LWPOLYLINE
  5
D3
330
1F
100
AcDbEntity
  8
0
  6
Continuous
 62
     7
370
    25
100
AcDbPolyline
 90
       17
 70
   128
 43
0.0
 10
9844.0030078359
 20
5478.2597333592
 10
9843.9575822221
 20
5478.4573646744
 10
9843.8166627938
 20
5479.0566252173
 10
9843.5613163717
 20
5480.0535143634
 10
9843.1639130029
 20
5481.4577684716
 10
9842.3735417184
 20
5483.9489416683
 10
9841.2469575496
 20
5487.1417814012
 10
9839.7395052538
 20
5491.0947650254
 10
9837.8878696402
 20
5495.7220283487
 10
9835.9803838324
 20
5500.3942599247
 10
9833.9012110701
 20
5505.5086015987
 10
9831.6828061962
 20
5511.1088631715
 10
9829.3981508987
 20
5517.1852012282
 10
9827.2194628769
 20
5523.4840201802
 10
9825.1774511113
 20
5530.1805203449
 10
9823.374322973
 20
5537.381579869
 10
9822.0087783765
 20
5544.9915938565
  0
LINE
  5
D4
330
1F
100
AcDbEntity
  8
0
  6
Continuous
 62
     7
370
    25
100
AcDbLine
 10
9844.0030078359
 20
5478.2597333592
 30
0.0
 11
9257.6727114745
 21
5478.2597333592
 31
0.0
  0
LINE
  5
D5
330
1F
100
AcDbEntity
  8
0
  6
Continuous
 62
     7
370
    25
100
AcDbLine
 10
9257.6727114745
 20
5544.9915938565
 30
0.0
 11
9257.6727114745
 21
5478.2597333592
 31
0.0
  0
LINE
  5
D6
330
1F
100
AcDbEntity
  8
0
  6
Continuous
 62
     7
370
    25
100
AcDbLine
 10
9517.6727114745
 20
5830.2597333592
 30
0.0
 11
9529.1727114745
 21
5830.2597333592
 31
0.0
  0
LINE
  5
D7
330
1F
100
AcDbEntity
  8
0
  6
Continuous
 62
     7
370
    25
100
AcDbLine
 10
9506.1727114745
 20
5830.2597333592
 30
0.0
 11
9517.6727114745
 21
5830.2597333592
 31
0.0
  0
LWPOLYLINE
  5
D8
330
1F
100
AcDbEntity
  8
0
  6
Continuous
 62
     8
370
    25
100
AcDbPolyline
 90
       28
 70
   128
 43
0.0
 10
9956.7840166683
 20
5825.6600724209
 10
9956.8270647804
 20
5825.6600771377
 10
9956.2699644496
 20
5825.6600143442
 10
9954.9901590772
 20
5825.6598649382
 10
9952.1288784754
 20
5825.6595434357
 10
9948.6923759682
 20
5825.6591611564
 10
9944.3245163033
 20
5825.6586878248
 10
9939.4094322354
 20
5825.6581784801
 10
9933.7020198921
 20
5825.6576023574
 10
9928.7597051376
 20
5825.6571345124
 10
9924.3554100479
 20
5825.6567292872
 10
9919.6646234907
 20
5825.6563185077
 10
9914.6559580723
 20
5825.6559040726
 10
9909.3755699935
 20
5825.6554927286
 10
9902.7406891948
 20
5825.6550233542
 10
9895.7329437672
 20
5825.6545735899
 10
9888.3426145818
 20
5825.6541686974
 10
9879.3566593442
 20
5825.6537660389
 10
9870.6993877827
 20
5825.6534865409
 10
9861.7036194112
 20
5825.6533177817
 10
9853.1796156456
 20
5825.6532849629
 10
9844.4174725856
 20
5825.6533891882
 10
9835.4082495698
 20
5825.6536636929
 10
9824.0298408252
 20
5825.6542784868
 10
9812.8263229044
 20
5825.655215709
 10
9801.4305528593
 20
5825.6565606663
 10
9789.8186932577
 20
5825.6584094829
 10
9778.105342733
 20
5825.6608553346
  0
ARC
  5
D9
330
1F
100
AcDbEntity
  8
0
  6
Continuous
 62
     7
370
    25
100
AcDbCircle
 10
8724.9954442129
 20
4636.1800292481
 30
0.0
 40
179.281524915185
100
AcDbArc
 50
180.1522791818
 51
359.8476045928
  0
LINE
  5
DA
330
1F
100
AcDbEntity
  8
0
  6
Continuous
 62
     7
370
    25
100
AcDbLine
 10
8545.7250212946
 20
5156.1365340477
 30
0.0
 11
8545.7250212946
 21
4635.7172580702
 31
0.0
  0
LINE
  5
DB
330
1F
100
AcDbEntity
  8
0
  6
Continuous
 62
     7
370
    25
100
AcDbLine
 10
8904.2749787054
 20
4635.7172580702
 30
0.0
 11
8904.2749787054
 21
5156.1365340477
 31
0.0
  0
ARC
  5
DC
330
1F
100
AcDbEntity
  8
0
  6
Continuous
 62
     7
370
    25
100
AcDbCircle
 10
8725.0
 20
4716.1365340477
 30
0.0
 40
126.9698364451333
100
AcDbArc
 50
90.0
 51
180.0
  0
ARC
  5
DD
330
1F
100
AcDbEntity
  8
0
  6
Continuous
 62
     7
370
    25
100
AcDbCircle
 10
8725.0
 20
4716.1365340477
 30
0.0
 40
126.9698364451333
100
AcDbArc
 50
0.0
 51
90.0
  0
LINE
  5
DE
330
1F
100
AcDbEntity
  8
0
  6
Continuous
 62
     7
370
    25
100
AcDbLine
 10
8851.9698364451
 20
4716.1365340477
 30
0.0
 11
8851.9698364451
 21
4636.1365340477
 31
0.0
  0
LINE
  5
DF
330
1F
100
AcDbEntity
  8
0
  6
Continuous
 62
     7
370
    25
100
AcDbLine
 10
8598.0301635549
 20
4636.1365340477
 30
0.0
 11
8598.0301635549
 21
4716.1365340477
 31
0.0
  0
ARC
  5
E0
330
1F
100
AcDbEntity
  8
0
  6
Continuous
 62
     7
370
    25
100
AcDbCircle
 10
8725.0
 20
4636.1365340477
 30
0.0
 40
126.9698364451324
100
AcDbArc
 50
180.0
 51
0.0
  0
LWPOLYLINE
  5
E1
330
1F
100
AcDbEntity
  8
0
  6
Continuous
 62
     7
370
    25
100
AcDbPolyline
 90
        3
 70
   128
 43
0.0
 10
8546.7250226216
 20
4635.7204874391
 10
8546.7250253578
 20
4635.7116069011
 10
8546.7250505837
 20
4635.7063797218
  0
LINE
  5
E2
330
1F
100
AcDbEntity
  8
0
  6
Continuous
 62
     7
370
    25
100
AcDbLine
 10
8545.725427573
 20
4635.7036505572
 30
0.0
 11
8545.7250411935
 21
4635.7036494907
 31
0.0
  0
ARC
  5
E3
330
1F
100
AcDbEntity
  8
0
  6
Continuous
 62
     7
370
    25
100
AcDbCircle
 10
8725.0
 20
4636.1452374935
 30
0.0
 40
177.2755038690301
100
AcDbArc
 50
180.1409380174
 51
359.8590619826
  0
CIRCLE
  5
E4
330
1F
100
AcDbEntity
  8
0
  6
Continuous
 62
     7
370
    25
100
AcDbCircle
 10
8802.5
 20
4896.1365340477
 30
0.0
 40
11.5
  0
CIRCLE
  5
E5
330
1F
100
AcDbEntity
  8
0
  6
Continuous
 62
     7
370
    25
100
AcDbCircle
 10
8647.5
 20
4896.1365340477
 30
0.0
 40
11.49999999999818
  0
LINE
  5
E6
330
1F
100
AcDbEntity
  8
0
  6
Continuous
 62
     7
370
    25
100
AcDbLine
 10
8547.7250212946
 20
5154.1365340477
 30
0.0
 11
8545.7250212946
 21
5156.1365340477
 31
0.0
  0
LINE
  5
E7
330
1F
100
AcDbEntity
  8
0
  6
Continuous
 62
     7
370
    25
100
AcDbLine
 10
8547.7250212946
 20
5154.1365340477
 30
0.0
 11
8547.7250212946
 21
4635.7172580702
 31
0.0
  0
LINE
  5
E8
330
1F
100
AcDbEntity
  8
0
  6
Continuous
 62
     7
370
    25
100
AcDbLine
 10
8902.2749787054
 20
4635.7172580702
 30
0.0
 11
8902.2749787054
 21
5154.1365340477
 31
0.0
  0
LINE
  5
E9
330
1F
100
AcDbEntity
  8
0
  6
Continuous
 62
     7
370
    25
100
AcDbLine
 10
8902.2749787054
 20
5154.1365340477
 30
0.0
 11
8904.2749787054
 21
5156.1365340477
 31
0.0
  0
LINE
  5
EA
330
1F
100
AcDbEntity
  8
0
  6
Continuous
 62
     7
370
    25
100
AcDbLine
 10
8902.2749787054
 20
5154.1365340477
 30
0.0
 11
8547.7250212946
 21
5154.1365340477
 31
0.0
  0
LINE
  5
EB
330
1F
100
AcDbEntity
  8
0
  6
Continuous
 62
     7
370
    25
100
AcDbLine
 10
8545.7250212946
 20
5156.1365340477
 30
0.0
 11
8904.2749787054
 21
5156.1365340477
 31
0.0
  0
LINE
  5
EC
330
1F
100
AcDbEntity
  8
0
  6
Continuous
 62
     7
370
    25
100
AcDbLine
 10
8547.7250212946
 20
4635.7172580702
 30
0.0
 11
8547.7250324579
 21
4635.7091698972
 31
0.0
  0
LINE
  5
ED
330
1F
100
AcDbEntity
  8
0
  6
Continuous
 62
     7
370
    25
100
AcDbLine
 10
8902.2749675421
 20
4635.7091698973
 30
0.0
 11
8902.2749787054
 21
4635.7172580702
 31
0.0
  0
LINE
  5
EE
330
1F
100
AcDbEntity
  8
0
  6
Continuous
 62
     7
370
    25
100
AcDbLine
 10
8855.9698364451
 20
4716.1365340477
 30
0.0
 11
8855.9698364451
 21
4636.1365340477
 31
0.0
  0
ARC
  5
EF
330
1F
100
AcDbEntity
  8
0
  6
Continuous
 62
     7
370
    25
100
AcDbCircle
 10
8725.0
 20
4716.1365340477
 30
0.0
 40
130.9698364451324
100
AcDbArc
 50
0.0
 51
180.0
  0
LINE
  5
F0
330
1F
100
AcDbEntity
  8
0
  6
Continuous
 62
     7
370
    25
100
AcDbLine
 10
8594.0301635549
 20
4636.1365340477
 30
0.0
 11
8594.0301635549
 21
4716.1365340477
 31
0.0
  0
ARC
  5
F1
330
1F
100
AcDbEntity
  8
0
  6
Continuous
 62
     7
370
    25
100
AcDbCircle
 10
8725.0
 20
4636.1365340477
 30
0.0
 40
130.9698364451324
100
AcDbArc
 50
180.0
 51
0.0
  0
LINE
  5
F2
330
1F
100
AcDbEntity
  8
0
  6
Continuous
 62
     7
370
    25
100
AcDbLine
 10
8904.1829661392
 20
4635.7172580702
 30
0.0
 11
8904.1831911583
 21
4635.7039027892
 31
0.0
  0
LINE
  5
F3
330
1F
100
AcDbEntity
  8
0
  6
Continuous
 62
     7
370
    25
100
AcDbLine
 10
8546.7709206498
 20
4635.7065363432
 30
0.0
 11
8546.7710275777
 21
4635.7172580702
 31
0.0
  0
CIRCLE
  5
F4
330
1F
100
AcDbEntity
  8
0
  6
Continuous
 62
     7
370
    25
100
AcDbCircle
 10
8725.0
 20
4713.6365340477
 30
0.0
 40
35.0
  0
LINE
  5
F5
330
1F
100
AcDbEntity
  8
0
  6
Continuous
 62
     8
370
    25
100
AcDbLine
 10
8545.7250411935
 20
4635.7036494907
 30
0.0
 11
8547.7250324579
 21
4635.7091698972
 31
0.0
  0
LINE
  5
F6
330
1F
100
AcDbEntity
  8
0
  6
Continuous
 62
     8
370
    25
100
AcDbLine
 10
8904.274959585
 20
4635.7036494886
 30
0.0
 11
8902.2749675421
 21
4635.7091698973
 31
0.0
  0
LINE
  5
F7
330
1F
100
AcDbEntity
  8
0
  6
Continuous
 62
     8
370
    25
100
AcDbLine
 10
8545.7250212946
 20
4635.7172580702
 30
0.0
 11
8547.7250212946
 21
4635.7172580702
 31
0.0
  0
LINE
  5
F8
330
1F
100
AcDbEntity
  8
0
  6
Continuous
 62
     8
370
    25
100
AcDbLine
 10
8902.2749787054
 20
4635.7172580702
 30
0.0
 11
8904.2749787054
 21
4635.7172580702
 31
0.0
  0
LINE
  5
F9
330
1F
100
AcDbEntity
  8
0
  6
Continuous
 62
     8
370
    25
100
AcDbLine
 10
8851.9698364451
 20
4716.1365340477
 30
0.0
 11
8855.9698364451
 21
4716.1365340477
 31
0.0
  0
LINE
  5
FA
330
1F
100
AcDbEntity
  8
0
  6
Continuous
 62
     8
370
    25
100
AcDbLine
 10
8598.0301635549
 20
4716.1365340477
 30
0.0
 11
8594.0301635549
 21
4716.1365340477
 31
0.0
  0
LINE
  5
FB
330
1F
100
AcDbEntity
  8
0
  6
Continuous
 62
     8
370
    25
100
AcDbLine
 10
8851.9698364451
 20
4636.1365340477
 30
0.0
 11
8855.9698364451
 21
4636.1365340477
 31
0.0
  0
LINE
  5
FC
330
1F
100
AcDbEntity
  8
0
  6
Continuous
 62
     8
370
    25
100
AcDbLine
 10
8598.0301635549
 20
4636.1365340477
 30
0.0
 11
8594.0301635549
 21
4636.1365340477
 31
0.0
  0
ENDSEC
  0
SECTION
  2
OBJECTS
  0
DICTIONARY
  5
C
330
0
100
AcDbDictionary
281
     1
  3
ACAD_GROUP
350
D
  3
ACAD_LAYOUT
350
1A
  3
ACAD_MLINESTYLE
350
17
  3
ACAD_PLOTSETTINGS
350
19
  3
ACAD_PLOTSTYLENAME
350
E
  3
ACAD_SCALELIST
350
47
  3
DWGPROPS
350
FD
  0
DICTIONARY
  5
D
102
{ACAD_REACTORS
330
C
102
}
330
C
100
AcDbDictionary
281
     1
  0
DICTIONARY
  5
1A
102
{ACAD_REACTORS
330
C
102
}
330
C
100
AcDbDictionary
281
     1
  3
Layout1
350
1E
  3
Layout2
350
26
  3
Model
350
22
  0
DICTIONARY
  5
17
102
{ACAD_REACTORS
330
C
102
}
330
C
100
AcDbDictionary
281
     1
  3
Standard
350
18
  0
DICTIONARY
  5
19
102
{ACAD_REACTORS
330
C
102
}
330
C
100
AcDbDictionary
281
     1
  0
ACDBDICTIONARYWDFLT
  5
E
102
{ACAD_REACTORS
330
C
102
}
330
C
100
AcDbDictionary
281
     1
  3
Normal
350
F
100
AcDbDictionaryWithDefault
340
F
  0
DICTIONARY
  5
47
102
{ACAD_REACTORS
330
C
102
}
330
C
100
AcDbDictionary
281
     1
  3
A0
350
48
  3
A1
350
49
  3
A2
350
4A
  3
A3
350
4B
  3
A4
350
4C
  3
A5
350
4D
  3
A6
350
4E
  3
A7
350
4F
  3
A8
350
50
  3
A9
350
51
  3
B0
350
52
  3
B1
350
53
  3
B2
350
54
  3
B3
350
55
  3
B4
350
56
  3
B5
350
57
  3
B6
350
58
  3
B7
350
59
  3
B8
350
5A
  3
B9
350
5B
  3
C0
350
5C
  3
C1
350
5D
  3
C2
350
5E
  3
C3
350
5F
  3
C4
350
60
  3
C5
350
61
  3
C6
350
62
  3
C7
350
63
  3
C8
350
64
  3
C9
350
65
  3
D0
350
66
  3
D1
350
67
  3
D2
350
68
  0
XRECORD
  5
FD
102
{ACAD_REACTORS
330
C
102
}
330
C
100
AcDbXrecord
280
     1
  1
DWGPROPS COOKIE
  2

  3

  4

  6

  7

  8
radek.stransky
  9

300
=
301
=
302
=
303
=
304
=
305
=
306
=
307
=
308
=
309
=
 40
0.0
 41
2459115.373576736
 42
2459115.37357691
  1

 90
        0
  0
LAYOUT
  5
1E
102
{ACAD_REACTORS
330
1A
102
}
330
1A
100
AcDbPlotSettings
  1

  2
none_device
  4

  6

 40
0.0
 41
0.0
 42
0.0
 43
0.0
 44
0.0
 45
0.0
 46
0.0
 47
0.0
 48
0.0
 49
0.0
140
0.0
141
0.0
142
1.0
143
1.0
 70
   688
 72
     1
 73
     0
 74
     5
  7

 75
    16
147
1.0
148
0.0
149
0.0
100
AcDbLayout
  1
Layout1
 70
     1
 71
     1
 10
0.0
 20
0.0
 11
420.0
 21
297.0
 12
0.0
 22
0.0
 32
0.0
 14
1.0000000000E+20
 24
1.0000000000E+20
 34
1.0000000000E+20
 15
-1.0000000000E+20
 25
-1.0000000000E+20
 35
-1.0000000000E+20
146
0.0
 13
0.0
 23
0.0
 33
0.0
 16
1.0
 26
0.0
 36
0.0
 17
0.0
 27
1.0
 37
0.0
 76
     0
330
1B
  0
LAYOUT
  5
26
102
{ACAD_REACTORS
330
1A
102
}
330
1A
100
AcDbPlotSettings
  1

  2
none_device
  4

  6

 40
0.0
 41
0.0
 42
0.0
 43
0.0
 44
0.0
 45
0.0
 46
0.0
 47
0.0
 48
0.0
 49
0.0
140
0.0
141
0.0
142
1.0
143
1.0
 70
   688
 72
     1
 73
     0
 74
     5
  7

 75
    16
147
1.0
148
0.0
149
0.0
100
AcDbLayout
  1
Layout2
 70
     1
 71
     2
 10
0.0
 20
0.0
 11
0.0
 21
0.0
 12
0.0
 22
0.0
 32
0.0
 14
0.0
 24
0.0
 34
0.0
 15
0.0
 25
0.0
 35
0.0
146
0.0
 13
0.0
 23
0.0
 33
0.0
 16
1.0
 26
0.0
 36
0.0
 17
0.0
 27
1.0
 37
0.0
 76
     0
330
23
  0
LAYOUT
  5
22
102
{ACAD_REACTORS
330
1A
102
}
330
1A
100
AcDbPlotSettings
  1

  2
none_device
  4
Letter_(8.50_x_11.00_Inches)
  6

 40
6.35
 41
6.35
 42
6.35000508
 43
6.35000508
 44
215.9
 45
279.4
 46
0.0
 47
0.0
 48
0.0
 49
0.0
140
0.0
141
0.0
142
1.0
143
1.0
 70
  1712
 72
     1
 73
     0
 74
     0
  7

 75
     0
147
1.0
148
0.0
149
0.0
100
AcDbLayout
  1
Model
 70
     1
 71
     0
 10
0.0
 20
0.0
 11
20000.0
 21
10000.0
 12
0.0
 22
0.0
 32
0.0
 14
0.0
 24
0.0
 34
0.0
 15
20000.0
 25
10000.0
 35
0.0
146
0.0
 13
0.0
 23
0.0
 33
0.0
 16
1.0
 26
0.0
 36
0.0
 17
0.0
 27
1.0
 37
0.0
 76
     0
330
1F
331
29
  0
MLINESTYLE
  5
18
102
{ACAD_REACTORS
330
17
102
}
330
17
100
AcDbMlineStyle
  2
Standard
 70
     0
  3

 62
   256
 51
90.0
 52
90.0
 71
     2
 49
0.5
 62
   256
  6
BYLAYER
 49
-0.5
 62
   256
  6
BYLAYER
  0
ACDBPLACEHOLDER
  5
F
102
{ACAD_REACTORS
330
E
102
}
330
E
  0
SCALE
  5
48
102
{ACAD_REACTORS
330
47
102
}
330
47
100
AcDbScale
 70
     0
300
1:1
140
1.0
141
1.0
290
     1
  0
SCALE
  5
49
102
{ACAD_REACTORS
330
47
102
}
330
47
100
AcDbScale
 70
     0
300
1:2
140
1.0
141
2.0
290
     0
  0
SCALE
  5
4A
102
{ACAD_REACTORS
330
47
102
}
330
47
100
AcDbScale
 70
     0
300
1:4
140
1.0
141
4.0
290
     0
  0
SCALE
  5
4B
102
{ACAD_REACTORS
330
47
102
}
330
47
100
AcDbScale
 70
     0
300
1:5
140
1.0
141
5.0
290
     0
  0
SCALE
  5
4C
102
{ACAD_REACTORS
330
47
102
}
330
47
100
AcDbScale
 70
     0
300
1:8
140
1.0
141
8.0
290
     0
  0
SCALE
  5
4D
102
{ACAD_REACTORS
330
47
102
}
330
47
100
AcDbScale
 70
     0
300
1:10
140
1.0
141
10.0
290
     0
  0
SCALE
  5
4E
102
{ACAD_REACTORS
330
47
102
}
330
47
100
AcDbScale
 70
     0
300
1:16
140
1.0
141
16.0
290
     0
  0
SCALE
  5
4F
102
{ACAD_REACTORS
330
47
102
}
330
47
100
AcDbScale
 70
     0
300
1:20
140
1.0
141
20.0
290
     0
  0
SCALE
  5
50
102
{ACAD_REACTORS
330
47
102
}
330
47
100
AcDbScale
 70
     0
300
1:30
140
1.0
141
30.0
290
     0
  0
SCALE
  5
51
102
{ACAD_REACTORS
330
47
102
}
330
47
100
AcDbScale
 70
     0
300
1:40
140
1.0
141
40.0
290
     0
  0
SCALE
  5
52
102
{ACAD_REACTORS
330
47
102
}
330
47
100
AcDbScale
 70
     0
300
1:50
140
1.0
141
50.0
290
     0
  0
SCALE
  5
53
102
{ACAD_REACTORS
330
47
102
}
330
47
100
AcDbScale
 70
     0
300
1:100
140
1.0
141
100.0
290
     0
  0
SCALE
  5
54
102
{ACAD_REACTORS
330
47
102
}
330
47
100
AcDbScale
 70
     0
300
2:1
140
2.0
141
1.0
290
     0
  0
SCALE
  5
55
102
{ACAD_REACTORS
330
47
102
}
330
47
100
AcDbScale
 70
     0
300
4:1
140
4.0
141
1.0
290
     0
  0
SCALE
  5
56
102
{ACAD_REACTORS
330
47
102
}
330
47
100
AcDbScale
 70
     0
300
8:1
140
8.0
141
1.0
290
     0
  0
SCALE
  5
57
102
{ACAD_REACTORS
330
47
102
}
330
47
100
AcDbScale
 70
     0
300
10:1
140
10.0
141
1.0
290
     0
  0
SCALE
  5
58
102
{ACAD_REACTORS
330
47
102
}
330
47
100
AcDbScale
 70
     0
300
100:1
140
100.0
141
1.0
290
     0
  0
SCALE
  5
59
102
{ACAD_REACTORS
330
47
102
}
330
47
100
AcDbScale
 70
     0
300
1/128" = 1'-0"
140
0.0078125
141
12.0
290
     0
  0
SCALE
  5
5A
102
{ACAD_REACTORS
330
47
102
}
330
47
100
AcDbScale
 70
     0
300
1/64" = 1'-0"
140
0.015625
141
12.0
290
     0
  0
SCALE
  5
5B
102
{ACAD_REACTORS
330
47
102
}
330
47
100
AcDbScale
 70
     0
300
1/32" = 1'-0"
140
0.03125
141
12.0
290
     0
  0
SCALE
  5
5C
102
{ACAD_REACTORS
330
47
102
}
330
47
100
AcDbScale
 70
     0
300
1/16" = 1'-0"
140
0.0625
141
12.0
290
     0
  0
SCALE
  5
5D
102
{ACAD_REACTORS
330
47
102
}
330
47
100
AcDbScale
 70
     0
300
3/32" = 1'-0"
140
0.09375
141
12.0
290
     0
  0
SCALE
  5
5E
102
{ACAD_REACTORS
330
47
102
}
330
47
100
AcDbScale
 70
     0
300
1/8" = 1'-0"
140
0.125
141
12.0
290
     0
  0
SCALE
  5
5F
102
{ACAD_REACTORS
330
47
102
}
330
47
100
AcDbScale
 70
     0
300
3/16" = 1'-0"
140
0.1875
141
12.0
290
     0
  0
SCALE
  5
60
102
{ACAD_REACTORS
330
47
102
}
330
47
100
AcDbScale
 70
     0
300
1/4" = 1'-0"
140
0.25
141
12.0
290
     0
  0
SCALE
  5
61
102
{ACAD_REACTORS
330
47
102
}
330
47
100
AcDbScale
 70
     0
300
3/8" = 1'-0"
140
0.375
141
12.0
290
     0
  0
SCALE
  5
62
102
{ACAD_REACTORS
330
47
102
}
330
47
100
AcDbScale
 70
     0
300
1/2" = 1'-0"
140
0.5
141
12.0
290
     0
  0
SCALE
  5
63
102
{ACAD_REACTORS
330
47
102
}
330
47
100
AcDbScale
 70
     0
300
3/4" = 1'-0"
140
0.75
141
12.0
290
     0
  0
SCALE
  5
64
102
{ACAD_REACTORS
330
47
102
}
330
47
100
AcDbScale
 70
     0
300
1" = 1'-0"
140
1.0
141
12.0
290
     0
  0
SCALE
  5
65
102
{ACAD_REACTORS
330
47
102
}
330
47
100
AcDbScale
 70
     0
300
1-1/2" = 1'-0"
140
1.5
141
12.0
290
     0
  0
SCALE
  5
66
102
{ACAD_REACTORS
330
47
102
}
330
47
100
AcDbScale
 70
     0
300
3" = 1'-0"
140
3.0
141
12.0
290
     0
  0
SCALE
  5
67
102
{ACAD_REACTORS
330
47
102
}
330
47
100
AcDbScale
 70
     0
300
6" = 1'-0"
140
6.0
141
12.0
290
     0
  0
SCALE
  5
68
102
{ACAD_REACTORS
330
47
102
}
330
47
100
AcDbScale
 70
     0
300
1'-0" = 1'-0"
140
12.0
141
12.0
290
     0
  0
ENDSEC
  0
EOF
