  0
SECTION
  2
HEADER
  9
$ACADVER
  1
AC1015
  9
$ACADMAINTVER
 70
     6
  9
$DWGCODEPAGE
  3
ANSI_1250
  9
$INSBASE
 10
0.0
 20
0.0
 30
0.0
  9
$EXTMIN
 10
0.0
 20
0.0
 30
0.0
  9
$EXTMAX
 10
20000.0
 20
10000.0
 30
0.0
  9
$LIMMIN
 10
0.0
 20
0.0
  9
$LIMMAX
 10
20000.0
 20
10000.0
  9
$ORTHOMODE
 70
     0
  9
$REGENMODE
 70
     1
  9
$FILLMODE
 70
     1
  9
$QTEXTMODE
 70
     0
  9
$MIRRTEXT
 70
     1
  9
$LTSCALE
 40
1.0
  9
$ATTMODE
 70
     1
  9
$TEXTSIZE
 40
2.0
  9
$TRACEWID
 40
1.0
  9
$TEXTSTYLE
  7
Standard
  9
$CLAYER
  8
0
  9
$CELTYPE
  6
ByLayer
  9
$CECOLOR
 62
   256
  9
$CELTSCALE
 40
1.0
  9
$DISPSILH
 70
     0
  9
$DIMSCALE
 40
1.0
  9
$DIMASZ
 40
2.0
  9
$DIMEXO
 40
1.0
  9
$DIMDLI
 40
3.75
  9
$DIMRND
 40
0.0
  9
$DIMDLE
 40
0.0
  9
$DIMEXE
 40
1.0
  9
$DIMTP
 40
0.0
  9
$DIMTM
 40
0.0
  9
$DIMTXT
 40
2.0
  9
$DIMCEN
 40
2.5
  9
$DIMTSZ
 40
0.0
  9
$DIMTOL
 70
     0
  9
$DIMLIM
 70
     0
  9
$DIMTIH
 70
     1
  9
$DIMTOH
 70
     1
  9
$DIMSE1
 70
     0
  9
$DIMSE2
 70
     0
  9
$DIMTAD
 70
     1
  9
$DIMZIN
 70
     0
  9
$DIMBLK
  1

  9
$DIMASO
 70
     1
  9
$DIMSHO
 70
     1
  9
$DIMPOST
  1

  9
$DIMAPOST
  1

  9
$DIMALT
 70
     0
  9
$DIMALTD
 70
     3
  9
$DIMALTF
 40
0.0393700787
  9
$DIMLFAC
 40
1.0
  9
$DIMTOFL
 70
     1
  9
$DIMTVP
 40
0.0
  9
$DIMTIX
 70
     0
  9
$DIMSOXD
 70
     0
  9
$DIMSAH
 70
     0
  9
$DIMBLK1
  1

  9
$DIMBLK2
  1

  9
$DIMSTYLE
  2
ISO-25
  9
$DIMCLRD
 70
     0
  9
$DIMCLRE
 70
     0
  9
$DIMCLRT
 70
     0
  9
$DIMTFAC
 40
1.0
  9
$DIMGAP
 40
1.524
  9
$DIMJUST
 70
     0
  9
$DIMSD1
 70
     0
  9
$DIMSD2
 70
     0
  9
$DIMTOLJ
 70
     0
  9
$DIMTZIN
 70
     0
  9
$DIMALTZ
 70
     0
  9
$DIMALTTZ
 70
     0
  9
$DIMUPT
 70
     0
  9
$DIMDEC
 70
     2
  9
$DIMTDEC
 70
     0
  9
$DIMALTU
 70
     2
  9
$DIMALTTD
 70
     3
  9
$DIMTXSTY
  7
Standard
  9
$DIMAUNIT
 70
     0
  9
$DIMADEC
 70
     2
  9
$DIMALTRND
 40
0.0
  9
$DIMAZIN
 70
     0
  9
$DIMDSEP
 70
    44
  9
$DIMATFIT
 70
     3
  9
$DIMFRAC
 70
     0
  9
$DIMLDRBLK
  1

  9
$DIMLUNIT
 70
     2
  9
$DIMLWD
 70
    -2
  9
$DIMLWE
 70
    -2
  9
$DIMTMOVE
 70
     0
  9
$LUNITS
 70
     2
  9
$LUPREC
 70
     3
  9
$SKETCHINC
 40
1.0
  9
$FILLETRAD
 40
10.0
  9
$AUNITS
 70
     0
  9
$AUPREC
 70
     2
  9
$MENU
  1
.
  9
$ELEVATION
 40
0.0
  9
$PELEVATION
 40
0.0
  9
$THICKNESS
 40
0.0
  9
$LIMCHECK
 70
     0
  9
$CHAMFERA
 40
0.0
  9
$CHAMFERB
 40
0.0
  9
$CHAMFERC
 40
0.0
  9
$CHAMFERD
 40
0.0
  9
$SKPOLY
 70
     0
  9
$TDCREATE
 40
2459136.406058738
  9
$TDUCREATE
 40
2459136.322725405
  9
$TDUPDATE
 40
2459136.406059086
  9
$TDUUPDATE
 40
2459136.322725752
  9
$TDINDWG
 40
0.0000000116
  9
$TDUSRTIMER
 40
0.0000000116
  9
$USRTIMER
 70
     1
  9
$ANGBASE
 50
0.0
  9
$ANGDIR
 70
     0
  9
$PDMODE
 70
     0
  9
$PDSIZE
 40
-1.0
  9
$PLINEWID
 40
0.0
  9
$SPLFRAME
 70
     0
  9
$SPLINETYPE
 70
     6
  9
$SPLINESEGS
 70
     8
  9
$HANDSEED
  5
122
  9
$SURFTAB1
 70
     6
  9
$SURFTAB2
 70
     6
  9
$SURFTYPE
 70
     6
  9
$SURFU
 70
     6
  9
$SURFV
 70
     6
  9
$UCSBASE
  2

  9
$UCSNAME
  2

  9
$UCSORG
 10
0.0
 20
0.0
 30
0.0
  9
$UCSXDIR
 10
1.0
 20
0.0
 30
0.0
  9
$UCSYDIR
 10
0.0
 20
1.0
 30
0.0
  9
$UCSORTHOREF
  2

  9
$UCSORTHOVIEW
 70
     0
  9
$UCSORGTOP
 10
0.0
 20
0.0
 30
0.0
  9
$UCSORGBOTTOM
 10
0.0
 20
0.0
 30
0.0
  9
$UCSORGLEFT
 10
0.0
 20
0.0
 30
0.0
  9
$UCSORGRIGHT
 10
0.0
 20
0.0
 30
0.0
  9
$UCSORGFRONT
 10
0.0
 20
0.0
 30
0.0
  9
$UCSORGBACK
 10
0.0
 20
0.0
 30
0.0
  9
$PUCSBASE
  2

  9
$PUCSNAME
  2

  9
$PUCSORG
 10
0.0
 20
0.0
 30
0.0
  9
$PUCSXDIR
 10
1.0
 20
0.0
 30
0.0
  9
$PUCSYDIR
 10
0.0
 20
1.0
 30
0.0
  9
$PUCSORTHOREF
  2

  9
$PUCSORTHOVIEW
 70
     0
  9
$PUCSORGTOP
 10
0.0
 20
0.0
 30
0.0
  9
$PUCSORGBOTTOM
 10
0.0
 20
0.0
 30
0.0
  9
$PUCSORGLEFT
 10
0.0
 20
0.0
 30
0.0
  9
$PUCSORGRIGHT
 10
0.0
 20
0.0
 30
0.0
  9
$PUCSORGFRONT
 10
0.0
 20
0.0
 30
0.0
  9
$PUCSORGBACK
 10
0.0
 20
0.0
 30
0.0
  9
$USERI1
 70
     0
  9
$USERI2
 70
     0
  9
$USERI3
 70
     0
  9
$USERI4
 70
     0
  9
$USERI5
 70
     0
  9
$USERR1
 40
0.0
  9
$USERR2
 40
0.0
  9
$USERR3
 40
0.0
  9
$USERR4
 40
0.0
  9
$USERR5
 40
0.0
  9
$WORLDVIEW
 70
     1
  9
$SHADEDGE
 70
     3
  9
$SHADEDIF
 70
    70
  9
$TILEMODE
 70
     1
  9
$MAXACTVP
 70
    64
  9
$PINSBASE
 10
0.0
 20
0.0
 30
0.0
  9
$PLIMCHECK
 70
     0
  9
$PEXTMIN
 10
1.0000000000E+20
 20
1.0000000000E+20
 30
1.0000000000E+20
  9
$PEXTMAX
 10
-1.0000000000E+20
 20
-1.0000000000E+20
 30
-1.0000000000E+20
  9
$PLIMMIN
 10
0.0
 20
0.0
  9
$PLIMMAX
 10
420.0
 20
297.0
  9
$UNITMODE
 70
     0
  9
$VISRETAIN
 70
     1
  9
$PLINEGEN
 70
     0
  9
$PSLTSCALE
 70
     1
  9
$TREEDEPTH
 70
  3020
  9
$CMLSTYLE
  2
Standard
  9
$CMLJUST
 70
     0
  9
$CMLSCALE
 40
20.0
  9
$PROXYGRAPHICS
 70
     1
  9
$MEASUREMENT
 70
     1
  9
$CELWEIGHT
370
    -1
  9
$ENDCAPS
280
     0
  9
$JOINSTYLE
280
     0
  9
$LWDISPLAY
290
     1
  9
$INSUNITS
 70
     4
  9
$HYPERLINKBASE
  1

  9
$STYLESHEET
  1

  9
$XEDIT
290
     1
  9
$CEPSNTYPE
380
     0
  9
$PSTYLEMODE
290
     1
  9
$FINGERPRINTGUID
  2
{e086fef8-e987-4144-ba3c-1aebf8d4d31b}
  9
$VERSIONGUID
  2
{FAEB1C32-E019-11D5-929B-00C0DF256EC4}
  9
$EXTNAMES
290
     1
  9
$PSVPSCALE
 40
0.0
  9
$OLESTARTUP
290
     0
  0
ENDSEC
  0
SECTION
  2
CLASSES
  0
CLASS
  1
ACDBDICTIONARYWDFLT
  2
AcDbDictionaryWithDefault
  3
ObjectDBX Classes
 90
        0
280
     0
281
     0
  0
CLASS
  1
VISUALSTYLE
  2
AcDbVisualStyle
  3
ObjectDBX Classes
 90
     4095
280
     0
281
     0
  0
CLASS
  1
MATERIAL
  2
AcDbMaterial
  3
ObjectDBX Classes
 90
     1153
280
     0
281
     0
  0
CLASS
  1
SCALE
  2
AcDbScale
  3
ObjectDBX Classes
 90
     1153
280
     0
281
     0
  0
CLASS
  1
TABLESTYLE
  2
AcDbTableStyle
  3
ObjectDBX Classes
 90
     4095
280
     0
281
     0
  0
CLASS
  1
MLEADERSTYLE
  2
AcDbMLeaderStyle
  3
ACDB_MLEADERSTYLE_CLASS
 90
     4095
280
     0
281
     0
  0
CLASS
  1
SUN
  2
AcDbSun
  3
SCENEOE
 90
     1153
280
     0
281
     0
  0
CLASS
  1
ACDBPLACEHOLDER
  2
AcDbPlaceHolder
  3
ObjectDBX Classes
 90
        0
280
     0
281
     0
  0
CLASS
  1
LAYOUT
  2
AcDbLayout
  3
ObjectDBX Classes
 90
        0
280
     0
281
     0
  0
ENDSEC
  0
SECTION
  2
TABLES
  0
TABLE
  2
VPORT
  5
8
330
0
100
AcDbSymbolTable
 70
     1
  0
VPORT
  5
29
330
8
100
AcDbSymbolTableRecord
100
AcDbViewportTableRecord
  2
*Active
 70
     0
 10
0.0
 20
0.0
 11
1.0
 21
1.0
 12
10000.0
 22
5000.0
 13
0.0
 23
0.0
 14
10.0
 24
10.0
 15
10.0
 25
10.0
 16
0.0
 26
0.0
 36
1.0
 17
0.0
 27
0.0
 37
0.0
 40
10000.0
 41
2.0
 42
50.0
 43
0.0
 44
0.0
 50
0.0
 51
0.0
 71
     0
 72
  2000
 73
     1
 74
     3
 75
     0
 76
     0
 77
     0
 78
     0
281
     0
 65
     1
110
0.0
120
0.0
130
0.0
111
1.0
121
0.0
131
0.0
112
0.0
122
1.0
132
0.0
 79
     0
146
0.0
  0
ENDTAB
  0
TABLE
  2
LTYPE
  5
5
330
0
100
AcDbSymbolTable
 70
     6
  0
LTYPE
  5
14
330
5
100
AcDbSymbolTableRecord
100
AcDbLinetypeTableRecord
  2
ByBlock
 70
     0
  3

 72
    65
 73
     0
 40
0.0
  0
LTYPE
  5
15
330
5
100
AcDbSymbolTableRecord
100
AcDbLinetypeTableRecord
  2
ByLayer
 70
     0
  3

 72
    65
 73
     0
 40
0.0
  0
LTYPE
  5
16
330
5
100
AcDbSymbolTableRecord
100
AcDbLinetypeTableRecord
  2
Continuous
 70
     0
  3
Solid line
 72
    65
 73
     0
 40
0.0
  0
LTYPE
  5
6E
330
5
100
AcDbSymbolTableRecord
100
AcDbLinetypeTableRecord
  2
HIDDEN
 70
     0
  3
Hidden __ __ __ __ __ __ __ __ __ __ __ __ __ __
 72
    65
 73
     2
 40
1.905
 49
1.27
 74
     0
 49
-0.635
 74
     0
  0
LTYPE
  5
6F
330
5
100
AcDbSymbolTableRecord
100
AcDbLinetypeTableRecord
  2
PHANTOM
 70
     0
  3
Phantom ______  __  __  ______  __  __  ______
 72
    65
 73
     6
 40
12.7
 49
6.35
 74
     0
 49
-1.27
 74
     0
 49
1.27
 74
     0
 49
-1.27
 74
     0
 49
1.27
 74
     0
 49
-1.27
 74
     0
  0
LTYPE
  5
70
330
5
100
AcDbSymbolTableRecord
100
AcDbLinetypeTableRecord
  2
CENTER
 70
     0
  3
Center ____ _ ____ _ ____ _ ____ _ ____ _ ____
 72
    65
 73
     4
 40
10.16
 49
6.35
 74
     0
 49
-1.27
 74
     0
 49
1.27
 74
     0
 49
-1.27
 74
     0
  0
LTYPE
  5
71
330
5
100
AcDbSymbolTableRecord
100
AcDbLinetypeTableRecord
  2
CENTERX2
 70
     0
  3
Center (2x) ________  __  ________  __  _____
 72
    65
 73
     4
 40
20.32
 49
12.7
 74
     0
 49
-2.54
 74
     0
 49
2.54
 74
     0
 49
-2.54
 74
     0
  0
LTYPE
  5
72
330
5
100
AcDbSymbolTableRecord
100
AcDbLinetypeTableRecord
  2
DOT2
 70
     0
  3
Dot (.5x) ........................................
 72
    65
 73
     2
 40
0.635
 49
0.0
 74
     0
 49
-0.635
 74
     0
  0
ENDTAB
  0
TABLE
  2
LAYER
  5
2
330
0
100
AcDbSymbolTable
 70
    13
  0
LAYER
  5
10
330
2
100
AcDbSymbolTableRecord
100
AcDbLayerTableRecord
  2
0
 70
     0
 62
     7
  6
Continuous
370
    -3
390
F
  0
LAYER
  5
73
330
2
100
AcDbSymbolTableRecord
100
AcDbLayerTableRecord
  2
FORMAT
 70
     0
 62
     7
  6
Continuous
370
    -3
390
F
  0
LAYER
  5
74
330
2
100
AcDbSymbolTableRecord
100
AcDbLayerTableRecord
  2
OSA
 70
     0
 62
     7
  6
CENTER
370
    -3
390
F
  0
LAYER
  5
75
330
2
100
AcDbSymbolTableRecord
100
AcDbLayerTableRecord
  2
0_35
 70
     0
 62
     7
  6
Continuous
370
    35
390
F
  0
LAYER
  5
76
330
2
100
AcDbSymbolTableRecord
100
AcDbLayerTableRecord
  2
0_5
 70
     0
 62
     7
  6
Continuous
370
    50
390
F
  0
LAYER
  5
77
330
2
100
AcDbSymbolTableRecord
100
AcDbLayerTableRecord
  2
0_25
 70
     0
 62
     7
  6
Continuous
370
    25
390
F
  0
LAYER
  5
78
330
2
100
AcDbSymbolTableRecord
100
AcDbLayerTableRecord
  2
0_18
 70
     0
 62
     7
  6
Continuous
370
    -3
390
F
  0
LAYER
  5
79
330
2
100
AcDbSymbolTableRecord
100
AcDbLayerTableRecord
  2
SLD-0
 70
     0
 62
   179
  6
Continuous
370
    -3
390
F
  0
LAYER
  5
7A
330
2
100
AcDbSymbolTableRecord
100
AcDbLayerTableRecord
  2
KOTY
 70
     0
 62
     7
  6
Continuous
370
    -3
390
F
  0
LAYER
  5
7B
330
2
100
AcDbSymbolTableRecord
100
AcDbLayerTableRecord
  2
SILNA
 70
     0
 62
   179
  6
Continuous
370
    -3
390
F
  0
LAYER
  5
7C
330
2
100
AcDbSymbolTableRecord
100
AcDbLayerTableRecord
  2
0_18_1
 70
     0
 62
   179
  6
Continuous
370
    -3
390
F
  0
LAYER
  5
7D
330
2
100
AcDbSymbolTableRecord
100
AcDbLayerTableRecord
  2
0_35_1
 70
     0
 62
   179
  6
Continuous
370
    35
390
F
  0
LAYER
  5
7E
330
2
100
AcDbSymbolTableRecord
100
AcDbLayerTableRecord
  2
0_5_1
 70
     0
 62
   179
  6
Continuous
370
    50
390
F
  0
ENDTAB
  0
TABLE
  2
STYLE
  5
3
330
0
100
AcDbSymbolTable
 70
     1
  0
STYLE
  5
11
330
3
100
AcDbSymbolTableRecord
100
AcDbTextStyleTableRecord
  2
Standard
 70
     0
 40
0.0
 41
1.0
 50
0.0
 71
     0
 42
2.0
  3
txt
  4

  0
ENDTAB
  0
TABLE
  2
VIEW
  5
6
330
0
100
AcDbSymbolTable
 70
     0
  0
ENDTAB
  0
TABLE
  2
UCS
  5
7
330
0
100
AcDbSymbolTable
 70
     0
  0
ENDTAB
  0
TABLE
  2
APPID
  5
9
330
0
100
AcDbSymbolTable
 70
     1
  0
APPID
  5
12
330
9
100
AcDbSymbolTableRecord
100
AcDbRegAppTableRecord
  2
ACAD
 70
     0
  0
ENDTAB
  0
TABLE
  2
DIMSTYLE
  5
A
330
0
100
AcDbSymbolTable
 70
     1
100
AcDbDimStyleTable
  0
DIMSTYLE
105
27
330
A
100
AcDbSymbolTableRecord
100
AcDbDimStyleTableRecord
  2
ISO-25
 70
     0
 41
2.5
 42
0.625
 43
3.75
 44
1.25
 73
     0
 74
     0
 77
     1
 78
     8
140
2.5
141
2.5
143
0.0393700787
147
0.625
171
     3
172
     1
178
     0
271
     2
272
     2
274
     3
278
    44
283
     0
284
     8
340
11
  0
ENDTAB
  0
TABLE
  2
BLOCK_RECORD
  5
1
330
0
100
AcDbSymbolTable
 70
     1
  0
BLOCK_RECORD
  5
1F
330
1
100
AcDbSymbolTableRecord
100
AcDbBlockTableRecord
  2
*Model_Space
340
22
  0
BLOCK_RECORD
  5
1B
330
1
100
AcDbSymbolTableRecord
100
AcDbBlockTableRecord
  2
*Paper_Space
340
1E
  0
BLOCK_RECORD
  5
23
330
1
100
AcDbSymbolTableRecord
100
AcDbBlockTableRecord
  2
*Paper_Space0
340
26
  0
ENDTAB
  0
ENDSEC
  0
SECTION
  2
BLOCKS
  0
BLOCK
  5
20
330
1F
100
AcDbEntity
  8
0
100
AcDbBlockBegin
  2
*Model_Space
 70
     0
 10
0.0
 20
0.0
 30
0.0
  3
*Model_Space
  1

  0
ENDBLK
  5
21
330
1F
100
AcDbEntity
  8
0
100
AcDbBlockEnd
  0
BLOCK
  5
1C
330
1B
100
AcDbEntity
 67
     1
  8
0
100
AcDbBlockBegin
  2
*Paper_Space
 70
     0
 10
0.0
 20
0.0
 30
0.0
  3
*Paper_Space
  1

  0
ENDBLK
  5
1D
330
1B
100
AcDbEntity
 67
     1
  8
0
100
AcDbBlockEnd
  0
BLOCK
  5
24
330
23
100
AcDbEntity
  8
0
100
AcDbBlockBegin
  2
*Paper_Space0
 70
     0
 10
0.0
 20
0.0
 30
0.0
  3
*Paper_Space0
  1

  0
ENDBLK
  5
25
330
23
100
AcDbEntity
  8
0
100
AcDbBlockEnd
  0
ENDSEC
  0
SECTION
  2
ENTITIES
  0
LINE
  5
7F
330
1F
100
AcDbEntity
  8
0
  6
Continuous
 62
     7
370
    25
100
AcDbLine
 10
5976.693768192
 20
4675.770652907
 30
0.0
 11
6083.423018916
 21
5055.7418852983
 31
0.0
  0
LWPOLYLINE
  5
80
330
1F
100
AcDbEntity
  8
0
  6
Continuous
 62
     7
370
    25
100
AcDbPolyline
 90
        9
 70
   128
 43
0.0
 10
5783.3942513074
 20
4676.7850709214
 10
5790.0442333765
 20
4676.6983304884
 10
5796.4539696709
 20
4676.6409836518
 10
5802.6102174971
 20
4676.6081883601
 10
5808.4916136766
 20
4676.5676785921
 10
5814.0402678375
 20
4676.4051551844
 10
5819.2371727702
 20
4676.1511619586
 10
5824.0711645988
 20
4675.8944296014
 10
5828.5331677958
 20
4675.770652907
  0
LINE
  5
81
330
1F
100
AcDbEntity
  8
0
  6
Continuous
 62
     7
370
    25
100
AcDbLine
 10
5783.3942513074
 20
5355.770652907
 30
0.0
 11
5783.3942513074
 21
4726.7601834904
 31
0.0
  0
LINE
  5
82
330
1F
100
AcDbEntity
  8
0
  6
Continuous
 62
     7
370
    25
100
AcDbLine
 10
5783.3942513074
 20
4726.7601834904
 30
0.0
 11
5738.3942513074
 21
4726.7601834904
 31
0.0
  0
LINE
  5
83
330
1F
100
AcDbEntity
  8
0
  6
Continuous
 62
     7
370
    25
100
AcDbLine
 10
5738.3942513074
 20
5355.770652907
 30
0.0
 11
5738.3942513074
 21
4726.7601834904
 31
0.0
  0
LINE
  5
84
330
1F
100
AcDbEntity
  8
0
  6
Continuous
 62
     7
370
    25
100
AcDbLine
 10
5783.3942513074
 20
5355.770652907
 30
0.0
 11
5738.3942513074
 21
5355.770652907
 31
0.0
  0
LINE
  5
85
330
1F
100
AcDbEntity
  8
0
  6
Continuous
 62
     7
370
    25
100
AcDbLine
 10
5976.6937681319
 20
4675.770652907
 30
0.0
 11
5921.0133386633
 21
4675.770652907
 31
0.0
  0
LINE
  5
86
330
1F
100
AcDbEntity
  8
0
  6
Continuous
 62
     7
370
    25
100
AcDbLine
 10
5921.0133386633
 20
4675.770652907
 30
0.0
 11
5783.3942513074
 21
4675.770652907
 31
0.0
  0
LINE
  5
87
330
1F
100
AcDbEntity
  8
0
  6
Continuous
 62
     7
370
    25
100
AcDbLine
 10
5783.3942513074
 20
4675.770652907
 30
0.0
 11
5783.3942513074
 21
4682.5511404906
 31
0.0
  0
LINE
  5
88
330
1F
100
AcDbEntity
  8
0
  6
Continuous
 62
     7
370
    25
100
AcDbLine
 10
5783.3942513074
 20
4700.3855499854
 30
0.0
 11
5783.3942513074
 21
4726.7601834904
 31
0.0
  0
LINE
  5
89
330
1F
100
AcDbEntity
  8
0
  6
Continuous
 62
     7
370
    25
100
AcDbLine
 10
5968.5181669732
 20
5170.6467372412
 30
0.0
 11
6083.4230189069
 21
5055.7418853074
 31
0.0
  0
LINE
  5
8A
330
1F
100
AcDbEntity
  8
0
  6
Continuous
 62
     7
370
    25
100
AcDbLine
 10
5783.3942513074
 20
5355.770652907
 30
0.0
 11
5968.5181669732
 21
5170.6467372412
 31
0.0
  0
LINE
  5
8B
330
1F
100
AcDbEntity
  8
0
  6
Continuous
 62
     7
370
    25
100
AcDbLine
 10
5783.3942513074
 20
4682.5511404906
 30
0.0
 11
5783.3942513074
 21
4700.3855499854
 31
0.0
  0
LINE
  5
8C
330
1F
100
AcDbEntity
  8
0
  6
Continuous
 62
     7
370
    25
100
AcDbLine
 10
5783.3942513074
 20
4675.770652907
 30
0.0
 11
5738.3942513074
 21
4675.770652907
 31
0.0
  0
LINE
  5
8D
330
1F
100
AcDbEntity
  8
0
  6
Continuous
 62
     7
370
    25
100
AcDbLine
 10
5738.3942513074
 20
4675.770652907
 30
0.0
 11
5738.3942513074
 21
4726.7601834904
 31
0.0
  0
LWPOLYLINE
  5
8E
330
1F
100
AcDbEntity
  8
0
  6
Continuous
 62
     7
370
    25
100
AcDbPolyline
 90
       28
 70
   128
 43
0.0
 10
5075.7336529866
 20
5159.737867695
 10
5076.7289660565
 20
5152.3814284609
 10
5077.6136554148
 20
5145.8822536935
 10
5078.3848227002
 20
5140.2470536443
 10
5079.0399312688
 20
5135.4816358986
 10
5079.5768176665
 20
5131.5909094225
 10
5080.5131601384
 20
5124.8367708499
 10
5081.3150871791
 20
5119.083567522
 10
5082.0104352344
 20
5114.1181267168
 10
5082.6598822156
 20
5109.4996758704
 10
5083.2975896357
 20
5104.9825972777
 10
5084.0801656517
 20
5099.4633586125
 10
5085.0136462835
 20
5092.9140423451
 10
5086.1811314787
 20
5084.7746326337
 10
5087.4184563369
 20
5076.2100964739
 10
5088.6507197565
 20
5067.7427907712
 10
5089.768273571
 20
5060.1165584544
 10
5090.1190250136
 20
5057.733276904
 10
5090.4917267934
 20
5055.2067734262
 10
5090.8931605674
 20
5052.4951026058
 10
5091.3250144476
 20
5049.5940348766
 10
5091.7895114215
 20
5046.4986818121
 10
5092.2212004016
 20
5043.6609730092
 10
5092.4352043337
 20
5042.2768972891
 10
5092.5057463689
 20
5041.8295037799
 10
5092.5519699104
 20
5041.5453975895
 10
5092.5739027811
 20
5041.4248056509
 10
5092.5733506973
 20
5041.4351774911
  0
LWPOLYLINE
  5
8F
330
1F
100
AcDbEntity
  8
0
  6
Continuous
 62
     7
370
    25
100
AcDbPolyline
 90
       68
 70
   128
 43
0.0
 10
5081.124287568
 20
5120.4524064585
 10
5081.6732928739
 20
5110.7652514782
 10
5082.4994844769
 20
5097.0023682211
 10
5083.4038864122
 20
5082.7715279693
 10
5084.3913810637
 20
5068.0743626179
 10
5085.4594952884
 20
5053.0152643144
 10
5086.560945822
 20
5038.2643531465
 10
5087.4407879202
 20
5026.9749743589
 10
5088.3306340714
 20
5015.9525695059
 10
5089.228069004
 20
5005.1992614253
 10
5090.1201140586
 20
4994.838447741
 10
5090.9399662456
 20
4985.5799095232
 10
5091.6691797241
 20
4977.5411193428
 10
5092.1044356818
 20
4972.8256613098
 10
5092.4945261578
 20
4968.6497047658
 10
5092.908151936
 20
4964.2717968977
 10
5093.3871663049
 20
4959.2638204847
 10
5093.9340423465
 20
4953.6245813316
 10
5094.7575035556
 20
4945.2830138306
 10
5095.7092437054
 20
4935.8532025689
 10
5096.7972969307
 20
4925.3313209345
 10
5098.1010106471
 20
4913.0596967148
 10
5099.3889295884
 20
4901.267858038
 10
5100.6234020537
 20
4890.2502038002
 10
5101.7978161153
 20
4880.0088233391
 10
5102.9060118622
 20
4870.545744966
 10
5103.8459964922
 20
4862.6632013198
 10
5104.7233172917
 20
4855.4196256311
 10
5105.5989256045
 20
4848.2943307705
 10
5106.5708182989
 20
4840.501261109
 10
5107.643907643
 20
4832.0315838853
 10
5108.8224864664
 20
4822.884365296
 10
5110.1111846752
 20
4813.0587274494
 10
5111.4847744302
 20
4802.7777253976
 10
5112.358498664
 20
4796.3362614354
 10
5113.1181636697
 20
4790.7952315082
 10
5113.7598961084
 20
4786.1562706435
 10
5114.2804536329
 20
4782.4207280146
 10
5114.6842451499
 20
4779.5397119021
 10
5115.1677382392
 20
4776.1092472435
 10
5115.8342259712
 20
4771.4171946379
 10
5116.6883022674
 20
4765.4694296311
 10
5117.7359556121
 20
4758.2742442017
 10
5118.7313653075
 20
4751.5397304556
 10
5119.8102523537
 20
4744.3528482127
 10
5120.7916796051
 20
4737.9281521966
 10
5121.6570123521
 20
4732.3667427942
 10
5122.4358388103
 20
4727.4649614273
 10
5123.0975945681
 20
4723.5130402918
 10
5123.7432286813
 20
4720.5484720761
 10
5124.2350823143
 20
4718.7075008255
 10
5124.5791129613
 20
4717.5938371882
 10
5124.9673951312
 20
4716.4191052878
 10
5125.6104447368
 20
4714.5694804315
 10
5126.5712456905
 20
4712.080240323
 10
5127.9345357229
 20
4709.0019453138
 10
5130.1035586745
 20
4704.8770003889
 10
5133.0977325882
 20
4700.2165107068
 10
5137.0727945321
 20
4695.2340915279
 10
5141.5913202298
 20
4690.6993991864
 10
5146.366132034
 20
4686.8438956762
 10
5151.3027947935
 20
4683.6372852356
 10
5158.835581996
 20
4679.9647307787
 10
5166.3236424584
 20
4677.5322447593
 10
5170.0923347552
 20
4676.7169675626
 10
5173.9473136984
 20
4676.1478982239
 10
5177.8650696314
 20
4675.8318552216
 10
5181.8190601982
 20
4675.770652907
  0
LWPOLYLINE
  5
90
330
1F
100
AcDbEntity
  8
0
  6
Continuous
 62
     7
370
    25
100
AcDbPolyline
 90
       70
 70
   128
 43
0.0
 10
5293.1799192557
 20
4675.770652907
 10
5297.1358710275
 20
4675.8319490196
 10
5301.0555382509
 20
4676.1483396466
 10
5304.9123415263
 20
4676.7180034701
 10
5308.68273883
 20
4677.5341071005
 10
5316.1746606762
 20
4679.9692528801
 10
5323.7110831962
 20
4683.6459288554
 10
5328.6498140552
 20
4686.8561819765
 10
5333.4262251518
 20
4690.7160893502
 10
5337.9456904858
 20
4695.2559699099
 10
5341.9184933471
 20
4700.2407547009
 10
5344.9093769021
 20
4704.9011834085
 10
5347.0752741422
 20
4709.0246795638
 10
5348.654177943
 20
4712.6398064052
 10
5349.6816709339
 20
4715.393630267
 10
5350.1914213027
 20
4716.9007516039
 10
5350.5006297281
 20
4717.8399498621
 10
5350.8641916701
 20
4719.0597585111
 10
5351.3486626342
 20
4720.9308436182
 10
5351.7765040487
 20
4722.8747058915
 10
5352.2045844864
 20
4725.2517652278
 10
5352.8311711337
 20
4729.138849802
 10
5353.563432522
 20
4733.7797595387
 10
5354.39930721
 20
4739.1759273871
 10
5355.3362687464
 20
4745.3283421683
 10
5356.3488935729
 20
4752.0859520995
 10
5357.2748054653
 20
4758.354544853
 10
5358.1968098504
 20
4764.6820299653
 10
5358.9712850159
 20
4770.0634437319
 10
5359.6023597017
 20
4774.4930095423
 10
5360.0933602234
 20
4777.9663443438
 10
5360.4502006761
 20
4780.5046522828
 10
5360.8204281243
 20
4783.1500725347
 10
5361.2809305134
 20
4786.4576279013
 10
5361.8897209994
 20
4790.8598726538
 10
5362.6029633526
 20
4796.0613234785
 10
5363.4174361411
 20
4802.0606208907
 10
5364.3249084599
 20
4808.822318714
 10
5365.2225884472
 20
4815.5941906312
 10
5366.4663571661
 20
4825.1194568835
 10
5367.6041488517
 20
4833.9852432035
 10
5368.6403283495
 20
4842.192403943
 10
5369.5789417514
 20
4849.7418458019
 10
5370.4304990935
 20
4856.6902878627
 10
5371.3067007516
 20
4863.9434992475
 10
5372.4374354683
 20
4873.4670673211
 10
5373.6484340472
 20
4883.8826310723
 10
5374.9325187296
 20
4895.1877535295
 10
5376.2819174298
 20
4907.3799216468
 10
5377.6863770142
 20
4920.4386829013
 10
5378.7281093486
 20
4930.388867826
 10
5379.6555486677
 20
4939.4518109422
 10
5380.4749643624
 20
4947.6304836389
 10
5381.1920018518
 20
4954.9275817047
 10
5381.8116874511
 20
4961.3455194336
 10
5382.2942832158
 20
4966.4188963531
 10
5382.7115495782
 20
4970.8608891049
 10
5383.157490919
 20
4975.6671679184
 10
5383.6553618744
 20
4981.1081321858
 10
5384.2024864253
 20
4987.1828257622
 10
5384.7958819261
 20
4993.890197686
 10
5385.4317130036
 20
5001.2227151807
 10
5387.2074677568
 20
5022.5854405121
 10
5388.9476900033
 20
5044.9991001694
 10
5389.9588396955
 20
5058.8324712713
 10
5390.9260565225
 20
5072.7266480417
 10
5391.8191607332
 20
5086.2236167434
 10
5392.6420159533
 20
5099.3208939038
 10
5393.3978516573
 20
5112.0064365744
 10
5393.8750035989
 20
5120.4534452652
  0
LWPOLYLINE
  5
91
330
1F
100
AcDbEntity
  8
0
  6
Continuous
 62
     7
370
    25
100
AcDbPolyline
 90
       30
 70
   128
 43
0.0
 10
5382.4116546831
 20
5041.3407421448
 10
5382.4130668218
 20
5041.3360568494
 10
5382.4477438139
 20
5041.538204635
 10
5382.5140831928
 20
5041.9522908063
 10
5382.741879659
 20
5043.4147230417
 10
5383.2258996028
 20
5046.5883078432
 10
5383.7481960474
 20
5050.0795001524
 10
5384.2003555012
 20
5053.1294790132
 10
5384.5871695937
 20
5055.7488947858
 10
5384.9191890077
 20
5058.0001492403
 10
5385.2388645264
 20
5060.1721481252
 10
5385.9705203481
 20
5065.1594938577
 10
5386.7696813314
 20
5070.6315996521
 10
5387.579882839
 20
5076.2056790066
 10
5388.4454931453
 20
5082.1906161996
 10
5389.2719143433
 20
5087.9334895723
 10
5390.0544567682
 20
5093.3977470513
 10
5390.9014377616
 20
5099.3411089494
 10
5391.6242510104
 20
5104.4373932699
 10
5392.2208496098
 20
5108.660757624
 10
5392.811532376
 20
5112.857499872
 10
5393.4444381825
 20
5117.3712252876
 10
5394.0220299227
 20
5121.5059391615
 10
5394.6809339806
 20
5126.2409266074
 10
5395.4209747939
 20
5131.5823220758
 10
5395.9578612743
 20
5135.4730199822
 10
5396.6130915308
 20
5140.2392888402
 10
5397.3844995392
 20
5145.8762139145
 10
5398.2695453259
 20
5152.3779800659
 10
5399.2653264674
 20
5159.737867695
  0
LWPOLYLINE
  5
92
330
1F
100
AcDbEntity
  8
0
  6
Continuous
 62
     7
370
    25
100
AcDbPolyline
 90
       62
 70
   128
 43
0.0
 10
5362.1864954557
 20
5161.2530816028
 10
5361.781832103
 20
5157.843910274
 10
5360.952348679
 20
5153.5259733112
 10
5359.8111935916
 20
5149.24290327
 10
5358.3619805646
 20
5145.0062330983
 10
5356.6092067175
 20
5140.8269717721
 10
5354.5580844395
 20
5136.7155837846
 10
5352.2144090082
 20
5132.6820379495
 10
5349.5844764162
 20
5128.7358934403
 10
5346.6750498379
 20
5124.886392661
 10
5343.4933633402
 20
5121.1425395158
 10
5340.0471481176
 20
5117.5131521983
 10
5336.3446677322
 20
5114.0068881908
 10
5332.3947522047
 20
5110.6322445529
 10
5328.2068245561
 20
5107.3975390827
 10
5323.79091661
 20
5104.3108784227
 10
5319.1576731792
 20
5101.3801185502
 10
5314.3183452271
 20
5098.6128219733
 10
5309.2847733711
 20
5096.0162147718
 10
5304.0693633974
 20
5093.5971455718
 10
5298.6851565089
 20
5091.3620872996
 10
5293.1455742407
 20
5089.3170043854
 10
5287.4644911501
 20
5087.4673842093
 10
5281.6562012341
 20
5085.8182138996
 10
5275.7353751411
 20
5084.3739573413
 10
5269.7170160817
 20
5083.1385356877
 10
5263.616414923
 20
5082.1153110835
 10
5257.4491048113
 20
5081.3070733007
 10
5251.2308155524
 20
5080.7160290091
 10
5244.9774278973
 20
5080.3437934364
 10
5238.7049278193
 20
5080.191384215
 10
5232.4293608233
 20
5080.2592172555
 10
5226.1668032928
 20
5080.5471034511
 10
5219.9333200331
 20
5081.0542449678
 10
5213.7448579232
 20
5081.7792411825
 10
5207.6172385756
 20
5082.7200925438
 10
5201.5661126841
 20
5083.8742060984
 10
5195.6069143095
 20
5085.2384030733
 10
5189.754815128
 20
5086.8089286979
 10
5184.0246786959
 20
5088.5814645071
 10
5178.4310148408
 20
5090.5511434282
 10
5172.9879343677
 20
5092.7125680113
 10
5167.7091043774
 20
5095.0598322187
 10
5162.6077046432
 20
5097.5865472231
 10
5157.6963856769
 20
5100.2858716742
 10
5152.9873073932
 20
5103.1504969306
 10
5148.4920005322
 20
5106.1727339295
 10
5144.2213213561
 20
5109.3445739363
 10
5140.1854611561
 20
5112.6577208078
 10
5136.3939289611
 20
5116.1036462274
 10
5132.8555450719
 20
5119.6736477686
 10
5129.5784476122
 20
5123.3589069027
 10
5126.570113791
 20
5127.150542557
 10
5123.8373963854
 20
5131.039654134
 10
5121.386573849
 20
5135.0173463239
 10
5119.2234092485
 20
5139.0747271447
 10
5117.3532090437
 20
5143.2028713058
 10
5115.7808681671
 20
5147.3927443175
 10
5114.5108843243
 20
5151.6350897533
 10
5113.547324178
 20
5155.9202928571
 10
5112.893729681
 20
5160.238246545
 10
5112.7782960162
 20
5161.7084236833
  0
LWPOLYLINE
  5
93
330
1F
100
AcDbEntity
  8
0
  6
Continuous
 62
     7
370
    25
100
AcDbPolyline
 90
       59
 70
   128
 43
0.0
 10
5113.8189700821
 20
5154.7272185162
 10
5114.3408161878
 20
5157.1747215466
 10
5115.5703424046
 20
5161.445697657
 10
5117.1067248412
 20
5165.6670745489
 10
5118.9452460986
 20
5169.8280001967
 10
5121.0805159307
 20
5173.9181588734
 10
5123.5065899746
 20
5177.9277083152
 10
5126.2170373143
 20
5181.84718894
 10
5129.2049619615
 20
5185.6674334318
 10
5132.4629912019
 20
5189.3794950673
 10
5135.9832455343
 20
5192.9746029224
 10
5139.7573028907
 20
5196.4441443991
 10
5143.7761662039
 20
5199.7796710193
 10
5148.0302397248
 20
5202.9729215973
 10
5152.5093165268
 20
5206.015856819
 10
5157.2025775719
 20
5208.9007000804
 10
5162.0986014671
 20
5211.6199806059
 10
5167.1853834169
 20
5214.1665760283
 10
5172.4503352154
 20
5216.5337413462
 10
5177.8802957489
 20
5218.7151436043
 10
5183.4617152507
 20
5220.7049541463
 10
5189.1805951375
 20
5222.49782587
 10
5195.0225294345
 20
5224.0889188625
 10
5200.9727479957
 20
5225.4739223638
 10
5207.0161608694
 20
5226.6490733075
 10
5213.1374033673
 20
5227.6111717361
 10
5219.3208815314
 20
5228.3575933856
 10
5225.5508177918
 20
5228.8862997097
 10
5231.8112966903
 20
5229.1958455764
 10
5237.499489727
 20
5229.2863475479
 10
5240.7789617496
 20
5229.2562751262
 10
5247.0463970801
 20
5229.0311710459
 10
5253.2898122232
 20
5228.5865133325
 10
5259.4927485826
 20
5227.9235397369
 10
5265.6393440285
 20
5227.0440792912
 10
5271.7138944071
 20
5225.9505562049
 10
5277.7008991404
 20
5224.6459828914
 10
5283.5851069706
 20
5223.1339508075
 10
5289.3515617088
 20
5221.4186188868
 10
5294.9856478948
 20
5219.5046992818
 10
5300.4731362062
 20
5217.3974400709
 10
5305.8002283528
 20
5215.102604531
 10
5310.9536010575
 20
5212.6264465296
 10
5315.9204485504
 20
5209.9756815802
 10
5320.6884790962
 20
5207.1574802774
 10
5325.2459564282
 20
5204.1794405927
 10
5329.58183885
 20
5201.0494796701
 10
5333.6857430327
 20
5197.7758170534
 10
5337.5479639763
 20
5194.3669206116
 10
5341.1594848
 20
5190.8314490478
 10
5344.5119741119
 20
5187.1781934985
 10
5347.5977690666
 20
5183.4160221593
 10
5350.4098431768
 20
5179.5538335366
 10
5352.9417597663
 20
5175.600525582
 10
5355.1876148361
 20
5171.5649891334
 10
5357.1419770533
 20
5167.4561339766
 10
5358.7998371333
 20
5163.2829533935
 10
5360.1565829061
 20
5159.05462719
 10
5361.1997955392
 20
5154.8140761389
  0
LINE
  5
94
330
1F
100
AcDbEntity
  8
0
  6
Continuous
 62
     7
370
    25
100
AcDbLine
 10
5074.999489727
 20
5355.770652907
 30
0.0
 11
5399.999489727
 21
5355.770652907
 31
0.0
  0
LINE
  5
95
330
1F
100
AcDbEntity
  8
0
  6
Continuous
 62
     7
370
    25
100
AcDbLine
 10
5399.999489727
 20
5170.6467372412
 30
0.0
 11
5399.999489727
 21
5355.7706529069
 31
0.0
  0
LWPOLYLINE
  5
96
330
1F
100
AcDbEntity
  8
0
  6
Continuous
 62
     7
370
    25
100
AcDbPolyline
 90
       68
 70
   128
 43
0.0
 10
5074.999489727
 20
5170.6467372412
 10
5075.1780948605
 20
5165.2608868618
 10
5075.7135176484
 20
5159.8868757505
 10
5076.6045811151
 20
5154.5365171499
 10
5077.8493265097
 20
5149.2215723095
 10
5079.4450176117
 20
5143.9537246315
 10
5081.3881467457
 20
5138.7445539883
 10
5083.6744424923
 20
5133.6055112676
 10
5086.2988790771
 20
5128.5478932006
 10
5089.2556874189
 20
5123.5828175295
 10
5092.5383678114
 20
5118.7211985681
 10
5096.1397042105
 20
5113.97372321
 10
5100.0517800973
 20
5109.3508274364
 10
5104.26599588
 20
5104.8626733756
 10
5108.7730877976
 20
5100.5191269641
 10
5113.563148284
 20
5096.3297362598
 10
5118.6256477466
 20
5092.3037104524
 10
5123.9494577129
 20
5088.4498996207
 10
5129.5228752931
 20
5084.7767752771
 10
5135.3336489059
 20
5081.2924117462
 10
5141.3690052098
 20
5078.0044684151
 10
5147.6156771816
 20
5074.9201728969
 10
5154.0599332808
 20
5072.0463051425
 10
5160.6876076338
 20
5069.389182537
 10
5167.484131174
 20
5066.9546460126
 10
5174.4345636677
 20
5064.7480472088
 10
5181.5236265557
 20
5062.7742367087
 10
5188.7357365394
 20
5061.0375533762
 10
5196.0550398357
 20
5059.5418148182
 10
5203.4654470275
 20
5058.2903089926
 10
5210.9506684314
 20
5057.2857869809
 10
5218.4942499065
 20
5056.5304569404
 10
5226.0796090233
 20
5056.0259792505
 10
5233.6900715164
 20
5055.7734628626
 10
5241.3089079375
 20
5055.7734628626
 10
5248.9193704306
 20
5056.0259792505
 10
5256.5047295474
 20
5056.5304569404
 10
5264.0483110225
 20
5057.2857869809
 10
5271.5335324265
 20
5058.2903089926
 10
5278.9439396182
 20
5059.5418148182
 10
5286.2632429145
 20
5061.0375533762
 10
5293.4753528982
 20
5062.7742367087
 10
5300.5644157862
 20
5064.7480472088
 10
5307.5148482799
 20
5066.9546460126
 10
5314.3113718201
 20
5069.389182537
 10
5320.9390461731
 20
5072.0463051425
 10
5327.3833022723
 20
5074.9201728969
 10
5333.6299742441
 20
5078.0044684151
 10
5339.665330548
 20
5081.2924117462
 10
5345.4761041608
 20
5084.7767752771
 10
5351.049521741
 20
5088.4498996207
 10
5356.3733317073
 20
5092.3037104524
 10
5361.4358311699
 20
5096.3297362598
 10
5366.2258916563
 20
5100.5191269641
 10
5370.7329835739
 20
5104.8626733756
 10
5374.9471993566
 20
5109.3508274364
 10
5378.8592752434
 20
5113.97372321
 10
5382.4606116425
 20
5118.7211985681
 10
5385.743292035
 20
5123.5828175295
 10
5388.7001003769
 20
5128.5478932006
 10
5391.3245369616
 20
5133.6055112676
 10
5393.6108327082
 20
5138.7445539883
 10
5395.5539618422
 20
5143.9537246315
 10
5397.1496529442
 20
5149.2215723095
 10
5398.3943983388
 20
5154.5365171499
 10
5399.2854618055
 20
5159.8868757505
 10
5399.8208845934
 20
5165.2608868618
 10
5399.999489727
 20
5170.6467372412
  0
LINE
  5
97
330
1F
100
AcDbEntity
  8
0
  6
Continuous
 62
     7
370
    25
100
AcDbLine
 10
5074.999489727
 20
5355.770652907
 30
0.0
 11
5074.999489727
 21
5170.6467372412
 31
0.0
  0
LWPOLYLINE
  5
98
330
1F
100
AcDbEntity
  8
0
  6
Continuous
 62
     7
370
    25
100
AcDbPolyline
 90
      122
 70
   128
 43
0.0
 10
5237.499489727
 20
5262.5706187954
 10
5244.2469860841
 20
5262.446713529
 10
5250.976292384
 20
5262.0753317566
 10
5257.6692676066
 20
5261.4574746577
 10
5264.307868674
 20
5260.5948078659
 10
5270.8741990915
 20
5259.4896569783
 10
5277.350557193
 20
5258.1450012863
 10
5283.7194838623
 20
5256.5644657439
 10
5289.9638095989
 20
5254.7523111955
 10
5296.0667008048
 20
5252.7134228894
 10
5302.0117051641
 20
5250.453297308
 10
5307.7827959962
 20
5247.9780273502
 10
5313.3644154605
 20
5245.2942859063
 10
5318.7415164978
 20
5242.4093078688
 10
5323.8996033943
 20
5239.3308706282
 10
5328.8247708597
 20
5236.0672731073
 10
5333.5037415133
 20
5232.6273133878
 10
5337.9239016773
 20
5229.0202649931
 10
5342.0733353816
 20
5225.2558518879
 10
5345.9408564864
 20
5221.3442222643
 10
5349.5160388386
 20
5217.2959211843
 10
5352.7892443786
 20
5213.1218621519
 10
5355.751649123
 20
5208.8332976922
 10
5358.3952669525
 20
5204.4417890168
 10
5360.7129711406
 20
5199.9591748567
 10
5362.6985135666
 20
5195.3975395472
 10
5364.3465415593
 20
5190.7691804506
 10
5365.6526123265
 20
5186.0865748046
 10
5366.6132049324
 20
5181.3623460864
 10
5367.2257297891
 20
5176.6092299811
 10
5367.4885356378
 20
5171.8400400496
 10
5367.4009140005
 20
5167.0676331847
 10
5366.9631010897
 20
5162.3048749515
 10
5366.1762771715
 20
5157.5646049043
 10
5365.0425633841
 20
5152.859601973
 10
5363.5650160194
 20
5148.2025500136
 10
5361.7476182839
 20
5143.6060036149
 10
5359.5952695606
 20
5139.0823542533
 10
5357.1137722011
 20
5134.6437968877
 10
5354.3098158836
 20
5130.3022970841
 10
5351.1909595786
 20
5126.0695587584
 10
5347.7656111712
 20
5121.9569926247
 10
5344.0430047953
 20
5117.9756854343
 10
5340.0331759393
 20
5114.1363700874
 10
5335.746934393
 20
5110.4493966994
 10
5331.1958351058
 20
5106.9247046989
 10
5326.3921470368
 20
5103.5717960321
 10
5321.3488200797
 20
5100.3997095482
 10
5316.0794501523
 20
5097.4169966314
 10
5310.5982425443
 20
5094.6316981484
 10
5304.9199736225
 20
5092.0513227716
 10
5299.0599509958
 20
5089.6828267366
 10
5293.0339722493
 20
5087.5325950902
 10
5286.8582823563
 20
5085.6064244766
 10
5280.5495298849
 20
5083.9095075114
 10
5274.1247221163
 20
5082.4464187825
 10
5267.6011791965
 20
5081.2211025186
 10
5260.9964874438
 20
5080.2368619556
 10
5254.3284519395
 20
5079.4963504322
 10
5247.6150485283
 20
5079.0015642364
 10
5240.8743753591
 20
5078.7538372244
 10
5234.1246040948
 20
5078.7538372244
 10
5227.3839309256
 20
5079.0015642364
 10
5220.6705275144
 20
5079.4963504322
 10
5214.0024920101
 20
5080.2368619556
 10
5207.3978002574
 20
5081.2211025186
 10
5200.8742573376
 20
5082.4464187825
 10
5194.449449569
 20
5083.9095075114
 10
5188.1406970976
 20
5085.6064244766
 10
5181.9650072046
 20
5087.5325950902
 10
5175.9390284581
 20
5089.6828267366
 10
5170.0790058314
 20
5092.0513227716
 10
5164.4007369096
 20
5094.6316981484
 10
5158.9195293016
 20
5097.4169966314
 10
5153.6501593742
 20
5100.3997095482
 10
5148.6068324171
 20
5103.5717960321
 10
5143.8031443481
 20
5106.9247046989
 10
5139.2520450609
 20
5110.4493966994
 10
5134.9658035146
 20
5114.1363700874
 10
5130.9559746586
 20
5117.9756854343
 10
5127.2333682827
 20
5121.9569926247
 10
5123.8080198753
 20
5126.0695587584
 10
5120.6891635703
 20
5130.3022970841
 10
5117.8852072528
 20
5134.6437968877
 10
5115.4037098933
 20
5139.0823542533
 10
5113.25136117
 20
5143.6060036149
 10
5111.4339634345
 20
5148.2025500136
 10
5109.9564160698
 20
5152.859601973
 10
5108.8227022824
 20
5157.5646049043
 10
5108.0358783642
 20
5162.3048749515
 10
5107.5980654534
 20
5167.0676331847
 10
5107.5104438161
 20
5171.8400400496
 10
5107.7732496648
 20
5176.6092299811
 10
5108.3857745215
 20
5181.3623460864
 10
5109.3463671274
 20
5186.0865748046
 10
5110.6524378946
 20
5190.7691804506
 10
5112.3004658873
 20
5195.3975395472
 10
5114.2860083133
 20
5199.9591748567
 10
5116.6037125014
 20
5204.4417890168
 10
5119.2473303309
 20
5208.8332976922
 10
5122.2097350753
 20
5213.1218621519
 10
5125.4829406153
 20
5217.2959211843
 10
5129.0581229675
 20
5221.3442222643
 10
5132.9256440723
 20
5225.2558518879
 10
5137.0750777766
 20
5229.0202649931
 10
5141.4952379406
 20
5232.6273133878
 10
5146.1742085942
 20
5236.0672731073
 10
5151.0993760596
 20
5239.3308706282
 10
5156.2574629561
 20
5242.4093078688
 10
5161.6345639934
 20
5245.2942859063
 10
5167.2161834577
 20
5247.9780273502
 10
5172.9872742898
 20
5250.453297308
 10
5178.9322786491
 20
5252.7134228894
 10
5185.035169855
 20
5254.7523111955
 10
5191.2794955916
 20
5256.5644657439
 10
5197.6484222609
 20
5258.1450012863
 10
5204.1247803624
 20
5259.4896569783
 10
5210.6911107799
 20
5260.5948078659
 10
5217.3297118473
 20
5261.4574746577
 10
5224.0226870699
 20
5262.0753317566
 10
5230.7519933698
 20
5262.446713529
 10
5237.499489727
 20
5262.5706187954
  0
LINE
  5
99
330
1F
100
AcDbEntity
  8
0
  6
Continuous
 62
     7
370
    25
100
AcDbLine
 10
5293.1799192557
 20
4675.770652907
 30
0.0
 11
5181.8190601982
 21
4675.770652907
 31
0.0
  0
ARC
  5
9A
330
1F
100
AcDbEntity
  8
0
  6
Continuous
 62
     7
370
    25
100
AcDbCircle
 10
5175.076991186
 20
5167.1113163041
 30
0.0
 40
62.57745452818932
100
AcDbArc
 50
174.6053270156
 51
185.1602483208
  0
ARC
  5
9B
330
1F
100
AcDbEntity
  8
0
  6
Continuous
 62
     7
370
    25
100
AcDbCircle
 10
5299.9141843265
 20
5167.1111899544
 30
0.0
 40
62.58525286003962
100
AcDbArc
 50
354.4050375505
 51
5.5706834667
  0
LWPOLYLINE
  5
9C
330
1F
100
AcDbEntity
  8
0
  6
Continuous
 62
     8
370
    25
100
AcDbPolyline
 90
       30
 70
   128
 43
0.0
 10
5237.499489727
 20
5255.4995509835
 10
5230.8467178717
 20
5255.3742777963
 10
5224.212804021
 20
5254.998813335
 10
5217.6165527246
 20
5254.3742218945
 10
5211.0766617732
 20
5253.5022739471
 10
5204.6116691985
 20
5252.3854411239
 10
5198.2399007242
 20
5251.026889209
 10
5191.9794178203
 20
5249.4304691653
 10
5185.8479665059
 20
5247.600706219
 10
5179.8629270458
 20
5245.5427870318
 10
5174.0412646846
 20
5243.2625449993
 10
5168.3994815568
 20
5240.7664437153
 10
5162.9535699096
 20
5238.06155865
 10
5157.7189667713
 20
5235.1555570941
 10
5152.7105101932
 20
5232.0566764247
 10
5147.9423971897
 20
5228.7737007557
 10
5143.4281434949
 20
5225.3159360384
 10
5139.1805452516
 20
5221.6931836825
 10
5135.2116427384
 20
5217.9157127731
 10
5131.5326862407
 20
5213.994230962
 10
5128.1541041605
 20
5209.9398541155
 10
5125.0854734555
 20
5205.7640748051
 10
5122.3354924932
 20
5201.478729731
 10
5119.9119563931
 20
5197.0959661695
 10
5117.8217349317
 20
5192.6282075399
 10
5116.0707530689
 20
5188.0881181897
 10
5114.6639741529
 20
5183.4885674951
 10
5113.6053858515
 20
5178.8425933826
 10
5112.8979888481
 20
5174.1633653704
 10
5112.7767103562
 20
5172.9945827231
  0
LWPOLYLINE
  5
9D
330
1F
100
AcDbEntity
  8
0
  6
Continuous
 62
     8
370
    25
100
AcDbPolyline
 90
       30
 70
   128
 43
0.0
 10
5362.203859551
 20
5173.1865694472
 10
5362.1009906058
 20
5174.1633653704
 10
5361.3935936025
 20
5178.8425933826
 10
5360.335005301
 20
5183.4885674951
 10
5358.928226385
 20
5188.0881181897
 10
5357.1772445222
 20
5192.6282075399
 10
5355.0870230608
 20
5197.0959661695
 10
5352.6634869608
 20
5201.478729731
 10
5349.9135059984
 20
5205.7640748051
 10
5346.8448752934
 20
5209.9398541155
 10
5343.4662932132
 20
5213.994230962
 10
5339.7873367155
 20
5217.9157127731
 10
5335.8184342023
 20
5221.6931836825
 10
5331.570835959
 20
5225.3159360384
 10
5327.0565822642
 20
5228.7737007557
 10
5322.2884692607
 20
5232.0566764247
 10
5317.2800126826
 20
5235.1555570941
 10
5312.0454095443
 20
5238.06155865
 10
5306.5994978971
 20
5240.7664437153
 10
5300.9577147693
 20
5243.2625449993
 10
5295.1360524081
 20
5245.5427870318
 10
5289.151012948
 20
5247.600706219
 10
5283.0195616336
 20
5249.4304691653
 10
5276.7590787297
 20
5251.026889209
 10
5270.3873102554
 20
5252.3854411239
 10
5263.9223176807
 20
5253.5022739471
 10
5257.3824267293
 20
5254.3742218945
 10
5250.7861754329
 20
5254.998813335
 10
5244.1522615822
 20
5255.3742777963
 10
5237.499489727
 20
5255.4995509835
  0
LWPOLYLINE
  5
9E
330
1F
100
AcDbEntity
  8
0
  6
Continuous
 62
     8
370
    25
100
AcDbPolyline
 90
       28
 70
   128
 43
0.0
 10
5237.499489727
 20
5230.750813642
 10
5244.1522615822
 20
5230.6255404548
 10
5250.7861754329
 20
5230.2500759935
 10
5257.3824267293
 20
5229.625484553
 10
5263.9223176807
 20
5228.7535366056
 10
5270.3873102554
 20
5227.6367037824
 10
5276.7590787297
 20
5226.2781518675
 10
5283.0195616336
 20
5224.6817318238
 10
5289.151012948
 20
5222.8519688774
 10
5295.1360524081
 20
5220.7940496902
 10
5300.9577147693
 20
5218.5138076578
 10
5306.5994978971
 20
5216.0177063737
 10
5312.0454095443
 20
5213.3128213085
 10
5317.2800126826
 20
5210.4068197526
 10
5322.2884692607
 20
5207.3079390832
 10
5327.0565822642
 20
5204.0249634142
 10
5331.570835959
 20
5200.5671986969
 10
5335.8184342023
 20
5196.9444463409
 10
5339.7873367155
 20
5193.1669754316
 10
5343.4662932132
 20
5189.2454936205
 10
5346.8448752934
 20
5185.1911167739
 10
5349.9135059984
 20
5181.0153374636
 10
5352.6634869608
 20
5176.7299923895
 10
5355.0870230608
 20
5172.347228828
 10
5357.1772445222
 20
5167.8794701984
 10
5358.928226385
 20
5163.3393808481
 10
5360.335005301
 20
5158.7398301536
 10
5361.3118492645
 20
5154.5177040774
  0
LWPOLYLINE
  5
9F
330
1F
100
AcDbEntity
  8
0
  6
Continuous
 62
     8
370
    25
100
AcDbPolyline
 90
       28
 70
   128
 43
0.0
 10
5113.7301189755
 20
5154.7346699967
 10
5114.6639741529
 20
5158.7398301536
 10
5116.0707530689
 20
5163.3393808481
 10
5117.8217349317
 20
5167.8794701984
 10
5119.9119563931
 20
5172.347228828
 10
5122.3354924932
 20
5176.7299923895
 10
5125.0854734555
 20
5181.0153374636
 10
5128.1541041605
 20
5185.191116774
 10
5131.5326862407
 20
5189.2454936205
 10
5135.2116427384
 20
5193.1669754316
 10
5139.1805452516
 20
5196.944446341
 10
5143.4281434949
 20
5200.5671986969
 10
5147.9423971897
 20
5204.0249634142
 10
5152.7105101933
 20
5207.3079390832
 10
5157.7189667714
 20
5210.4068197526
 10
5162.9535699096
 20
5213.3128213085
 10
5168.3994815568
 20
5216.0177063737
 10
5174.0412646846
 20
5218.5138076578
 10
5179.8629270458
 20
5220.7940496903
 10
5185.8479665059
 20
5222.8519688774
 10
5191.9794178204
 20
5224.6817318238
 10
5198.2399007242
 20
5226.2781518675
 10
5204.6116691985
 20
5227.6367037824
 10
5211.0766617732
 20
5228.7535366056
 10
5217.6165527246
 20
5229.625484553
 10
5224.212804021
 20
5230.2500759935
 10
5230.8467178717
 20
5230.6255404548
 10
5237.499489727
 20
5230.750813642
  0
LWPOLYLINE
  5
A0
330
1F
100
AcDbEntity
  8
0
  6
Continuous
 62
     7
370
    25
100
AcDbPolyline
 90
       32
 70
   128
 43
0.0
 10
5112.7822251838
 20
4207.8295634545
 10
5112.8168606106
 20
4208.349362703
 10
5113.4220302698
 20
4212.6849113394
 10
5114.3408161878
 20
4216.9940961625
 10
5115.5703424046
 20
4221.2650722729
 10
5117.1067248412
 20
4225.4864491648
 10
5118.9452460986
 20
4229.6473748125
 10
5121.0805159307
 20
4233.7375334893
 10
5123.5065899746
 20
4237.7470829311
 10
5126.2170373143
 20
4241.6665635558
 10
5129.2049619615
 20
4245.4868080477
 10
5132.4629912019
 20
4249.1988696832
 10
5135.9832455343
 20
4252.7939775383
 10
5139.7573028907
 20
4256.263519015
 10
5143.7761662039
 20
4259.5990456351
 10
5148.0302397248
 20
4262.7922962131
 10
5152.5093165268
 20
4265.8352314349
 10
5157.2025775719
 20
4268.7200746962
 10
5162.0986014671
 20
4271.4393552217
 10
5167.185383417
 20
4273.9859506441
 10
5172.4503352154
 20
4276.353115962
 10
5177.8802957489
 20
4278.5345182202
 10
5183.4617152507
 20
4280.5243287621
 10
5189.1805951375
 20
4282.3172004859
 10
5195.0225294345
 20
4283.9082934783
 10
5200.9727479957
 20
4285.2932969796
 10
5207.0161608694
 20
4286.4684479234
 10
5213.1374033673
 20
4287.4305463519
 10
5219.3208815314
 20
4288.1769680014
 10
5225.5508177918
 20
4288.7056743256
 10
5231.8112966903
 20
4289.0152201923
 10
5237.499489727
 20
4289.1057221638
  0
LWPOLYLINE
  5
A1
330
1F
100
AcDbEntity
  8
0
  6
Continuous
 62
     7
370
    25
100
AcDbPolyline
 90
       32
 70
   128
 43
0.0
 10
5237.499489727
 20
4289.1057221638
 10
5240.7789617496
 20
4289.075649742
 10
5247.0463970801
 20
4288.8505456617
 10
5253.2898122232
 20
4288.4058879484
 10
5259.4927485826
 20
4287.7429143528
 10
5265.6393440285
 20
4286.863453907
 10
5271.7138944071
 20
4285.7699308207
 10
5277.7008991404
 20
4284.4653575072
 10
5283.5851069706
 20
4282.9533254234
 10
5289.3515617088
 20
4281.2379935027
 10
5294.9856478948
 20
4279.3240738976
 10
5300.4731362062
 20
4277.2168146868
 10
5305.8002283528
 20
4274.9219791468
 10
5310.9536010575
 20
4272.4458211454
 10
5315.9204485504
 20
4269.7950561961
 10
5320.6884790962
 20
4266.9768548932
 10
5325.2459564282
 20
4263.9988152085
 10
5329.58183885
 20
4260.868854286
 10
5333.6857430327
 20
4257.5951916692
 10
5337.5479639763
 20
4254.1862952274
 10
5341.1594848
 20
4250.6508236636
 10
5344.5119741119
 20
4246.9975681144
 10
5347.5977690666
 20
4243.2353967751
 10
5350.4098431768
 20
4239.3732081524
 10
5352.9417597663
 20
4235.4199001979
 10
5355.1876148361
 20
4231.3843637492
 10
5357.1419770533
 20
4227.2755085925
 10
5358.7998371333
 20
4223.1023280093
 10
5360.1565829061
 20
4218.8740018058
 10
5361.2080178189
 20
4214.6000280415
 10
5361.9504369369
 20
4210.290361087
 10
5362.1764262523
 20
4208.01388751
  0
LWPOLYLINE
  5
A2
330
1F
100
AcDbEntity
  8
0
  6
Continuous
 62
     7
370
    25
100
AcDbPolyline
 90
       59
 70
   128
 43
0.0
 10
5361.1997955392
 20
4214.6334507548
 10
5360.952348679
 20
4213.345347927
 10
5359.8111935916
 20
4209.0622778859
 10
5358.3619805646
 20
4204.8256077142
 10
5356.6092067175
 20
4200.6463463879
 10
5354.5580844395
 20
4196.5349584005
 10
5352.2144090082
 20
4192.5014125654
 10
5349.5844764162
 20
4188.5552680561
 10
5346.6750498379
 20
4184.7057672768
 10
5343.4933633402
 20
4180.9619141317
 10
5340.0471481176
 20
4177.3325268142
 10
5336.3446677322
 20
4173.8262628066
 10
5332.3947522047
 20
4170.4516191688
 10
5328.2068245561
 20
4167.2169136986
 10
5323.79091661
 20
4164.1302530386
 10
5319.1576731792
 20
4161.1994931661
 10
5314.318345227
 20
4158.4321965892
 10
5309.2847733711
 20
4155.8355893877
 10
5304.0693633974
 20
4153.4165201876
 10
5298.6851565089
 20
4151.1814619154
 10
5293.1455742407
 20
4149.1363790013
 10
5287.4644911501
 20
4147.2867588251
 10
5281.6562012341
 20
4145.6375885155
 10
5275.7353751411
 20
4144.1933319572
 10
5269.7170160817
 20
4142.9579103036
 10
5263.616414923
 20
4141.9346856993
 10
5257.4491048113
 20
4141.1264479165
 10
5251.2308155524
 20
4140.535403625
 10
5244.9774278973
 20
4140.1631680523
 10
5238.7049278193
 20
4140.0107588308
 10
5232.4293608233
 20
4140.0785918713
 10
5226.1668032928
 20
4140.3664780669
 10
5219.9333200331
 20
4140.8736195836
 10
5213.7448579232
 20
4141.5986157983
 10
5207.6172385757
 20
4142.5394671597
 10
5201.5661126841
 20
4143.6935807143
 10
5195.6069143095
 20
4145.0577776892
 10
5189.754815128
 20
4146.6283033137
 10
5184.0246786959
 20
4148.4008391229
 10
5178.4310148408
 20
4150.370518044
 10
5172.9879343677
 20
4152.5319426272
 10
5167.7091043774
 20
4154.8792068346
 10
5162.6077046432
 20
4157.4059218389
 10
5157.6963856769
 20
4160.1052462901
 10
5152.9873073932
 20
4162.9698715465
 10
5148.4920005322
 20
4165.9921085454
 10
5144.2213213561
 20
4169.1639485522
 10
5140.1854611561
 20
4172.4770954237
 10
5136.3939289611
 20
4175.9230208433
 10
5132.8555450719
 20
4179.4930223845
 10
5129.5784476122
 20
4183.1782815186
 10
5126.570113791
 20
4186.9699171729
 10
5123.8373963854
 20
4190.8590287498
 10
5121.386573849
 20
4194.8367209397
 10
5119.2234092485
 20
4198.8941017606
 10
5117.3532090437
 20
4203.0222459216
 10
5115.7808681671
 20
4207.2121189333
 10
5114.5108843243
 20
4211.4544643692
 10
5113.8173278336
 20
4214.5388908454
  0
LINE
  5
A3
330
1F
100
AcDbEntity
  8
0
  6
Continuous
 62
     7
370
    25
100
AcDbLine
 10
5399.999489727
 20
4383.7702223694
 30
0.0
 11
5399.999489727
 21
4428.7702223694
 31
0.0
  0
LINE
  5
A4
330
1F
100
AcDbEntity
  8
0
  6
Continuous
 62
     7
370
    25
100
AcDbLine
 10
5074.999489727
 20
4383.7702223694
 30
0.0
 11
5399.999489727
 21
4383.7702223694
 31
0.0
  0
LINE
  5
A5
330
1F
100
AcDbEntity
  8
0
  6
Continuous
 62
     7
370
    25
100
AcDbLine
 10
5074.999489727
 20
4383.7702223694
 30
0.0
 11
5074.999489727
 21
4428.7702223694
 31
0.0
  0
LINE
  5
A6
330
1F
100
AcDbEntity
  8
0
  6
Continuous
 62
     7
370
    25
100
AcDbLine
 10
5074.999489727
 20
4428.7702223694
 30
0.0
 11
5399.999489727
 21
4428.7702223694
 31
0.0
  0
LINE
  5
A7
330
1F
100
AcDbEntity
  8
0
  6
Continuous
 62
     7
370
    25
100
AcDbLine
 10
5399.999489727
 20
4198.6463067036
 30
0.0
 11
5399.999489727
 21
4383.7702223694
 31
0.0
  0
LWPOLYLINE
  5
A8
330
1F
100
AcDbEntity
  8
0
  6
Continuous
 62
     7
370
    25
100
AcDbPolyline
 90
       68
 70
   128
 43
0.0
 10
5074.999489727
 20
4198.6463067036
 10
5075.1780948605
 20
4193.2604563243
 10
5075.7135176484
 20
4187.886445213
 10
5076.6045811151
 20
4182.5360866124
 10
5077.8493265097
 20
4177.221141772
 10
5079.4450176117
 20
4171.953294094
 10
5081.3881467457
 20
4166.7441234508
 10
5083.6744424923
 20
4161.6050807301
 10
5086.2988790771
 20
4156.5474626631
 10
5089.2556874189
 20
4151.5823869919
 10
5092.5383678114
 20
4146.7207680305
 10
5096.1397042105
 20
4141.9732926725
 10
5100.0517800973
 20
4137.3503968989
 10
5104.26599588
 20
4132.862242838
 10
5108.7730877976
 20
4128.5186964266
 10
5113.563148284
 20
4124.3293057222
 10
5118.6256477466
 20
4120.3032799149
 10
5123.9494577129
 20
4116.4494690832
 10
5129.5228752931
 20
4112.7763447396
 10
5135.3336489059
 20
4109.2919812086
 10
5141.3690052098
 20
4106.0040378775
 10
5147.6156771816
 20
4102.9197423594
 10
5154.0599332808
 20
4100.045874605
 10
5160.6876076338
 20
4097.3887519995
 10
5167.484131174
 20
4094.954215475
 10
5174.4345636677
 20
4092.7476166713
 10
5181.5236265557
 20
4090.7738061712
 10
5188.7357365394
 20
4089.0371228387
 10
5196.0550398357
 20
4087.5413842807
 10
5203.4654470275
 20
4086.2898784551
 10
5210.9506684314
 20
4085.2853564434
 10
5218.4942499065
 20
4084.5300264028
 10
5226.0796090233
 20
4084.0255487129
 10
5233.6900715164
 20
4083.7730323251
 10
5241.3089079375
 20
4083.7730323251
 10
5248.9193704306
 20
4084.0255487129
 10
5256.5047295474
 20
4084.5300264028
 10
5264.0483110225
 20
4085.2853564434
 10
5271.5335324265
 20
4086.2898784551
 10
5278.9439396182
 20
4087.5413842807
 10
5286.2632429145
 20
4089.0371228387
 10
5293.4753528982
 20
4090.7738061712
 10
5300.5644157862
 20
4092.7476166713
 10
5307.5148482799
 20
4094.954215475
 10
5314.3113718201
 20
4097.3887519995
 10
5320.9390461731
 20
4100.045874605
 10
5327.3833022723
 20
4102.9197423594
 10
5333.6299742441
 20
4106.0040378775
 10
5339.665330548
 20
4109.2919812086
 10
5345.4761041608
 20
4112.7763447396
 10
5351.049521741
 20
4116.4494690832
 10
5356.3733317073
 20
4120.3032799149
 10
5361.4358311699
 20
4124.3293057222
 10
5366.2258916563
 20
4128.5186964266
 10
5370.7329835739
 20
4132.862242838
 10
5374.9471993566
 20
4137.3503968989
 10
5378.8592752434
 20
4141.9732926725
 10
5382.4606116425
 20
4146.7207680305
 10
5385.743292035
 20
4151.5823869919
 10
5388.7001003769
 20
4156.5474626631
 10
5391.3245369616
 20
4161.6050807301
 10
5393.6108327082
 20
4166.7441234508
 10
5395.5539618422
 20
4171.953294094
 10
5397.1496529442
 20
4177.221141772
 10
5398.3943983388
 20
4182.5360866124
 10
5399.2854618055
 20
4187.886445213
 10
5399.8208845934
 20
4193.2604563243
 10
5399.999489727
 20
4198.6463067036
  0
LINE
  5
A9
330
1F
100
AcDbEntity
  8
0
  6
Continuous
 62
     7
370
    25
100
AcDbLine
 10
5074.999489727
 20
4383.7702223694
 30
0.0
 11
5074.999489727
 21
4198.6463067036
 31
0.0
  0
LWPOLYLINE
  5
AA
330
1F
100
AcDbEntity
  8
0
  6
Continuous
 62
     7
370
    25
100
AcDbPolyline
 90
      122
 70
   128
 43
0.0
 10
5237.499489727
 20
4290.5701882579
 10
5244.2469860841
 20
4290.4462829915
 10
5250.976292384
 20
4290.0749012191
 10
5257.6692676066
 20
4289.4570441202
 10
5264.307868674
 20
4288.5943773284
 10
5270.8741990915
 20
4287.4892264407
 10
5277.350557193
 20
4286.1445707487
 10
5283.7194838623
 20
4284.5640352063
 10
5289.9638095989
 20
4282.7518806579
 10
5296.0667008048
 20
4280.7129923518
 10
5302.0117051641
 20
4278.4528667704
 10
5307.7827959962
 20
4275.9775968127
 10
5313.3644154605
 20
4273.2938553688
 10
5318.7415164978
 20
4270.4088773312
 10
5323.8996033943
 20
4267.3304400907
 10
5328.8247708597
 20
4264.0668425697
 10
5333.5037415133
 20
4260.6268828503
 10
5337.9239016773
 20
4257.0198344556
 10
5342.0733353816
 20
4253.2554213503
 10
5345.9408564864
 20
4249.3437917268
 10
5349.5160388386
 20
4245.2954906468
 10
5352.7892443786
 20
4241.1214316144
 10
5355.751649123
 20
4236.8328671547
 10
5358.3952669525
 20
4232.4413584793
 10
5360.7129711406
 20
4227.9587443192
 10
5362.6985135666
 20
4223.3971090097
 10
5364.3465415593
 20
4218.768749913
 10
5365.6526123265
 20
4214.0861442671
 10
5366.6132049324
 20
4209.3619155488
 10
5367.2257297891
 20
4204.6087994436
 10
5367.4885356378
 20
4199.8396095121
 10
5367.4009140005
 20
4195.0672026472
 10
5366.9631010897
 20
4190.304444414
 10
5366.1762771715
 20
4185.5641743668
 10
5365.0425633841
 20
4180.8591714354
 10
5363.5650160194
 20
4176.202119476
 10
5361.7476182839
 20
4171.6055730773
 10
5359.5952695606
 20
4167.0819237157
 10
5357.1137722011
 20
4162.6433663502
 10
5354.3098158836
 20
4158.3018665466
 10
5351.1909595786
 20
4154.0691282208
 10
5347.7656111712
 20
4149.9565620872
 10
5344.0430047953
 20
4145.9752548967
 10
5340.0331759393
 20
4142.1359395498
 10
5335.746934393
 20
4138.4489661619
 10
5331.1958351058
 20
4134.9242741613
 10
5326.3921470368
 20
4131.5713654946
 10
5321.3488200797
 20
4128.3992790106
 10
5316.0794501523
 20
4125.4165660938
 10
5310.5982425443
 20
4122.6312676109
 10
5304.9199736225
 20
4120.050892234
 10
5299.0599509958
 20
4117.6823961991
 10
5293.0339722493
 20
4115.5321645527
 10
5286.8582823563
 20
4113.6059939391
 10
5280.5495298849
 20
4111.9090769738
 10
5274.1247221163
 20
4110.4459882449
 10
5267.6011791965
 20
4109.220671981
 10
5260.9964874438
 20
4108.2364314181
 10
5254.3284519395
 20
4107.4959198946
 10
5247.6150485283
 20
4107.0011336989
 10
5240.8743753591
 20
4106.7534066869
 10
5234.1246040948
 20
4106.7534066869
 10
5227.3839309256
 20
4107.0011336989
 10
5220.6705275144
 20
4107.4959198946
 10
5214.0024920101
 20
4108.2364314181
 10
5207.3978002574
 20
4109.220671981
 10
5200.8742573376
 20
4110.4459882449
 10
5194.449449569
 20
4111.9090769738
 10
5188.1406970976
 20
4113.6059939391
 10
5181.9650072046
 20
4115.5321645527
 10
5175.9390284581
 20
4117.6823961991
 10
5170.0790058314
 20
4120.050892234
 10
5164.4007369096
 20
4122.6312676109
 10
5158.9195293016
 20
4125.4165660938
 10
5153.6501593742
 20
4128.3992790106
 10
5148.6068324171
 20
4131.5713654946
 10
5143.8031443481
 20
4134.9242741613
 10
5139.2520450609
 20
4138.4489661619
 10
5134.9658035146
 20
4142.1359395498
 10
5130.9559746586
 20
4145.9752548967
 10
5127.2333682827
 20
4149.9565620872
 10
5123.8080198753
 20
4154.0691282208
 10
5120.6891635703
 20
4158.3018665466
 10
5117.8852072528
 20
4162.6433663502
 10
5115.4037098933
 20
4167.0819237157
 10
5113.25136117
 20
4171.6055730773
 10
5111.4339634345
 20
4176.202119476
 10
5109.9564160698
 20
4180.8591714354
 10
5108.8227022824
 20
4185.5641743668
 10
5108.0358783642
 20
4190.304444414
 10
5107.5980654534
 20
4195.0672026472
 10
5107.5104438161
 20
4199.8396095121
 10
5107.7732496648
 20
4204.6087994436
 10
5108.3857745215
 20
4209.3619155488
 10
5109.3463671274
 20
4214.0861442671
 10
5110.6524378946
 20
4218.768749913
 10
5112.3004658873
 20
4223.3971090097
 10
5114.2860083133
 20
4227.9587443192
 10
5116.6037125014
 20
4232.4413584793
 10
5119.2473303309
 20
4236.8328671547
 10
5122.2097350753
 20
4241.1214316144
 10
5125.4829406153
 20
4245.2954906468
 10
5129.0581229675
 20
4249.3437917268
 10
5132.9256440723
 20
4253.2554213503
 10
5137.0750777766
 20
4257.0198344556
 10
5141.4952379406
 20
4260.6268828503
 10
5146.1742085942
 20
4264.0668425697
 10
5151.0993760596
 20
4267.3304400907
 10
5156.2574629561
 20
4270.4088773312
 10
5161.6345639934
 20
4273.2938553688
 10
5167.2161834577
 20
4275.9775968127
 10
5172.9872742898
 20
4278.4528667704
 10
5178.9322786491
 20
4280.7129923518
 10
5185.035169855
 20
4282.7518806579
 10
5191.2794955916
 20
4284.5640352063
 10
5197.6484222609
 20
4286.1445707487
 10
5204.1247803624
 20
4287.4892264407
 10
5210.6911107799
 20
4288.5943773284
 10
5217.3297118473
 20
4289.4570441202
 10
5224.0226870699
 20
4290.0749012191
 10
5230.7519933698
 20
4290.4462829915
 10
5237.499489727
 20
4290.5701882579
  0
ARC
  5
AB
330
1F
100
AcDbEntity
  8
0
  6
Continuous
 62
     7
370
    25
100
AcDbCircle
 10
5175.0769911859
 20
4202.1819535784
 30
0.0
 40
62.57745452806934
100
AcDbArc
 50
174.6053270155
 51
185.1602483208
  0
ARC
  5
AC
330
1F
100
AcDbEntity
  8
0
  6
Continuous
 62
     7
370
    25
100
AcDbCircle
 10
5299.9141843265
 20
4202.1818272287
 30
0.0
 40
62.58525286001868
100
AcDbArc
 50
354.4050375505
 51
5.5706834667
  0
ARC
  5
AD
330
1F
100
AcDbEntity
  8
0
  6
Continuous
 62
     7
370
    25
100
AcDbCircle
 10
5237.499489727
 20
4285.5728098019
 30
0.0
 40
25.00000000000039
100
AcDbArc
 50
175.9206160619
 51
4.0918583893
  0
LWPOLYLINE
  5
AE
330
1F
100
AcDbEntity
  8
0
  6
Continuous
 62
     8
370
    25
100
AcDbPolyline
 90
       59
 70
   128
 43
0.0
 10
5112.7531606031
 20
4196.5536361837
 10
5112.8979888481
 20
4195.1296785744
 10
5113.6053858515
 20
4190.4504505622
 10
5114.6639741529
 20
4185.8044764496
 10
5116.0707530689
 20
4181.2049257551
 10
5117.8217349317
 20
4176.6648364048
 10
5119.9119563931
 20
4172.1970777753
 10
5122.3354924932
 20
4167.8143142137
 10
5125.0854734555
 20
4163.5289691397
 10
5128.1541041605
 20
4159.3531898293
 10
5131.5326862407
 20
4155.2988129827
 10
5135.2116427384
 20
4151.3773311716
 10
5139.1805452516
 20
4147.5998602623
 10
5143.4281434949
 20
4143.9771079064
 10
5147.9423971897
 20
4140.519343189
 10
5152.7105101933
 20
4137.2363675201
 10
5157.7189667713
 20
4134.1374868507
 10
5162.9535699096
 20
4131.2314852948
 10
5168.3994815568
 20
4128.5266002295
 10
5174.0412646846
 20
4126.0304989455
 10
5179.8629270458
 20
4123.750256913
 10
5185.8479665059
 20
4121.6923377258
 10
5191.9794178204
 20
4119.8625747794
 10
5198.2399007242
 20
4118.2661547358
 10
5204.6116691985
 20
4116.9076028208
 10
5211.0766617732
 20
4115.7907699977
 10
5217.6165527246
 20
4114.9188220503
 10
5224.212804021
 20
4114.2942306098
 10
5230.8467178717
 20
4113.9187661485
 10
5237.499489727
 20
4113.7934929612
 10
5244.1522615822
 20
4113.9187661485
 10
5250.7861754329
 20
4114.2942306098
 10
5257.3824267293
 20
4114.9188220503
 10
5263.9223176807
 20
4115.7907699977
 10
5270.3873102554
 20
4116.9076028208
 10
5276.7590787297
 20
4118.2661547358
 10
5283.0195616336
 20
4119.8625747794
 10
5289.151012948
 20
4121.6923377258
 10
5295.1360524081
 20
4123.750256913
 10
5300.9577147693
 20
4126.0304989455
 10
5306.5994978971
 20
4128.5266002295
 10
5312.0454095443
 20
4131.2314852948
 10
5317.2800126826
 20
4134.1374868507
 10
5322.2884692607
 20
4137.2363675201
 10
5327.0565822642
 20
4140.519343189
 10
5331.570835959
 20
4143.9771079064
 10
5335.8184342023
 20
4147.5998602623
 10
5339.7873367155
 20
4151.3773311716
 10
5343.4662932132
 20
4155.2988129827
 10
5346.8448752934
 20
4159.3531898293
 10
5349.9135059984
 20
4163.5289691397
 10
5352.6634869608
 20
4167.8143142137
 10
5355.0870230608
 20
4172.1970777753
 10
5357.1772445222
 20
4176.6648364048
 10
5358.928226385
 20
4181.2049257551
 10
5360.335005301
 20
4185.8044764496
 10
5361.3935936025
 20
4190.4504505622
 10
5362.1009906058
 20
4195.1296785744
 10
5362.2012795276
 20
4196.0800531451
  0
LWPOLYLINE
  5
AF
330
1F
100
AcDbEntity
  8
0
  6
Continuous
 62
     8
370
    25
100
AcDbPolyline
 90
       55
 70
   128
 43
0.0
 10
5361.2862215095
 20
4214.6455253547
 10
5360.335005301
 20
4210.5532137912
 10
5358.928226385
 20
4205.9536630966
 10
5357.1772445222
 20
4201.4135737464
 10
5355.0870230608
 20
4196.9458151168
 10
5352.6634869608
 20
4192.5630515553
 10
5349.9135059984
 20
4188.2777064812
 10
5346.8448752934
 20
4184.1019271708
 10
5343.4662932132
 20
4180.0475503243
 10
5339.7873367155
 20
4176.1260685132
 10
5335.8184342023
 20
4172.3485976038
 10
5331.570835959
 20
4168.7258452479
 10
5327.0565822642
 20
4165.2680805306
 10
5322.2884692607
 20
4161.9851048616
 10
5317.2800126826
 20
4158.8862241922
 10
5312.0454095443
 20
4155.9802226363
 10
5306.5994978971
 20
4153.275337571
 10
5300.9577147693
 20
4150.779236287
 10
5295.1360524081
 20
4148.4989942545
 10
5289.151012948
 20
4146.4410750673
 10
5283.0195616336
 20
4144.611312121
 10
5276.7590787297
 20
4143.0148920773
 10
5270.3873102554
 20
4141.6563401624
 10
5263.9223176807
 20
4140.5395073392
 10
5257.3824267293
 20
4139.6675593918
 10
5250.7861754329
 20
4139.0429679513
 10
5244.1522615822
 20
4138.66750349
 10
5237.4994897269
 20
4138.5422303028
 10
5230.8467178717
 20
4138.66750349
 10
5224.212804021
 20
4139.0429679513
 10
5217.6165527246
 20
4139.6675593918
 10
5211.0766617732
 20
4140.5395073392
 10
5204.6116691985
 20
4141.6563401624
 10
5198.2399007242
 20
4143.0148920773
 10
5191.9794178203
 20
4144.611312121
 10
5185.8479665059
 20
4146.4410750673
 10
5179.8629270458
 20
4148.4989942545
 10
5174.0412646846
 20
4150.779236287
 10
5168.3994815568
 20
4153.275337571
 10
5162.9535699096
 20
4155.9802226363
 10
5157.7189667713
 20
4158.8862241922
 10
5152.7105101932
 20
4161.9851048616
 10
5147.9423971897
 20
4165.2680805306
 10
5143.4281434949
 20
4168.7258452479
 10
5139.1805452516
 20
4172.3485976038
 10
5135.2116427384
 20
4176.1260685132
 10
5131.5326862407
 20
4180.0475503243
 10
5128.1541041605
 20
4184.1019271708
 10
5125.0854734555
 20
4188.2777064812
 10
5122.3354924931
 20
4192.5630515553
 10
5119.9119563931
 20
4196.9458151168
 10
5117.8217349317
 20
4201.4135737464
 10
5116.0707530689
 20
4205.9536630966
 10
5114.6639741529
 20
4210.5532137912
 10
5113.7214120959
 20
4214.6020034599
  0
LWPOLYLINE
  5
B0
330
1F
100
AcDbEntity
  8
0
  6
Continuous
 62
     7
370
    25
100
AcDbPolyline
 90
       34
 70
   128
 43
0.0
 10
6843.6627931705
 20
5087.2493411628
 10
6845.0653420837
 20
5080.2274445623
 10
6846.3005048323
 20
5074.0696751735
 10
6847.3658027174
 20
5068.7782056963
 10
6848.2590924818
 20
5064.3549039746
 10
6848.9785731744
 20
5060.8013322461
 10
6849.5419713493
 20
5058.0242896627
 10
6850.9470131973
 20
5051.120088924
 10
6852.5836706648
 20
5043.1159023141
 10
6854.244114826
 20
5035.036844387
 10
6856.0559441999
 20
5026.2682432667
 10
6857.892343576
 20
5017.4301654548
 10
6859.7436686581
 20
5008.569970685
 10
6861.2355019668
 20
5001.4661443753
 10
6862.7369347363
 20
4994.3486010293
 10
6864.2472449361
 20
4987.2210439614
 10
6865.637279873
 20
4980.6890948021
 10
6866.8101274722
 20
4975.198180824
 10
6867.5775453638
 20
4971.6153027068
 10
6868.2081680091
 20
4968.6768633907
 10
6868.8091576428
 20
4965.8813699848
 10
6869.5592783244
 20
4962.3990657712
 10
6870.479857604
 20
4958.1372651353
 10
6871.9013557503
 20
4951.6006755881
 10
6873.350585563
 20
4945.0384784301
 10
6874.7321021684
 20
4938.7982324865
 10
6875.9511334638
 20
4933.2298222706
 10
6877.1956775889
 20
4927.530696593
 10
6877.6067681735
 20
4925.6495305654
 10
6877.7827517069
 20
4924.8485947911
 10
6877.917546173
 20
4924.2404017439
 10
6878.0109881605
 20
4923.8245256446
 10
6878.0629462529
 20
4923.600772854
 10
6878.0698782349
 20
4923.5796656968
  0
LWPOLYLINE
  5
B1
330
1F
100
AcDbEntity
  8
0
  6
Continuous
 62
     7
370
    25
100
AcDbPolyline
 90
       61
 70
   128
 43
0.0
 10
6856.1197026302
 20
5025.9613917312
 10
6856.3128654058
 20
5023.5352222557
 10
6857.0727014889
 20
5014.2756042597
 10
6857.8503184189
 20
5005.0618361804
 10
6858.3038002698
 20
4999.8027018348
 10
6858.8056667605
 20
4994.07466203
 10
6859.3621741181
 20
4987.8307031422
 10
6859.9759607179
 20
4981.0685606183
 10
6860.6498942792
 20
4973.7857950299
 10
6861.326471239
 20
4966.6154547155
 10
6861.8892734785
 20
4960.7527346955
 10
6862.3744084938
 20
4955.7698056484
 10
6862.7782611311
 20
4951.6697627458
 10
6863.1219065568
 20
4948.2142129681
 10
6863.5231314854
 20
4944.2172175489
 10
6864.1451620275
 20
4938.097810328
 10
6864.8862495053
 20
4930.9245251705
 10
6865.6786250579
 20
4923.3888576908
 10
6866.509436217
 20
4915.6284873631
 10
6867.3800357196
 20
4907.642746948
 10
6868.2906164513
 20
4899.4416656335
 10
6869.1513134802
 20
4891.8245543717
 10
6869.8625817897
 20
4885.6238387753
 10
6870.4697085785
 20
4880.395463762
 10
6870.9691698987
 20
4876.1372521127
 10
6871.4763152493
 20
4871.8520501171
 10
6872.0803722841
 20
4866.7971530814
 10
6872.7845298926
 20
4860.9699128352
 10
6873.7479779506
 20
4853.1064031588
 10
6874.8625214172
 20
4844.1601891052
 10
6876.0658597558
 20
4834.6729322688
 10
6877.2822808773
 20
4825.2537670037
 10
6882.2690016879
 20
4788.2523176034
 10
6883.2658782082
 20
4781.1362366913
 10
6884.1941443063
 20
4774.5863507795
 10
6885.0235841576
 20
4768.7938650466
 10
6885.7504565821
 20
4763.7627948863
 10
6886.2915665402
 20
4760.0441312977
 10
6886.7524949498
 20
4756.8940635188
 10
6887.2283474854
 20
4753.6587075687
 10
6887.8759914181
 20
4749.288040676
 10
6888.7020740595
 20
4743.7795464146
 10
6889.7114945942
 20
4737.1604803041
 10
6890.7283855354
 20
4730.616695707
 10
6891.6262412118
 20
4724.9388803445
 10
6892.5806511364
 20
4720.1876107454
 10
6893.643217772
 20
4716.3849431713
 10
6894.8162119117
 20
4713.0347628539
 10
6896.1969374037
 20
4709.7518414423
 10
6897.7813484078
 20
4706.5537420708
 10
6899.5738308632
 20
4703.4449390726
 10
6901.8052401782
 20
4700.102674923
 10
6904.6529870017
 20
4696.4512655598
 10
6908.2170442206
 20
4692.6011479256
 10
6912.599601835
 20
4688.6911571757
 10
6917.8993374257
 20
4684.8943404355
 10
6924.001723743
 20
4681.5222974377
 10
6930.425735772
 20
4678.9259283561
 10
6937.0658949226
 20
4677.1270517584
 10
6943.839399446
 20
4676.1280607813
 10
6950.6682407347
 20
4675.9229165289
  0
LWPOLYLINE
  5
B2
330
1F
100
AcDbEntity
  8
0
  6
Continuous
 62
     7
370
    25
100
AcDbPolyline
 90
       61
 70
   128
 43
0.0
 10
7062.0290997922
 20
4675.9229165289
 10
7067.4589947097
 20
4676.0208048026
 10
7073.144535986
 20
4676.663598636
 10
7079.008233617
 20
4677.9335594312
 10
7084.6475978817
 20
4679.7799321101
 10
7089.6178892348
 20
4681.9658167685
 10
7093.9547424387
 20
4684.3551096472
 10
7097.7009348617
 20
4686.8347836758
 10
7100.9244845095
 20
4689.3306518534
 10
7103.8896213146
 20
4691.9804618363
 10
7107.9504143922
 20
4696.2910020618
 10
7111.5852563993
 20
4701.0456816485
 10
7114.9494159072
 20
4706.5984093975
 10
7117.8735735326
 20
4713.0054653271
 10
7119.6967251201
 20
4718.5324902541
 10
7121.0372477545
 20
4724.5762652414
 10
7122.0188324449
 20
4730.7762680733
 10
7122.9000888608
 20
4736.4964554804
 10
7123.6885935665
 20
4741.7026492098
 10
7124.3771448947
 20
4746.2983851866
 10
7125.0528028452
 20
4750.8428453443
 10
7125.7722498456
 20
4755.7185755884
 10
7126.5341777702
 20
4760.9245095157
 10
7127.9959785235
 20
4771.0384181659
 10
7129.504979594
 20
4781.6604255164
 10
7130.9765411806
 20
4792.2061715993
 10
7132.4106083195
 20
4802.6716397311
 10
7134.2717778864
 20
4816.550718095
 10
7136.1617165911
 20
4831.0158601895
 10
7138.0988872842
 20
4846.26571959
 10
7139.0258558486
 20
4853.7262567664
 10
7139.9600888399
 20
4861.3590195332
 10
7140.8203132845
 20
4868.4929265893
 10
7141.5428399491
 20
4874.5668298226
 10
7142.1329422697
 20
4879.585234771
 10
7142.5717865462
 20
4883.3520559551
 10
7142.9051524886
 20
4886.2338356713
 10
7143.2532031527
 20
4889.2616957979
 10
7143.6635045743
 20
4892.8567533421
 10
7144.1343898479
 20
4897.017690304
 10
7144.6639331595
 20
4901.7429832354
 10
7145.2499842598
 20
4907.0311963835
 10
7145.9593674925
 20
4913.5179907475
 10
7146.7342604072
 20
4920.7159710558
 10
7147.5704305275
 20
4928.6214568793
 10
7148.4632451513
 20
4937.2303632405
 10
7149.3734159817
 20
4946.196728889
 10
7150.0256260905
 20
4952.7473109558
 10
7150.5714513281
 20
4958.3143997804
 10
7151.0462610367
 20
4963.2230339899
 10
7151.5086742515
 20
4968.0648524474
 10
7151.9601349645
 20
4972.8527117638
 10
7152.4008402002
 20
4977.5866806762
 10
7152.9144232762
 20
4983.1816909698
 10
7153.4861358647
 20
4989.5136976098
 10
7154.1267477978
 20
4996.7459042808
 10
7154.8309014385
 20
5004.8734834355
 10
7155.3795112318
 20
5011.343544409
 10
7155.8971355617
 20
5017.566030318
 10
7156.3308571558
 20
5022.8730291455
 10
7156.5811709534
 20
5025.9826216789
  0
LWPOLYLINE
  5
B3
330
1F
100
AcDbEntity
  8
0
  6
Continuous
 62
     7
370
    25
100
AcDbPolyline
 90
       35
 70
   128
 43
0.0
 10
7134.7044442519
 20
4923.9797517474
 10
7134.7038983965
 20
4923.9770255684
 10
7134.7293059552
 20
4924.0857632972
 10
7134.7952535369
 20
4924.3789488235
 10
7134.9914046459
 20
4925.2543647077
 10
7135.2675806965
 20
4926.4930924483
 10
7135.6229406539
 20
4928.0971906401
 10
7136.3497278614
 20
4931.4119576368
 10
7137.0650328418
 20
4934.6874016921
 10
7137.6551465242
 20
4937.3816828564
 10
7138.1208456463
 20
4939.4948810242
 10
7138.5449538444
 20
4941.4078396554
 10
7139.066987079
 20
4943.7643693676
 10
7139.6890464199
 20
4946.5731031107
 10
7140.6681689871
 20
4951.018706175
 10
7141.5795971303
 20
4955.1961620243
 10
7142.3909966663
 20
4958.9393141671
 10
7143.1208310003
 20
4962.3191278294
 10
7144.1446605357
 20
4967.0739053566
 10
7144.9896942927
 20
4971.008859675
 10
7145.6921945961
 20
4974.2874832208
 10
7146.44283321
 20
4977.7979592655
 10
7147.2522348579
 20
4981.5916034113
 10
7148.1199424842
 20
4985.6682672049
 10
7149.2167748359
 20
4990.8360633465
 10
7150.4018169
 20
4996.4382492257
 10
7151.7580867162
 20
5002.8744814382
 10
7153.3039570152
 20
5010.2426554016
 10
7155.0733846287
 20
5018.7187737262
 10
7157.0328325657
 20
5028.1585276569
 10
7159.1779193878
 20
5038.5578133889
 10
7161.4901009091
 20
5049.8447019283
 10
7163.9087768171
 20
5061.7390200655
 10
7166.4246736241
 20
5074.208190574
 10
7169.0345473563
 20
5087.2493411627
  0
LINE
  5
B4
330
1F
100
AcDbEntity
  8
0
  6
Continuous
 62
     7
370
    25
100
AcDbLine
 10
7074.4415341017
 20
5086.5734638516
 30
0.0
 11
6938.2558064251
 21
5086.5734638516
 31
0.0
  0
LWPOLYLINE
  5
B5
330
1F
100
AcDbEntity
  8
0
  6
Continuous
 62
     7
370
    25
100
AcDbPolyline
 90
       22
 70
   128
 43
0.0
 10
6938.2558064251
 20
5086.5734638516
 10
6936.2053167271
 20
5086.6023600763
 10
6932.2562271757
 20
5086.8216192019
 10
6928.3456463551
 20
5087.2547597498
 10
6924.4997819378
 20
5087.8983983694
 10
6920.7435613178
 20
5088.7475487115
 10
6917.1011967387
 20
5089.7956364579
 10
6913.5959671702
 20
5091.0345569667
 10
6910.2499951751
 20
5092.4547600349
 10
6907.0840215977
 20
5094.0453703956
 10
6904.117184204
 20
5095.7943549841
 10
6901.3671054272
 20
5097.688531525
 10
6898.8493519887
 20
5099.714005679
 10
6896.5772215427
 20
5101.8566451453
 10
6894.5618544119
 20
5104.102473153
 10
6892.8123754594
 20
5106.4381981335
 10
6891.3362663377
 20
5108.8517309365
 10
6890.1400100437
 20
5111.332531405
 10
6889.2299619324
 20
5113.8715168256
 10
6888.6132065638
 20
5116.4601894734
 10
6888.2978700946
 20
5119.0887726344
 10
6888.2558799782
 20
5120.5218684568
  0
LWPOLYLINE
  5
B6
330
1F
100
AcDbEntity
  8
0
  6
Continuous
 62
     7
370
    25
100
AcDbPolyline
 90
       22
 70
   128
 43
0.0
 10
7124.4414605486
 20
5120.5218684568
 10
7124.4089607659
 20
5119.2538049562
 10
7124.1073004644
 20
5116.5917460769
 10
7123.4903314424
 20
5113.9489883613
 10
7122.5641844782
 20
5111.3488738961
 10
7121.3384980579
 20
5108.8104706754
 10
7119.8241934229
 20
5106.3490500121
 10
7118.0322804849
 20
5103.9774695899
 10
7115.973786851
 20
5101.7076730763
 10
7113.6602357173
 20
5099.5515867393
 10
7111.1041950274
 20
5097.5214040226
 10
7108.3196831733
 20
5095.6294874531
 10
7105.3223877226
 20
5093.8880964171
 10
7102.129724481
 20
5092.3090697456
 10
7098.7609723719
 20
5090.9036006255
 10
7095.2369008574
 20
5089.6818434756
 10
7091.5793585586
 20
5088.6526773948
 10
7087.8113746136
 20
5087.8236961612
 10
7083.9569529217
 20
5087.20108219
 10
7080.0408603743
 20
5086.7895140892
 10
7076.0884145363
 20
5086.5921013115
 10
7074.4415341017
 20
5086.5734638516
  0
LWPOLYLINE
  5
B7
330
1F
100
AcDbEntity
  8
0
  6
Continuous
 62
     7
370
    25
100
AcDbPolyline
 90
       22
 70
   128
 43
0.0
 10
7074.038359952
 20
5287.2833062222
 10
7076.08884965
 20
5287.2544099974
 10
7080.0379392014
 20
5287.0351508718
 10
7083.948520022
 20
5286.602010324
 10
7087.7943844393
 20
5285.9583717044
 10
7091.5506050594
 20
5285.1092213622
 10
7095.1929696384
 20
5284.0611336159
 10
7098.6981992069
 20
5282.8222131071
 10
7102.044171202
 20
5281.4020100388
 10
7105.2101447794
 20
5279.8113996782
 10
7108.1769821731
 20
5278.0624150896
 10
7110.9270609499
 20
5276.1682385487
 10
7113.4448143884
 20
5274.1427643948
 10
7115.7169448344
 20
5272.0001249284
 10
7117.7323119652
 20
5269.7542969207
 10
7119.4817909177
 20
5267.4185719402
 10
7120.9579000394
 20
5265.0050391372
 10
7122.1541563334
 20
5262.5242386688
 10
7123.0642044447
 20
5259.9852532481
 10
7123.6809598133
 20
5257.3965806003
 10
7123.9962962825
 20
5254.7679974393
 10
7124.0382863989
 20
5253.4499648969
  0
LWPOLYLINE
  5
B8
330
1F
100
AcDbEntity
  8
0
  6
Continuous
 62
     7
370
    25
100
AcDbPolyline
 90
       22
 70
   128
 43
0.0
 10
6888.659054128
 20
5253.4499648969
 10
6888.6980409021
 20
5254.7179977471
 10
6889.0133382231
 20
5257.3795537015
 10
6889.6437975817
 20
5260.0209197495
 10
6890.5830745213
 20
5262.6187368918
 10
6891.8214332437
 20
5265.154112709
 10
6893.347933548
 20
5267.6119138746
 10
6895.151569431
 20
5269.9793498829
 10
6897.2213035649
 20
5272.2444913147
 10
6899.5455784277
 20
5274.3954026341
 10
6902.1117705607
 20
5276.4198792139
 10
6904.9057928253
 20
5278.3055566933
 10
6907.9118833719
 20
5280.0401872559
 10
6911.1125524792
 20
5281.6119571776
 10
6914.4884342097
 20
5283.0097042721
 10
6918.0187203133
 20
5284.2233321358
 10
6921.6815071948
 20
5285.2440139678
 10
6925.45371937
 20
5286.0642145063
 10
6929.3113156573
 20
5286.6778144833
 10
6933.2295010499
 20
5287.0802017709
 10
6937.1829389931
 20
5287.2683356938
 10
6938.6589805748
 20
5287.2833062222
  0
LINE
  5
B9
330
1F
100
AcDbEntity
  8
0
  6
Continuous
 62
     7
370
    25
100
AcDbLine
 10
6938.6589805748
 20
5287.2833062222
 30
0.0
 11
7074.038359952
 21
5287.2833062222
 31
0.0
  0
LINE
  5
BA
330
1F
100
AcDbEntity
  8
0
  6
Continuous
 62
     7
370
    25
100
AcDbLine
 10
7062.0290997922
 20
4675.9229165289
 30
0.0
 11
7037.0290997922
 21
4675.9229165289
 31
0.0
  0
LINE
  5
BB
330
1F
100
AcDbEntity
  8
0
  6
Continuous
 62
     7
370
    25
100
AcDbLine
 10
7037.0290997922
 20
4675.9229165289
 30
0.0
 11
6975.6682407347
 21
4675.9229165289
 31
0.0
  0
LINE
  5
BC
330
1F
100
AcDbEntity
  8
0
  6
Continuous
 62
     7
370
    25
100
AcDbLine
 10
6975.6682407347
 20
4675.9229165289
 30
0.0
 11
6950.6682407347
 21
4675.9229165289
 31
0.0
  0
LINE
  5
BD
330
1F
100
AcDbEntity
  8
0
  6
Continuous
 62
     7
370
    25
100
AcDbLine
 10
6843.8486702634
 20
5355.922916529
 30
0.0
 11
6843.1744524686
 21
5092.2439895909
 31
0.0
  0
LWPOLYLINE
  5
BE
330
1F
100
AcDbEntity
  8
0
  6
Continuous
 62
     7
370
    25
100
AcDbPolyline
 90
       19
 70
   128
 43
0.0
 10
6843.1744524686
 20
5092.2439895909
 10
6843.3572671115
 20
5089.1587921804
 10
6843.9200927449
 20
5086.0966414146
 10
6844.8586360655
 20
5083.0808957561
 10
6846.1657377495
 20
5080.1345596835
 10
6847.8314270646
 20
5077.2801082105
 10
6849.842997928
 20
5074.5393154439
 10
6852.1851058299
 20
5071.9330884877
 10
6854.8398848832
 20
5069.4813079616
 10
6857.7870841069
 20
5067.2026763489
 10
6861.0042219032
 20
5065.1145753315
 10
6864.4667575495
 20
5063.2329332007
 10
6868.1482783981
 20
5061.5721033541
 10
6872.0207013555
 20
5060.1447548057
 10
6876.0544871033
 20
5058.9617755459
 10
6880.2188654281
 20
5058.0321894858
 10
6884.4820699399
 20
5057.3630876222
 10
6888.8115803909
 20
5056.9595739463
 10
6893.1743707429
 20
5056.8247265101
  0
LINE
  5
BF
330
1F
100
AcDbEntity
  8
0
  6
Continuous
 62
     7
370
    25
100
AcDbLine
 10
6893.1743707429
 20
5056.8247265101
 30
0.0
 11
7119.5229697796
 21
5056.82472651
 31
0.0
  0
LWPOLYLINE
  5
C0
330
1F
100
AcDbEntity
  8
0
  6
Continuous
 62
     7
370
    25
100
AcDbPolyline
 90
       19
 70
   128
 43
0.0
 10
7119.5229697796
 20
5056.82472651
 10
7123.8857601319
 20
5056.959573946
 10
7128.2152705831
 20
5057.3630876216
 10
7132.4784750952
 20
5058.0321894851
 10
7136.6428534203
 20
5058.961775545
 10
7140.6766391684
 20
5060.1447548047
 10
7144.5490621262
 20
5061.5721033529
 10
7148.2305829751
 20
5063.2329331995
 10
7151.6931186216
 20
5065.1145753303
 10
7154.9102564182
 20
5067.2026763476
 10
7157.8574556423
 20
5069.4813079604
 10
7160.5122346959
 20
5071.9330884866
 10
7162.8543425979
 20
5074.5393154428
 10
7164.8659134616
 20
5077.2801082095
 10
7166.5316027769
 20
5080.1345596826
 10
7167.8387044611
 20
5083.0808957554
 10
7168.7772477818
 20
5086.096641414
 10
7169.3400734152
 20
5089.1587921799
 10
7169.5228880582
 20
5092.2439895906
  0
LINE
  5
C1
330
1F
100
AcDbEntity
  8
0
  6
Continuous
 62
     7
370
    25
100
AcDbLine
 10
7169.5228880582
 20
5092.2439895906
 30
0.0
 11
7168.8486702634
 21
5355.9229165289
 31
0.0
  0
LINE
  5
C2
330
1F
100
AcDbEntity
  8
0
  6
Continuous
 62
     7
370
    25
100
AcDbLine
 10
6843.8486702634
 20
5355.9229165289
 30
0.0
 11
7168.8486702634
 21
5355.9229165289
 31
0.0
  0
LINE
  5
C3
330
1F
100
AcDbEntity
  8
0
  6
Continuous
 62
     7
370
    25
100
AcDbLine
 10
7074.4415341017
 20
5085.1089977575
 30
0.0
 11
6938.2558064251
 21
5085.1089977575
 31
0.0
  0
LWPOLYLINE
  5
C4
330
1F
100
AcDbEntity
  8
0
  6
Continuous
 62
     7
370
    25
100
AcDbPolyline
 90
       20
 70
   128
 43
0.0
 10
7129.4414442035
 20
5124.0701871461
 10
7129.2613804955
 20
5120.8546806366
 10
7128.7059795767
 20
5117.6607084244
 10
7127.7790441324
 20
5114.5101388055
 10
7126.4869206482
 20
5111.4245429095
 10
7124.8384559571
 20
5108.425047008
 10
7122.8449366676
 20
5105.532187868
 10
7120.5200118868
 20
5102.7657721429
 10
7117.8795997695
 20
5100.1447407604
 10
7114.9417785296
 20
5097.68703924
 10
7111.726662664
 20
5095.4094948238
 10
7108.2562652337
 20
5093.3277012652
 10
7104.5543471462
 20
5091.4559120626
 10
7100.6462544703
 20
5089.8069428692
 10
7096.5587448989
 20
5088.3920837475
 10
7092.3198045453
 20
5087.2210218695
 10
7087.9584563303
 20
5086.3017751909
 10
7083.5045612692
 20
5085.6406375542
 10
7078.9886140214
 20
5085.2421355967
 10
7074.4415341017
 20
5085.1089977575
  0
LINE
  5
C5
330
1F
100
AcDbEntity
  8
0
  6
Continuous
 62
     7
370
    25
100
AcDbLine
 10
7129.0382700538
 20
5281.7470209277
 30
0.0
 11
7129.4414442035
 21
5124.0701871461
 31
0.0
  0
LWPOLYLINE
  5
C6
330
1F
100
AcDbEntity
  8
0
  6
Continuous
 62
     7
370
    25
100
AcDbPolyline
 90
       20
 70
   128
 43
0.0
 10
7074.038359952
 20
5320.5675774696
 10
7078.5750079931
 20
5320.4350508607
 10
7083.0807373875
 20
5320.0383742433
 10
7087.5248402085
 20
5319.3802510901
 10
7091.8770285334
 20
5318.4651667123
 10
7096.107640865
 20
5317.2993576901
 10
7100.1878442838
 20
5315.8907693694
 10
7104.089830953
 20
5314.2490017113
 10
7107.7870076376
 20
5312.3852438655
 10
7111.2541769456
 20
5310.3121979129
 10
7114.4677090554
 20
5308.043992297
 10
7117.4057027609
 20
5305.5960855341
 10
7120.0481347347
 20
5302.9851608592
 10
7122.376995993
 20
5300.2290125238
 10
7124.3764146326
 20
5297.3464245238
 10
7126.0327640028
 20
5294.3570425795
 10
7127.334755575
 20
5291.2812402453
 10
7128.2735158776
 20
5288.1399800565
 10
7128.8426469715
 20
5284.9546706641
 10
7129.0382700538
 20
5281.7470209277
  0
LINE
  5
C7
330
1F
100
AcDbEntity
  8
0
  6
Continuous
 62
     7
370
    25
100
AcDbLine
 10
6938.6589805748
 20
5320.5675774696
 30
0.0
 11
7074.038359952
 21
5320.5675774696
 31
0.0
  0
LWPOLYLINE
  5
C8
330
1F
100
AcDbEntity
  8
0
  6
Continuous
 62
     7
370
    25
100
AcDbPolyline
 90
       20
 70
   128
 43
0.0
 10
6883.6590704731
 20
5281.7470209277
 10
6883.8546935554
 20
5284.9546706641
 10
6884.4238246493
 20
5288.1399800565
 10
6885.3625849519
 20
5291.2812402453
 10
6886.664576524
 20
5294.3570425795
 10
6888.3209258942
 20
5297.3464245238
 10
6890.3203445339
 20
5300.2290125238
 10
6892.6492057922
 20
5302.9851608592
 10
6895.291637766
 20
5305.5960855341
 10
6898.2296314715
 20
5308.043992297
 10
6901.4431635813
 20
5310.3121979129
 10
6904.9103328892
 20
5312.3852438655
 10
6908.6075095738
 20
5314.2490017113
 10
6912.509496243
 20
5315.8907693694
 10
6916.5896996618
 20
5317.2993576901
 10
6920.8203119935
 20
5318.4651667123
 10
6925.1725003184
 20
5319.3802510901
 10
6929.6166031394
 20
5320.0383742433
 10
6934.1223325338
 20
5320.4350508607
 10
6938.6589805748
 20
5320.5675774696
  0
LINE
  5
C9
330
1F
100
AcDbEntity
  8
0
  6
Continuous
 62
     7
370
    25
100
AcDbLine
 10
6883.2558963233
 20
5124.0701871461
 30
0.0
 11
6883.6590704731
 21
5281.7470209277
 31
0.0
  0
LWPOLYLINE
  5
CA
330
1F
100
AcDbEntity
  8
0
  6
Continuous
 62
     7
370
    25
100
AcDbPolyline
 90
       20
 70
   128
 43
0.0
 10
6938.2558064251
 20
5085.1089977575
 10
6933.7087265054
 20
5085.2421355967
 10
6929.1927792576
 20
5085.6406375542
 10
6924.7388841965
 20
5086.3017751909
 10
6920.3775359814
 20
5087.2210218695
 10
6916.1385956279
 20
5088.3920837475
 10
6912.0510860565
 20
5089.8069428692
 10
6908.1429933806
 20
5091.4559120626
 10
6904.4410752931
 20
5093.3277012652
 10
6900.9706778628
 20
5095.4094948238
 10
6897.7555619972
 20
5097.68703924
 10
6894.8177407573
 20
5100.1447407604
 10
6892.17732864
 20
5102.7657721429
 10
6889.8524038592
 20
5105.532187868
 10
6887.8588845696
 20
5108.425047008
 10
6886.2104198786
 20
5111.4245429095
 10
6884.9182963944
 20
5114.5101388055
 10
6883.9913609501
 20
5117.6607084244
 10
6883.4359600313
 20
5120.8546806366
 10
6883.2558963233
 20
5124.0701871461
  0
LWPOLYLINE
  5
CB
330
1F
100
AcDbEntity
  8
0
  6
Continuous
 62
     7
370
    25
100
AcDbPolyline
 90
        9
 70
   128
 43
0.0
 10
6883.2558963233
 20
5124.0701871461
 10
6884.231346339
 20
5124.0010057577
 10
6885.1693103577
 20
5123.798614386
 10
6886.033742948
 20
5123.4707908179
 10
6886.7914244504
 20
5123.0301331293
 10
6887.4132375896
 20
5122.4935755481
 10
6887.8752864354
 20
5121.8817376811
 10
6888.1598147098
 20
5121.2181321145
 10
6888.2558881508
 20
5120.5282608381
  0
LWPOLYLINE
  5
CC
330
1F
100
AcDbEntity
  8
0
  6
Continuous
 62
     7
370
    25
100
AcDbPolyline
 90
        9
 70
   128
 43
0.0
 10
7129.4414442035
 20
5124.0701871461
 10
7128.4659941878
 20
5124.0010057577
 10
7127.5280301691
 20
5123.798614386
 10
7126.6635975788
 20
5123.4707908179
 10
7125.9059160764
 20
5123.0301331293
 10
7125.2841029372
 20
5122.493575548
 10
7124.8220540914
 20
5121.8817376811
 10
7124.537525817
 20
5121.2181321145
 10
7124.441452376
 20
5120.5282608381
  0
LINE
  5
CD
330
1F
100
AcDbEntity
  8
0
  6
Continuous
 62
     7
370
    25
100
AcDbLine
 10
7124.441452376
 20
5120.5282608381
 30
0.0
 11
7124.0382782263
 21
5278.2050946196
 31
0.0
  0
LWPOLYLINE
  5
CE
330
1F
100
AcDbEntity
  8
0
  6
Continuous
 62
     7
370
    25
100
AcDbPolyline
 90
        9
 70
   128
 43
0.0
 10
7124.0382782263
 20
5278.2050946196
 10
7124.1343516673
 20
5278.8949658961
 10
7124.4188799417
 20
5279.5585714626
 10
7124.8809287875
 20
5280.1704093296
 10
7125.5027419267
 20
5280.7069669109
 10
7126.2604234291
 20
5281.1476245995
 10
7127.1248560194
 20
5281.4754481676
 10
7128.0628200381
 20
5281.6778395393
 10
7129.0382700538
 20
5281.7470209277
  0
LINE
  5
CF
330
1F
100
AcDbEntity
  8
0
  6
Continuous
 62
     7
370
    25
100
AcDbLine
 10
6888.6590623005
 20
5278.2050946197
 30
0.0
 11
6888.2558881508
 21
5120.5282608381
 31
0.0
  0
LWPOLYLINE
  5
D0
330
1F
100
AcDbEntity
  8
0
  6
Continuous
 62
     7
370
    25
100
AcDbPolyline
 90
        9
 70
   128
 43
0.0
 10
6888.6590623005
 20
5278.2050946197
 10
6888.5629888596
 20
5278.8949658961
 10
6888.2784605852
 20
5279.5585714627
 10
6887.8164117394
 20
5280.1704093296
 10
6887.1945986001
 20
5280.7069669109
 10
6886.4369170978
 20
5281.1476245995
 10
6885.5724845074
 20
5281.4754481676
 10
6884.6345204888
 20
5281.6778395393
 10
6883.6590704731
 20
5281.7470209277
  0
LINE
  5
D1
330
1F
100
AcDbEntity
  8
0
  6
Continuous
 62
     7
370
    25
100
AcDbLine
 10
7124.0382782263
 20
5253.4563572781
 30
0.0
 11
7124.3820369791
 21
5119.0162108627
 31
0.0
  0
LINE
  5
D2
330
1F
100
AcDbEntity
  8
0
  6
Continuous
 62
     7
370
    25
100
AcDbLine
 10
7124.0382782263
 20
5253.4563572781
 30
0.0
 11
7124.0382782263
 21
5278.2050946196
 31
0.0
  0
LINE
  5
D3
330
1F
100
AcDbEntity
  8
0
  6
Continuous
 62
     7
370
    25
100
AcDbLine
 10
6888.6590623005
 20
5253.4563572781
 30
0.0
 11
6888.6590623005
 21
5278.2050946197
 31
0.0
  0
LINE
  5
D4
330
1F
100
AcDbEntity
  8
0
  6
Continuous
 62
     7
370
    25
100
AcDbLine
 10
6888.3151213854
 20
5118.9449692463
 30
0.0
 11
6888.6590623005
 21
5253.4563572781
 31
0.0
  0
LWPOLYLINE
  5
D5
330
1F
100
AcDbEntity
  8
0
  6
Continuous
 62
     7
370
    25
100
AcDbPolyline
 90
       19
 70
   128
 43
0.0
 10
7124.0382782263
 20
5278.2050946196
 10
7123.8405808901
 20
5281.2827298956
 10
7123.2647300705
 20
5284.3365109826
 10
7122.3150982634
 20
5287.3432502008
 10
7120.9988961224
 20
5290.280117064
 10
7119.3261177084
 20
5293.1248116345
 10
7117.3094646033
 20
5295.8557338482
 10
7114.9642494653
 20
5298.4521475265
 10
7112.308279759
 20
5300.8943378282
 10
7109.3617225405
 20
5303.1637609464
 10
7106.1469513277
 20
5305.2431849135
 10
7102.6883762153
 20
5307.1168204454
 10
7099.0122585267
 20
5308.7704408312
 10
7095.1465114087
 20
5310.1914899578
 10
7091.1204878844
 20
5311.3691776505
 10
7086.9647579724
 20
5312.294561603
 10
7082.7108765654
 20
5312.960615278
 10
7078.3911438308
 20
5313.3622812603
 10
7074.038359952
 20
5313.4965096578
  0
LINE
  5
D6
330
1F
100
AcDbEntity
  8
0
  6
Continuous
 62
     7
370
    25
100
AcDbLine
 10
7074.038359952
 20
5313.4965096578
 30
0.0
 11
7074.038359952
 21
5320.5675774696
 31
0.0
  0
LWPOLYLINE
  5
D7
330
1F
100
AcDbEntity
  8
0
  6
Continuous
 62
     7
370
    25
100
AcDbPolyline
 90
       19
 70
   128
 43
0.0
 10
6938.6589805748
 20
5313.4965096578
 10
6934.3061966961
 20
5313.3622812603
 10
6929.9864639615
 20
5312.960615278
 10
6925.7325825545
 20
5312.294561603
 10
6921.5768526424
 20
5311.3691776505
 10
6917.5508291182
 20
5310.1914899578
 10
6913.6850820002
 20
5308.7704408312
 10
6910.0089643116
 20
5307.1168204454
 10
6906.5503891992
 20
5305.2431849135
 10
6903.3356179864
 20
5303.1637609464
 10
6900.3890607679
 20
5300.8943378282
 10
6897.7330910615
 20
5298.4521475265
 10
6895.3878759236
 20
5295.8557338482
 10
6893.3712228184
 20
5293.1248116345
 10
6891.6984444045
 20
5290.280117064
 10
6890.3822422635
 20
5287.3432502008
 10
6889.4326104563
 20
5284.3365109826
 10
6888.8567596368
 20
5281.2827298956
 10
6888.6590623005
 20
5278.2050946197
  0
LINE
  5
D8
330
1F
100
AcDbEntity
  8
0
  6
Continuous
 62
     7
370
    25
100
AcDbLine
 10
6938.6589805748
 20
5313.4965096578
 30
0.0
 11
6938.6589805748
 21
5320.5675774696
 31
0.0
  0
LWPOLYLINE
  5
D9
330
1F
100
AcDbEntity
  8
0
  6
Continuous
 62
     7
370
    25
100
AcDbPolyline
 90
       19
 70
   128
 43
0.0
 10
7074.038359952
 20
5288.7477723162
 10
7078.3911438308
 20
5288.6135439187
 10
7082.7108765654
 20
5288.2118779365
 10
7086.9647579724
 20
5287.5458242614
 10
7091.1204878844
 20
5286.6204403089
 10
7095.1465114087
 20
5285.4427526163
 10
7099.0122585267
 20
5284.0217034897
 10
7102.6883762153
 20
5282.3680831039
 10
7106.1469513277
 20
5280.494447572
 10
7109.3617225405
 20
5278.4150236049
 10
7112.308279759
 20
5276.1456004866
 10
7114.9642494653
 20
5273.7034101849
 10
7117.3094646033
 20
5271.1069965066
 10
7119.3261177084
 20
5268.376074293
 10
7120.9988961224
 20
5265.5313797225
 10
7122.3150982634
 20
5262.5945128592
 10
7123.2647300705
 20
5259.5877736411
 10
7123.8405808901
 20
5256.5339925541
 10
7124.0382782263
 20
5253.4563572781
  0
LINE
  5
DA
330
1F
100
AcDbEntity
  8
0
  6
Continuous
 62
     7
370
    25
100
AcDbLine
 10
7074.038359952
 20
5288.7477723162
 30
0.0
 11
7074.038359952
 21
5313.4965096578
 31
0.0
  0
LINE
  5
DB
330
1F
100
AcDbEntity
  8
0
  6
Continuous
 62
     7
370
    25
100
AcDbLine
 10
6938.6589805748
 20
5288.7477723162
 30
0.0
 11
6938.6589805748
 21
5313.4965096578
 31
0.0
  0
LWPOLYLINE
  5
DC
330
1F
100
AcDbEntity
  8
0
  6
Continuous
 62
     7
370
    25
100
AcDbPolyline
 90
       19
 70
   128
 43
0.0
 10
6888.6590623005
 20
5253.4563572781
 10
6888.8567596368
 20
5256.5339925541
 10
6889.4326104563
 20
5259.5877736411
 10
6890.3822422635
 20
5262.5945128592
 10
6891.6984444045
 20
5265.5313797225
 10
6893.3712228184
 20
5268.376074293
 10
6895.3878759236
 20
5271.1069965066
 10
6897.7330910615
 20
5273.7034101849
 10
6900.3890607679
 20
5276.1456004866
 10
6903.3356179864
 20
5278.4150236049
 10
6906.5503891992
 20
5280.494447572
 10
6910.0089643116
 20
5282.3680831039
 10
6913.6850820002
 20
5284.0217034897
 10
6917.5508291182
 20
5285.4427526163
 10
6921.5768526424
 20
5286.6204403089
 10
6925.7325825545
 20
5287.5458242614
 10
6929.9864639615
 20
5288.2118779365
 10
6934.3061966961
 20
5288.6135439187
 10
6938.6589805748
 20
5288.7477723162
  0
LINE
  5
DD
330
1F
100
AcDbEntity
  8
0
  6
Continuous
 62
     7
370
    25
100
AcDbLine
 10
7074.038359952
 20
5313.4965096578
 30
0.0
 11
6938.6589805748
 21
5313.4965096578
 31
0.0
  0
LINE
  5
DE
330
1F
100
AcDbEntity
  8
0
  6
Continuous
 62
     7
370
    25
100
AcDbLine
 10
6938.6589805748
 20
5288.7477723162
 30
0.0
 11
7074.038359952
 21
5288.7477723162
 31
0.0
  0
LINE
  5
DF
330
1F
100
AcDbEntity
  8
0
  6
Continuous
 62
     8
370
    25
100
AcDbLine
 10
6938.2558064251
 20
5085.1089977575
 30
0.0
 11
6938.2558064251
 21
5086.5734638516
 31
0.0
  0
LINE
  5
E0
330
1F
100
AcDbEntity
  8
0
  6
Continuous
 62
     8
370
    25
100
AcDbLine
 10
7074.4415341017
 20
5085.1089977575
 30
0.0
 11
7074.4415341017
 21
5086.5734638516
 31
0.0
  0
LINE
  5
E1
330
1F
100
AcDbEntity
  8
0
  6
Continuous
 62
     8
370
    25
100
AcDbLine
 10
6888.2558881508
 20
5120.5215895337
 30
0.0
 11
6888.2558881508
 21
5120.5282608381
 31
0.0
  0
LINE
  5
E2
330
1F
100
AcDbEntity
  8
0
  6
Continuous
 62
     8
370
    25
100
AcDbLine
 10
7124.441452376
 20
5120.5215495844
 30
0.0
 11
7124.441452376
 21
5120.5282608381
 31
0.0
  0
LINE
  5
E3
330
1F
100
AcDbEntity
  8
0
  6
Continuous
 62
     8
370
    25
100
AcDbLine
 10
7074.038359952
 20
5287.2833073424
 30
0.0
 11
7074.038359952
 21
5288.7477723162
 31
0.0
  0
LINE
  5
E4
330
1F
100
AcDbEntity
  8
0
  6
Continuous
 62
     8
370
    25
100
AcDbLine
 10
6938.6589805748
 20
5288.7477723162
 30
0.0
 11
6938.6589805748
 21
5287.2833062294
 31
0.0
  0
LWPOLYLINE
  5
E5
330
1F
100
AcDbEntity
  8
0
  6
Continuous
 62
     7
370
    25
100
AcDbPolyline
 90
        9
 70
   128
 43
0.0
 10
7559.8523835033
 20
4676.9373345434
 10
7566.6528269811
 20
4676.832394168
 10
7573.4422316049
 20
4676.7521051986
 10
7580.2199050813
 20
4676.697127479
 10
7586.9968667806
 20
4676.6399924494
 10
7593.8158388434
 20
4676.4771083318
 10
7600.6650610673
 20
4676.2447129342
 10
7607.5260301359
 20
4676.0240379721
 10
7614.3798324976
 20
4675.9229165289
  0
LWPOLYLINE
  5
E6
330
1F
100
AcDbEntity
  8
0
  6
Continuous
 62
     7
370
    25
100
AcDbPolyline
 90
       26
 70
   128
 43
0.0
 10
7752.7595490215
 20
4675.9229165289
 10
7755.7786575324
 20
4686.006098042
 10
7758.5120231053
 20
4695.3296305212
 10
7761.0385376986
 20
4704.1203547598
 10
7763.3755179095
 20
4712.3876810295
 10
7765.5852890597
 20
4720.3077826503
 10
7770.0881528294
 20
4736.540976869
 10
7774.8352294656
 20
4753.6575090109
 10
7783.480714729
 20
4784.8300671194
 10
7791.8992991656
 20
4815.1792319863
 10
7794.2573843927
 20
4823.6793182535
 10
7796.6146434174
 20
4832.176074234
 10
7799.1958870458
 20
4841.4797883799
 10
7802.069043797
 20
4851.8353101777
 10
7805.2341136708
 20
4863.2426594496
 10
7808.6268050033
 20
4875.4701438283
 10
7812.3010770744
 20
4888.7122537721
 10
7816.256929884
 20
4902.9689938164
 10
7820.4943634323
 20
4918.2403592205
 10
7825.1085344116
 20
4934.869264589
 10
7830.0158964973
 20
4952.5545811331
 10
7835.2164496895
 20
4971.2962576229
 10
7840.710193988
 20
4991.0942214652
 10
7846.497129393
 20
5011.9483756603
 10
7852.5772559044
 20
5033.8585957125
 10
7858.9505735222
 20
5056.8247265101
  0
LINE
  5
E7
330
1F
100
AcDbEntity
  8
0
  6
Continuous
 62
     7
370
    25
100
AcDbLine
 10
7752.7595490215
 20
4675.9229165289
 30
0.0
 11
7727.7595490215
 21
4675.9229165289
 31
0.0
  0
LINE
  5
E8
330
1F
100
AcDbEntity
  8
0
  6
Continuous
 62
     7
370
    25
100
AcDbLine
 10
7727.7595490215
 20
4675.9229165289
 30
0.0
 11
7559.8523835033
 21
4675.9229165289
 31
0.0
  0
LINE
  5
E9
330
1F
100
AcDbEntity
  8
0
  6
Continuous
 62
     7
370
    25
100
AcDbLine
 10
7559.8523835033
 20
4675.9229165289
 30
0.0
 11
7559.8523835033
 21
4682.7034041126
 31
0.0
  0
LINE
  5
EA
330
1F
100
AcDbEntity
  8
0
  6
Continuous
 62
     7
370
    25
100
AcDbLine
 10
7559.8523835033
 20
4700.5378136074
 30
0.0
 11
7559.8523835033
 21
4726.9124458824
 31
0.0
  0
LINE
  5
EB
330
1F
100
AcDbEntity
  8
0
  6
Continuous
 62
     7
370
    25
100
AcDbLine
 10
7559.8523835033
 20
4726.9134508093
 30
0.0
 11
7559.8523835033
 21
4726.9124458824
 31
0.0
  0
LINE
  5
EC
330
1F
100
AcDbEntity
  8
0
  6
Continuous
 62
     7
370
    25
100
AcDbLine
 10
7559.8523835033
 20
4726.9134508093
 30
0.0
 11
7559.8523835033
 21
5355.922916529
 31
0.0
  0
LINE
  5
ED
330
1F
100
AcDbEntity
  8
0
  6
Continuous
 62
     7
370
    25
100
AcDbLine
 10
7559.8523835033
 20
5355.922916529
 30
0.0
 11
7823.5313104413
 21
5092.2439895909
 31
0.0
  0
LINE
  5
EE
330
1F
100
AcDbEntity
  8
0
  6
Continuous
 62
     7
370
    25
100
AcDbLine
 10
7823.5313104413
 20
5092.2439895909
 30
0.0
 11
7858.9505735222
 21
5056.8247265101
 31
0.0
  0
LINE
  5
EF
330
1F
100
AcDbEntity
  8
0
  6
Continuous
 62
     7
370
    25
100
AcDbLine
 10
7559.8523835033
 20
5355.9229165289
 30
0.0
 11
7514.8523835033
 21
5355.9229165289
 31
0.0
  0
LINE
  5
F0
330
1F
100
AcDbEntity
  8
0
  6
Continuous
 62
     7
370
    25
100
AcDbLine
 10
7559.8523835033
 20
4726.9124471124
 30
0.0
 11
7514.8523835033
 21
4726.9124471124
 31
0.0
  0
LINE
  5
F1
330
1F
100
AcDbEntity
  8
0
  6
Continuous
 62
     7
370
    25
100
AcDbLine
 10
7514.8523835033
 20
5355.9229165289
 30
0.0
 11
7514.8523835033
 21
4726.9124471124
 31
0.0
  0
LINE
  5
F2
330
1F
100
AcDbEntity
  8
0
  6
Continuous
 62
     7
370
    25
100
AcDbLine
 10
7559.8523835033
 20
4682.7034041126
 30
0.0
 11
7559.8523835033
 21
4700.5378136074
 31
0.0
  0
LINE
  5
F3
330
1F
100
AcDbEntity
  8
0
  6
Continuous
 62
     7
370
    25
100
AcDbLine
 10
7559.8523835033
 20
4675.9229165289
 30
0.0
 11
7514.8523835033
 21
4675.9229165289
 31
0.0
  0
LINE
  5
F4
330
1F
100
AcDbEntity
  8
0
  6
Continuous
 62
     7
370
    25
100
AcDbLine
 10
7514.8523835033
 20
4675.9229165289
 30
0.0
 11
7514.8523835033
 21
4726.9124471124
 31
0.0
  0
LWPOLYLINE
  5
F5
330
1F
100
AcDbEntity
  8
0
  6
Continuous
 62
     7
370
    25
100
AcDbPolyline
 90
       22
 70
   128
 43
0.0
 10
6888.659054128
 20
4313.1170758908
 10
6888.6980409021
 20
4314.3851087409
 10
6889.0133382231
 20
4317.0466646953
 10
6889.6437975817
 20
4319.6880307434
 10
6890.5830745213
 20
4322.2858478857
 10
6891.8214332437
 20
4324.8212237029
 10
6893.347933548
 20
4327.2790248685
 10
6895.151569431
 20
4329.6464608767
 10
6897.2213035649
 20
4331.9116023085
 10
6899.5455784277
 20
4334.0625136279
 10
6902.1117705607
 20
4336.0869902078
 10
6904.9057928253
 20
4337.9726676871
 10
6907.9118833719
 20
4339.7072982498
 10
6911.1125524792
 20
4341.2790681715
 10
6914.4884342097
 20
4342.676815266
 10
6918.0187203133
 20
4343.8904431296
 10
6921.6815071948
 20
4344.9111249617
 10
6925.45371937
 20
4345.7313255002
 10
6929.3113156573
 20
4346.3449254772
 10
6933.2295010499
 20
4346.7473127648
 10
6937.1829389931
 20
4346.9354466877
 10
6938.6589805748
 20
4346.950417216
  0
LINE
  5
F6
330
1F
100
AcDbEntity
  8
0
  6
Continuous
 62
     7
370
    25
100
AcDbLine
 10
6938.6589805748
 20
4346.950417216
 30
0.0
 11
7074.038359952
 21
4346.950417216
 31
0.0
  0
LWPOLYLINE
  5
F7
330
1F
100
AcDbEntity
  8
0
  6
Continuous
 62
     7
370
    25
100
AcDbPolyline
 90
       22
 70
   128
 43
0.0
 10
7074.038359952
 20
4346.950417216
 10
7076.08884965
 20
4346.9215209913
 10
7080.0379392014
 20
4346.7022618657
 10
7083.948520022
 20
4346.2691213179
 10
7087.7943844393
 20
4345.6254826982
 10
7091.5506050594
 20
4344.7763323561
 10
7095.1929696384
 20
4343.7282446098
 10
7098.6981992069
 20
4342.4893241009
 10
7102.044171202
 20
4341.0691210327
 10
7105.2101447794
 20
4339.478510672
 10
7108.1769821731
 20
4337.7295260835
 10
7110.9270609499
 20
4335.8353495426
 10
7113.4448143884
 20
4333.8098753886
 10
7115.7169448344
 20
4331.6672359223
 10
7117.7323119652
 20
4329.4214079146
 10
7119.4817909177
 20
4327.0856829341
 10
7120.9579000394
 20
4324.6721501311
 10
7122.1541563334
 20
4322.1913496626
 10
7123.0642044447
 20
4319.652364242
 10
7123.6809598133
 20
4317.0636915942
 10
7123.9962962825
 20
4314.4351084332
 10
7124.0382863989
 20
4313.1170758908
  0
LWPOLYLINE
  5
F8
330
1F
100
AcDbEntity
  8
0
  6
Continuous
 62
     7
370
    25
100
AcDbPolyline
 90
       21
 70
   128
 43
0.0
 10
6938.2558064251
 20
4146.2405748455
 10
6936.2053167271
 20
4146.2694710702
 10
6932.2562271757
 20
4146.4887301958
 10
6928.3456463551
 20
4146.9218707436
 10
6924.4997819378
 20
4147.5655093632
 10
6920.7435613178
 20
4148.4146597054
 10
6917.1011967387
 20
4149.4627474517
 10
6913.5959671702
 20
4150.7016679606
 10
6910.2499951751
 20
4152.1218710288
 10
6907.0840215977
 20
4153.7124813895
 10
6904.117184204
 20
4155.461465978
 10
6901.3671054272
 20
4157.3556425189
 10
6898.8493519887
 20
4159.3811166729
 10
6896.5772215427
 20
4161.5237561392
 10
6894.5618544119
 20
4163.7695841469
 10
6892.8123754594
 20
4166.1053091274
 10
6891.3362663377
 20
4168.5188419304
 10
6890.1400100437
 20
4170.9996423989
 10
6889.2299619324
 20
4173.5386278195
 10
6888.6132065638
 20
4176.1273004673
 10
6888.3322807706
 20
4178.4690429597
  0
LWPOLYLINE
  5
F9
330
1F
100
AcDbEntity
  8
0
  6
Continuous
 62
     7
370
    25
100
AcDbPolyline
 90
       21
 70
   128
 43
0.0
 10
7124.3820369791
 20
4178.6833218565
 10
7124.1073004644
 20
4176.2588570708
 10
7123.4903314424
 20
4173.6160993552
 10
7122.5641844782
 20
4171.01598489
 10
7121.3384980579
 20
4168.4775816692
 10
7119.8241934229
 20
4166.0161610059
 10
7118.0322804849
 20
4163.6445805837
 10
7115.973786851
 20
4161.3747840702
 10
7113.6602357173
 20
4159.2186977332
 10
7111.1041950274
 20
4157.1885150165
 10
7108.3196831733
 20
4155.296598447
 10
7105.3223877226
 20
4153.555207411
 10
7102.129724481
 20
4151.9761807395
 10
7098.7609723719
 20
4150.5707116194
 10
7095.2369008574
 20
4149.3489544695
 10
7091.5793585586
 20
4148.3197883887
 10
7087.8113746136
 20
4147.490807155
 10
7083.9569529217
 20
4146.8681931839
 10
7080.0408603743
 20
4146.4566250831
 10
7076.0884145363
 20
4146.2592123054
 10
7074.4415341017
 20
4146.2405748455
  0
LINE
  5
FA
330
1F
100
AcDbEntity
  8
0
  6
Continuous
 62
     7
370
    25
100
AcDbLine
 10
7074.4415341017
 20
4146.2405748455
 30
0.0
 11
6938.2558064251
 21
4146.2405748455
 31
0.0
  0
LINE
  5
FB
330
1F
100
AcDbEntity
  8
0
  6
Continuous
 62
     7
370
    25
100
AcDbLine
 10
7168.8486702634
 20
4383.7702223694
 30
0.0
 11
7168.8486702634
 21
4428.7702223694
 31
0.0
  0
LINE
  5
FC
330
1F
100
AcDbEntity
  8
0
  6
Continuous
 62
     7
370
    25
100
AcDbLine
 10
6843.8486702634
 20
4383.7702223694
 30
0.0
 11
7168.8486702634
 21
4383.7702223694
 31
0.0
  0
LINE
  5
FD
330
1F
100
AcDbEntity
  8
0
  6
Continuous
 62
     7
370
    25
100
AcDbLine
 10
6843.8486702634
 20
4383.7702223694
 30
0.0
 11
6843.8486702634
 21
4428.7702223694
 31
0.0
  0
LINE
  5
FE
330
1F
100
AcDbEntity
  8
0
  6
Continuous
 62
     7
370
    25
100
AcDbLine
 10
6843.8486702634
 20
4428.7702223694
 30
0.0
 11
7168.8486702634
 21
4428.7702223694
 31
0.0
  0
LINE
  5
FF
330
1F
100
AcDbEntity
  8
0
  6
Continuous
 62
     7
370
    25
100
AcDbLine
 10
7169.5228880582
 20
4120.0912954311
 30
0.0
 11
7168.8486702634
 21
4383.7702223694
 31
0.0
  0
LWPOLYLINE
  5
100
330
1F
100
AcDbEntity
  8
0
  6
Continuous
 62
     7
370
    25
100
AcDbPolyline
 90
       19
 70
   128
 43
0.0
 10
7119.5229697796
 20
4084.6720323504
 10
7123.8857601319
 20
4084.8068797864
 10
7128.2152705831
 20
4085.2103934621
 10
7132.4784750952
 20
4085.8794953255
 10
7136.6428534203
 20
4086.8090813855
 10
7140.6766391684
 20
4087.9920606452
 10
7144.5490621262
 20
4089.4194091934
 10
7148.2305829751
 20
4091.08023904
 10
7151.6931186216
 20
4092.9618811707
 10
7154.9102564182
 20
4095.0499821881
 10
7157.8574556423
 20
4097.3286138009
 10
7160.5122346959
 20
4099.780394327
 10
7162.8543425979
 20
4102.3866212833
 10
7164.8659134616
 20
4105.12741405
 10
7166.5316027769
 20
4107.9818655231
 10
7167.8387044611
 20
4110.9282015958
 10
7168.7772477818
 20
4113.9439472545
 10
7169.3400734152
 20
4117.0060980204
 10
7169.5228880582
 20
4120.0912954311
  0
LINE
  5
101
330
1F
100
AcDbEntity
  8
0
  6
Continuous
 62
     7
370
    25
100
AcDbLine
 10
6893.1743707429
 20
4084.6720323505
 30
0.0
 11
7119.5229697796
 21
4084.6720323504
 31
0.0
  0
LWPOLYLINE
  5
102
330
1F
100
AcDbEntity
  8
0
  6
Continuous
 62
     7
370
    25
100
AcDbPolyline
 90
       19
 70
   128
 43
0.0
 10
6843.1744524686
 20
4120.0912954314
 10
6843.3572671115
 20
4117.0060980208
 10
6843.9200927449
 20
4113.9439472551
 10
6844.8586360655
 20
4110.9282015966
 10
6846.1657377495
 20
4107.981865524
 10
6847.8314270646
 20
4105.127414051
 10
6849.842997928
 20
4102.3866212844
 10
6852.1851058299
 20
4099.7803943282
 10
6854.8398848832
 20
4097.3286138021
 10
6857.7870841069
 20
4095.0499821894
 10
6861.0042219032
 20
4092.961881172
 10
6864.4667575495
 20
4091.0802390412
 10
6868.1482783981
 20
4089.4194091945
 10
6872.0207013555
 20
4087.9920606462
 10
6876.0544871033
 20
4086.8090813864
 10
6880.2188654281
 20
4085.8794953263
 10
6884.4820699399
 20
4085.2103934627
 10
6888.8115803909
 20
4084.8068797868
 10
6893.1743707429
 20
4084.6720323505
  0
LINE
  5
103
330
1F
100
AcDbEntity
  8
0
  6
Continuous
 62
     7
370
    25
100
AcDbLine
 10
6843.8486702634
 20
4383.7702223694
 30
0.0
 11
6843.1744524686
 21
4120.0912954314
 31
0.0
  0
LINE
  5
104
330
1F
100
AcDbEntity
  8
0
  6
Continuous
 62
     7
370
    25
100
AcDbLine
 10
7074.4415341017
 20
4112.956303598
 30
0.0
 11
6938.2558064251
 21
4112.956303598
 31
0.0
  0
LWPOLYLINE
  5
105
330
1F
100
AcDbEntity
  8
0
  6
Continuous
 62
     7
370
    25
100
AcDbPolyline
 90
       20
 70
   128
 43
0.0
 10
7129.4414442035
 20
4151.9174929866
 10
7129.2613804955
 20
4148.701986477
 10
7128.7059795767
 20
4145.5080142649
 10
7127.7790441324
 20
4142.357444646
 10
7126.4869206482
 20
4139.27184875
 10
7124.8384559571
 20
4136.2723528484
 10
7122.8449366676
 20
4133.3794937085
 10
7120.5200118868
 20
4130.6130779833
 10
7117.8795997695
 20
4127.9920466009
 10
7114.9417785296
 20
4125.5343450805
 10
7111.726662664
 20
4123.2568006642
 10
7108.2562652337
 20
4121.1750071057
 10
7104.5543471462
 20
4119.3032179031
 10
7100.6462544703
 20
4117.6542487097
 10
7096.5587448989
 20
4116.239389588
 10
7092.3198045453
 20
4115.06832771
 10
7087.9584563303
 20
4114.1490810314
 10
7083.5045612692
 20
4113.4879433947
 10
7078.9886140214
 20
4113.0894414372
 10
7074.4415341017
 20
4112.956303598
  0
LINE
  5
106
330
1F
100
AcDbEntity
  8
0
  6
Continuous
 62
     7
370
    25
100
AcDbLine
 10
7129.0382700538
 20
4309.5943267682
 30
0.0
 11
7129.4414442035
 21
4151.9174929866
 31
0.0
  0
LWPOLYLINE
  5
107
330
1F
100
AcDbEntity
  8
0
  6
Continuous
 62
     7
370
    25
100
AcDbPolyline
 90
       20
 70
   128
 43
0.0
 10
7074.038359952
 20
4348.4148833101
 10
7078.5750079931
 20
4348.2823567011
 10
7083.0807373875
 20
4347.8856800837
 10
7087.5248402085
 20
4347.2275569306
 10
7091.8770285334
 20
4346.3124725527
 10
7096.107640865
 20
4345.1466635306
 10
7100.1878442838
 20
4343.7380752099
 10
7104.089830953
 20
4342.0963075518
 10
7107.7870076376
 20
4340.232549706
 10
7111.2541769456
 20
4338.1595037534
 10
7114.4677090554
 20
4335.8912981375
 10
7117.4057027609
 20
4333.4433913746
 10
7120.0481347347
 20
4330.8324666996
 10
7122.376995993
 20
4328.0763183643
 10
7124.3764146326
 20
4325.1937303642
 10
7126.0327640028
 20
4322.20434842
 10
7127.334755575
 20
4319.1285460858
 10
7128.2735158776
 20
4315.987285897
 10
7128.8426469715
 20
4312.8019765046
 10
7129.0382700538
 20
4309.5943267682
  0
LINE
  5
108
330
1F
100
AcDbEntity
  8
0
  6
Continuous
 62
     7
370
    25
100
AcDbLine
 10
6938.6589805748
 20
4348.4148833101
 30
0.0
 11
7074.038359952
 21
4348.4148833101
 31
0.0
  0
LWPOLYLINE
  5
109
330
1F
100
AcDbEntity
  8
0
  6
Continuous
 62
     7
370
    25
100
AcDbPolyline
 90
       20
 70
   128
 43
0.0
 10
6883.6590704731
 20
4309.5943267682
 10
6883.8546935554
 20
4312.8019765046
 10
6884.4238246493
 20
4315.987285897
 10
6885.3625849519
 20
4319.1285460858
 10
6886.664576524
 20
4322.20434842
 10
6888.3209258942
 20
4325.1937303642
 10
6890.3203445339
 20
4328.0763183643
 10
6892.6492057922
 20
4330.8324666996
 10
6895.291637766
 20
4333.4433913746
 10
6898.2296314715
 20
4335.8912981375
 10
6901.4431635813
 20
4338.1595037534
 10
6904.9103328892
 20
4340.232549706
 10
6908.6075095738
 20
4342.0963075518
 10
6912.509496243
 20
4343.7380752099
 10
6916.5896996618
 20
4345.1466635306
 10
6920.8203119935
 20
4346.3124725527
 10
6925.1725003184
 20
4347.2275569306
 10
6929.6166031394
 20
4347.8856800837
 10
6934.1223325338
 20
4348.2823567011
 10
6938.6589805748
 20
4348.4148833101
  0
LINE
  5
10A
330
1F
100
AcDbEntity
  8
0
  6
Continuous
 62
     7
370
    25
100
AcDbLine
 10
6883.2558963233
 20
4151.9174929866
 30
0.0
 11
6883.6590704731
 21
4309.5943267682
 31
0.0
  0
LWPOLYLINE
  5
10B
330
1F
100
AcDbEntity
  8
0
  6
Continuous
 62
     7
370
    25
100
AcDbPolyline
 90
       20
 70
   128
 43
0.0
 10
6938.2558064251
 20
4112.956303598
 10
6933.7087265054
 20
4113.0894414372
 10
6929.1927792576
 20
4113.4879433947
 10
6924.7388841965
 20
4114.1490810314
 10
6920.3775359814
 20
4115.06832771
 10
6916.1385956279
 20
4116.239389588
 10
6912.0510860565
 20
4117.6542487097
 10
6908.1429933806
 20
4119.3032179031
 10
6904.4410752931
 20
4121.1750071057
 10
6900.9706778628
 20
4123.2568006642
 10
6897.7555619972
 20
4125.5343450805
 10
6894.8177407573
 20
4127.9920466009
 10
6892.17732864
 20
4130.6130779833
 10
6889.8524038592
 20
4133.3794937085
 10
6887.8588845696
 20
4136.2723528484
 10
6886.2104198786
 20
4139.27184875
 10
6884.9182963944
 20
4142.357444646
 10
6883.9913609501
 20
4145.5080142649
 10
6883.4359600313
 20
4148.701986477
 10
6883.2558963233
 20
4151.9174929866
  0
LWPOLYLINE
  5
10C
330
1F
100
AcDbEntity
  8
0
  6
Continuous
 62
     7
370
    25
100
AcDbPolyline
 90
        9
 70
   128
 43
0.0
 10
6888.6590623005
 20
4313.123468272
 10
6888.5629888596
 20
4312.433842652
 10
6888.2784605852
 20
4311.7709646143
 10
6887.8164117394
 20
4311.16030819
 10
6887.1945986001
 20
4310.6253405632
 10
6886.4369170978
 20
4310.1866202397
 10
6885.5724845074
 20
4309.8610069955
 10
6884.6345204888
 20
4309.661013965
 10
6883.6590704731
 20
4309.5943267682
  0
LWPOLYLINE
  5
10D
330
1F
100
AcDbEntity
  8
0
  6
Continuous
 62
     7
370
    25
100
AcDbPolyline
 90
        9
 70
   128
 43
0.0
 10
7124.0382782263
 20
4313.123468272
 10
7124.1343516673
 20
4312.433842652
 10
7124.4188799417
 20
4311.7709646143
 10
7124.8809287875
 20
4311.16030819
 10
7125.5027419267
 20
4310.6253405632
 10
7126.2604234291
 20
4310.1866202397
 10
7127.1248560194
 20
4309.8610069955
 10
7128.0628200381
 20
4309.661013965
 10
7129.0382700538
 20
4309.5943267682
  0
CIRCLE
  5
10E
330
1F
100
AcDbEntity
  8
0
  6
Continuous
 62
     7
370
    25
100
AcDbCircle
 10
7006.3486702634
 20
4285.5728098019
 30
0.0
 40
25.0
  0
LINE
  5
10F
330
1F
100
AcDbEntity
  8
0
  6
Continuous
 62
     7
370
    25
100
AcDbLine
 10
6888.6590623005
 20
4313.123468272
 30
0.0
 11
6888.2558881508
 21
4155.4466344904
 31
0.0
  0
LWPOLYLINE
  5
110
330
1F
100
AcDbEntity
  8
0
  6
Continuous
 62
     7
370
    25
100
AcDbPolyline
 90
        9
 70
   128
 43
0.0
 10
6883.2558963233
 20
4151.9174929866
 10
6884.231346339
 20
4151.9841801834
 10
6885.1693103577
 20
4152.184173214
 10
6886.033742948
 20
4152.5097864581
 10
6886.7914244504
 20
4152.9485067816
 10
6887.4132375896
 20
4153.4834744085
 10
6887.8752864354
 20
4154.0941308327
 10
6888.1598147098
 20
4154.7570088704
 10
6888.2558881508
 20
4155.4466344904
  0
LINE
  5
111
330
1F
100
AcDbEntity
  8
0
  6
Continuous
 62
     7
370
    25
100
AcDbLine
 10
7124.441452376
 20
4155.4466344904
 30
0.0
 11
7124.0382782263
 21
4313.123468272
 31
0.0
  0
LWPOLYLINE
  5
112
330
1F
100
AcDbEntity
  8
0
  6
Continuous
 62
     7
370
    25
100
AcDbPolyline
 90
        9
 70
   128
 43
0.0
 10
7129.4414442035
 20
4151.9174929866
 10
7128.4659941878
 20
4151.9841801834
 10
7127.5280301691
 20
4152.184173214
 10
7126.6635975788
 20
4152.5097864581
 10
7125.9059160764
 20
4152.9485067816
 10
7125.2841029372
 20
4153.4834744084
 10
7124.8220540914
 20
4154.0941308327
 10
7124.537525817
 20
4154.7570088704
 10
7124.441452376
 20
4155.4466344904
  0
LWPOLYLINE
  5
113
330
1F
100
AcDbEntity
  8
0
  6
Continuous
 62
     7
370
    25
100
AcDbPolyline
 90
       19
 70
   128
 43
0.0
 10
6888.2558881508
 20
4155.4466344904
 10
6888.4387027938
 20
4152.3614370799
 10
6889.0015284271
 20
4149.2992863141
 10
6889.9400717478
 20
4146.2835406557
 10
6891.2471734318
 20
4143.3372045831
 10
6892.912862747
 20
4140.4827531101
 10
6894.9244336104
 20
4137.7419603435
 10
6897.2665415122
 20
4135.1357333874
 10
6899.9213205655
 20
4132.6839528613
 10
6902.8685197893
 20
4130.4053212486
 10
6906.0856575856
 20
4128.3172202312
 10
6909.5481932318
 20
4126.4355781005
 10
6913.2297140804
 20
4124.7747482538
 10
6917.1021370378
 20
4123.3473997055
 10
6921.1359227856
 20
4122.1644204457
 10
6925.3003011103
 20
4121.2348343856
 10
6929.5635056222
 20
4120.565732522
 10
6933.8930160731
 20
4120.1622188461
 10
6938.2558064251
 20
4120.0273714099
  0
LINE
  5
114
330
1F
100
AcDbEntity
  8
0
  6
Continuous
 62
     7
370
    25
100
AcDbLine
 10
6938.2558064251
 20
4112.956303598
 30
0.0
 11
6938.2558064251
 21
4120.0273714099
 31
0.0
  0
LINE
  5
115
330
1F
100
AcDbEntity
  8
0
  6
Continuous
 62
     7
370
    25
100
AcDbLine
 10
7074.4415341017
 20
4112.956303598
 30
0.0
 11
7074.4415341017
 21
4120.0273714099
 31
0.0
  0
LWPOLYLINE
  5
116
330
1F
100
AcDbEntity
  8
0
  6
Continuous
 62
     7
370
    25
100
AcDbPolyline
 90
       19
 70
   128
 43
0.0
 10
7074.4415341017
 20
4120.0273714099
 10
7078.8043244537
 20
4120.1622188461
 10
7083.1338349046
 20
4120.565732522
 10
7087.3970394165
 20
4121.2348343856
 10
7091.5614177412
 20
4122.1644204457
 10
7095.595203489
 20
4123.3473997055
 10
7099.4676264464
 20
4124.7747482538
 10
7103.149147295
 20
4126.4355781005
 10
7106.6116829412
 20
4128.3172202312
 10
7109.8288207375
 20
4130.4053212486
 10
7112.7760199613
 20
4132.6839528613
 10
7115.4307990146
 20
4135.1357333874
 10
7117.7729069164
 20
4137.7419603435
 10
7119.7844777798
 20
4140.4827531101
 10
7121.450167095
 20
4143.3372045831
 10
7122.757268779
 20
4146.2835406557
 10
7123.6958120997
 20
4149.2992863141
 10
7124.258637733
 20
4152.3614370799
 10
7124.441452376
 20
4155.4466344904
  0
LINE
  5
117
330
1F
100
AcDbEntity
  8
0
  6
Continuous
 62
     7
370
    25
100
AcDbLine
 10
6938.2558064251
 20
4144.7761087514
 30
0.0
 11
6938.2558064251
 21
4120.0273714099
 31
0.0
  0
LINE
  5
118
330
1F
100
AcDbEntity
  8
0
  6
Continuous
 62
     7
370
    25
100
AcDbLine
 10
7074.4415341017
 20
4144.7761087514
 30
0.0
 11
7074.4415341017
 21
4120.0273714099
 31
0.0
  0
LINE
  5
119
330
1F
100
AcDbEntity
  8
0
  6
Continuous
 62
     7
370
    25
100
AcDbLine
 10
6938.2558064251
 20
4120.0273714099
 30
0.0
 11
7074.4415341017
 21
4120.0273714099
 31
0.0
  0
LINE
  5
11A
330
1F
100
AcDbEntity
  8
0
  6
Continuous
 62
     7
370
    25
100
AcDbLine
 10
7074.4415341017
 20
4144.7761087514
 30
0.0
 11
6938.2558064251
 21
4144.7761087514
 31
0.0
  0
LINE
  5
11B
330
1F
100
AcDbEntity
  8
0
  6
Continuous
 62
     8
370
    25
100
AcDbLine
 10
6938.6589805748
 20
4348.4148833101
 30
0.0
 11
6938.6589805748
 21
4346.950417216
 31
0.0
  0
LINE
  5
11C
330
1F
100
AcDbEntity
  8
0
  6
Continuous
 62
     8
370
    25
100
AcDbLine
 10
7074.038359952
 20
4346.950417216
 30
0.0
 11
7074.038359952
 21
4348.4148833101
 31
0.0
  0
LWPOLYLINE
  5
11D
330
1F
100
AcDbEntity
  8
0
  6
Continuous
 62
     8
370
    25
100
AcDbPolyline
 90
       19
 70
   128
 43
0.0
 10
6938.2558064251
 20
4144.7761087514
 10
6933.8930160731
 20
4144.9109561876
 10
6929.5635056222
 20
4145.3144698635
 10
6925.3003011103
 20
4145.9835717271
 10
6921.1359227856
 20
4146.9131577872
 10
6917.1021370378
 20
4148.096137047
 10
6913.2297140804
 20
4149.5234855954
 10
6909.5481932318
 20
4151.184315442
 10
6906.0856575856
 20
4153.0659575727
 10
6902.8685197893
 20
4155.1540585901
 10
6899.9213205655
 20
4157.4326902028
 10
6897.2665415122
 20
4159.8844707289
 10
6894.9244336104
 20
4162.490697685
 10
6892.912862747
 20
4165.2314904517
 10
6891.2471734318
 20
4168.0859419246
 10
6889.9400717478
 20
4171.0322779972
 10
6889.0015284271
 20
4174.0480236557
 10
6888.4387027938
 20
4177.1101744214
 10
6888.31114518
 20
4178.4684966522
  0
LWPOLYLINE
  5
11E
330
1F
100
AcDbEntity
  8
0
  6
Continuous
 62
     8
370
    25
100
AcDbPolyline
 90
       19
 70
   128
 43
0.0
 10
7124.3827177724
 20
4178.4170713104
 10
7124.258637733
 20
4177.1101744214
 10
7123.6958120997
 20
4174.0480236557
 10
7122.757268779
 20
4171.0322779972
 10
7121.450167095
 20
4168.0859419246
 10
7119.7844777798
 20
4165.2314904517
 10
7117.7729069164
 20
4162.490697685
 10
7115.4307990146
 20
4159.8844707289
 10
7112.7760199613
 20
4157.4326902028
 10
7109.8288207375
 20
4155.1540585901
 10
7106.6116829412
 20
4153.0659575727
 10
7103.149147295
 20
4151.184315442
 10
7099.4676264464
 20
4149.5234855954
 10
7095.595203489
 20
4148.096137047
 10
7091.5614177412
 20
4146.9131577872
 10
7087.3970394165
 20
4145.9835717271
 10
7083.1338349046
 20
4145.3144698635
 10
7078.8043244537
 20
4144.9109561876
 10
7074.4415341017
 20
4144.7761087514
  0
LINE
  5
11F
330
1F
100
AcDbEntity
  8
0
  6
Continuous
 62
     8
370
    25
100
AcDbLine
 10
6938.2558064251
 20
4144.7761087514
 30
0.0
 11
6938.2558064251
 21
4146.2405747904
 31
0.0
  0
LINE
  5
120
330
1F
100
AcDbEntity
  8
0
  6
Continuous
 62
     8
370
    25
100
AcDbLine
 10
7074.4415341017
 20
4146.2405740193
 30
0.0
 11
7074.4415341017
 21
4144.7761087514
 31
0.0
  0
ENDSEC
  0
SECTION
  2
OBJECTS
  0
DICTIONARY
  5
C
330
0
100
AcDbDictionary
281
     1
  3
ACAD_GROUP
350
D
  3
ACAD_LAYOUT
350
1A
  3
ACAD_MLINESTYLE
350
17
  3
ACAD_PLOTSETTINGS
350
19
  3
ACAD_PLOTSTYLENAME
350
E
  3
ACAD_SCALELIST
350
47
  3
DWGPROPS
350
121
  0
DICTIONARY
  5
D
102
{ACAD_REACTORS
330
C
102
}
330
C
100
AcDbDictionary
281
     1
  0
DICTIONARY
  5
1A
102
{ACAD_REACTORS
330
C
102
}
330
C
100
AcDbDictionary
281
     1
  3
Layout1
350
1E
  3
Layout2
350
26
  3
Model
350
22
  0
DICTIONARY
  5
17
102
{ACAD_REACTORS
330
C
102
}
330
C
100
AcDbDictionary
281
     1
  3
Standard
350
18
  0
DICTIONARY
  5
19
102
{ACAD_REACTORS
330
C
102
}
330
C
100
AcDbDictionary
281
     1
  0
ACDBDICTIONARYWDFLT
  5
E
102
{ACAD_REACTORS
330
C
102
}
330
C
100
AcDbDictionary
281
     1
  3
Normal
350
F
100
AcDbDictionaryWithDefault
340
F
  0
DICTIONARY
  5
47
102
{ACAD_REACTORS
330
C
102
}
330
C
100
AcDbDictionary
281
     1
  3
A0
350
48
  3
A1
350
49
  3
A2
350
4A
  3
A3
350
4B
  3
A4
350
4C
  3
A5
350
4D
  3
A6
350
4E
  3
A7
350
4F
  3
A8
350
50
  3
A9
350
51
  3
B0
350
52
  3
B1
350
53
  3
B2
350
54
  3
B3
350
55
  3
B4
350
56
  3
B5
350
57
  3
B6
350
58
  3
B7
350
59
  3
B8
350
5A
  3
B9
350
5B
  3
C0
350
5C
  3
C1
350
5D
  3
C2
350
5E
  3
C3
350
5F
  3
C4
350
60
  3
C5
350
61
  3
C6
350
62
  3
C7
350
63
  3
C8
350
64
  3
C9
350
65
  3
D0
350
66
  3
D1
350
67
  3
D2
350
68
  0
XRECORD
  5
121
102
{ACAD_REACTORS
330
C
102
}
330
C
100
AcDbXrecord
280
     1
  1
DWGPROPS COOKIE
  2

  3

  4

  6

  7

  8
radek.stransky
  9

300
=
301
=
302
=
303
=
304
=
305
=
306
=
307
=
308
=
309
=
 40
0.0
 41
2459136.322725405
 42
2459136.322725752
  1

 90
        0
  0
LAYOUT
  5
1E
102
{ACAD_REACTORS
330
1A
102
}
330
1A
100
AcDbPlotSettings
  1

  2
none_device
  4

  6

 40
0.0
 41
0.0
 42
0.0
 43
0.0
 44
0.0
 45
0.0
 46
0.0
 47
0.0
 48
0.0
 49
0.0
140
0.0
141
0.0
142
1.0
143
1.0
 70
   688
 72
     1
 73
     0
 74
     5
  7

 75
    16
147
1.0
148
0.0
149
0.0
100
AcDbLayout
  1
Layout1
 70
     1
 71
     1
 10
0.0
 20
0.0
 11
420.0
 21
297.0
 12
0.0
 22
0.0
 32
0.0
 14
1.0000000000E+20
 24
1.0000000000E+20
 34
1.0000000000E+20
 15
-1.0000000000E+20
 25
-1.0000000000E+20
 35
-1.0000000000E+20
146
0.0
 13
0.0
 23
0.0
 33
0.0
 16
1.0
 26
0.0
 36
0.0
 17
0.0
 27
1.0
 37
0.0
 76
     0
330
1B
  0
LAYOUT
  5
26
102
{ACAD_REACTORS
330
1A
102
}
330
1A
100
AcDbPlotSettings
  1

  2
none_device
  4

  6

 40
0.0
 41
0.0
 42
0.0
 43
0.0
 44
0.0
 45
0.0
 46
0.0
 47
0.0
 48
0.0
 49
0.0
140
0.0
141
0.0
142
1.0
143
1.0
 70
   688
 72
     1
 73
     0
 74
     5
  7

 75
    16
147
1.0
148
0.0
149
0.0
100
AcDbLayout
  1
Layout2
 70
     1
 71
     2
 10
0.0
 20
0.0
 11
0.0
 21
0.0
 12
0.0
 22
0.0
 32
0.0
 14
0.0
 24
0.0
 34
0.0
 15
0.0
 25
0.0
 35
0.0
146
0.0
 13
0.0
 23
0.0
 33
0.0
 16
1.0
 26
0.0
 36
0.0
 17
0.0
 27
1.0
 37
0.0
 76
     0
330
23
  0
LAYOUT
  5
22
102
{ACAD_REACTORS
330
1A
102
}
330
1A
100
AcDbPlotSettings
  1

  2
none_device
  4
Letter_(8.50_x_11.00_Inches)
  6

 40
6.35
 41
6.35
 42
6.35000508
 43
6.35000508
 44
215.9
 45
279.4
 46
0.0
 47
0.0
 48
0.0
 49
0.0
140
0.0
141
0.0
142
1.0
143
1.0
 70
  1712
 72
     1
 73
     0
 74
     0
  7

 75
     0
147
1.0
148
0.0
149
0.0
100
AcDbLayout
  1
Model
 70
     1
 71
     0
 10
0.0
 20
0.0
 11
20000.0
 21
10000.0
 12
0.0
 22
0.0
 32
0.0
 14
0.0
 24
0.0
 34
0.0
 15
20000.0
 25
10000.0
 35
0.0
146
0.0
 13
0.0
 23
0.0
 33
0.0
 16
1.0
 26
0.0
 36
0.0
 17
0.0
 27
1.0
 37
0.0
 76
     0
330
1F
331
29
  0
MLINESTYLE
  5
18
102
{ACAD_REACTORS
330
17
102
}
330
17
100
AcDbMlineStyle
  2
Standard
 70
     0
  3

 62
   256
 51
90.0
 52
90.0
 71
     2
 49
0.5
 62
   256
  6
BYLAYER
 49
-0.5
 62
   256
  6
BYLAYER
  0
ACDBPLACEHOLDER
  5
F
102
{ACAD_REACTORS
330
E
102
}
330
E
  0
SCALE
  5
48
102
{ACAD_REACTORS
330
47
102
}
330
47
100
AcDbScale
 70
     0
300
1:1
140
1.0
141
1.0
290
     1
  0
SCALE
  5
49
102
{ACAD_REACTORS
330
47
102
}
330
47
100
AcDbScale
 70
     0
300
1:2
140
1.0
141
2.0
290
     0
  0
SCALE
  5
4A
102
{ACAD_REACTORS
330
47
102
}
330
47
100
AcDbScale
 70
     0
300
1:4
140
1.0
141
4.0
290
     0
  0
SCALE
  5
4B
102
{ACAD_REACTORS
330
47
102
}
330
47
100
AcDbScale
 70
     0
300
1:5
140
1.0
141
5.0
290
     0
  0
SCALE
  5
4C
102
{ACAD_REACTORS
330
47
102
}
330
47
100
AcDbScale
 70
     0
300
1:8
140
1.0
141
8.0
290
     0
  0
SCALE
  5
4D
102
{ACAD_REACTORS
330
47
102
}
330
47
100
AcDbScale
 70
     0
300
1:10
140
1.0
141
10.0
290
     0
  0
SCALE
  5
4E
102
{ACAD_REACTORS
330
47
102
}
330
47
100
AcDbScale
 70
     0
300
1:16
140
1.0
141
16.0
290
     0
  0
SCALE
  5
4F
102
{ACAD_REACTORS
330
47
102
}
330
47
100
AcDbScale
 70
     0
300
1:20
140
1.0
141
20.0
290
     0
  0
SCALE
  5
50
102
{ACAD_REACTORS
330
47
102
}
330
47
100
AcDbScale
 70
     0
300
1:30
140
1.0
141
30.0
290
     0
  0
SCALE
  5
51
102
{ACAD_REACTORS
330
47
102
}
330
47
100
AcDbScale
 70
     0
300
1:40
140
1.0
141
40.0
290
     0
  0
SCALE
  5
52
102
{ACAD_REACTORS
330
47
102
}
330
47
100
AcDbScale
 70
     0
300
1:50
140
1.0
141
50.0
290
     0
  0
SCALE
  5
53
102
{ACAD_REACTORS
330
47
102
}
330
47
100
AcDbScale
 70
     0
300
1:100
140
1.0
141
100.0
290
     0
  0
SCALE
  5
54
102
{ACAD_REACTORS
330
47
102
}
330
47
100
AcDbScale
 70
     0
300
2:1
140
2.0
141
1.0
290
     0
  0
SCALE
  5
55
102
{ACAD_REACTORS
330
47
102
}
330
47
100
AcDbScale
 70
     0
300
4:1
140
4.0
141
1.0
290
     0
  0
SCALE
  5
56
102
{ACAD_REACTORS
330
47
102
}
330
47
100
AcDbScale
 70
     0
300
8:1
140
8.0
141
1.0
290
     0
  0
SCALE
  5
57
102
{ACAD_REACTORS
330
47
102
}
330
47
100
AcDbScale
 70
     0
300
10:1
140
10.0
141
1.0
290
     0
  0
SCALE
  5
58
102
{ACAD_REACTORS
330
47
102
}
330
47
100
AcDbScale
 70
     0
300
100:1
140
100.0
141
1.0
290
     0
  0
SCALE
  5
59
102
{ACAD_REACTORS
330
47
102
}
330
47
100
AcDbScale
 70
     0
300
1/128" = 1'-0"
140
0.0078125
141
12.0
290
     0
  0
SCALE
  5
5A
102
{ACAD_REACTORS
330
47
102
}
330
47
100
AcDbScale
 70
     0
300
1/64" = 1'-0"
140
0.015625
141
12.0
290
     0
  0
SCALE
  5
5B
102
{ACAD_REACTORS
330
47
102
}
330
47
100
AcDbScale
 70
     0
300
1/32" = 1'-0"
140
0.03125
141
12.0
290
     0
  0
SCALE
  5
5C
102
{ACAD_REACTORS
330
47
102
}
330
47
100
AcDbScale
 70
     0
300
1/16" = 1'-0"
140
0.0625
141
12.0
290
     0
  0
SCALE
  5
5D
102
{ACAD_REACTORS
330
47
102
}
330
47
100
AcDbScale
 70
     0
300
3/32" = 1'-0"
140
0.09375
141
12.0
290
     0
  0
SCALE
  5
5E
102
{ACAD_REACTORS
330
47
102
}
330
47
100
AcDbScale
 70
     0
300
1/8" = 1'-0"
140
0.125
141
12.0
290
     0
  0
SCALE
  5
5F
102
{ACAD_REACTORS
330
47
102
}
330
47
100
AcDbScale
 70
     0
300
3/16" = 1'-0"
140
0.1875
141
12.0
290
     0
  0
SCALE
  5
60
102
{ACAD_REACTORS
330
47
102
}
330
47
100
AcDbScale
 70
     0
300
1/4" = 1'-0"
140
0.25
141
12.0
290
     0
  0
SCALE
  5
61
102
{ACAD_REACTORS
330
47
102
}
330
47
100
AcDbScale
 70
     0
300
3/8" = 1'-0"
140
0.375
141
12.0
290
     0
  0
SCALE
  5
62
102
{ACAD_REACTORS
330
47
102
}
330
47
100
AcDbScale
 70
     0
300
1/2" = 1'-0"
140
0.5
141
12.0
290
     0
  0
SCALE
  5
63
102
{ACAD_REACTORS
330
47
102
}
330
47
100
AcDbScale
 70
     0
300
3/4" = 1'-0"
140
0.75
141
12.0
290
     0
  0
SCALE
  5
64
102
{ACAD_REACTORS
330
47
102
}
330
47
100
AcDbScale
 70
     0
300
1" = 1'-0"
140
1.0
141
12.0
290
     0
  0
SCALE
  5
65
102
{ACAD_REACTORS
330
47
102
}
330
47
100
AcDbScale
 70
     0
300
1-1/2" = 1'-0"
140
1.5
141
12.0
290
     0
  0
SCALE
  5
66
102
{ACAD_REACTORS
330
47
102
}
330
47
100
AcDbScale
 70
     0
300
3" = 1'-0"
140
3.0
141
12.0
290
     0
  0
SCALE
  5
67
102
{ACAD_REACTORS
330
47
102
}
330
47
100
AcDbScale
 70
     0
300
6" = 1'-0"
140
6.0
141
12.0
290
     0
  0
SCALE
  5
68
102
{ACAD_REACTORS
330
47
102
}
330
47
100
AcDbScale
 70
     0
300
1'-0" = 1'-0"
140
12.0
141
12.0
290
     0
  0
ENDSEC
  0
EOF
