  0
SECTION
  2
HEADER
  9
$ACADVER
  1
AC1015
  9
$ACADMAINTVER
 70
     6
  9
$DWGCODEPAGE
  3
ANSI_1250
  9
$INSBASE
 10
0.0
 20
0.0
 30
0.0
  9
$EXTMIN
 10
0.0
 20
0.0
 30
0.0
  9
$EXTMAX
 10
20000.0
 20
10000.0
 30
0.0
  9
$LIMMIN
 10
0.0
 20
0.0
  9
$LIMMAX
 10
20000.0
 20
10000.0
  9
$ORTHOMODE
 70
     0
  9
$REGENMODE
 70
     1
  9
$FILLMODE
 70
     1
  9
$QTEXTMODE
 70
     0
  9
$MIRRTEXT
 70
     1
  9
$LTSCALE
 40
1.0
  9
$ATTMODE
 70
     1
  9
$TEXTSIZE
 40
2.0
  9
$TRACEWID
 40
1.0
  9
$TEXTSTYLE
  7
Standard
  9
$CLAYER
  8
0
  9
$CELTYPE
  6
ByLayer
  9
$CECOLOR
 62
   256
  9
$CELTSCALE
 40
1.0
  9
$DISPSILH
 70
     0
  9
$DIMSCALE
 40
1.0
  9
$DIMASZ
 40
2.0
  9
$DIMEXO
 40
1.0
  9
$DIMDLI
 40
3.75
  9
$DIMRND
 40
0.0
  9
$DIMDLE
 40
0.0
  9
$DIMEXE
 40
1.0
  9
$DIMTP
 40
0.0
  9
$DIMTM
 40
0.0
  9
$DIMTXT
 40
2.0
  9
$DIMCEN
 40
2.5
  9
$DIMTSZ
 40
0.0
  9
$DIMTOL
 70
     0
  9
$DIMLIM
 70
     0
  9
$DIMTIH
 70
     1
  9
$DIMTOH
 70
     1
  9
$DIMSE1
 70
     0
  9
$DIMSE2
 70
     0
  9
$DIMTAD
 70
     1
  9
$DIMZIN
 70
     0
  9
$DIMBLK
  1

  9
$DIMASO
 70
     1
  9
$DIMSHO
 70
     1
  9
$DIMPOST
  1

  9
$DIMAPOST
  1

  9
$DIMALT
 70
     0
  9
$DIMALTD
 70
     3
  9
$DIMALTF
 40
0.0393700787
  9
$DIMLFAC
 40
1.0
  9
$DIMTOFL
 70
     1
  9
$DIMTVP
 40
0.0
  9
$DIMTIX
 70
     0
  9
$DIMSOXD
 70
     0
  9
$DIMSAH
 70
     0
  9
$DIMBLK1
  1

  9
$DIMBLK2
  1

  9
$DIMSTYLE
  2
ISO-25
  9
$DIMCLRD
 70
     0
  9
$DIMCLRE
 70
     0
  9
$DIMCLRT
 70
     0
  9
$DIMTFAC
 40
1.0
  9
$DIMGAP
 40
1.524
  9
$DIMJUST
 70
     0
  9
$DIMSD1
 70
     0
  9
$DIMSD2
 70
     0
  9
$DIMTOLJ
 70
     0
  9
$DIMTZIN
 70
     0
  9
$DIMALTZ
 70
     0
  9
$DIMALTTZ
 70
     0
  9
$DIMUPT
 70
     0
  9
$DIMDEC
 70
     2
  9
$DIMTDEC
 70
     0
  9
$DIMALTU
 70
     2
  9
$DIMALTTD
 70
     3
  9
$DIMTXSTY
  7
Standard
  9
$DIMAUNIT
 70
     0
  9
$DIMADEC
 70
     2
  9
$DIMALTRND
 40
0.0
  9
$DIMAZIN
 70
     0
  9
$DIMDSEP
 70
    44
  9
$DIMATFIT
 70
     3
  9
$DIMFRAC
 70
     0
  9
$DIMLDRBLK
  1

  9
$DIMLUNIT
 70
     2
  9
$DIMLWD
 70
    -2
  9
$DIMLWE
 70
    -2
  9
$DIMTMOVE
 70
     0
  9
$LUNITS
 70
     2
  9
$LUPREC
 70
     3
  9
$SKETCHINC
 40
1.0
  9
$FILLETRAD
 40
10.0
  9
$AUNITS
 70
     0
  9
$AUPREC
 70
     2
  9
$MENU
  1
.
  9
$ELEVATION
 40
0.0
  9
$PELEVATION
 40
0.0
  9
$THICKNESS
 40
0.0
  9
$LIMCHECK
 70
     0
  9
$CHAMFERA
 40
0.0
  9
$CHAMFERB
 40
0.0
  9
$CHAMFERC
 40
0.0
  9
$CHAMFERD
 40
0.0
  9
$SKPOLY
 70
     0
  9
$TDCREATE
 40
2458667.498524537
  9
$TDUCREATE
 40
2458667.415191204
  9
$TDUPDATE
 40
2458667.498525266
  9
$TDUUPDATE
 40
2458667.415191933
  9
$TDINDWG
 40
0.0000000116
  9
$TDUSRTIMER
 40
0.0000000116
  9
$USRTIMER
 70
     1
  9
$ANGBASE
 50
0.0
  9
$ANGDIR
 70
     0
  9
$PDMODE
 70
     0
  9
$PDSIZE
 40
-1.0
  9
$PLINEWID
 40
0.0
  9
$SPLFRAME
 70
     0
  9
$SPLINETYPE
 70
     6
  9
$SPLINESEGS
 70
     8
  9
$HANDSEED
  5
290
  9
$SURFTAB1
 70
     6
  9
$SURFTAB2
 70
     6
  9
$SURFTYPE
 70
     6
  9
$SURFU
 70
     6
  9
$SURFV
 70
     6
  9
$UCSBASE
  2

  9
$UCSNAME
  2

  9
$UCSORG
 10
0.0
 20
0.0
 30
0.0
  9
$UCSXDIR
 10
1.0
 20
0.0
 30
0.0
  9
$UCSYDIR
 10
0.0
 20
1.0
 30
0.0
  9
$UCSORTHOREF
  2

  9
$UCSORTHOVIEW
 70
     0
  9
$UCSORGTOP
 10
0.0
 20
0.0
 30
0.0
  9
$UCSORGBOTTOM
 10
0.0
 20
0.0
 30
0.0
  9
$UCSORGLEFT
 10
0.0
 20
0.0
 30
0.0
  9
$UCSORGRIGHT
 10
0.0
 20
0.0
 30
0.0
  9
$UCSORGFRONT
 10
0.0
 20
0.0
 30
0.0
  9
$UCSORGBACK
 10
0.0
 20
0.0
 30
0.0
  9
$PUCSBASE
  2

  9
$PUCSNAME
  2

  9
$PUCSORG
 10
0.0
 20
0.0
 30
0.0
  9
$PUCSXDIR
 10
1.0
 20
0.0
 30
0.0
  9
$PUCSYDIR
 10
0.0
 20
1.0
 30
0.0
  9
$PUCSORTHOREF
  2

  9
$PUCSORTHOVIEW
 70
     0
  9
$PUCSORGTOP
 10
0.0
 20
0.0
 30
0.0
  9
$PUCSORGBOTTOM
 10
0.0
 20
0.0
 30
0.0
  9
$PUCSORGLEFT
 10
0.0
 20
0.0
 30
0.0
  9
$PUCSORGRIGHT
 10
0.0
 20
0.0
 30
0.0
  9
$PUCSORGFRONT
 10
0.0
 20
0.0
 30
0.0
  9
$PUCSORGBACK
 10
0.0
 20
0.0
 30
0.0
  9
$USERI1
 70
     0
  9
$USERI2
 70
     0
  9
$USERI3
 70
     0
  9
$USERI4
 70
     0
  9
$USERI5
 70
     0
  9
$USERR1
 40
0.0
  9
$USERR2
 40
0.0
  9
$USERR3
 40
0.0
  9
$USERR4
 40
0.0
  9
$USERR5
 40
0.0
  9
$WORLDVIEW
 70
     1
  9
$SHADEDGE
 70
     3
  9
$SHADEDIF
 70
    70
  9
$TILEMODE
 70
     1
  9
$MAXACTVP
 70
    64
  9
$PINSBASE
 10
0.0
 20
0.0
 30
0.0
  9
$PLIMCHECK
 70
     0
  9
$PEXTMIN
 10
1.0000000000E+20
 20
1.0000000000E+20
 30
1.0000000000E+20
  9
$PEXTMAX
 10
-1.0000000000E+20
 20
-1.0000000000E+20
 30
-1.0000000000E+20
  9
$PLIMMIN
 10
0.0
 20
0.0
  9
$PLIMMAX
 10
420.0
 20
297.0
  9
$UNITMODE
 70
     0
  9
$VISRETAIN
 70
     1
  9
$PLINEGEN
 70
     0
  9
$PSLTSCALE
 70
     1
  9
$TREEDEPTH
 70
  3020
  9
$CMLSTYLE
  2
Standard
  9
$CMLJUST
 70
     0
  9
$CMLSCALE
 40
20.0
  9
$PROXYGRAPHICS
 70
     1
  9
$MEASUREMENT
 70
     1
  9
$CELWEIGHT
370
    -1
  9
$ENDCAPS
280
     0
  9
$JOINSTYLE
280
     0
  9
$LWDISPLAY
290
     1
  9
$INSUNITS
 70
     4
  9
$HYPERLINKBASE
  1

  9
$STYLESHEET
  1

  9
$XEDIT
290
     1
  9
$CEPSNTYPE
380
     0
  9
$PSTYLEMODE
290
     1
  9
$FINGERPRINTGUID
  2
{FF82E5E8-0430-46FD-8F66-2A244477200E}
  9
$VERSIONGUID
  2
{FAEB1C32-E019-11D5-929B-00C0DF256EC4}
  9
$EXTNAMES
290
     1
  9
$PSVPSCALE
 40
0.0
  9
$OLESTARTUP
290
     0
  0
ENDSEC
  0
SECTION
  2
CLASSES
  0
CLASS
  1
ACDBDICTIONARYWDFLT
  2
AcDbDictionaryWithDefault
  3
ObjectDBX Classes
 90
        0
280
     0
281
     0
  0
CLASS
  1
VISUALSTYLE
  2
AcDbVisualStyle
  3
ObjectDBX Classes
 90
     4095
280
     0
281
     0
  0
CLASS
  1
MATERIAL
  2
AcDbMaterial
  3
ObjectDBX Classes
 90
     1153
280
     0
281
     0
  0
CLASS
  1
SCALE
  2
AcDbScale
  3
ObjectDBX Classes
 90
     1153
280
     0
281
     0
  0
CLASS
  1
TABLESTYLE
  2
AcDbTableStyle
  3
ObjectDBX Classes
 90
     4095
280
     0
281
     0
  0
CLASS
  1
MLEADERSTYLE
  2
AcDbMLeaderStyle
  3
ACDB_MLEADERSTYLE_CLASS
 90
     4095
280
     0
281
     0
  0
CLASS
  1
SUN
  2
AcDbSun
  3
SCENEOE
 90
     1153
280
     0
281
     0
  0
CLASS
  1
ACDBPLACEHOLDER
  2
AcDbPlaceHolder
  3
ObjectDBX Classes
 90
        0
280
     0
281
     0
  0
CLASS
  1
LAYOUT
  2
AcDbLayout
  3
ObjectDBX Classes
 90
        0
280
     0
281
     0
  0
ENDSEC
  0
SECTION
  2
TABLES
  0
TABLE
  2
VPORT
  5
8
330
0
100
AcDbSymbolTable
 70
     1
  0
VPORT
  5
29
330
8
100
AcDbSymbolTableRecord
100
AcDbViewportTableRecord
  2
*Active
 70
     0
 10
0.0
 20
0.0
 11
1.0
 21
1.0
 12
10000.0
 22
5000.0
 13
0.0
 23
0.0
 14
10.0
 24
10.0
 15
10.0
 25
10.0
 16
0.0
 26
0.0
 36
1.0
 17
0.0
 27
0.0
 37
0.0
 40
10000.0
 41
2.0
 42
50.0
 43
0.0
 44
0.0
 50
0.0
 51
0.0
 71
     0
 72
  2000
 73
     1
 74
     3
 75
     0
 76
     0
 77
     0
 78
     0
281
     0
 65
     1
110
0.0
120
0.0
130
0.0
111
1.0
121
0.0
131
0.0
112
0.0
122
1.0
132
0.0
 79
     0
146
0.0
  0
ENDTAB
  0
TABLE
  2
LTYPE
  5
5
330
0
100
AcDbSymbolTable
 70
     6
  0
LTYPE
  5
14
330
5
100
AcDbSymbolTableRecord
100
AcDbLinetypeTableRecord
  2
ByBlock
 70
     0
  3

 72
    65
 73
     0
 40
0.0
  0
LTYPE
  5
15
330
5
100
AcDbSymbolTableRecord
100
AcDbLinetypeTableRecord
  2
ByLayer
 70
     0
  3

 72
    65
 73
     0
 40
0.0
  0
LTYPE
  5
16
330
5
100
AcDbSymbolTableRecord
100
AcDbLinetypeTableRecord
  2
Continuous
 70
     0
  3
Solid line
 72
    65
 73
     0
 40
0.0
  0
LTYPE
  5
6E
330
5
100
AcDbSymbolTableRecord
100
AcDbLinetypeTableRecord
  2
HIDDEN
 70
     0
  3
Hidden __ __ __ __ __ __ __ __ __ __ __ __ __ __
 72
    65
 73
     2
 40
1.905
 49
1.27
 74
     0
 49
-0.635
 74
     0
  0
LTYPE
  5
6F
330
5
100
AcDbSymbolTableRecord
100
AcDbLinetypeTableRecord
  2
PHANTOM
 70
     0
  3
Phantom ______  __  __  ______  __  __  ______
 72
    65
 73
     6
 40
12.7
 49
6.35
 74
     0
 49
-1.27
 74
     0
 49
1.27
 74
     0
 49
-1.27
 74
     0
 49
1.27
 74
     0
 49
-1.27
 74
     0
  0
LTYPE
  5
70
330
5
100
AcDbSymbolTableRecord
100
AcDbLinetypeTableRecord
  2
CENTER
 70
     0
  3
Center ____ _ ____ _ ____ _ ____ _ ____ _ ____
 72
    65
 73
     4
 40
10.16
 49
6.35
 74
     0
 49
-1.27
 74
     0
 49
1.27
 74
     0
 49
-1.27
 74
     0
  0
LTYPE
  5
71
330
5
100
AcDbSymbolTableRecord
100
AcDbLinetypeTableRecord
  2
CENTERX2
 70
     0
  3
Center (2x) ________  __  ________  __  _____
 72
    65
 73
     4
 40
20.32
 49
12.7
 74
     0
 49
-2.54
 74
     0
 49
2.54
 74
     0
 49
-2.54
 74
     0
  0
LTYPE
  5
72
330
5
100
AcDbSymbolTableRecord
100
AcDbLinetypeTableRecord
  2
DOT2
 70
     0
  3
Dot (.5x) ........................................
 72
    65
 73
     2
 40
0.635
 49
0.0
 74
     0
 49
-0.635
 74
     0
  0
ENDTAB
  0
TABLE
  2
LAYER
  5
2
330
0
100
AcDbSymbolTable
 70
    13
  0
LAYER
  5
10
330
2
100
AcDbSymbolTableRecord
100
AcDbLayerTableRecord
  2
0
 70
     0
 62
     7
  6
Continuous
370
    -3
390
F
  0
LAYER
  5
73
330
2
100
AcDbSymbolTableRecord
100
AcDbLayerTableRecord
  2
FORMAT
 70
     0
 62
     7
  6
Continuous
370
    -3
390
F
  0
LAYER
  5
74
330
2
100
AcDbSymbolTableRecord
100
AcDbLayerTableRecord
  2
OSA
 70
     0
 62
     7
  6
CENTER
370
    -3
390
F
  0
LAYER
  5
75
330
2
100
AcDbSymbolTableRecord
100
AcDbLayerTableRecord
  2
0_35
 70
     0
 62
     7
  6
Continuous
370
    35
390
F
  0
LAYER
  5
76
330
2
100
AcDbSymbolTableRecord
100
AcDbLayerTableRecord
  2
0_5
 70
     0
 62
     7
  6
Continuous
370
    50
390
F
  0
LAYER
  5
77
330
2
100
AcDbSymbolTableRecord
100
AcDbLayerTableRecord
  2
0_25
 70
     0
 62
     7
  6
Continuous
370
    25
390
F
  0
LAYER
  5
78
330
2
100
AcDbSymbolTableRecord
100
AcDbLayerTableRecord
  2
0_18
 70
     0
 62
     7
  6
Continuous
370
    -3
390
F
  0
LAYER
  5
79
330
2
100
AcDbSymbolTableRecord
100
AcDbLayerTableRecord
  2
SLD-0
 70
     0
 62
   179
  6
Continuous
370
    -3
390
F
  0
LAYER
  5
7A
330
2
100
AcDbSymbolTableRecord
100
AcDbLayerTableRecord
  2
KOTY
 70
     0
 62
     7
  6
Continuous
370
    -3
390
F
  0
LAYER
  5
7B
330
2
100
AcDbSymbolTableRecord
100
AcDbLayerTableRecord
  2
SILNA
 70
     0
 62
   179
  6
Continuous
370
    -3
390
F
  0
LAYER
  5
7C
330
2
100
AcDbSymbolTableRecord
100
AcDbLayerTableRecord
  2
0_18_1
 70
     0
 62
   179
  6
Continuous
370
    -3
390
F
  0
LAYER
  5
7D
330
2
100
AcDbSymbolTableRecord
100
AcDbLayerTableRecord
  2
0_35_1
 70
     0
 62
   179
  6
Continuous
370
    35
390
F
  0
LAYER
  5
7E
330
2
100
AcDbSymbolTableRecord
100
AcDbLayerTableRecord
  2
0_5_1
 70
     0
 62
   179
  6
Continuous
370
    50
390
F
  0
ENDTAB
  0
TABLE
  2
STYLE
  5
3
330
0
100
AcDbSymbolTable
 70
     1
  0
STYLE
  5
11
330
3
100
AcDbSymbolTableRecord
100
AcDbTextStyleTableRecord
  2
Standard
 70
     0
 40
0.0
 41
1.0
 50
0.0
 71
     0
 42
2.0
  3
txt
  4

  0
ENDTAB
  0
TABLE
  2
VIEW
  5
6
330
0
100
AcDbSymbolTable
 70
     0
  0
ENDTAB
  0
TABLE
  2
UCS
  5
7
330
0
100
AcDbSymbolTable
 70
     0
  0
ENDTAB
  0
TABLE
  2
APPID
  5
9
330
0
100
AcDbSymbolTable
 70
     1
  0
APPID
  5
12
330
9
100
AcDbSymbolTableRecord
100
AcDbRegAppTableRecord
  2
ACAD
 70
     0
  0
ENDTAB
  0
TABLE
  2
DIMSTYLE
  5
A
330
0
100
AcDbSymbolTable
 70
     1
100
AcDbDimStyleTable
  0
DIMSTYLE
105
27
330
A
100
AcDbSymbolTableRecord
100
AcDbDimStyleTableRecord
  2
ISO-25
 70
     0
 41
2.5
 42
0.625
 43
3.75
 44
1.25
 73
     0
 74
     0
 77
     1
 78
     8
140
2.5
141
2.5
143
0.0393700787
147
0.625
171
     3
172
     1
178
     0
271
     2
272
     2
274
     3
278
    44
283
     0
284
     8
340
11
  0
ENDTAB
  0
TABLE
  2
BLOCK_RECORD
  5
1
330
0
100
AcDbSymbolTable
 70
     1
  0
BLOCK_RECORD
  5
1F
330
1
100
AcDbSymbolTableRecord
100
AcDbBlockTableRecord
  2
*Model_Space
340
22
  0
BLOCK_RECORD
  5
1B
330
1
100
AcDbSymbolTableRecord
100
AcDbBlockTableRecord
  2
*Paper_Space
340
1E
  0
BLOCK_RECORD
  5
23
330
1
100
AcDbSymbolTableRecord
100
AcDbBlockTableRecord
  2
*Paper_Space0
340
26
  0
ENDTAB
  0
ENDSEC
  0
SECTION
  2
BLOCKS
  0
BLOCK
  5
20
330
1F
100
AcDbEntity
  8
0
100
AcDbBlockBegin
  2
*Model_Space
 70
     0
 10
0.0
 20
0.0
 30
0.0
  3
*Model_Space
  1

  0
ENDBLK
  5
21
330
1F
100
AcDbEntity
  8
0
100
AcDbBlockEnd
  0
BLOCK
  5
1C
330
1B
100
AcDbEntity
 67
     1
  8
0
100
AcDbBlockBegin
  2
*Paper_Space
 70
     0
 10
0.0
 20
0.0
 30
0.0
  3
*Paper_Space
  1

  0
ENDBLK
  5
1D
330
1B
100
AcDbEntity
 67
     1
  8
0
100
AcDbBlockEnd
  0
BLOCK
  5
24
330
23
100
AcDbEntity
  8
0
100
AcDbBlockBegin
  2
*Paper_Space0
 70
     0
 10
0.0
 20
0.0
 30
0.0
  3
*Paper_Space0
  1

  0
ENDBLK
  5
25
330
23
100
AcDbEntity
  8
0
100
AcDbBlockEnd
  0
ENDSEC
  0
SECTION
  2
ENTITIES
  0
LINE
  5
7F
330
1F
100
AcDbEntity
  8
0
  6
Continuous
 62
     7
370
    25
100
AcDbLine
 10
7515.9479928239
 20
6502.3173215665
 30
0.0
 11
7515.6479924022
 21
6502.6173191942
 31
0.0
  0
LINE
  5
80
330
1F
100
AcDbEntity
  8
0
  6
Continuous
 62
     7
370
    25
100
AcDbLine
 10
7492.206992492
 20
6502.6173191942
 30
0.0
 11
7491.9069920703
 21
6502.3173215665
 31
0.0
  0
LINE
  5
81
330
1F
100
AcDbEntity
  8
0
  6
Continuous
 62
     7
370
    25
100
AcDbLine
 10
7543.5932026281
 20
6357.1592989243
 30
0.0
 11
7543.8637294843
 21
6357.1592989243
 31
0.0
  0
LINE
  5
82
330
1F
100
AcDbEntity
  8
0
  6
Continuous
 62
     7
370
    25
100
AcDbLine
 10
7543.1696892753
 20
6355.2446487225
 30
0.0
 11
7543.1696892753
 21
6354.9768823064
 31
0.0
  0
LINE
  5
83
330
1F
100
AcDbEntity
  8
0
  6
Continuous
 62
     7
370
    25
100
AcDbLine
 10
7543.1696892753
 20
6354.9768823064
 30
0.0
 11
7544.2877718284
 21
6354.9768823064
 31
0.0
  0
LINE
  5
84
330
1F
100
AcDbEntity
  8
0
  6
Continuous
 62
     7
370
    25
100
AcDbLine
 10
7544.2877718284
 20
6354.9768823064
 30
0.0
 11
7544.2877718284
 21
6355.2511977829
 31
0.0
  0
SPLINE
  5
85
330
1F
100
AcDbEntity
  8
0
  6
Continuous
 62
     7
370
    25
100
AcDbSpline
210
0.0
220
0.0
230
1.0
 70
     8
 71
     3
 72
    12
 73
     8
 74
     0
 42
0.000000001
 43
0.00000001
 40
0.0
 40
0.0
 40
0.0
 40
0.0
 40
0.5919177425161003
 40
0.7068167956963828
 40
0.8064190866352601
 40
0.8986245351593255
 40
0.9999999999999999
 40
0.9999999999999999
 40
0.9999999999999999
 40
0.9999999999999999
 10
7544.287771828403
 20
6355.251197782863
 30
0.0
 10
7544.294225088868
 20
6355.531510504587
 30
0.0
 10
7544.301931012438
 20
6355.866235628587
 30
0.0
 10
7544.192993374067
 20
6356.230471257607
 30
0.0
 10
7544.118267474188
 20
6356.355312856022
 30
0.0
 10
7544.003837367184
 20
6356.442048988561
 30
0.0
 10
7543.911884068526
 20
6356.450379601702
 30
0.0
 10
7543.86372948431
 20
6356.454742220748
 30
0.0
  0
LINE
  5
86
330
1F
100
AcDbEntity
  8
0
  6
Continuous
 62
     7
370
    25
100
AcDbLine
 10
7543.8637294843
 20
6356.4547422207
 30
0.0
 11
7543.5932026281
 21
6356.4547422207
 31
0.0
  0
SPLINE
  5
87
330
1F
100
AcDbEntity
  8
0
  6
Continuous
 62
     7
370
    25
100
AcDbSpline
210
0.0
220
0.0
230
1.0
 70
     8
 71
     3
 72
    12
 73
     8
 74
     0
 42
0.000000001
 43
0.00000001
 40
0.0
 40
0.0
 40
0.0
 40
0.0
 40
0.100956939238086
 40
0.1931091495916063
 40
0.2929516026794365
 40
0.4081879244268704
 40
1.0
 40
1.0
 40
1.0
 40
1.0
 10
7543.593202628126
 20
6356.454742220748
 30
0.0
 10
7543.545074367461
 20
6356.450204685541
 30
0.0
 10
7543.453015242465
 20
6356.441525345896
 30
0.0
 10
7543.338853728458
 20
6356.35369628326
 30
0.0
 10
7543.264354390045
 20
6356.22787989238
 30
0.0
 10
7543.155762501905
 20
6355.861881740228
 30
0.0
 10
7543.163343687862
 20
6355.525884437167
 30
0.0
 10
7543.169689275255
 20
6355.244648722518
 30
0.0
  0
SPLINE
  5
88
330
1F
100
AcDbEntity
  8
0
  6
Continuous
 62
     7
370
    25
100
AcDbSpline
210
0.0
220
0.0
230
1.0
 70
     8
 71
     3
 72
    11
 73
     7
 74
     0
 42
0.000000001
 43
0.00000001
 40
0.0
 40
0.0
 40
0.0
 40
0.0
 40
0.274894157139266
 40
0.5431543210400918
 40
0.7649542101156513
 40
0.9999999999999999
 40
0.9999999999999999
 40
0.9999999999999999
 40
0.9999999999999999
 10
7543.86372948431
 20
6357.159298924315
 30
0.0
 10
7544.040008953602
 20
6357.133673567027
 30
0.0
 10
7544.38831375736
 20
6357.083041266635
 30
0.0
 10
7544.749461676217
 20
6356.721825877438
 30
0.0
 10
7544.951921854323
 20
6356.302783178888
 30
0.0
 10
7544.975335231259
 20
6356.012208003783
 30
0.0
 10
7544.987381346455
 20
6355.862707910645
 30
0.0
  0
LINE
  5
89
330
1F
100
AcDbEntity
  8
0
  6
Continuous
 62
     7
370
    25
100
AcDbLine
 10
7544.9873813465
 20
6355.8627079106
 30
0.0
 11
7544.9873813465
 21
6351.9373210944
 31
0.0
  0
LINE
  5
8A
330
1F
100
AcDbEntity
  8
0
  6
Continuous
 62
     7
370
    25
100
AcDbLine
 10
7544.9873813465
 20
6351.9373210944
 30
0.0
 11
7544.2877718284
 21
6351.9373210944
 31
0.0
  0
LINE
  5
8B
330
1F
100
AcDbEntity
  8
0
  6
Continuous
 62
     7
370
    25
100
AcDbLine
 10
7544.2877718284
 20
6351.9373210944
 30
0.0
 11
7544.2877718284
 21
6354.244415728
 31
0.0
  0
LINE
  5
8C
330
1F
100
AcDbEntity
  8
0
  6
Continuous
 62
     7
370
    25
100
AcDbLine
 10
7544.2877718284
 20
6354.244415728
 30
0.0
 11
7543.169942595
 21
6354.244415728
 31
0.0
  0
LINE
  5
8D
330
1F
100
AcDbEntity
  8
0
  6
Continuous
 62
     7
370
    25
100
AcDbLine
 10
7543.169942595
 20
6354.244415728
 30
0.0
 11
7543.1696892753
 21
6351.9373210944
 31
0.0
  0
LINE
  5
8E
330
1F
100
AcDbEntity
  8
0
  6
Continuous
 62
     7
370
    25
100
AcDbLine
 10
7543.1696892753
 20
6351.9373210944
 30
0.0
 11
7542.4837068691
 21
6351.9373210944
 31
0.0
  0
LINE
  5
8F
330
1F
100
AcDbEntity
  8
0
  6
Continuous
 62
     7
370
    25
100
AcDbLine
 10
7542.4837068691
 20
6351.9373210944
 30
0.0
 11
7542.4837068691
 21
6354.244415728
 31
0.0
  0
LINE
  5
90
330
1F
100
AcDbEntity
  8
0
  6
Continuous
 62
     7
370
    25
100
AcDbLine
 10
7542.4837068691
 20
6354.244415728
 30
0.0
 11
7542.1831839754
 21
6354.244415728
 31
0.0
  0
LINE
  5
91
330
1F
100
AcDbEntity
  8
0
  6
Continuous
 62
     7
370
    25
100
AcDbLine
 10
7542.1831839754
 20
6354.244415728
 30
0.0
 11
7541.9409954026
 21
6354.9767034925
 31
0.0
  0
LINE
  5
92
330
1F
100
AcDbEntity
  8
0
  6
Continuous
 62
     7
370
    25
100
AcDbLine
 10
7541.9409954026
 20
6354.9767034925
 30
0.0
 11
7542.4837068691
 21
6354.9767034925
 31
0.0
  0
LINE
  5
93
330
1F
100
AcDbEntity
  8
0
  6
Continuous
 62
     7
370
    25
100
AcDbLine
 10
7542.4837068691
 20
6354.9767034925
 30
0.0
 11
7542.4837068691
 21
6355.8721738733
 31
0.0
  0
SPLINE
  5
94
330
1F
100
AcDbEntity
  8
0
  6
Continuous
 62
     7
370
    25
100
AcDbSpline
210
0.0
220
0.0
230
1.0
 70
     8
 71
     3
 72
    11
 73
     7
 74
     0
 42
0.000000001
 43
0.00000001
 40
0.0
 40
0.0
 40
0.0
 40
0.0
 40
0.2975707075659346
 40
0.5729158181381316
 40
0.7820990227188162
 40
0.9999999999999999
 40
0.9999999999999999
 40
0.9999999999999999
 40
0.9999999999999999
 10
7542.483706869116
 20
6355.872173873294
 30
0.0
 10
7542.502252473051
 20
6356.060269074706
 30
0.0
 10
7542.537958507219
 20
6356.422410621117
 30
0.0
 10
7542.81442255205
 20
6356.848739501842
 30
0.0
 10
7543.184858121923
 20
6357.113754480887
 30
0.0
 10
7543.45524803226
 20
6357.143912246665
 30
0.0
 10
7543.593202628126
 20
6357.159298924315
 30
0.0
  0
LINE
  5
95
330
1F
100
AcDbEntity
  8
0
  6
Continuous
 62
     7
370
    25
100
AcDbLine
 10
7539.7547119334
 20
6355.3879196621
 30
0.0
 11
7540.699046947
 21
6354.3193387664
 31
0.0
  0
SPLINE
  5
96
330
1F
100
AcDbEntity
  8
0
  6
Continuous
 62
     7
370
    25
100
AcDbSpline
210
0.0
220
0.0
230
1.0
 70
     8
 71
     3
 72
    10
 73
     6
 74
     0
 42
0.000000001
 43
0.00000001
 40
0.0
 40
0.0
 40
0.0
 40
0.0
 40
0.3303980238566137
 40
0.5904396379087209
 40
1.0
 40
1.0
 40
1.0
 40
1.0
 10
7539.202512152424
 20
6356.904910025704
 30
0.0
 10
7539.197184094008
 20
6356.720260474007
 30
0.0
 10
7539.187662557391
 20
6356.390281459084
 30
0.0
 10
7539.358496412759
 20
6355.847640915522
 30
0.0
 10
7539.604341441052
 20
6355.562391654262
 30
0.0
 10
7539.754711933365
 20
6355.387919662106
 30
0.0
  0
SPLINE
  5
97
330
1F
100
AcDbEntity
  8
0
  6
Continuous
 62
     7
370
    25
100
AcDbSpline
210
0.0
220
0.0
230
1.0
 70
     8
 71
     3
 72
    11
 73
     7
 74
     0
 42
0.000000001
 43
0.00000001
 40
0.0
 40
0.0
 40
0.0
 40
0.0
 40
0.2749212850480134
 40
0.5425917997947652
 40
0.7577330735277157
 40
0.9999999999999999
 40
0.9999999999999999
 40
0.9999999999999999
 40
0.9999999999999999
 10
7540.864557869663
 20
6358.336363998759
 30
0.0
 10
7540.640950591499
 20
6358.316838745061
 30
0.0
 10
7540.199633450538
 20
6358.278303196443
 30
0.0
 10
7539.652743939904
 20
6357.9567717777
 30
0.0
 10
7539.289217739547
 20
6357.47230697498
 30
0.0
 10
7539.232534508943
 20
6357.101374798783
 30
0.0
 10
7539.202512152424
 20
6356.904910025704
 30
0.0
  0
LINE
  5
98
330
1F
100
AcDbEntity
  8
0
  6
Continuous
 62
     7
370
    25
100
AcDbLine
 10
7557.222702451
 20
6358.3364385046
 30
0.0
 11
7540.8645578697
 21
6358.3363639988
 31
0.0
  0
LINE
  5
99
330
1F
100
AcDbEntity
  8
0
  6
Continuous
 62
     7
370
    25
100
AcDbLine
 10
7557.222702451
 20
6357.57149112
 30
0.0
 11
7557.222702451
 21
6358.3364385046
 31
0.0
  0
LINE
  5
9A
330
1F
100
AcDbEntity
  8
0
  6
Continuous
 62
     7
370
    25
100
AcDbLine
 10
7540.915110059
 20
6357.57149112
 30
0.0
 11
7557.222702451
 21
6357.57149112
 31
0.0
  0
SPLINE
  5
9B
330
1F
100
AcDbEntity
  8
0
  6
Continuous
 62
     7
370
    25
100
AcDbSpline
210
0.0
220
0.0
230
1.0
 70
     8
 71
     3
 72
    12
 73
     8
 74
     0
 42
0.000000001
 43
0.00000001
 40
0.0
 40
0.0
 40
0.0
 40
0.0
 40
0.2019679149047242
 40
0.3744679362497786
 40
0.5436390099774496
 40
0.7598048299041548
 40
1.0
 40
1.0
 40
1.0
 40
1.0
 10
7540.006537832251
 20
6356.852655378688
 30
0.0
 10
7540.012983437235
 20
6356.941439597284
 30
0.0
 10
7540.024934208708
 20
6357.106054076397
 30
0.0
 10
7540.149991821999
 20
6357.317343054953
 30
0.0
 10
7540.34842764793
 20
6357.465048386788
 30
0.0
 10
7540.611611546872
 20
6357.551743836742
 30
0.0
 10
7540.810453922263
 20
6357.564681615833
 30
0.0
 10
7540.915110059013
 20
6357.571491119969
 30
0.0
  0
SPLINE
  5
9C
330
1F
100
AcDbEntity
  8
0
  6
Continuous
 62
     7
370
    25
100
AcDbSpline
210
0.0
220
0.0
230
1.0
 70
     8
 71
     3
 72
    11
 73
     7
 74
     0
 42
0.000000001
 43
0.00000001
 40
0.0
 40
0.0
 40
0.0
 40
0.0
 40
0.3262843678952427
 40
0.5825864402906348
 40
0.7736218523816173
 40
1.0
 40
1.0
 40
1.0
 40
1.0
 10
7540.745180942049
 20
6355.453805146325
 30
0.0
 10
7540.625940040807
 20
6355.585101191031
 30
0.0
 10
7540.413033328055
 20
6355.819532573088
 30
0.0
 10
7540.148929440393
 20
6356.151219398535
 30
0.0
 10
7540.015002328056
 20
6356.500107771571
 30
0.0
 10
7540.009514224861
 20
6356.728688149322
 30
0.0
 10
7540.006537832251
 20
6356.852655378688
 30
0.0
  0
LINE
  5
9D
330
1F
100
AcDbEntity
  8
0
  6
Continuous
 62
     7
370
    25
100
AcDbLine
 10
7541.4378167167
 20
6354.6629073895
 30
0.0
 11
7540.745180942
 21
6355.4538051463
 31
0.0
  0
SPLINE
  5
9E
330
1F
100
AcDbEntity
  8
0
  6
Continuous
 62
     7
370
    25
100
AcDbSpline
210
0.0
220
0.0
230
1.0
 70
     8
 71
     3
 72
    10
 73
     6
 74
     0
 42
0.000000001
 43
0.00000001
 40
0.0
 40
0.0
 40
0.0
 40
0.0
 40
0.3698915393776182
 40
0.6616433006974747
 40
0.9999999999999999
 40
0.9999999999999999
 40
0.9999999999999999
 40
0.9999999999999999
 10
7541.908641256323
 20
6353.139964012015
 30
0.0
 10
7541.922200407884
 20
6353.344145022942
 30
0.0
 10
7541.946454333261
 20
6353.709373701155
 30
0.0
 10
7541.771393793279
 20
6354.244941532548
 30
0.0
 10
7541.554359926762
 20
6354.516880920377
 30
0.0
 10
7541.437816716661
 20
6354.66290738951
 30
0.0
  0
SPLINE
  5
9F
330
1F
100
AcDbEntity
  8
0
  6
Continuous
 62
     7
370
    25
100
AcDbSpline
210
0.0
220
0.0
230
1.0
 70
     8
 71
     3
 72
    12
 73
     8
 74
     0
 42
0.000000001
 43
0.00000001
 40
0.0
 40
0.0
 40
0.0
 40
0.0
 40
0.2122069367997793
 40
0.3922563455267057
 40
0.5571608821026661
 40
0.7600202844013532
 40
1.0
 40
1.0
 40
1.0
 40
1.0
 10
7540.496715255013
 20
6351.937321094382
 30
0.0
 10
7540.643371334556
 20
6351.943350191708
 30
0.0
 10
7540.914459446371
 20
6351.954494745788
 30
0.0
 10
7541.285355210914
 20
6352.076971814291
 30
0.0
 10
7541.592889843761
 20
6352.307863590514
 30
0.0
 10
7541.816478460871
 20
6352.675878501927
 30
0.0
 10
7541.876250232003
 20
6352.976859095658
 30
0.0
 10
7541.908641256323
 20
6353.139964012015
 30
0.0
  0
LINE
  5
A0
330
1F
100
AcDbEntity
  8
0
  6
Continuous
 62
     7
370
    25
100
AcDbLine
 10
7538.9345669224
 20
6351.9373210944
 30
0.0
 11
7540.496715255
 21
6351.9373210944
 31
0.0
  0
LINE
  5
A1
330
1F
100
AcDbEntity
  8
0
  6
Continuous
 62
     7
370
    25
100
AcDbLine
 10
7538.9345669224
 20
6352.7151170052
 30
0.0
 11
7538.9345669224
 21
6351.9373210944
 31
0.0
  0
LINE
  5
A2
330
1F
100
AcDbEntity
  8
0
  6
Continuous
 62
     7
370
    25
100
AcDbLine
 10
7540.4313811138
 20
6352.7151170052
 30
0.0
 11
7538.9345669224
 21
6352.7151170052
 31
0.0
  0
SPLINE
  5
A3
330
1F
100
AcDbEntity
  8
0
  6
Continuous
 62
     7
370
    25
100
AcDbSpline
210
0.0
220
0.0
230
1.0
 70
     8
 71
     3
 72
    11
 73
     7
 74
     0
 42
0.000000001
 43
0.00000001
 40
0.0
 40
0.0
 40
0.0
 40
0.0
 40
0.2717734082829257
 40
0.5159042737267803
 40
0.7284082497690071
 40
1.0
 40
1.0
 40
1.0
 40
1.0
 10
7541.109559036722
 20
6353.291739789355
 30
0.0
 10
7541.093671382569
 20
6353.202082345925
 30
0.0
 10
7541.063512035009
 20
6353.031886672517
 30
0.0
 10
7540.910287281718
 20
6352.829829145729
 30
0.0
 10
7540.683448563474
 20
6352.727303758003
 30
0.0
 10
7540.521973378382
 20
6352.719496886612
 30
0.0
 10
7540.431381113758
 20
6352.715117005218
 30
0.0
  0
SPLINE
  5
A4
330
1F
100
AcDbEntity
  8
0
  6
Continuous
 62
     7
370
    25
100
AcDbSpline
210
0.0
220
0.0
230
1.0
 70
     8
 71
     3
 72
    10
 73
     6
 74
     0
 42
0.000000001
 43
0.00000001
 40
0.0
 40
0.0
 40
0.0
 40
0.0
 40
0.5555091839841516
 40
0.7547900185900175
 40
1.0
 40
1.0
 40
1.0
 40
1.0
 10
7540.699046946993
 20
6354.319338766444
 30
0.0
 10
7540.84789243058
 20
6354.158369704302
 30
0.0
 10
7541.050134065036
 20
6353.939655333937
 30
0.0
 10
7541.134747085276
 20
6353.556522048941
 30
0.0
 10
7541.118514167614
 20
6353.385878078297
 30
0.0
 10
7541.109559036722
 20
6353.291739789355
 30
0.0
  0
LINE
  5
A5
330
1F
100
AcDbEntity
  8
0
  6
Continuous
 62
     7
370
    25
100
AcDbLine
 10
7545.5821537449
 20
6357.1592989243
 30
0.0
 11
7547.8633166327
 21
6355.3165580011
 31
0.0
  0
LINE
  5
A6
330
1F
100
AcDbEntity
  8
0
  6
Continuous
 62
     7
370
    25
100
AcDbLine
 10
7547.8633166327
 20
6355.3165580011
 30
0.0
 11
7547.8633166327
 21
6357.0683645881
 31
0.0
  0
LINE
  5
A7
330
1F
100
AcDbEntity
  8
0
  6
Continuous
 62
     7
370
    25
100
AcDbLine
 10
7547.8633166327
 20
6357.0683645881
 30
0.0
 11
7548.6543932035
 21
6357.068465171
 31
0.0
  0
LINE
  5
A8
330
1F
100
AcDbEntity
  8
0
  6
Continuous
 62
     7
370
    25
100
AcDbLine
 10
7548.6543932035
 20
6357.068465171
 30
0.0
 11
7548.6543932035
 21
6354.9768823064
 31
0.0
  0
LINE
  5
A9
330
1F
100
AcDbEntity
  8
0
  6
Continuous
 62
     7
370
    25
100
AcDbLine
 10
7548.6543932035
 20
6354.9768823064
 30
0.0
 11
7549.2489122822
 21
6354.9768823064
 31
0.0
  0
LINE
  5
AA
330
1F
100
AcDbEntity
  8
0
  6
Continuous
 62
     7
370
    25
100
AcDbLine
 10
7549.2489122822
 20
6354.9768823064
 30
0.0
 11
7549.2489122822
 21
6357.068465171
 31
0.0
  0
LINE
  5
AB
330
1F
100
AcDbEntity
  8
0
  6
Continuous
 62
     7
370
    25
100
AcDbLine
 10
7549.2489122822
 20
6357.068465171
 30
0.0
 11
7551.2099758758
 21
6357.068465171
 31
0.0
  0
LINE
  5
AC
330
1F
100
AcDbEntity
  8
0
  6
Continuous
 62
     7
370
    25
100
AcDbLine
 10
7551.2099758758
 20
6357.068465171
 30
0.0
 11
7551.2099758758
 21
6356.4547422207
 31
0.0
  0
LINE
  5
AD
330
1F
100
AcDbEntity
  8
0
  6
Continuous
 62
     7
370
    25
100
AcDbLine
 10
7551.2099758758
 20
6356.4547422207
 30
0.0
 11
7549.8899155333
 21
6356.4547422207
 31
0.0
  0
LINE
  5
AE
330
1F
100
AcDbEntity
  8
0
  6
Continuous
 62
     7
370
    25
100
AcDbLine
 10
7549.8899155333
 20
6356.4547422207
 30
0.0
 11
7549.8899155333
 21
6354.9768823064
 31
0.0
  0
LINE
  5
AF
330
1F
100
AcDbEntity
  8
0
  6
Continuous
 62
     7
370
    25
100
AcDbLine
 10
7549.8899155333
 20
6354.9768823064
 30
0.0
 11
7551.220090039
 21
6354.9768823064
 31
0.0
  0
LINE
  5
B0
330
1F
100
AcDbEntity
  8
0
  6
Continuous
 62
     7
370
    25
100
AcDbLine
 10
7551.220090039
 20
6354.9768823064
 30
0.0
 11
7551.4618017747
 21
6354.244415728
 31
0.0
  0
LINE
  5
B1
330
1F
100
AcDbEntity
  8
0
  6
Continuous
 62
     7
370
    25
100
AcDbLine
 10
7551.4618017747
 20
6354.244415728
 30
0.0
 11
7549.8896622136
 21
6354.244415728
 31
0.0
  0
LINE
  5
B2
330
1F
100
AcDbEntity
  8
0
  6
Continuous
 62
     7
370
    25
100
AcDbLine
 10
7549.8896622136
 20
6354.244415728
 30
0.0
 11
7549.8899155333
 21
6352.5976287998
 31
0.0
  0
LINE
  5
B3
330
1F
100
AcDbEntity
  8
0
  6
Continuous
 62
     7
370
    25
100
AcDbLine
 10
7549.8899155333
 20
6352.5976287998
 30
0.0
 11
7551.2099758758
 21
6352.5976287998
 31
0.0
  0
LINE
  5
B4
330
1F
100
AcDbEntity
  8
0
  6
Continuous
 62
     7
370
    25
100
AcDbLine
 10
7551.2099758758
 20
6352.5976287998
 30
0.0
 11
7551.2099758758
 21
6351.9373210944
 31
0.0
  0
LINE
  5
B5
330
1F
100
AcDbEntity
  8
0
  6
Continuous
 62
     7
370
    25
100
AcDbLine
 10
7551.2099758758
 20
6351.9373210944
 30
0.0
 11
7549.2489122822
 21
6351.9373210944
 31
0.0
  0
LINE
  5
B6
330
1F
100
AcDbEntity
  8
0
  6
Continuous
 62
     7
370
    25
100
AcDbLine
 10
7549.2489122822
 20
6351.9373210944
 30
0.0
 11
7549.248986788
 21
6354.244415728
 31
0.0
  0
LINE
  5
B7
330
1F
100
AcDbEntity
  8
0
  6
Continuous
 62
     7
370
    25
100
AcDbLine
 10
7549.248986788
 20
6354.244415728
 30
0.0
 11
7548.6543932035
 21
6354.244415728
 31
0.0
  0
LINE
  5
B8
330
1F
100
AcDbEntity
  8
0
  6
Continuous
 62
     7
370
    25
100
AcDbLine
 10
7548.6543932035
 20
6354.244415728
 30
0.0
 11
7548.6543932035
 21
6351.9373210944
 31
0.0
  0
LINE
  5
B9
330
1F
100
AcDbEntity
  8
0
  6
Continuous
 62
     7
370
    25
100
AcDbLine
 10
7548.6543932035
 20
6351.9373210944
 30
0.0
 11
7547.8633166327
 21
6351.9373210944
 31
0.0
  0
LINE
  5
BA
330
1F
100
AcDbEntity
  8
0
  6
Continuous
 62
     7
370
    25
100
AcDbLine
 10
7547.8633166327
 20
6351.9373210944
 30
0.0
 11
7547.8633166327
 21
6354.244415728
 31
0.0
  0
LINE
  5
BB
330
1F
100
AcDbEntity
  8
0
  6
Continuous
 62
     7
370
    25
100
AcDbLine
 10
7547.8633166327
 20
6354.244415728
 30
0.0
 11
7546.3139162435
 21
6355.4211268998
 31
0.0
  0
LINE
  5
BC
330
1F
100
AcDbEntity
  8
0
  6
Continuous
 62
     7
370
    25
100
AcDbLine
 10
7546.3139162435
 20
6355.4211268998
 30
0.0
 11
7546.3141956403
 21
6351.9373210944
 31
0.0
  0
LINE
  5
BD
330
1F
100
AcDbEntity
  8
0
  6
Continuous
 62
     7
370
    25
100
AcDbLine
 10
7546.3141956403
 20
6351.9373210944
 30
0.0
 11
7545.5820755138
 21
6351.9373210944
 31
0.0
  0
LINE
  5
BE
330
1F
100
AcDbEntity
  8
0
  6
Continuous
 62
     7
370
    25
100
AcDbLine
 10
7545.5820755138
 20
6351.9373210944
 30
0.0
 11
7545.5821537449
 21
6357.1592989243
 31
0.0
  0
SPLINE
  5
BF
330
1F
100
AcDbEntity
  8
0
  6
Continuous
 62
     7
370
    25
100
AcDbSpline
210
0.0
220
0.0
230
1.0
 70
     8
 71
     3
 72
     9
 73
     5
 74
     0
 42
0.000000001
 43
0.00000001
 40
0.0
 40
0.0
 40
0.0
 40
0.0
 40
0.5803490586235189
 40
1.0
 40
1.0
 40
1.0
 40
1.0
 10
7561.979004092445
 20
6356.615607706416
 30
0.0
 10
7561.71314463041
 20
6356.578664125829
 30
0.0
 10
7561.255041945336
 20
6356.515006607929
 30
0.0
 10
7560.87150277168
 20
6356.260905324106
 30
0.0
 10
7560.7105501964
 20
6356.154271481145
 30
0.0
  0
SPLINE
  5
C0
330
1F
100
AcDbEntity
  8
0
  6
Continuous
 62
     7
370
    25
100
AcDbSpline
210
0.0
220
0.0
230
1.0
 70
     8
 71
     3
 72
    13
 73
     9
 74
     0
 42
0.000000001
 43
0.00000001
 40
0.0
 40
0.0
 40
0.0
 40
0.0
 40
0.0614497985924261
 40
0.1279892662736371
 40
0.2046073200226639
 40
0.4874880252629746
 40
0.7874752290152632
 40
1.0
 40
1.0
 40
1.0
 40
1.0
 10
7562.072527505388
 20
6356.605169443
 30
0.0
 10
7562.077525723062
 20
6356.63886638006
 30
0.0
 10
7562.087936143068
 20
6356.70905125208
 30
0.0
 10
7562.044818941974
 20
6356.816307010104
 30
0.0
 10
7561.911411191319
 20
6357.006763382481
 30
0.0
 10
7561.618327765716
 20
6357.228427633182
 30
0.0
 10
7561.245325948577
 20
6357.447618188078
 30
0.0
 10
7560.992622345003
 20
6357.567987081517
 30
0.0
 10
7560.887833036413
 20
6357.617900786508
 30
0.0
  0
SPLINE
  5
C1
330
1F
100
AcDbEntity
  8
0
  6
Continuous
 62
     7
370
    25
100
AcDbSpline
210
0.0
220
0.0
230
1.0
 70
     8
 71
     3
 72
     9
 73
     5
 74
     0
 42
0.000000001
 43
0.00000001
 40
0.0
 40
0.0
 40
0.0
 40
0.0
 40
0.5230201899608666
 40
1.0
 40
1.0
 40
1.0
 40
1.0
 10
7560.825710095396
 20
6358.225573865283
 30
0.0
 10
7560.849945738552
 20
6358.215312778478
 30
0.0
 10
7560.896283611587
 20
6358.195693867003
 30
0.0
 10
7560.941612125906
 20
6358.173845890782
 30
0.0
 10
7560.963232912054
 20
6358.163424847234
 30
0.0
  0
LINE
  5
C2
330
1F
100
AcDbEntity
  8
0
  6
Continuous
 62
     7
370
    25
100
AcDbLine
 10
7558.4573977663
 20
6357.4804301239
 30
0.0
 11
7558.510609813
 21
6357.5558821536
 31
0.0
  0
SPLINE
  5
C3
330
1F
100
AcDbEntity
  8
0
  6
Continuous
 62
     7
370
    25
100
AcDbSpline
210
0.0
220
0.0
230
1.0
 70
     8
 71
     3
 72
    11
 73
     7
 74
     0
 42
0.000000001
 43
0.00000001
 40
0.0
 40
0.0
 40
0.0
 40
0.0
 40
0.2848172618701083
 40
0.5575068933035356
 40
0.7737988923993911
 40
1.0
 40
1.0
 40
1.0
 40
1.0
 10
7560.705956913462
 20
6356.801849869597
 30
0.0
 10
7560.728568527665
 20
6356.80467319338
 30
0.0
 10
7560.772828944694
 20
6356.810199622712
 30
0.0
 10
7560.822111148511
 20
6356.850307787625
 30
0.0
 10
7560.851557504332
 20
6356.899737560551
 30
0.0
 10
7560.854997929856
 20
6356.934753371772
 30
0.0
 10
7560.856756664743
 20
6356.952653346169
 30
0.0
  0
SPLINE
  5
C4
330
1F
100
AcDbEntity
  8
0
  6
Continuous
 62
     7
370
    25
100
AcDbSpline
210
0.0
220
0.0
230
1.0
 70
     8
 71
     3
 72
    11
 73
     7
 74
     0
 42
0.000000001
 43
0.00000001
 40
0.0
 40
0.0
 40
0.0
 40
0.0
 40
0.2798011155473287
 40
0.5591844430074842
 40
0.7790752498380863
 40
0.9999999999999999
 40
0.9999999999999999
 40
0.9999999999999999
 40
0.9999999999999999
 10
7559.703611679306
 20
6356.801849869597
 30
0.0
 10
7559.725586885609
 20
6356.805046250034
 30
0.0
 10
7559.769504485696
 20
6356.811434238197
 30
0.0
 10
7559.817823486143
 20
6356.852236054978
 30
0.0
 10
7559.848487843963
 20
6356.900752016808
 30
0.0
 10
7559.852418927069
 20
6356.935325871784
 30
0.0
 10
7559.854389078846
 20
6356.952653346169
 30
0.0
  0
SPLINE
  5
C5
330
1F
100
AcDbEntity
  8
0
  6
Continuous
 62
     7
370
    25
100
AcDbSpline
210
0.0
220
0.0
230
1.0
 70
     8
 71
     3
 72
    11
 73
     7
 74
     0
 42
0.000000001
 43
0.00000001
 40
0.0
 40
0.0
 40
0.0
 40
0.0
 40
0.2680330029051651
 40
0.5585758933384494
 40
0.7854326390053938
 40
1.0
 40
1.0
 40
1.0
 40
1.0
 10
7559.708055950632
 20
6351.448600260127
 30
0.0
 10
7559.710564107699
 20
6351.850655659138
 30
0.0
 10
7559.715791061317
 20
6352.688531783495
 30
0.0
 10
7559.715091240286
 20
6353.865793191085
 30
0.0
 10
7559.638573427582
 20
6354.965550583566
 30
0.0
 10
7559.470469516682
 20
6355.607313516304
 30
0.0
 10
7559.388757593861
 20
6355.919261542666
 30
0.0
  0
SPLINE
  5
C6
330
1F
100
AcDbEntity
  8
0
  6
Continuous
 62
     7
370
    25
100
AcDbSpline
210
0.0
220
0.0
230
1.0
 70
     8
 71
     3
 72
    13
 73
     9
 74
     0
 42
0.000000001
 43
0.00000001
 40
0.0
 40
0.0
 40
0.0
 40
0.0
 40
0.0408730081092159
 40
0.0926350117123208
 40
0.1575218558868257
 40
0.3707530792616924
 40
0.6424876568655811
 40
1.0
 40
1.0
 40
1.0
 40
1.0
 10
7559.264537788858
 20
6356.260744003165
 30
0.0
 10
7559.307858314441
 20
6356.209209678332
 30
0.0
 10
7559.40604040527
 20
6356.092411747241
 30
0.0
 10
7559.508135195546
 20
6355.851954252581
 30
0.0
 10
7559.662782707012
 20
6355.33392077788
 30
0.0
 10
7559.770760236826
 20
6354.432930754345
 30
0.0
 10
7559.824825537645
 20
6353.053469912047
 30
0.0
 10
7559.798477727535
 20
6352.021512580101
 30
0.0
 10
7559.783507980337
 20
6351.435196665633
 30
0.0
  0
SPLINE
  5
C7
330
1F
100
AcDbEntity
  8
0
  6
Continuous
 62
     7
370
    25
100
AcDbSpline
210
0.0
220
0.0
230
1.0
 70
     8
 71
     3
 72
     9
 73
     5
 74
     0
 42
0.000000001
 43
0.00000001
 40
0.0
 40
0.0
 40
0.0
 40
0.0
 40
0.5576988207952146
 40
1.0
 40
1.0
 40
1.0
 40
1.0
 10
7560.951360411873
 20
6356.059116391051
 30
0.0
 10
7560.8797004318
 20
6355.955013301259
 30
0.0
 10
7560.751208175047
 20
6355.768347871977
 30
0.0
 10
7560.69216343614
 20
6355.550072797622
 30
0.0
 10
7560.666047878494
 20
6355.453529474843
 30
0.0
  0
SPLINE
  5
C8
330
1F
100
AcDbEntity
  8
0
  6
Continuous
 62
     7
370
    25
100
AcDbSpline
210
0.0
220
0.0
230
1.0
 70
     8
 71
     3
 72
    10
 73
     6
 74
     0
 42
0.000000001
 43
0.00000001
 40
0.0
 40
0.0
 40
0.0
 40
0.0
 40
0.3230761096249222
 40
0.6047101175887467
 40
1.0
 40
1.0
 40
1.0
 40
1.0
 10
7562.113211400738
 20
6356.546533373702
 30
0.0
 10
7561.979314926967
 20
6356.540432327984
 30
0.0
 10
7561.728697348054
 20
6356.529012839006
 30
0.0
 10
7561.324866486299
 20
6356.401876353134
 30
0.0
 10
7561.112670501733
 20
6356.213291893337
 30
0.0
 10
7560.988758601179
 20
6356.103167948831
 30
0.0
  0
SPLINE
  5
C9
330
1F
100
AcDbEntity
  8
0
  6
Continuous
 62
     7
370
    25
100
AcDbSpline
210
0.0
220
0.0
230
1.0
 70
     8
 71
     3
 72
     9
 73
     5
 74
     0
 42
0.000000001
 43
0.00000001
 40
0.0
 40
0.0
 40
0.0
 40
0.0
 40
0.5603856783569794
 40
1.0
 40
1.0
 40
1.0
 40
1.0
 10
7562.135425306788
 20
6354.560975996364
 30
0.0
 10
7562.165609311807
 20
6354.45588823294
 30
0.0
 10
7562.219472224771
 20
6354.268360664905
 30
0.0
 10
7562.244065280636
 20
6354.074899874739
 30
0.0
 10
7562.254876740208
 20
6353.989851740706
 30
0.0
  0
SPLINE
  5
CA
330
1F
100
AcDbEntity
  8
0
  6
Continuous
 62
     7
370
    25
100
AcDbSpline
210
0.0
220
0.0
230
1.0
 70
     8
 71
     3
 72
     9
 73
     5
 74
     0
 42
0.000000001
 43
0.00000001
 40
0.0
 40
0.0
 40
0.0
 40
0.0
 40
0.5605522827873652
 40
1.0
 40
1.0
 40
1.0
 40
1.0
 10
7561.569546259871
 20
6355.609876183379
 30
0.0
 10
7561.628703054116
 20
6355.532559431135
 30
0.0
 10
7561.734236107966
 20
6355.394629830955
 30
0.0
 10
7561.823178944073
 20
6355.245516410871
 30
0.0
 10
7561.862264670362
 20
6355.179988858808
 30
0.0
  0
SPLINE
  5
CB
330
1F
100
AcDbEntity
  8
0
  6
Continuous
 62
     7
370
    25
100
AcDbSpline
210
0.0
220
0.0
230
1.0
 70
     8
 71
     3
 72
    10
 73
     6
 74
     0
 42
0.000000001
 43
0.00000001
 40
0.0
 40
0.0
 40
0.0
 40
0.0
 40
0.2000564975239841
 40
0.4722301827705888
 40
1.0
 40
1.0
 40
1.0
 40
1.0
 10
7558.47509289526
 20
6358.913038936961
 30
0.0
 10
7558.562685498038
 20
6358.889615761669
 30
0.0
 10
7558.769446444727
 20
6358.83432572867
 30
0.0
 10
7559.180874042963
 20
6358.640270301531
 30
0.0
 10
7559.485207852641
 20
6358.443860114586
 30
0.0
 10
7559.685994781485
 20
6358.31427675258
 30
0.0
  0
SPLINE
  5
CC
330
1F
100
AcDbEntity
  8
0
  6
Continuous
 62
     7
370
    25
100
AcDbSpline
210
0.0
220
0.0
230
1.0
 70
     8
 71
     3
 72
    11
 73
     7
 74
     0
 42
0.000000001
 43
0.00000001
 40
0.0
 40
0.0
 40
0.0
 40
0.0
 40
0.2932385579170693
 40
0.5809880726323354
 40
0.7978104235641669
 40
1.0
 40
1.0
 40
1.0
 40
1.0
 10
7560.1160571947
 20
6358.292088923562
 30
0.0
 10
7560.346994034854
 20
6358.27107818457
 30
0.0
 10
7560.80454487883
 20
6358.229450000205
 30
0.0
 10
7561.348051680568
 20
6357.891937438381
 30
0.0
 10
7561.74171132566
 20
6357.492944292778
 30
0.0
 10
7561.868721647033
 20
6357.188339777255
 30
0.0
 10
7561.93000907444
 20
6357.041356233466
 30
0.0
  0
SPLINE
  5
CD
330
1F
100
AcDbEntity
  8
0
  6
Continuous
 62
     7
370
    25
100
AcDbSpline
210
0.0
220
0.0
230
1.0
 70
     8
 71
     3
 72
     9
 73
     5
 74
     0
 42
0.000000001
 43
0.00000001
 40
0.0
 40
0.0
 40
0.0
 40
0.0
 40
0.5857156193230413
 40
0.9999999999999999
 40
0.9999999999999999
 40
0.9999999999999999
 40
0.9999999999999999
 10
7560.519688673248
 20
6358.323161569941
 30
0.0
 10
7560.706192394226
 20
6358.46470183268
 30
0.0
 10
7561.024612656253
 20
6358.706355389575
 30
0.0
 10
7561.407701741156
 20
6358.814886498737
 30
0.0
 10
7561.566409565439
 20
6358.85984924208
 30
0.0
  0
SPLINE
  5
CE
330
1F
100
AcDbEntity
  8
0
  6
Continuous
 62
     7
370
    25
100
AcDbSpline
210
0.0
220
0.0
230
1.0
 70
     8
 71
     3
 72
    19
 73
    15
 74
     0
 42
0.000000001
 43
0.00000001
 40
0.0
 40
0.0
 40
0.0
 40
0.0
 40
0.2105242279387061
 40
0.3855540684594839
 40
0.539272923304143
 40
0.6783892311281575
 40
0.8559811197942313
 40
0.9734521973798588
 40
0.9979918327646456
 40
0.999358197233711
 40
0.9997508792395622
 40
0.9998446907393999
 40
0.9999260432092381
 40
1.0
 40
1.0
 40
1.0
 40
1.0
 10
7560.887833036413
 20
6357.617900786508
 30
0.0
 10
7560.797781114275
 20
6357.550435395978
 30
0.0
 10
7560.632860025177
 20
6357.426879280589
 30
0.0
 10
7560.353957684821
 20
6357.340976946582
 30
0.0
 10
7560.102834268102
 20
6357.335977995699
 30
0.0
 10
7559.857968529048
 20
6357.393781084123
 30
0.0
 10
7559.64833148952
 20
6357.496831574832
 30
0.0
 10
7559.514984097801
 20
6357.601112446509
 30
0.0
 10
7559.458315716365
 20
6357.653363673665
 30
0.0
 10
7559.450959048156
 20
6357.665280733366
 30
0.0
 10
7559.450675117111
 20
6357.666244585422
 30
0.0
 10
7559.450691116587
 20
6357.666547159894
 30
0.0
 10
7559.450730504373
 20
6357.666676328715
 30
0.0
 10
7559.450781666266
 20
6357.666741727606
 30
0.0
 10
7559.450806029072
 20
6357.666772869933
 30
0.0
  0
SPLINE
  5
CF
330
1F
100
AcDbEntity
  8
0
  6
Continuous
 62
     7
370
    25
100
AcDbSpline
210
0.0
220
0.0
230
1.0
 70
     8
 71
     3
 72
    13
 73
     9
 74
     0
 42
0.000000001
 43
0.00000001
 40
0.0
 40
0.0
 40
0.0
 40
0.0
 40
0.2413747079642291
 40
0.5925123813865966
 40
0.8684425302361402
 40
0.9534186818461068
 40
0.9788498984070912
 40
1.0
 40
1.0
 40
1.0
 40
1.0
 10
7559.450806029072
 20
6357.666772869933
 30
0.0
 10
7559.338063283675
 20
6357.602642606621
 30
0.0
 10
7559.061309049058
 20
6357.445219422747
 30
0.0
 10
7558.675262905112
 20
6357.183607317958
 30
0.0
 10
7558.370322313703
 20
6356.94943152765
 30
0.0
 10
7558.233640162312
 20
6356.79178806781
 30
0.0
 10
7558.199299050772
 20
6356.729212939676
 30
0.0
 10
7558.194049087947
 20
6356.704631241844
 30
0.0
 10
7558.191665358772
 20
6356.693469998944
 30
0.0
  0
SPLINE
  5
D0
330
1F
100
AcDbEntity
  8
0
  6
Continuous
 62
     7
370
    25
100
AcDbSpline
210
0.0
220
0.0
230
1.0
 70
     8
 71
     3
 72
    10
 73
     6
 74
     0
 42
0.000000001
 43
0.00000001
 40
0.0
 40
0.0
 40
0.0
 40
0.0
 40
0.2880389198903557
 40
0.5382533443081641
 40
1.0
 40
1.0
 40
1.0
 40
1.0
 10
7558.191665358772
 20
6356.693469998944
 30
0.0
 10
7558.369625494593
 20
6356.782466965435
 30
0.0
 10
7558.702176520323
 20
6356.948774056379
 30
0.0
 10
7559.355841215481
 20
6357.189671952481
 30
0.0
 10
7559.851953300338
 20
6357.207349367754
 30
0.0
 10
7560.173709787359
 20
6357.218814162124
 30
0.0
  0
SPLINE
  5
D1
330
1F
100
AcDbEntity
  8
0
  6
Continuous
 62
     7
370
    25
100
AcDbSpline
210
0.0
220
0.0
230
1.0
 70
     8
 71
     3
 72
    11
 73
     7
 74
     0
 42
0.000000001
 43
0.00000001
 40
0.0
 40
0.0
 40
0.0
 40
0.0
 40
0.3432459106756101
 40
0.6418075935808927
 40
0.8399953091047506
 40
1.0
 40
1.0
 40
1.0
 40
1.0
 10
7560.173709787359
 20
6357.218814162124
 30
0.0
 10
7560.406844096182
 20
6357.206160890063
 30
0.0
 10
7560.842762966801
 20
6357.182501566412
 30
0.0
 10
7561.390508735618
 20
6357.013269407566
 30
0.0
 10
7561.796179238671
 20
6356.823415648661
 30
0.0
 10
7561.987198932101
 20
6356.672557733781
 30
0.0
 10
7562.072527505388
 20
6356.605169443
 30
0.0
  0
SPLINE
  5
D2
330
1F
100
AcDbEntity
  8
0
  6
Continuous
 62
     7
370
    25
100
AcDbSpline
210
0.0
220
0.0
230
1.0
 70
     8
 71
     3
 72
     9
 73
     5
 74
     0
 42
0.000000001
 43
0.00000001
 40
0.0
 40
0.0
 40
0.0
 40
0.0
 40
0.5404787073507378
 40
1.0
 40
1.0
 40
1.0
 40
1.0
 10
7562.112034209003
 20
6358.837612984288
 30
0.0
 10
7562.077759342788
 20
6358.606712066336
 30
0.0
 10
7562.014343586073
 20
6358.179496498335
 30
0.0
 10
7561.79254879811
 20
6357.809935733108
 30
0.0
 10
7561.690629370441
 20
6357.640114692557
 30
0.0
  0
SPLINE
  5
D3
330
1F
100
AcDbEntity
  8
0
  6
Continuous
 62
     7
370
    25
100
AcDbSpline
210
0.0
220
0.0
230
1.0
 70
     8
 71
     3
 72
     9
 73
     5
 74
     0
 42
0.000000001
 43
0.00000001
 40
0.0
 40
0.0
 40
0.0
 40
0.0
 40
0.5734613311550923
 40
1.0
 40
1.0
 40
1.0
 40
1.0
 10
7561.690629370441
 20
6357.640114692557
 30
0.0
 10
7561.709466420096
 20
6357.615912523567
 30
0.0
 10
7561.742314405881
 20
6357.57370886017
 30
0.0
 10
7561.768211598055
 20
6357.526953177038
 30
0.0
 10
7561.779257751932
 20
6357.507010070193
 30
0.0
  0
SPLINE
  5
D4
330
1F
100
AcDbEntity
  8
0
  6
Continuous
 62
     7
370
    25
100
AcDbSpline
210
0.0
220
0.0
230
1.0
 70
     8
 71
     3
 72
     9
 73
     5
 74
     0
 42
0.000000001
 43
0.00000001
 40
0.0
 40
0.0
 40
0.0
 40
0.0
 40
0.5892286487046685
 40
1.0
 40
1.0
 40
1.0
 40
1.0
 10
7561.779257751932
 20
6357.507010070193
 30
0.0
 10
7561.934422981876
 20
6357.782863009137
 30
0.0
 10
7562.197759176212
 20
6358.251022423227
 30
0.0
 10
7562.246965216934
 20
6358.783119453889
 30
0.0
 10
7562.267177648773
 20
6359.001689670194
 30
0.0
  0
SPLINE
  5
D5
330
1F
100
AcDbEntity
  8
0
  6
Continuous
 62
     7
370
    25
100
AcDbSpline
210
0.0
220
0.0
230
1.0
 70
     8
 71
     3
 72
     9
 73
     5
 74
     0
 42
0.000000001
 43
0.00000001
 40
0.0
 40
0.0
 40
0.0
 40
0.0
 40
0.5674035808758776
 40
1.0
 40
1.0
 40
1.0
 40
1.0
 10
7562.267177648773
 20
6359.001689670194
 30
0.0
 10
7561.959614234946
 20
6358.916558822076
 30
0.0
 10
7561.417560176437
 20
6358.766523025708
 30
0.0
 10
7561.004429113746
 20
6358.388922500394
 30
0.0
 10
7560.825710095396
 20
6358.225573865283
 30
0.0
  0
SPLINE
  5
D6
330
1F
100
AcDbEntity
  8
0
  6
Continuous
 62
     7
370
    25
100
AcDbSpline
210
0.0
220
0.0
230
1.0
 70
     8
 71
     3
 72
     9
 73
     5
 74
     0
 42
0.000000001
 43
0.00000001
 40
0.0
 40
0.0
 40
0.0
 40
0.0
 40
0.5626916434020902
 40
1.0
 40
1.0
 40
1.0
 40
1.0
 10
7558.510609812965
 20
6357.555882153619
 30
0.0
 10
7558.399330502843
 20
6357.789796337219
 30
0.0
 10
7558.201567995742
 20
6358.205502144017
 30
0.0
 10
7558.178961296775
 20
6358.663816612378
 30
0.0
 10
7558.169075198402
 20
6358.864241359342
 30
0.0
  0
SPLINE
  5
D7
330
1F
100
AcDbEntity
  8
0
  6
Continuous
 62
     7
370
    25
100
AcDbSpline
210
0.0
220
0.0
230
1.0
 70
     8
 71
     3
 72
     9
 73
     5
 74
     0
 42
0.000000001
 43
0.00000001
 40
0.0
 40
0.0
 40
0.0
 40
0.0
 40
0.5522609418676317
 40
1.0
 40
1.0
 40
1.0
 40
1.0
 10
7558.169075198402
 20
6358.864241359342
 30
0.0
 10
7558.381259046121
 20
6358.761774364011
 30
0.0
 10
7558.765468450829
 20
6358.576233458323
 30
0.0
 10
7559.070333190663
 20
6358.278837207002
 30
0.0
 10
7559.206833042135
 20
6358.145681289542
 30
0.0
  0
SPLINE
  5
D8
330
1F
100
AcDbEntity
  8
0
  6
Continuous
 62
     7
370
    25
100
AcDbSpline
210
0.0
220
0.0
230
1.0
 70
     8
 71
     3
 72
     9
 73
     5
 74
     0
 42
0.000000001
 43
0.00000001
 40
0.0
 40
0.0
 40
0.0
 40
0.0
 40
0.5568974061198941
 40
1.0
 40
1.0
 40
1.0
 40
1.0
 10
7559.206833042135
 20
6358.145681289542
 30
0.0
 10
7559.233496761844
 20
6358.159173754289
 30
0.0
 10
7559.281375813559
 20
6358.183401672391
 30
0.0
 10
7559.331159183888
 20
6358.203406612691
 30
0.0
 10
7559.353218324413
 20
6358.212270853627
 30
0.0
  0
SPLINE
  5
D9
330
1F
100
AcDbEntity
  8
0
  6
Continuous
 62
     7
370
    25
100
AcDbSpline
210
0.0
220
0.0
230
1.0
 70
     8
 71
     3
 72
     9
 73
     5
 74
     0
 42
0.000000001
 43
0.00000001
 40
0.0
 40
0.0
 40
0.0
 40
0.0
 40
0.586446201234024
 40
1.0
 40
1.0
 40
1.0
 40
1.0
 10
7559.353218324413
 20
6358.212270853627
 30
0.0
 10
7559.135435525603
 20
6358.429161954633
 30
0.0
 10
7558.764075291104
 20
6358.799001678291
 30
0.0
 10
7558.26153965504
 20
6358.932979585897
 30
0.0
 10
7558.05371413373
 20
6358.988386658538
 30
0.0
  0
SPLINE
  5
DA
330
1F
100
AcDbEntity
  8
0
  6
Continuous
 62
     7
370
    25
100
AcDbSpline
210
0.0
220
0.0
230
1.0
 70
     8
 71
     3
 72
     9
 73
     5
 74
     0
 42
0.000000001
 43
0.00000001
 40
0.0
 40
0.0
 40
0.0
 40
0.0
 40
0.5266527032029853
 40
1.0
 40
1.0
 40
1.0
 40
1.0
 10
7558.05371413373
 20
6358.988386658538
 30
0.0
 10
7558.071442064327
 20
6358.709022845243
 30
0.0
 10
7558.105103584508
 20
6358.178571161243
 30
0.0
 10
7558.344215016416
 20
6357.704724269308
 30
0.0
 10
7558.457397766342
 20
6357.480430123914
 30
0.0
  0
SPLINE
  5
DB
330
1F
100
AcDbEntity
  8
0
  6
Continuous
 62
     7
370
    25
100
AcDbSpline
210
0.0
220
0.0
230
1.0
 70
     8
 71
     3
 72
    11
 73
     7
 74
     0
 42
0.000000001
 43
0.00000001
 40
0.0
 40
0.0
 40
0.0
 40
0.0
 40
0.2848218614148278
 40
0.5575144098002546
 40
0.7738228748137713
 40
0.9999999999999999
 40
0.9999999999999999
 40
0.9999999999999999
 40
0.9999999999999999
 10
7560.856756664743
 20
6356.952653346169
 30
0.0
 10
7560.853932339619
 20
6356.975262957322
 30
0.0
 10
7560.84840396498
 20
6357.019519335516
 30
0.0
 10
7560.808288735012
 20
6357.068789195701
 30
0.0
 10
7560.758864411008
 20
6357.098229927107
 30
0.0
 10
7560.723853029725
 20
6357.10166908836
 30
0.0
 10
7560.705956913462
 20
6357.103427020419
 30
0.0
  0
SPLINE
  5
DC
330
1F
100
AcDbEntity
  8
0
  6
Continuous
 62
     7
370
    25
100
AcDbSpline
210
0.0
220
0.0
230
1.0
 70
     8
 71
     3
 72
    11
 73
     7
 74
     0
 42
0.000000001
 43
0.00000001
 40
0.0
 40
0.0
 40
0.0
 40
0.0
 40
0.2779664354302077
 40
0.550881413826332
 40
0.7700805763879249
 40
1.0
 40
1.0
 40
1.0
 40
1.0
 10
7560.705956913462
 20
6357.103427020419
 30
0.0
 10
7560.684271091308
 20
6357.100515306055
 30
0.0
 10
7560.641293541339
 20
6357.094744791628
 30
0.0
 10
7560.593727047972
 20
6357.054644182174
 30
0.0
 10
7560.5647874085
 20
6357.00549216108
 30
0.0
 10
7560.561354918977
 20
6356.9705443474
 30
0.0
 10
7560.559597708216
 20
6356.952653346169
 30
0.0
  0
SPLINE
  5
DD
330
1F
100
AcDbEntity
  8
0
  6
Continuous
 62
     7
370
    25
100
AcDbSpline
210
0.0
220
0.0
230
1.0
 70
     8
 71
     3
 72
    11
 73
     7
 74
     0
 42
0.000000001
 43
0.00000001
 40
0.0
 40
0.0
 40
0.0
 40
0.0
 40
0.2895387535749738
 40
0.5649740065396592
 40
0.7799318722258634
 40
1.0
 40
1.0
 40
1.0
 40
1.0
 10
7560.559597708216
 20
6356.952653346169
 30
0.0
 10
7560.562414831198
 20
6356.930053545897
 30
0.0
 10
7560.567911854441
 20
6356.885954786922
 30
0.0
 10
7560.607149938692
 20
6356.836841061195
 30
0.0
 10
7560.654980906988
 20
6356.807215896195
 30
0.0
 10
7560.688832359993
 20
6356.803652498242
 30
0.0
 10
7560.705956913462
 20
6356.801849869597
 30
0.0
  0
SPLINE
  5
DE
330
1F
100
AcDbEntity
  8
0
  6
Continuous
 62
     7
370
    25
100
AcDbSpline
210
0.0
220
0.0
230
1.0
 70
     8
 71
     3
 72
    11
 73
     7
 74
     0
 42
0.000000001
 43
0.00000001
 40
0.0
 40
0.0
 40
0.0
 40
0.0
 40
0.2798447516220524
 40
0.5568510093272482
 40
0.776751936878581
 40
1.0
 40
1.0
 40
1.0
 40
1.0
 10
7559.854389078846
 20
6356.952653346169
 30
0.0
 10
7559.851237567538
 20
6356.974383782601
 30
0.0
 10
7559.844966511024
 20
6357.017624241424
 30
0.0
 10
7559.803811442734
 20
6357.064594013532
 30
0.0
 10
7559.75521407029
 20
6357.093551554316
 30
0.0
 10
7559.720898871339
 20
6357.097180598714
 30
0.0
 10
7559.703611679306
 20
6357.099008826125
 30
0.0
  0
SPLINE
  5
DF
330
1F
100
AcDbEntity
  8
0
  6
Continuous
 62
     7
370
    25
100
AcDbSpline
210
0.0
220
0.0
230
1.0
 70
     8
 71
     3
 72
    11
 73
     7
 74
     0
 42
0.000000001
 43
0.00000001
 40
0.0
 40
0.0
 40
0.0
 40
0.0
 40
0.2823930445709695
 40
0.5606728566744122
 40
0.778643782062795
 40
1.0
 40
1.0
 40
1.0
 40
1.0
 10
7559.703611679306
 20
6357.099008826125
 30
0.0
 10
7559.681704398369
 20
6357.096055269624
 30
0.0
 10
7559.638208929833
 20
6357.090191177029
 30
0.0
 10
7559.589470674014
 20
6357.051324260635
 30
0.0
 10
7559.558614575838
 20
6357.003860476347
 30
0.0
 10
7559.554756054742
 20
6356.969809850076
 30
0.0
 10
7559.552811928024
 20
6356.952653346169
 30
0.0
  0
SPLINE
  5
E0
330
1F
100
AcDbEntity
  8
0
  6
Continuous
 62
     7
370
    25
100
AcDbSpline
210
0.0
220
0.0
230
1.0
 70
     8
 71
     3
 72
    11
 73
     7
 74
     0
 42
0.000000001
 43
0.00000001
 40
0.0
 40
0.0
 40
0.0
 40
0.0
 40
0.2798770067161426
 40
0.5593238683949371
 40
0.7792139032767702
 40
0.9999999999999999
 40
0.9999999999999999
 40
0.9999999999999999
 40
0.9999999999999999
 10
7559.552811928024
 20
6356.952653346169
 30
0.0
 10
7559.556013049431
 20
6356.930672733782
 30
0.0
 10
7559.562410372419
 20
6356.886745291169
 30
0.0
 10
7559.603224660015
 20
6356.838422791157
 30
0.0
 10
7559.651734421748
 20
6356.80776174787
 30
0.0
 10
7559.68629583463
 20
6356.803823165233
 30
0.0
 10
7559.703611679306
 20
6356.801849869597
 30
0.0
  0
SPLINE
  5
E1
330
1F
100
AcDbEntity
  8
0
  6
Continuous
 62
     7
370
    25
100
AcDbSpline
210
0.0
220
0.0
230
1.0
 70
     8
 71
     3
 72
     9
 73
     5
 74
     0
 42
0.000000001
 43
0.00000001
 40
0.0
 40
0.0
 40
0.0
 40
0.0
 40
0.4408104759229782
 40
1.0
 40
1.0
 40
1.0
 40
1.0
 10
7559.388757593861
 20
6355.919261542666
 30
0.0
 10
7559.379937083528
 20
6355.817833054857
 30
0.0
 10
7559.359927326922
 20
6355.587737598077
 30
0.0
 10
7559.258922029223
 20
6355.379363598173
 30
0.0
 10
7559.202440924873
 20
6355.262843040336
 30
0.0
  0
SPLINE
  5
E2
330
1F
100
AcDbEntity
  8
0
  6
Continuous
 62
     7
370
    25
100
AcDbSpline
210
0.0
220
0.0
230
1.0
 70
     8
 71
     3
 72
    15
 73
    11
 74
     0
 42
0.000000001
 43
0.00000001
 40
0.0
 40
0.0
 40
0.0
 40
0.0
 40
0.0707008847148925
 40
0.1876214866497414
 40
0.4147551611639341
 40
0.5474002285561358
 40
0.6781805560759281
 40
0.7702550032175386
 40
0.8744898671640426
 40
1.0
 40
1.0
 40
1.0
 40
1.0
 10
7559.202440924873
 20
6355.262843040336
 30
0.0
 10
7559.152629422601
 20
6355.167988456553
 30
0.0
 10
7559.020442843235
 20
6354.916269427903
 30
0.0
 10
7558.734177390434
 20
6354.357268821331
 30
0.0
 10
7558.486983644288
 20
6353.66981377622
 30
0.0
 10
7558.418261675127
 20
6352.922907503238
 30
0.0
 10
7558.542838522813
 20
6352.383853932736
 30
0.0
 10
7558.824495445517
 20
6351.967794360171
 30
0.0
 10
7559.207518104129
 20
6351.65326191598
 30
0.0
 10
7559.531218049174
 20
6351.520906356425
 30
0.0
 10
7559.708055950632
 20
6351.448600260127
 30
0.0
  0
SPLINE
  5
E3
330
1F
100
AcDbEntity
  8
0
  6
Continuous
 62
     7
370
    25
100
AcDbSpline
210
0.0
220
0.0
230
1.0
 70
     8
 71
     3
 72
     9
 73
     5
 74
     0
 42
0.000000001
 43
0.00000001
 40
0.0
 40
0.0
 40
0.0
 40
0.0
 40
0.5814020128169765
 40
1.0
 40
1.0
 40
1.0
 40
1.0
 10
7559.783507980337
 20
6351.435196665633
 30
0.0
 10
7559.843243893138
 20
6351.424119718027
 30
0.0
 10
7559.945988485491
 20
6351.40506758652
 30
0.0
 10
7560.050356298059
 20
6351.401337861051
 30
0.0
 10
7560.094044454327
 20
6351.399776605475
 30
0.0
  0
SPLINE
  5
E4
330
1F
100
AcDbEntity
  8
0
  6
Continuous
 62
     7
370
    25
100
AcDbSpline
210
0.0
220
0.0
230
1.0
 70
     8
 71
     3
 72
     9
 73
     5
 74
     0
 42
0.000000001
 43
0.00000001
 40
0.0
 40
0.0
 40
0.0
 40
0.0
 40
0.581882559003096
 40
1.0
 40
1.0
 40
1.0
 40
1.0
 10
7560.094044454327
 20
6351.399776605475
 30
0.0
 10
7560.071172851621
 20
6351.748204057539
 30
0.0
 10
7560.031866633634
 20
6352.346997485304
 30
0.0
 10
7560.10063361085
 20
6352.94259089497
 30
0.0
 10
7560.129386283388
 20
6353.191618887294
 30
0.0
  0
SPLINE
  5
E5
330
1F
100
AcDbEntity
  8
0
  6
Continuous
 62
     7
370
    25
100
AcDbSpline
210
0.0
220
0.0
230
1.0
 70
     8
 71
     3
 72
     9
 73
     5
 74
     0
 42
0.000000001
 43
0.00000001
 40
0.0
 40
0.0
 40
0.0
 40
0.0
 40
0.5578701892884341
 40
0.9999999999999999
 40
0.9999999999999999
 40
0.9999999999999999
 40
0.9999999999999999
 10
7560.129386283388
 20
6353.191618887294
 30
0.0
 10
7560.133798710694
 20
6352.857522999178
 30
0.0
 10
7560.141708126524
 20
6352.258645528163
 30
0.0
 10
7560.160853104575
 20
6351.66002596523
 30
0.0
 10
7560.169317670097
 20
6351.395358411181
 30
0.0
  0
SPLINE
  5
E6
330
1F
100
AcDbEntity
  8
0
  6
Continuous
 62
     7
370
    25
100
AcDbSpline
210
0.0
220
0.0
230
1.0
 70
     8
 71
     3
 72
     9
 73
     5
 74
     0
 42
0.000000001
 43
0.00000001
 40
0.0
 40
0.0
 40
0.0
 40
0.0
 40
0.6227326115542673
 40
1.0
 40
1.0
 40
1.0
 40
1.0
 10
7560.169317670097
 20
6351.395358411181
 30
0.0
 10
7560.236279008878
 20
6351.397310442838
 30
0.0
 10
7560.343807244172
 20
6351.400445065339
 30
0.0
 10
7560.448949342149
 20
6351.422523502731
 30
0.0
 10
7560.488616026869
 20
6351.430852977145
 30
0.0
  0
SPLINE
  5
E7
330
1F
100
AcDbEntity
  8
0
  6
Continuous
 62
     7
370
    25
100
AcDbSpline
210
0.0
220
0.0
230
1.0
 70
     8
 71
     3
 72
    12
 73
     8
 74
     0
 42
0.000000001
 43
0.00000001
 40
0.0
 40
0.0
 40
0.0
 40
0.0
 40
0.3969540824802875
 40
0.6998196714414731
 40
0.8215977830063571
 40
0.9200912730621587
 40
0.9999999999999999
 40
0.9999999999999999
 40
0.9999999999999999
 40
0.9999999999999999
 10
7560.488616026869
 20
6351.430852977145
 30
0.0
 10
7560.453630182488
 20
6352.082242138968
 30
0.0
 10
7560.39195105334
 20
6353.230624204619
 30
0.0
 10
7560.425475919834
 20
6354.588928724924
 30
0.0
 10
7560.578114454231
 20
6355.434024616522
 30
0.0
 10
7560.730140929948
 20
6355.913244165086
 30
0.0
 10
7560.918704269721
 20
6356.141023485598
 30
0.0
 10
7561.003164298763
 20
6356.243048874248
 30
0.0
  0
SPLINE
  5
E8
330
1F
100
AcDbEntity
  8
0
  6
Continuous
 62
     7
370
    25
100
AcDbSpline
210
0.0
220
0.0
230
1.0
 70
     8
 71
     3
 72
    10
 73
     6
 74
     0
 42
0.000000001
 43
0.00000001
 40
0.0
 40
0.0
 40
0.0
 40
0.0
 40
0.5558781087951822
 40
0.789162262221921
 40
1.0
 40
1.0
 40
1.0
 40
1.0
 10
7561.003164298763
 20
6356.243048874248
 30
0.0
 10
7560.855647254013
 20
6356.146058272363
 30
0.0
 10
7560.646222052859
 20
6356.008363836141
 30
0.0
 10
7560.364913300267
 20
6355.849248733426
 30
0.0
 10
7560.223278801907
 20
6355.830532776685
 30
0.0
 10
7560.156040735474
 20
6355.821647760976
 30
0.0
  0
SPLINE
  5
E9
330
1F
100
AcDbEntity
  8
0
  6
Continuous
 62
     7
370
    25
100
AcDbSpline
210
0.0
220
0.0
230
1.0
 70
     8
 71
     3
 72
    10
 73
     6
 74
     0
 42
0.000000001
 43
0.00000001
 40
0.0
 40
0.0
 40
0.0
 40
0.0
 40
0.2674280405868746
 40
0.5687106291007198
 40
1.0
 40
1.0
 40
1.0
 40
1.0
 10
7560.156040735474
 20
6355.821647760976
 30
0.0
 10
7560.067983598906
 20
6355.840293924992
 30
0.0
 10
7559.880721898805
 20
6355.879946728955
 30
0.0
 10
7559.601747802972
 20
6356.070805315307
 30
0.0
 10
7559.389496915053
 20
6356.190358867873
 30
0.0
 10
7559.264537788858
 20
6356.260744003165
 30
0.0
  0
SPLINE
  5
EA
330
1F
100
AcDbEntity
  8
0
  6
Continuous
 62
     7
370
    25
100
AcDbSpline
210
0.0
220
0.0
230
1.0
 70
     8
 71
     3
 72
    10
 73
     6
 74
     0
 42
0.000000001
 43
0.00000001
 40
0.0
 40
0.0
 40
0.0
 40
0.0
 40
0.2737316405311913
 40
0.5596233065601353
 40
1.0
 40
1.0
 40
1.0
 40
1.0
 10
7560.666047878494
 20
6355.453529474843
 30
0.0
 10
7560.604823647516
 20
6355.091122228326
 30
0.0
 10
7560.479655411521
 20
6354.350208458824
 30
0.0
 10
7560.472711896264
 20
6353.005831604381
 30
0.0
 10
7560.518426432235
 20
6352.033722477422
 30
0.0
 10
7560.546145684948
 20
6351.444278923381
 30
0.0
  0
SPLINE
  5
EB
330
1F
100
AcDbEntity
  8
0
  6
Continuous
 62
     7
370
    25
100
AcDbSpline
210
0.0
220
0.0
230
1.0
 70
     8
 71
     3
 72
     9
 73
     5
 74
     0
 42
0.000000001
 43
0.00000001
 40
0.0
 40
0.0
 40
0.0
 40
0.0
 40
0.5275047332479683
 40
1.0
 40
1.0
 40
1.0
 40
1.0
 10
7560.546145684948
 20
6351.444278923381
 30
0.0
 10
7560.551027705686
 20
6351.444745414943
 30
0.0
 10
7560.560282638258
 20
6351.445629751199
 30
0.0
 10
7560.569517189478
 20
6351.446705952239
 30
0.0
 10
7560.57388047122
 20
6351.447214452136
 30
0.0
  0
SPLINE
  5
EC
330
1F
100
AcDbEntity
  8
0
  6
Continuous
 62
     7
370
    25
100
AcDbSpline
210
0.0
220
0.0
230
1.0
 70
     8
 71
     3
 72
    11
 73
     7
 74
     0
 42
0.000000001
 43
0.00000001
 40
0.0
 40
0.0
 40
0.0
 40
0.0
 40
0.2658330863056353
 40
0.5199349922873853
 40
0.7395748132281558
 40
1.0
 40
1.0
 40
1.0
 40
1.0
 10
7560.57388047122
 20
6351.447214452136
 30
0.0
 10
7560.797961624744
 20
6351.522061844967
 30
0.0
 10
7561.236235258957
 20
6351.66845362469
 30
0.0
 10
7561.736993068575
 20
6352.113996583155
 30
0.0
 10
7562.067286905634
 20
6352.679312673054
 30
0.0
 10
7562.177235214045
 20
6353.08956908729
 30
0.0
 10
7562.236879862776
 20
6353.312124577868
 30
0.0
  0
SPLINE
  5
ED
330
1F
100
AcDbEntity
  8
0
  6
Continuous
 62
     7
370
    25
100
AcDbSpline
210
0.0
220
0.0
230
1.0
 70
     8
 71
     3
 72
     9
 73
     5
 74
     0
 42
0.000000001
 43
0.00000001
 40
0.0
 40
0.0
 40
0.0
 40
0.0
 40
0.573436223976746
 40
1.0
 40
1.0
 40
1.0
 40
1.0
 10
7562.236879862776
 20
6353.312124577868
 30
0.0
 10
7561.940599209026
 20
6353.242286503944
 30
0.0
 10
7561.423923349773
 20
6353.120497766148
 30
0.0
 10
7560.911050588958
 20
6353.246009316828
 30
0.0
 10
7560.692277647486
 20
6353.299547997821
 30
0.0
  0
SPLINE
  5
EE
330
1F
100
AcDbEntity
  8
0
  6
Continuous
 62
     7
370
    25
100
AcDbSpline
210
0.0
220
0.0
230
1.0
 70
     8
 71
     3
 72
     9
 73
     5
 74
     0
 42
0.000000001
 43
0.00000001
 40
0.0
 40
0.0
 40
0.0
 40
0.0
 40
0.6446027878659092
 40
1.0
 40
1.0
 40
1.0
 40
1.0
 10
7560.692277647486
 20
6353.299547997821
 30
0.0
 10
7560.701672663859
 20
6353.020825228192
 30
0.0
 10
7560.716247556411
 20
6352.588430620416
 30
0.0
 10
7560.741340207463
 20
6352.156531100536
 30
0.0
 10
7560.750258065691
 20
6352.003035215247
 30
0.0
  0
SPLINE
  5
EF
330
1F
100
AcDbEntity
  8
0
  6
Continuous
 62
     7
370
    25
100
AcDbSpline
210
0.0
220
0.0
230
1.0
 70
     8
 71
     3
 72
    11
 73
     7
 74
     0
 42
0.000000001
 43
0.00000001
 40
0.0
 40
0.0
 40
0.0
 40
0.0
 40
0.3079492622158857
 40
0.6096098036479105
 40
0.8229962974493725
 40
1.0
 40
1.0
 40
1.0
 40
1.0
 10
7560.750258065691
 20
6352.003035215247
 30
0.0
 10
7560.686391465533
 20
6352.411160911028
 30
0.0
 10
7560.559962503497
 20
6353.219077849935
 30
0.0
 10
7560.633213167909
 20
6354.322996547144
 30
0.0
 10
7560.790997278184
 20
6355.240355912119
 30
0.0
 10
7560.995022001663
 20
6355.722598461364
 30
0.0
 10
7561.087527222862
 20
6355.941248206008
 30
0.0
  0
SPLINE
  5
F0
330
1F
100
AcDbEntity
  8
0
  6
Continuous
 62
     7
370
    25
100
AcDbSpline
210
0.0
220
0.0
230
1.0
 70
     8
 71
     3
 72
     9
 73
     5
 74
     0
 42
0.000000001
 43
0.00000001
 40
0.0
 40
0.0
 40
0.0
 40
0.0
 40
0.5183203097922157
 40
1.0
 40
1.0
 40
1.0
 40
1.0
 10
7561.087527222862
 20
6355.941248206008
 30
0.0
 10
7561.063775169783
 20
6355.961351704244
 30
0.0
 10
7561.017950121777
 20
6356.000137562827
 30
0.0
 10
7560.973008080427
 20
6356.039942946281
 30
0.0
 10
7560.951360411873
 20
6356.059116391051
 30
0.0
  0
SPLINE
  5
F1
330
1F
100
AcDbEntity
  8
0
  6
Continuous
 62
     7
370
    25
100
AcDbSpline
210
0.0
220
0.0
230
1.0
 70
     8
 71
     3
 72
     9
 73
     5
 74
     0
 42
0.000000001
 43
0.00000001
 40
0.0
 40
0.0
 40
0.0
 40
0.0
 40
0.606485911517014
 40
1.0
 40
1.0
 40
1.0
 40
1.0
 10
7560.988758601179
 20
6356.103167948831
 30
0.0
 10
7561.01420589848
 20
6356.080561920372
 30
0.0
 10
7561.056164494415
 20
6356.043288130444
 30
0.0
 10
7561.098843480964
 20
6356.00684258538
 30
0.0
 10
7561.115638263454
 20
6355.992500749934
 30
0.0
  0
SPLINE
  5
F2
330
1F
100
AcDbEntity
  8
0
  6
Continuous
 62
     7
370
    25
100
AcDbSpline
210
0.0
220
0.0
230
1.0
 70
     8
 71
     3
 72
     9
 73
     5
 74
     0
 42
0.000000001
 43
0.00000001
 40
0.0
 40
0.0
 40
0.0
 40
0.0
 40
0.5715395165076821
 40
1.0
 40
1.0
 40
1.0
 40
1.0
 10
7561.115638263454
 20
6355.992500749934
 30
0.0
 10
7561.131316109481
 20
6356.019681032972
 30
0.0
 10
7561.15874701421
 20
6356.067237295054
 30
0.0
 10
7561.189559636585
 20
6356.112667173303
 30
0.0
 10
7561.202761627665
 20
6356.132132080901
 30
0.0
  0
SPLINE
  5
F3
330
1F
100
AcDbEntity
  8
0
  6
Continuous
 62
     7
370
    25
100
AcDbSpline
210
0.0
220
0.0
230
1.0
 70
     8
 71
     3
 72
    11
 73
     7
 74
     0
 42
0.000000001
 43
0.00000001
 40
0.0
 40
0.0
 40
0.0
 40
0.0
 40
0.2505284688684869
 40
0.519032658993456
 40
0.7465814122458682
 40
1.0
 40
1.0
 40
1.0
 40
1.0
 10
7561.202761627665
 20
6356.132132080901
 30
0.0
 10
7561.385188624638
 20
6355.953899020563
 30
0.0
 10
7561.763131976699
 20
6355.584644461807
 30
0.0
 10
7562.149645527882
 20
6354.921953325814
 30
0.0
 10
7562.371543636938
 20
6354.18414678213
 30
0.0
 10
7562.360085114671
 20
6353.693389914635
 30
0.0
 10
7562.354047693243
 20
6353.434813288558
 30
0.0
  0
SPLINE
  5
F4
330
1F
100
AcDbEntity
  8
0
  6
Continuous
 62
     7
370
    25
100
AcDbSpline
210
0.0
220
0.0
230
1.0
 70
     8
 71
     3
 72
    11
 73
     7
 74
     0
 42
0.000000001
 43
0.00000001
 40
0.0
 40
0.0
 40
0.0
 40
0.0
 40
0.2849804180038371
 40
0.5578979422879543
 40
0.7729697337961923
 40
1.0
 40
1.0
 40
1.0
 40
1.0
 10
7562.354047693243
 20
6353.434813288558
 30
0.0
 10
7562.29365239039
 20
6353.120078009407
 30
0.0
 10
7562.175418248474
 20
6352.503929833913
 30
0.0
 10
7561.615880818218
 20
6351.812978763372
 30
0.0
 10
7560.920926299199
 20
6351.390714204681
 30
0.0
 10
7560.42726773838
 20
6351.339091822187
 30
0.0
 10
7560.173761941423
 20
6351.31258246075
 30
0.0
  0
SPLINE
  5
F5
330
1F
100
AcDbEntity
  8
0
  6
Continuous
 62
     7
370
    25
100
AcDbSpline
210
0.0
220
0.0
230
1.0
 70
     8
 71
     3
 72
    12
 73
     8
 74
     0
 42
0.000000001
 43
0.00000001
 40
0.0
 40
0.0
 40
0.0
 40
0.0
 40
0.1882504701227631
 40
0.3673967147075444
 40
0.5444201240279761
 40
0.7599945391612233
 40
1.0
 40
1.0
 40
1.0
 40
1.0
 10
7560.173761941423
 20
6351.31258246075
 30
0.0
 10
7559.963457509292
 20
6351.325784824216
 30
0.0
 10
7559.553019450874
 20
6351.351551054495
 30
0.0
 10
7559.004060121784
 20
6351.643433540289
 30
0.0
 10
7558.565877104193
 20
6352.112552431874
 30
0.0
 10
7558.297531173163
 20
6352.793654792476
 30
0.0
 10
7558.367302571201
 20
6353.301209453615
 30
0.0
 10
7558.404059059849
 20
6353.568595913756
 30
0.0
  0
SPLINE
  5
F6
330
1F
100
AcDbEntity
  8
0
  6
Continuous
 62
     7
370
    25
100
AcDbSpline
210
0.0
220
0.0
230
1.0
 70
     8
 71
     3
 72
    10
 73
     6
 74
     0
 42
0.000000001
 43
0.00000001
 40
0.0
 40
0.0
 40
0.0
 40
0.0
 40
0.3502421825928521
 40
0.6174527245578288
 40
1.0
 40
1.0
 40
1.0
 40
1.0
 10
7558.404059059849
 20
6353.568595913756
 30
0.0
 10
7558.47170836199
 20
6353.816758398701
 30
0.0
 10
7558.590969399057
 20
6354.25425168214
 30
0.0
 10
7558.922438632464
 20
6354.909340865275
 30
0.0
 10
7559.121050475503
 20
6355.341254355294
 30
0.0
 10
7559.237983919611
 20
6355.595544991601
 30
0.0
  0
SPLINE
  5
F7
330
1F
100
AcDbEntity
  8
0
  6
Continuous
 62
     7
370
    25
100
AcDbSpline
210
0.0
220
0.0
230
1.0
 70
     8
 71
     3
 72
    13
 73
     9
 74
     0
 42
0.000000001
 43
0.00000001
 40
0.0
 40
0.0
 40
0.0
 40
0.0
 40
0.1448910033390375
 40
0.2648187442558854
 40
0.3776531118107855
 40
0.4948140855953865
 40
0.7484878977996082
 40
1.0
 40
1.0
 40
1.0
 40
1.0
 10
7559.237983919611
 20
6355.595544991601
 30
0.0
 10
7559.262329042245
 20
6355.680513389676
 30
0.0
 10
7559.306824867772
 20
6355.835810985531
 30
0.0
 10
7559.270218299915
 20
6356.068625433174
 30
0.0
 10
7559.157182695363
 20
6356.252375544617
 30
0.0
 10
7558.930790472976
 20
6356.442016118671
 30
0.0
 10
7558.57611124613
 20
6356.587578941081
 30
0.0
 10
7558.274740249583
 20
6356.635902581741
 30
0.0
 10
7558.124699540367
 20
6356.65996101271
 30
0.0
  0
SPLINE
  5
F8
330
1F
100
AcDbEntity
  8
0
  6
Continuous
 62
     7
370
    25
100
AcDbSpline
210
0.0
220
0.0
230
1.0
 70
     8
 71
     3
 72
     9
 73
     5
 74
     0
 42
0.000000001
 43
0.00000001
 40
0.0
 40
0.0
 40
0.0
 40
0.0
 40
0.5505341901866608
 40
1.0
 40
1.0
 40
1.0
 40
1.0
 10
7558.124699540367
 20
6356.65996101271
 30
0.0
 10
7558.164270688778
 20
6356.805495819156
 30
0.0
 10
7558.236148419744
 20
6357.06984780499
 30
0.0
 10
7558.361223382969
 20
6357.313352740131
 30
0.0
 10
7558.417440302601
 20
6357.422799882997
 30
0.0
  0
SPLINE
  5
F9
330
1F
100
AcDbEntity
  8
0
  6
Continuous
 62
     7
370
    25
100
AcDbSpline
210
0.0
220
0.0
230
1.0
 70
     8
 71
     3
 72
     9
 73
     5
 74
     0
 42
0.000000001
 43
0.00000001
 40
0.0
 40
0.0
 40
0.0
 40
0.0
 40
0.5139391263645473
 40
1.0
 40
1.0
 40
1.0
 40
1.0
 10
7558.417440302601
 20
6357.422799882997
 30
0.0
 10
7558.278088903916
 20
6357.688698612911
 30
0.0
 10
7558.006945121438
 20
6358.206072590242
 30
0.0
 10
7557.984755887859
 20
6358.789241727998
 30
0.0
 10
7557.973970569601
 20
6359.072697428573
 30
0.0
  0
SPLINE
  5
FA
330
1F
100
AcDbEntity
  8
0
  6
Continuous
 62
     7
370
    25
100
AcDbSpline
210
0.0
220
0.0
230
1.0
 70
     8
 71
     3
 72
     9
 73
     5
 74
     0
 42
0.000000001
 43
0.00000001
 40
0.0
 40
0.0
 40
0.0
 40
0.0
 40
0.5494791293533081
 40
1.0
 40
1.0
 40
1.0
 40
1.0
 10
7557.973970569601
 20
6359.072697428573
 30
0.0
 10
7558.322968774729
 20
6358.996186107924
 30
0.0
 10
7558.958112470794
 20
6358.856942747145
 30
0.0
 10
7559.496517476367
 20
6358.495041860892
 30
0.0
 10
7559.739080168238
 20
6358.331997958529
 30
0.0
  0
SPLINE
  5
FB
330
1F
100
AcDbEntity
  8
0
  6
Continuous
 62
     7
370
    25
100
AcDbSpline
210
0.0
220
0.0
230
1.0
 70
     8
 71
     3
 72
    12
 73
     8
 74
     0
 42
0.000000001
 43
0.00000001
 40
0.0
 40
0.0
 40
0.0
 40
0.0
 40
0.105118971011784
 40
0.2604632366456552
 40
0.5553543959569671
 40
0.8115288372538105
 40
1.0
 40
1.0
 40
1.0
 40
1.0
 10
7559.739080168238
 20
6358.331997958529
 30
0.0
 10
7559.763259035597
 20
6358.337954250677
 30
0.0
 10
7559.823169306693
 20
6358.352712720211
 30
0.0
 10
7559.954644419336
 20
6358.36269230469
 30
0.0
 10
7560.121392963359
 20
6358.36746600377
 30
0.0
 10
7560.297068504843
 20
6358.364814892993
 30
0.0
 10
7560.40051543299
 20
6358.344870112443
 30
0.0
 10
7560.444363303413
 20
6358.336416152823
 30
0.0
  0
SPLINE
  5
FC
330
1F
100
AcDbEntity
  8
0
  6
Continuous
 62
     7
370
    25
100
AcDbSpline
210
0.0
220
0.0
230
1.0
 70
     8
 71
     3
 72
    10
 73
     6
 74
     0
 42
0.000000001
 43
0.00000001
 40
0.0
 40
0.0
 40
0.0
 40
0.0
 40
0.2545805070070952
 40
0.5359898364035551
 40
1.0
 40
1.0
 40
1.0
 40
1.0
 10
7560.444363303413
 20
6358.336416152823
 30
0.0
 10
7560.579776330018
 20
6358.445986519934
 30
0.0
 10
7560.864872808258
 20
6358.676674265168
 30
0.0
 10
7561.499279046765
 20
6358.950265051672
 30
0.0
 10
7562.002593095538
 20
6359.031187273491
 30
0.0
 10
7562.315896995296
 20
6359.081559894193
 30
0.0
  0
SPLINE
  5
FD
330
1F
100
AcDbEntity
  8
0
  6
Continuous
 62
     7
370
    25
100
AcDbSpline
210
0.0
220
0.0
230
1.0
 70
     8
 71
     3
 72
     9
 73
     5
 74
     0
 42
0.000000001
 43
0.00000001
 40
0.0
 40
0.0
 40
0.0
 40
0.0
 40
0.551320296378992
 40
1.0
 40
1.0
 40
1.0
 40
1.0
 10
7562.315896995296
 20
6359.081559894193
 30
0.0
 10
7562.28722062176
 20
6358.757746677793
 30
0.0
 10
7562.235206622411
 20
6358.170405311028
 30
0.0
 10
7561.948123961654
 20
6357.657395270314
 30
0.0
 10
7561.819315798512
 20
6357.42721807729
 30
0.0
  0
SPLINE
  5
FE
330
1F
100
AcDbEntity
  8
0
  6
Continuous
 62
     7
370
    25
100
AcDbSpline
210
0.0
220
0.0
230
1.0
 70
     8
 71
     3
 72
    10
 73
     6
 74
     0
 42
0.000000001
 43
0.00000001
 40
0.0
 40
0.0
 40
0.0
 40
0.0
 40
0.5754168093269337
 40
0.8047516697554743
 40
1.0
 40
1.0
 40
1.0
 40
1.0
 10
7561.819315798512
 20
6357.42721807729
 30
0.0
 10
7561.912306970948
 20
6357.270721888394
 30
0.0
 10
7562.042360177733
 20
6357.051853465916
 30
0.0
 10
7562.142991396301
 20
6356.743153278516
 30
0.0
 10
7562.122592166659
 20
6356.608469088186
 30
0.0
 10
7562.113211400738
 20
6356.546533373702
 30
0.0
  0
SPLINE
  5
FF
330
1F
100
AcDbEntity
  8
0
  6
Continuous
 62
     7
370
    25
100
AcDbSpline
210
0.0
220
0.0
230
1.0
 70
     8
 71
     3
 72
     9
 73
     5
 74
     0
 42
0.000000001
 43
0.00000001
 40
0.0
 40
0.0
 40
0.0
 40
0.0
 40
0.5715643270733708
 40
0.9999999999999999
 40
0.9999999999999999
 40
0.9999999999999999
 40
0.9999999999999999
 10
7560.785700477591
 20
6354.50688478123
 30
0.0
 10
7561.047234827737
 20
6354.450830015203
 30
0.0
 10
7561.504811232978
 20
6354.352757473983
 30
0.0
 10
7561.946283037248
 20
6354.498524291717
 30
0.0
 10
7562.135425306788
 20
6354.560975996364
 30
0.0
  0
SPLINE
  5
100
330
1F
100
AcDbEntity
  8
0
  6
Continuous
 62
     7
370
    25
100
AcDbSpline
210
0.0
220
0.0
230
1.0
 70
     8
 71
     3
 72
     9
 73
     5
 74
     0
 42
0.000000001
 43
0.00000001
 40
0.0
 40
0.0
 40
0.0
 40
0.0
 40
0.5669420909463365
 40
1.0
 40
1.0
 40
1.0
 40
1.0
 10
7560.721316285362
 20
6353.951593009341
 30
0.0
 10
7560.730782969068
 20
6354.056852155203
 30
0.0
 10
7560.747480765644
 20
6354.242513349782
 30
0.0
 10
7560.774150805777
 20
6354.426993983661
 30
0.0
 10
7560.785700477591
 20
6354.50688478123
 30
0.0
  0
SPLINE
  5
101
330
1F
100
AcDbEntity
  8
0
  6
Continuous
 62
     7
370
    25
100
AcDbSpline
210
0.0
220
0.0
230
1.0
 70
     8
 71
     3
 72
     9
 73
     5
 74
     0
 42
0.000000001
 43
0.00000001
 40
0.0
 40
0.0
 40
0.0
 40
0.0
 40
0.5865731084370359
 40
1.0
 40
1.0
 40
1.0
 40
1.0
 10
7562.254876740208
 20
6353.989851740706
 30
0.0
 10
7561.954312658381
 20
6353.900037134291
 30
0.0
 10
7561.441905803202
 20
6353.746919636873
 30
0.0
 10
7560.932088477565
 20
6353.891726116565
 30
0.0
 10
7560.721316285362
 20
6353.951593009341
 30
0.0
  0
SPLINE
  5
102
330
1F
100
AcDbEntity
  8
0
  6
Continuous
 62
     7
370
    25
100
AcDbSpline
210
0.0
220
0.0
230
1.0
 70
     8
 71
     3
 72
     9
 73
     5
 74
     0
 42
0.000000001
 43
0.00000001
 40
0.0
 40
0.0
 40
0.0
 40
0.0
 40
0.557292384066365
 40
1.0
 40
1.0
 40
1.0
 40
1.0
 10
7561.042521990767
 20
6355.561358002532
 30
0.0
 10
7561.142173846464
 20
6355.553809495158
 30
0.0
 10
7561.320988161082
 20
6355.5402645274
 30
0.0
 10
7561.493274004758
 20
6355.588515229906
 30
0.0
 10
7561.569546259871
 20
6355.609876183379
 30
0.0
  0
SPLINE
  5
103
330
1F
100
AcDbEntity
  8
0
  6
Continuous
 62
     7
370
    25
100
AcDbSpline
210
0.0
220
0.0
230
1.0
 70
     8
 71
     3
 72
     9
 73
     5
 74
     0
 42
0.000000001
 43
0.00000001
 40
0.0
 40
0.0
 40
0.0
 40
0.0
 40
0.5668458021960168
 40
1.0
 40
1.0
 40
1.0
 40
1.0
 10
7560.904548413982
 20
6355.100122360099
 30
0.0
 10
7560.927774656689
 20
6355.18813229004
 30
0.0
 10
7560.968749190883
 20
6355.343394849275
 30
0.0
 10
7561.020225019512
 20
6355.495481172988
 30
0.0
 10
7561.042521990767
 20
6355.561358002532
 30
0.0
  0
SPLINE
  5
104
330
1F
100
AcDbEntity
  8
0
  6
Continuous
 62
     7
370
    25
100
AcDbSpline
210
0.0
220
0.0
230
1.0
 70
     8
 71
     3
 72
     9
 73
     5
 74
     0
 42
0.000000001
 43
0.00000001
 40
0.0
 40
0.0
 40
0.0
 40
0.0
 40
0.5771469340780749
 40
0.9999999999999999
 40
0.9999999999999999
 40
0.9999999999999999
 40
0.9999999999999999
 10
7561.862264670362
 20
6355.179988858808
 30
0.0
 10
7561.680655282434
 20
6355.116788554881
 30
0.0
 10
7561.365987773684
 20
6355.007283851321
 30
0.0
 10
7561.041682073571
 20
6355.072531986214
 30
0.0
 10
7560.904548413982
 20
6355.100122360099
 30
0.0
  0
SPLINE
  5
105
330
1F
100
AcDbEntity
  8
0
  6
Continuous
 62
     7
370
    25
100
AcDbSpline
210
0.0
220
0.0
230
1.0
 70
     8
 71
     3
 72
     9
 73
     5
 74
     0
 42
0.000000001
 43
0.00000001
 40
0.0
 40
0.0
 40
0.0
 40
0.0
 40
0.5483215403898722
 40
0.9999999999999999
 40
0.9999999999999999
 40
0.9999999999999999
 40
0.9999999999999999
 10
7559.397593982449
 20
6358.234410253871
 30
0.0
 10
7559.252595487332
 20
6358.391424046161
 30
0.0
 10
7558.988154854535
 20
6358.677777546296
 30
0.0
 10
7558.634728132606
 20
6358.839839185433
 30
0.0
 10
7558.47509289526
 20
6358.913038936961
 30
0.0
  0
SPLINE
  5
106
330
1F
100
AcDbEntity
  8
0
  6
Continuous
 62
     7
370
    25
100
AcDbSpline
210
0.0
220
0.0
230
1.0
 70
     8
 71
     3
 72
     9
 73
     5
 74
     0
 42
0.000000001
 43
0.00000001
 40
0.0
 40
0.0
 40
0.0
 40
0.0
 40
0.5794213512421947
 40
1.0
 40
1.0
 40
1.0
 40
1.0
 10
7559.685994781485
 20
6358.31427675258
 30
0.0
 10
7559.628984438973
 20
6358.303413024907
 30
0.0
 10
7559.530592582357
 20
6358.284663754363
 30
0.0
 10
7559.436969747729
 20
6358.249288380718
 30
0.0
 10
7559.397593982449
 20
6358.234410253871
 30
0.0
  0
SPLINE
  5
107
330
1F
100
AcDbEntity
  8
0
  6
Continuous
 62
     7
370
    25
100
AcDbSpline
210
0.0
220
0.0
230
1.0
 70
     8
 71
     3
 72
    11
 73
     7
 74
     0
 42
0.000000001
 43
0.00000001
 40
0.0
 40
0.0
 40
0.0
 40
0.0
 40
0.3095260826497754
 40
0.5761952992892079
 40
0.7826952398649015
 40
1.0
 40
1.0
 40
1.0
 40
1.0
 10
7558.275424785843
 20
6356.9260696746
 30
0.0
 10
7558.37218595779
 20
6357.164038295962
 30
0.0
 10
7558.552310785888
 20
6357.607026492088
 30
0.0
 10
7559.056584347298
 20
6358.03899879344
 30
0.0
 10
7559.590182754712
 20
6358.248705263537
 30
0.0
 10
7559.937811472212
 20
6358.277383984061
 30
0.0
 10
7560.1160571947
 20
6358.292088923562
 30
0.0
  0
SPLINE
  5
108
330
1F
100
AcDbEntity
  8
0
  6
Continuous
 62
     7
370
    25
100
AcDbSpline
210
0.0
220
0.0
230
1.0
 70
     8
 71
     3
 72
     9
 73
     5
 74
     0
 42
0.000000001
 43
0.00000001
 40
0.0
 40
0.0
 40
0.0
 40
0.0
 40
0.5027882096163219
 40
0.9999999999999999
 40
0.9999999999999999
 40
0.9999999999999999
 40
0.9999999999999999
 10
7559.47736362361
 20
6357.74212059151
 30
0.0
 10
7559.259385020802
 20
6357.629689007787
 30
0.0
 10
7558.82584541379
 20
6357.406072817962
 30
0.0
 10
7558.458214974676
 20
6357.085474792723
 30
0.0
 10
7558.275424785843
 20
6356.9260696746
 30
0.0
  0
SPLINE
  5
109
330
1F
100
AcDbEntity
  8
0
  6
Continuous
 62
     7
370
    25
100
AcDbSpline
210
0.0
220
0.0
230
1.0
 70
     8
 71
     3
 72
    11
 73
     7
 74
     0
 42
0.000000001
 43
0.00000001
 40
0.0
 40
0.0
 40
0.0
 40
0.0
 40
0.2854120273440055
 40
0.5577826571615377
 40
0.7737400475209327
 40
0.9999999999999999
 40
0.9999999999999999
 40
0.9999999999999999
 40
0.9999999999999999
 10
7560.878896064987
 20
6357.697771010507
 30
0.0
 10
7560.759106439357
 20
6357.603871619899
 30
0.0
 10
7560.525000763059
 20
6357.420363405172
 30
0.0
 10
7560.101697647468
 20
6357.388155931708
 30
0.0
 10
7559.734575169271
 20
6357.498804761555
 30
0.0
 10
7559.564422185666
 20
6357.659765321543
 30
0.0
 10
7559.47736362361
 20
6357.74212059151
 30
0.0
  0
SPLINE
  5
10A
330
1F
100
AcDbEntity
  8
0
  6
Continuous
 62
     7
370
    25
100
AcDbSpline
210
0.0
220
0.0
230
1.0
 70
     8
 71
     3
 72
    10
 73
     6
 74
     0
 42
0.000000001
 43
0.00000001
 40
0.0
 40
0.0
 40
0.0
 40
0.0
 40
0.2216693400972334
 40
0.4978808121026033
 40
1.0
 40
1.0
 40
1.0
 40
1.0
 10
7561.93000907444
 20
6357.041356233466
 30
0.0
 10
7561.864281110159
 20
6357.106273940619
 30
0.0
 10
7561.716652700115
 20
6357.252082471209
 30
0.0
 10
7561.362657140575
 20
6357.475387843141
 30
0.0
 10
7561.068599487442
 20
6357.610565052701
 30
0.0
 10
7560.878896064987
 20
6357.697771010507
 30
0.0
  0
SPLINE
  5
10B
330
1F
100
AcDbEntity
  8
0
  6
Continuous
 62
     7
370
    25
100
AcDbSpline
210
0.0
220
0.0
230
1.0
 70
     8
 71
     3
 72
     9
 73
     5
 74
     0
 42
0.000000001
 43
0.00000001
 40
0.0
 40
0.0
 40
0.0
 40
0.0
 40
0.555010973279885
 40
1.0
 40
1.0
 40
1.0
 40
1.0
 10
7560.772498048773
 20
6358.247813848365
 30
0.0
 10
7560.726049389204
 20
6358.262840862242
 30
0.0
 10
7560.642359765384
 20
6358.289916027598
 30
0.0
 10
7560.557465631334
 20
6358.312923498056
 30
0.0
 10
7560.519688673248
 20
6358.323161569941
 30
0.0
  0
SPLINE
  5
10C
330
1F
100
AcDbEntity
  8
0
  6
Continuous
 62
     7
370
    25
100
AcDbSpline
210
0.0
220
0.0
230
1.0
 70
     8
 71
     3
 72
     9
 73
     5
 74
     0
 42
0.000000001
 43
0.00000001
 40
0.0
 40
0.0
 40
0.0
 40
0.0
 40
0.5806158290703098
 40
1.0
 40
1.0
 40
1.0
 40
1.0
 10
7561.566409565439
 20
6358.85984924208
 30
0.0
 10
7561.396161393399
 20
6358.762243203967
 30
0.0
 10
7561.102941395741
 20
6358.59413542387
 30
0.0
 10
7560.870133848823
 20
6358.350141174394
 30
0.0
 10
7560.772498048773
 20
6358.247813848365
 30
0.0
  0
SPLINE
  5
10D
330
1F
100
AcDbEntity
  8
0
  6
Continuous
 62
     7
370
    25
100
AcDbSpline
210
0.0
220
0.0
230
1.0
 70
     8
 71
     3
 72
     9
 73
     5
 74
     0
 42
0.000000001
 43
0.00000001
 40
0.0
 40
0.0
 40
0.0
 40
0.0
 40
0.5532676609158336
 40
1.0
 40
1.0
 40
1.0
 40
1.0
 10
7560.781308360329
 20
6356.438153503049
 30
0.0
 10
7560.994934279885
 20
6356.527079625654
 30
0.0
 10
7561.381051045146
 20
6356.687808561911
 30
0.0
 10
7561.794363882044
 20
6356.637902401978
 30
0.0
 10
7561.979004092445
 20
6356.615607706416
 30
0.0
  0
SPLINE
  5
10E
330
1F
100
AcDbEntity
  8
0
  6
Continuous
 62
     7
370
    25
100
AcDbSpline
210
0.0
220
0.0
230
1.0
 70
     8
 71
     3
 72
    14
 73
    10
 74
     0
 42
0.000000001
 43
0.00000001
 40
0.0
 40
0.0
 40
0.0
 40
0.0
 40
0.1729338781877226
 40
0.3107901816000143
 40
0.4227801382136623
 40
0.5213439588738874
 40
0.6548280414503439
 40
0.8116140402814688
 40
1.0
 40
1.0
 40
1.0
 40
1.0
 10
7559.597139157286
 20
6356.384941456426
 30
0.0
 10
7559.645700191872
 20
6356.45816012951
 30
0.0
 10
7559.732972234317
 20
6356.589745941052
 30
0.0
 10
7559.886873563521
 20
6356.741700641945
 30
0.0
 10
7560.042547607403
 20
6356.831067784779
 30
0.0
 10
7560.219489618609
 20
6356.858388182119
 30
0.0
 10
7560.413835321327
 20
6356.796799289508
 30
0.0
 10
7560.608607185517
 20
6356.6470829443
 30
0.0
 10
7560.720331893768
 20
6356.511921264629
 30
0.0
 10
7560.781308360329
 20
6356.438153503049
 30
0.0
  0
SPLINE
  5
10F
330
1F
100
AcDbEntity
  8
0
  6
Continuous
 62
     7
370
    25
100
AcDbSpline
210
0.0
220
0.0
230
1.0
 70
     8
 71
     3
 72
    10
 73
     6
 74
     0
 42
0.000000001
 43
0.00000001
 40
0.0
 40
0.0
 40
0.0
 40
0.0
 40
0.2049700827240537
 40
0.4719500487941828
 40
1.0
 40
1.0
 40
1.0
 40
1.0
 10
7558.266737408867
 20
6356.677682218659
 30
0.0
 10
7558.360902287985
 20
6356.691233406361
 30
0.0
 10
7558.57771987767
 20
6356.722435441367
 30
0.0
 10
7559.034592775833
 20
6356.61756327366
 30
0.0
 10
7559.372623165203
 20
6356.477782366614
 30
0.0
 10
7559.597139157286
 20
6356.384941456426
 30
0.0
  0
SPLINE
  5
110
330
1F
100
AcDbEntity
  8
0
  6
Continuous
 62
     7
370
    25
100
AcDbSpline
210
0.0
220
0.0
230
1.0
 70
     8
 71
     3
 72
     9
 73
     5
 74
     0
 42
0.000000001
 43
0.00000001
 40
0.0
 40
0.0
 40
0.0
 40
0.0
 40
0.5722462266619118
 40
1.0
 40
1.0
 40
1.0
 40
1.0
 10
7559.171416707268
 20
6356.393774119723
 30
0.0
 10
7559.007015118937
 20
6356.475490872162
 30
0.0
 10
7558.719723424083
 20
6356.618290856905
 30
0.0
 10
7558.402451620166
 20
6356.659888618973
 30
0.0
 10
7558.266737408867
 20
6356.677682218659
 30
0.0
  0
SPLINE
  5
111
330
1F
100
AcDbEntity
  8
0
  6
Continuous
 62
     7
370
    25
100
AcDbSpline
210
0.0
220
0.0
230
1.0
 70
     8
 71
     3
 72
    10
 73
     6
 74
     0
 42
0.000000001
 43
0.00000001
 40
0.0
 40
0.0
 40
0.0
 40
0.0
 40
0.244567970231324
 40
0.5285786098502498
 40
1.0
 40
1.0
 40
1.0
 40
1.0
 10
7560.067263342371
 20
6356.021267441619
 30
0.0
 10
7559.987842210936
 20
6356.032253872905
 30
0.0
 10
7559.81619131484
 20
6356.055998570831
 30
0.0
 10
7559.520333629471
 20
6356.200491233918
 30
0.0
 10
7559.305488877456
 20
6356.319504703966
 30
0.0
 10
7559.171416707268
 20
6356.393774119723
 30
0.0
  0
SPLINE
  5
112
330
1F
100
AcDbEntity
  8
0
  6
Continuous
 62
     7
370
    25
100
AcDbSpline
210
0.0
220
0.0
230
1.0
 70
     8
 71
     3
 72
    17
 73
    13
 74
     0
 42
0.000000001
 43
0.00000001
 40
0.0
 40
0.0
 40
0.0
 40
0.0
 40
0.0544854549713097
 40
0.1073406073615973
 40
0.2217102501192262
 40
0.3548453910826267
 40
0.5
 40
0.6451546089173734
 40
0.7782897498807738
 40
0.8926593926384027
 40
0.9455145450286903
 40
0.9999999999999999
 40
0.9999999999999999
 40
0.9999999999999999
 40
0.9999999999999999
 10
7560.067263342371
 20
6356.18092593323
 30
0.0
 10
7560.070971173733
 20
6356.180586489537
 30
0.0
 10
7560.07827589149
 20
6356.179917758913
 30
0.0
 10
7560.091663199774
 20
6356.172335420041
 30
0.0
 10
7560.104058313311
 20
6356.155384083761
 30
0.0
 10
7560.112036518167
 20
6356.12979289022
 30
0.0
 10
7560.114741993283
 20
6356.101096687425
 30
0.0
 10
7560.112036518167
 20
6356.072400484632
 30
0.0
 10
7560.104058313311
 20
6356.04680929109
 30
0.0
 10
7560.091663199774
 20
6356.029857954809
 30
0.0
 10
7560.07827589149
 20
6356.022275615938
 30
0.0
 10
7560.070971173733
 20
6356.021606885313
 30
0.0
 10
7560.067263342371
 20
6356.021267441619
 30
0.0
  0
LINE
  5
113
330
1F
100
AcDbEntity
  8
0
  6
Continuous
 62
     7
370
    25
100
AcDbLine
 10
7559.9696719124
 20
6356.1809259332
 30
0.0
 11
7560.0672633424
 21
6356.1809259332
 31
0.0
  0
SPLINE
  5
114
330
1F
100
AcDbEntity
  8
0
  6
Continuous
 62
     7
370
    25
100
AcDbSpline
210
0.0
220
0.0
230
1.0
 70
     8
 71
     3
 72
    11
 73
     7
 74
     0
 42
0.000000001
 43
0.00000001
 40
0.0
 40
0.0
 40
0.0
 40
0.0
 40
0.2692807761017296
 40
0.5332350426529008
 40
0.7556981336031428
 40
1.0
 40
1.0
 40
1.0
 40
1.0
 10
7559.907601125469
 20
6356.234137979854
 30
0.0
 10
7559.908739128566
 20
6356.225884832138
 30
0.0
 10
7559.910992624482
 20
6356.20954178813
 30
0.0
 10
7559.927799181591
 20
6356.19222499227
 30
0.0
 10
7559.948049300674
 20
6356.182553245866
 30
0.0
 10
7559.96224301231
 20
6356.181485030493
 30
0.0
 10
7559.969671912422
 20
6356.18092593323
 30
0.0
  0
SPLINE
  5
115
330
1F
100
AcDbEntity
  8
0
  6
Continuous
 62
     7
370
    25
100
AcDbSpline
210
0.0
220
0.0
230
1.0
 70
     8
 71
     3
 72
    12
 73
     8
 74
     0
 42
0.000000001
 43
0.00000001
 40
0.0
 40
0.0
 40
0.0
 40
0.0
 40
0.1614544777752
 40
0.3549336519958281
 40
0.5609133128686361
 40
0.7935763672841046
 40
1.0
 40
1.0
 40
1.0
 40
1.0
 10
7559.969671912422
 20
6356.287350026477
 30
0.0
 10
7559.964982059131
 20
6356.286713814832
 30
0.0
 10
7559.954672114316
 20
6356.285315198169
 30
0.0
 10
7559.939823408322
 20
6356.277794340055
 30
0.0
 10
7559.92501364245
 20
6356.267034347545
 30
0.0
 10
7559.911491858346
 20
6356.252886955596
 30
0.0
 10
7559.908845318148
 20
6356.240133595359
 30
0.0
 10
7559.907601125469
 20
6356.234137979854
 30
0.0
  0
LINE
  5
116
330
1F
100
AcDbEntity
  8
0
  6
Continuous
 62
     7
370
    25
100
AcDbLine
 10
7560.3777998164
 20
6356.2873500265
 30
0.0
 11
7559.9696719124
 21
6356.2873500265
 31
0.0
  0
SPLINE
  5
117
330
1F
100
AcDbEntity
  8
0
  6
Continuous
 62
     7
370
    25
100
AcDbSpline
210
0.0
220
0.0
230
1.0
 70
     8
 71
     3
 72
    11
 73
     7
 74
     0
 42
0.000000001
 43
0.00000001
 40
0.0
 40
0.0
 40
0.0
 40
0.0
 40
0.2788561743624693
 40
0.564760951445914
 40
0.7904710268751028
 40
1.0
 40
1.0
 40
1.0
 40
1.0
 10
7560.439945109119
 20
6356.234137979854
 30
0.0
 10
7560.438306018109
 20
6356.242479615626
 30
0.0
 10
7560.434986405047
 20
6356.259373737355
 30
0.0
 10
7560.416245412404
 20
6356.275479223435
 30
0.0
 10
7560.396994688635
 20
6356.28526784128
 30
0.0
 10
7560.384037535574
 20
6356.286673382922
 30
0.0
 10
7560.37779981636
 20
6356.287350026477
 30
0.0
  0
SPLINE
  5
118
330
1F
100
AcDbEntity
  8
0
  6
Continuous
 62
     7
370
    25
100
AcDbSpline
210
0.0
220
0.0
230
1.0
 70
     8
 71
     3
 72
    11
 73
     7
 74
     0
 42
0.000000001
 43
0.00000001
 40
0.0
 40
0.0
 40
0.0
 40
0.0
 40
0.2692737129050117
 40
0.5576115081583619
 40
0.7797371383538527
 40
0.9999999999999999
 40
0.9999999999999999
 40
0.9999999999999999
 40
0.9999999999999999
 10
7560.37779981636
 20
6356.18092593323
 30
0.0
 10
7560.385816054054
 20
6356.182021127702
 30
0.0
 10
7560.402416064288
 20
6356.184289054394
 30
0.0
 10
7560.422310858859
 20
6356.197245370642
 30
0.0
 10
7560.436963332683
 20
6356.21428366453
 30
0.0
 10
7560.438953977648
 20
6356.227538478794
 30
0.0
 10
7560.439945109119
 20
6356.234137979854
 30
0.0
  0
LINE
  5
119
330
1F
100
AcDbEntity
  8
0
  6
Continuous
 62
     7
370
    25
100
AcDbLine
 10
7560.2757939174
 20
6356.1809259332
 30
0.0
 11
7560.3777998164
 21
6356.1809259332
 31
0.0
  0
SPLINE
  5
11A
330
1F
100
AcDbEntity
  8
0
  6
Continuous
 62
     7
370
    25
100
AcDbSpline
210
0.0
220
0.0
230
1.0
 70
     8
 71
     3
 72
    18
 73
    14
 74
     0
 42
0.000000001
 43
0.00000001
 40
0.0
 40
0.0
 40
0.0
 40
0.0
 40
0.0426987866397649
 40
0.0873815161476143
 40
0.137744728825215
 40
0.1948270574834723
 40
0.3263743557226526
 40
0.4719964637203012
 40
0.6184681705149779
 40
0.7543960843040008
 40
0.8760249672252967
 40
0.9358592223326433
 40
1.0
 40
1.0
 40
1.0
 40
1.0
 10
7560.257998205652
 20
6356.016849247325
 30
0.0
 10
7560.255027233725
 20
6356.017228170741
 30
0.0
 10
7560.248947247575
 20
6356.018003623746
 30
0.0
 10
7560.241048715921
 20
6356.023895141889
 30
0.0
 10
7560.234521670473
 20
6356.032178465396
 30
0.0
 10
7560.227041566328
 20
6356.047013220306
 30
0.0
 10
7560.221282335443
 20
6356.069611933703
 30
0.0
 10
7560.219411129188
 20
6356.098963705756
 30
0.0
 10
7560.222926398771
 20
6356.128517277832
 30
0.0
 10
7560.232332284526
 20
6356.155164369806
 30
0.0
 10
7560.247093391562
 20
6356.172474065744
 30
0.0
 10
7560.262733198731
 20
6356.179944269045
 30
0.0
 10
7560.271340678465
 20
6356.180591220778
 30
0.0
 10
7560.275793917408
 20
6356.18092593323
 30
0.0
  0
SPLINE
  5
11B
330
1F
100
AcDbEntity
  8
0
  6
Continuous
 62
     7
370
    25
100
AcDbSpline
210
0.0
220
0.0
230
1.0
 70
     8
 71
     3
 72
    11
 73
     7
 74
     0
 42
0.000000001
 43
0.00000001
 40
0.0
 40
0.0
 40
0.0
 40
0.0
 40
0.314604132398601
 40
0.5566781876456703
 40
0.7424946052555033
 40
0.9999999999999999
 40
0.9999999999999999
 40
0.9999999999999999
 40
0.9999999999999999
 10
7560.7105501964
 20
6356.154271481145
 30
0.0
 10
7560.668486004659
 20
6356.125210625346
 30
0.0
 10
7560.594055265799
 20
6356.073788718028
 30
0.0
 10
7560.481611782491
 20
6356.028676428059
 30
0.0
 10
7560.371759181438
 20
6356.006790331016
 30
0.0
 10
7560.299797474687
 20
6356.013153293189
 30
0.0
 10
7560.257998205652
 20
6356.016849247325
 30
0.0
  0
SPLINE
  5
11C
330
1F
100
AcDbEntity
  8
0
  6
Continuous
 62
     7
370
    25
100
AcDbSpline
210
0.0
220
0.0
230
1.0
 70
     8
 71
     3
 72
     9
 73
     5
 74
     0
 42
0.000000001
 43
0.00000001
 40
0.0
 40
0.0
 40
0.0
 40
0.0
 40
0.5674921275651703
 40
1.0
 40
1.0
 40
1.0
 40
1.0
 10
7560.963232912054
 20
6358.163424847234
 30
0.0
 10
7561.155485982152
 20
6358.335592722336
 30
0.0
 10
7561.494262611392
 20
6358.63897644651
 30
0.0
 10
7561.92551441077
 20
6358.777639934231
 30
0.0
 10
7562.112034209003
 20
6358.837612984288
 30
0.0
  0
SPLINE
  5
11D
330
1F
100
AcDbEntity
  8
0
  6
Continuous
 62
     7
370
    25
100
AcDbSpline
210
0.0
220
0.0
230
1.0
 70
     8
 71
     3
 72
    11
 73
     7
 74
     0
 42
0.000000001
 43
0.00000001
 40
0.0
 40
0.0
 40
0.0
 40
0.0
 40
0.2850122372735613
 40
0.5576125776411504
 40
0.7739142151718886
 40
0.9999999999999999
 40
0.9999999999999999
 40
0.9999999999999999
 40
0.9999999999999999
 10
7560.707338996162
 20
6356.892337170947
 30
0.0
 10
7560.716380637894
 20
6356.893466865527
 30
0.0
 10
7560.734070170105
 20
6356.895677058015
 30
0.0
 10
7560.753747335302
 20
6356.911732161416
 30
0.0
 10
7560.765479469692
 20
6356.931492182383
 30
0.0
 10
7560.76685029271
 20
6356.94547912524
 30
0.0
 10
7560.767550863256
 20
6356.952627269137
 30
0.0
  0
SPLINE
  5
11E
330
1F
100
AcDbEntity
  8
0
  6
Continuous
 62
     7
370
    25
100
AcDbSpline
210
0.0
220
0.0
230
1.0
 70
     8
 71
     3
 72
    11
 73
     7
 74
     0
 42
0.000000001
 43
0.00000001
 40
0.0
 40
0.0
 40
0.0
 40
0.0
 40
0.289085764877545
 40
0.5645752251193453
 40
0.7797592454232478
 40
1.0
 40
1.0
 40
1.0
 40
1.0
 10
7560.648702926865
 20
6356.952627269137
 30
0.0
 10
7560.649834395674
 20
6356.943598592217
 30
0.0
 10
7560.652044117963
 20
6356.925965875824
 30
0.0
 10
7560.667769695903
 20
6356.906339046058
 30
0.0
 10
7560.686923918667
 20
6356.894486836349
 30
0.0
 10
7560.700481487463
 20
6356.893059252418
 30
0.0
 10
7560.707338996162
 20
6356.892337170947
 30
0.0
  0
SPLINE
  5
11F
330
1F
100
AcDbEntity
  8
0
  6
Continuous
 62
     7
370
    25
100
AcDbSpline
210
0.0
220
0.0
230
1.0
 70
     8
 71
     3
 72
    11
 73
     7
 74
     0
 42
0.000000001
 43
0.00000001
 40
0.0
 40
0.0
 40
0.0
 40
0.0
 40
0.2780854361617011
 40
0.5510440270914885
 40
0.7701761399595579
 40
0.9999999999999999
 40
0.9999999999999999
 40
0.9999999999999999
 40
0.9999999999999999
 10
7560.707338996162
 20
6357.012917367328
 30
0.0
 10
7560.698655477843
 20
6357.011755469702
 30
0.0
 10
7560.681448532487
 20
6357.009453095453
 30
0.0
 10
7560.662385252464
 20
6356.993430312942
 30
0.0
 10
7560.650783343899
 20
6356.973768744522
 30
0.0
 10
7560.649407322385
 20
6356.959785430361
 30
0.0
 10
7560.648702926865
 20
6356.952627269137
 30
0.0
  0
SPLINE
  5
120
330
1F
100
AcDbEntity
  8
0
  6
Continuous
 62
     7
370
    25
100
AcDbSpline
210
0.0
220
0.0
230
1.0
 70
     8
 71
     3
 72
    11
 73
     7
 74
     0
 42
0.000000001
 43
0.00000001
 40
0.0
 40
0.0
 40
0.0
 40
0.0
 40
0.285045920401085
 40
0.5575862876140005
 40
0.7737405301146026
 40
1.0
 40
1.0
 40
1.0
 40
1.0
 10
7560.767550863256
 20
6356.952627269137
 30
0.0
 10
7560.76642944367
 20
6356.961671322375
 30
0.0
 10
7560.764235803489
 20
6356.979362647555
 30
0.0
 10
7560.748237236908
 20
6356.999081131737
 30
0.0
 10
7560.728485105962
 20
6357.010842404778
 30
0.0
 10
7560.714494221944
 20
6357.01221526062
 30
0.0
 10
7560.707338996162
 20
6357.012917367328
 30
0.0
  0
LINE
  5
121
330
1F
100
AcDbEntity
  8
0
  6
Continuous
 62
     7
370
    25
100
AcDbLine
 10
7563.2374928369
 20
6358.7762164749
 30
0.0
 11
7563.3219526186
 21
6358.7762164749
 31
0.0
  0
SPLINE
  5
122
330
1F
100
AcDbEntity
  8
0
  6
Continuous
 62
     7
370
    25
100
AcDbSpline
210
0.0
220
0.0
230
1.0
 70
     8
 71
     3
 72
     9
 73
     5
 74
     0
 42
0.000000001
 43
0.00000001
 40
0.0
 40
0.0
 40
0.0
 40
0.0
 40
0.547291482941093
 40
1.0
 40
1.0
 40
1.0
 40
1.0
 10
7563.523781396379
 20
6358.540252862084
 30
0.0
 10
7563.533311875135
 20
6358.558753526201
 30
0.0
 10
7563.550725774405
 20
6358.59255756791
 30
0.0
 10
7563.55253154001
 20
6358.630432273694
 30
0.0
 10
7563.553349025478
 20
6358.647578475583
 30
0.0
  0
SPLINE
  5
123
330
1F
100
AcDbEntity
  8
0
  6
Continuous
 62
     7
370
    25
100
AcDbSpline
210
0.0
220
0.0
230
1.0
 70
     8
 71
     3
 72
     9
 73
     5
 74
     0
 42
0.000000001
 43
0.00000001
 40
0.0
 40
0.0
 40
0.0
 40
0.0
 40
0.5724363496549091
 40
0.9999999999999999
 40
0.9999999999999999
 40
0.9999999999999999
 40
0.9999999999999999
 10
7563.439019866219
 20
6358.46756127249
 30
0.0
 10
7563.458125381486
 20
6358.478154365937
 30
0.0
 10
7563.491501171262
 20
6358.496659643342
 30
0.0
 10
7563.514113280438
 20
6358.527196438485
 30
0.0
 10
7563.523781396379
 20
6358.540252862084
 30
0.0
  0
LINE
  5
124
330
1F
100
AcDbEntity
  8
0
  6
Continuous
 62
     7
370
    25
100
AcDbLine
 10
7563.6211455836
 20
6358.1651571072
 30
0.0
 11
7563.4390198662
 21
6358.4675612725
 31
0.0
  0
LINE
  5
125
330
1F
100
AcDbEntity
  8
0
  6
Continuous
 62
     7
370
    25
100
AcDbLine
 10
7563.5281995907
 20
6358.1651571072
 30
0.0
 11
7563.6211455836
 21
6358.1651571072
 31
0.0
  0
LINE
  5
126
330
1F
100
AcDbEntity
  8
0
  6
Continuous
 62
     7
370
    25
100
AcDbLine
 10
7563.3666076734
 20
6358.4424118377
 30
0.0
 11
7563.5281995907
 21
6358.1651571072
 31
0.0
  0
LINE
  5
127
330
1F
100
AcDbEntity
  8
0
  6
Continuous
 62
     7
370
    25
100
AcDbLine
 10
7563.2374928369
 20
6358.4424118377
 30
0.0
 11
7563.3666076734
 21
6358.4424118377
 31
0.0
  0
LINE
  5
128
330
1F
100
AcDbEntity
  8
0
  6
Continuous
 62
     7
370
    25
100
AcDbLine
 10
7563.2374928369
 20
6358.1651571072
 30
0.0
 11
7563.2374928369
 21
6358.4424118377
 31
0.0
  0
LINE
  5
129
330
1F
100
AcDbEntity
  8
0
  6
Continuous
 62
     7
370
    25
100
AcDbLine
 10
7563.1598577871
 20
6358.1651571072
 30
0.0
 11
7563.2374928369
 21
6358.1651571072
 31
0.0
  0
LINE
  5
12A
330
1F
100
AcDbEntity
  8
0
  6
Continuous
 62
     7
370
    25
100
AcDbLine
 10
7563.1598577871
 20
6358.8423813559
 30
0.0
 11
7563.1598577871
 21
6358.1651571072
 31
0.0
  0
LINE
  5
12B
330
1F
100
AcDbEntity
  8
0
  6
Continuous
 62
     7
370
    25
100
AcDbLine
 10
7563.3219526186
 20
6358.8423813559
 30
0.0
 11
7563.1598577871
 21
6358.8423813559
 31
0.0
  0
SPLINE
  5
12C
330
1F
100
AcDbEntity
  8
0
  6
Continuous
 62
     7
370
    25
100
AcDbSpline
210
0.0
220
0.0
230
1.0
 70
     8
 71
     3
 72
     9
 73
     5
 74
     0
 42
0.000000001
 43
0.00000001
 40
0.0
 40
0.0
 40
0.0
 40
0.0
 40
0.5118917428912559
 40
1.0
 40
1.0
 40
1.0
 40
1.0
 10
7563.492883838644
 20
6358.794641760695
 30
0.0
 10
7563.465681893465
 20
6358.809927810452
 30
0.0
 10
7563.412541858373
 20
6358.839789690367
 30
0.0
 10
7563.351666421824
 20
6358.841531274349
 30
0.0
 10
7563.321952618589
 20
6358.84238135587
 30
0.0
  0
SPLINE
  5
12D
330
1F
100
AcDbEntity
  8
0
  6
Continuous
 62
     7
370
    25
100
AcDbSpline
210
0.0
220
0.0
230
1.0
 70
     8
 71
     3
 72
    10
 73
     6
 74
     0
 42
0.000000001
 43
0.00000001
 40
0.0
 40
0.0
 40
0.0
 40
0.0
 40
0.3157192278034027
 40
0.5946747033724322
 40
0.9999999999999999
 40
0.9999999999999999
 40
0.9999999999999999
 40
0.9999999999999999
 10
7563.553349025478
 20
6358.647578475583
 30
0.0
 10
7563.552516156919
 20
6358.664825993736
 30
0.0
 10
7563.550947402722
 20
6358.697312652255
 30
0.0
 10
7563.534901506471
 20
6358.750996587286
 30
0.0
 10
7563.50851409637
 20
6358.778406083083
 30
0.0
 10
7563.492883838644
 20
6358.794641760695
 30
0.0
  0
LINE
  5
12E
330
1F
100
AcDbEntity
  8
0
  6
Continuous
 62
     7
370
    25
100
AcDbLine
 10
7563.2374928369
 20
6358.5037822701
 30
0.0
 11
7563.2374928369
 21
6358.7762164749
 31
0.0
  0
LINE
  5
12F
330
1F
100
AcDbEntity
  8
0
  6
Continuous
 62
     7
370
    25
100
AcDbLine
 10
7563.323561944
 20
6358.5037822701
 30
0.0
 11
7563.2374928369
 21
6358.5037822701
 31
0.0
  0
SPLINE
  5
130
330
1F
100
AcDbEntity
  8
0
  6
Continuous
 62
     7
370
    25
100
AcDbSpline
210
0.0
220
0.0
230
1.0
 70
     8
 71
     3
 72
     9
 73
     5
 74
     0
 42
0.000000001
 43
0.00000001
 40
0.0
 40
0.0
 40
0.0
 40
0.0
 40
0.5211114824532596
 40
1.0
 40
1.0
 40
1.0
 40
1.0
 10
7563.43354741477
 20
6358.53944819938
 30
0.0
 10
7563.416097789324
 20
6358.52800906887
 30
0.0
 10
7563.382612391221
 20
6358.506057661359
 30
0.0
 10
7563.342683453697
 20
6358.50451907933
 30
0.0
 10
7563.323561943998
 20
6358.503782270062
 30
0.0
  0
SPLINE
  5
131
330
1F
100
AcDbEntity
  8
0
  6
Continuous
 62
     7
370
    25
100
AcDbSpline
210
0.0
220
0.0
230
1.0
 70
     8
 71
     3
 72
     9
 73
     5
 74
     0
 42
0.000000001
 43
0.00000001
 40
0.0
 40
0.0
 40
0.0
 40
0.0
 40
0.591608967366537
 40
1.0
 40
1.0
 40
1.0
 40
1.0
 10
7563.473381943932
 20
6358.643938866961
 30
0.0
 10
7563.47193306671
 20
6358.620583787961
 30
0.0
 10
7563.469484021308
 20
6358.581106565182
 30
0.0
 10
7563.443967949631
 20
6358.551527872308
 30
0.0
 10
7563.43354741477
 20
6358.53944819938
 30
0.0
  0
SPLINE
  5
132
330
1F
100
AcDbEntity
  8
0
  6
Continuous
 62
     7
370
    25
100
AcDbSpline
210
0.0
220
0.0
230
1.0
 70
     8
 71
     3
 72
    12
 73
     8
 74
     0
 42
0.000000001
 43
0.00000001
 40
0.0
 40
0.0
 40
0.0
 40
0.0
 40
0.2243884520367135
 40
0.41172752360267
 40
0.5770175921068751
 40
0.7720318533670755
 40
0.9999999999999999
 40
0.9999999999999999
 40
0.9999999999999999
 40
0.9999999999999999
 10
7563.321952618589
 20
6358.776216474879
 30
0.0
 10
7563.339157796694
 20
6358.775519149328
 30
0.0
 10
7563.370727359697
 20
6358.774239635519
 30
0.0
 10
7563.413451287769
 20
6358.760573894
 30
0.0
 10
7563.447815380824
 20
6358.735124403951
 30
0.0
 10
7563.470354888615
 20
6358.694110144786
 30
0.0
 10
7563.472321844689
 20
6358.661509254053
 30
0.0
 10
7563.473381943932
 20
6358.643938866961
 30
0.0
  0
CIRCLE
  5
133
330
1F
100
AcDbEntity
  8
0
  6
Continuous
 62
     7
370
    25
100
AcDbCircle
 10
7563.3474304471
 20
6358.5037567724
 30
0.0
 40
0.5814414999995279
  0
CIRCLE
  5
134
330
1F
100
AcDbEntity
  8
0
  6
Continuous
 62
     7
370
    25
100
AcDbCircle
 10
7563.3474304471
 20
6358.5037567724
 30
0.0
 40
0.505037099999754
  0
LINE
  5
135
330
1F
100
AcDbEntity
  8
0
  6
Continuous
 62
     7
370
    25
100
AcDbLine
 10
7551.8042900636
 20
6357.068465171
 30
0.0
 11
7552.5491357818
 21
6357.068465171
 31
0.0
  0
LINE
  5
136
330
1F
100
AcDbEntity
  8
0
  6
Continuous
 62
     7
370
    25
100
AcDbLine
 10
7552.5491357818
 20
6357.068465171
 30
0.0
 11
7552.5491357818
 21
6352.5976287998
 31
0.0
  0
LINE
  5
137
330
1F
100
AcDbEntity
  8
0
  6
Continuous
 62
     7
370
    25
100
AcDbLine
 10
7552.5491357818
 20
6352.5976287998
 30
0.0
 11
7554.1243114545
 21
6352.5976287998
 31
0.0
  0
LINE
  5
138
330
1F
100
AcDbEntity
  8
0
  6
Continuous
 62
     7
370
    25
100
AcDbLine
 10
7554.1243114545
 20
6352.5976287998
 30
0.0
 11
7554.1243114545
 21
6351.9373210944
 31
0.0
  0
LINE
  5
139
330
1F
100
AcDbEntity
  8
0
  6
Continuous
 62
     7
370
    25
100
AcDbLine
 10
7554.1243114545
 20
6351.9373210944
 30
0.0
 11
7551.8042900636
 21
6351.9373210944
 31
0.0
  0
LINE
  5
13A
330
1F
100
AcDbEntity
  8
0
  6
Continuous
 62
     7
370
    25
100
AcDbLine
 10
7551.8042900636
 20
6351.9373210944
 30
0.0
 11
7551.8042900636
 21
6357.068465171
 31
0.0
  0
LINE
  5
13B
330
1F
100
AcDbEntity
  8
0
  6
Continuous
 62
     7
370
    25
100
AcDbLine
 10
7555.4049135222
 20
6354.9768823064
 30
0.0
 11
7556.5229662731
 21
6354.9768823064
 31
0.0
  0
LINE
  5
13C
330
1F
100
AcDbEntity
  8
0
  6
Continuous
 62
     7
370
    25
100
AcDbLine
 10
7556.5229662731
 20
6354.244415728
 30
0.0
 11
7555.4051631167
 21
6354.244415728
 31
0.0
  0
LINE
  5
13D
330
1F
100
AcDbEntity
  8
0
  6
Continuous
 62
     7
370
    25
100
AcDbLine
 10
7555.4051631167
 20
6354.244415728
 30
0.0
 11
7555.4049135222
 21
6351.9373210944
 31
0.0
  0
LINE
  5
13E
330
1F
100
AcDbEntity
  8
0
  6
Continuous
 62
     7
370
    25
100
AcDbLine
 10
7555.4049135222
 20
6351.9373210944
 30
0.0
 11
7554.7189273908
 21
6351.9373210944
 31
0.0
  0
LINE
  5
13F
330
1F
100
AcDbEntity
  8
0
  6
Continuous
 62
     7
370
    25
100
AcDbLine
 10
7554.7189273908
 20
6351.9373210944
 30
0.0
 11
7554.7189273908
 21
6354.244415728
 31
0.0
  0
LINE
  5
140
330
1F
100
AcDbEntity
  8
0
  6
Continuous
 62
     7
370
    25
100
AcDbLine
 10
7557.2226800992
 20
6351.9373210944
 30
0.0
 11
7556.5229662731
 21
6351.9373210944
 31
0.0
  0
LINE
  5
141
330
1F
100
AcDbEntity
  8
0
  6
Continuous
 62
     7
370
    25
100
AcDbLine
 10
7556.5229662731
 20
6351.9373210944
 30
0.0
 11
7556.5229662731
 21
6354.244415728
 31
0.0
  0
LINE
  5
142
330
1F
100
AcDbEntity
  8
0
  6
Continuous
 62
     7
370
    25
100
AcDbLine
 10
7556.0989276543
 20
6356.4547422207
 30
0.0
 11
7555.8284231498
 21
6356.4547422207
 31
0.0
  0
SPLINE
  5
143
330
1F
100
AcDbEntity
  8
0
  6
Continuous
 62
     7
370
    25
100
AcDbSpline
210
0.0
220
0.0
230
1.0
 70
     8
 71
     3
 72
    12
 73
     8
 74
     0
 42
0.000000001
 43
0.00000001
 40
0.0
 40
0.0
 40
0.0
 40
0.0
 40
0.100956956150748
 40
0.193109181941931
 40
0.2929516517557206
 40
0.4081879928079488
 40
1.0
 40
1.0
 40
1.0
 40
1.0
 10
7555.828423149815
 20
6356.454742220748
 30
0.0
 10
7555.780294889442
 20
6356.450204685522
 30
0.0
 10
7555.688235765008
 20
6356.441525345842
 30
0.0
 10
7555.574074246964
 20
6356.353696283465
 30
0.0
 10
7555.499574925686
 20
6356.22787989148
 30
0.0
 10
7555.390982877139
 20
6355.861881827112
 30
0.0
 10
7555.398566170881
 20
6355.525884469691
 30
0.0
 10
7555.404913522234
 20
6355.244648722518
 30
0.0
  0
SPLINE
  5
144
330
1F
100
AcDbEntity
  8
0
  6
Continuous
 62
     7
370
    25
100
AcDbSpline
210
0.0
220
0.0
230
1.0
 70
     8
 71
     3
 72
    11
 73
     7
 74
     0
 42
0.000000001
 43
0.00000001
 40
0.0
 40
0.0
 40
0.0
 40
0.0
 40
0.2975744834283907
 40
0.5729274621934674
 40
0.7821125706965704
 40
0.9999999999999999
 40
0.9999999999999999
 40
0.9999999999999999
 40
0.9999999999999999
 10
7554.718927390804
 20
6355.872173873294
 30
0.0
 10
7554.737476071516
 20
6356.060269958048
 30
0.0
 10
7554.773188302098
 20
6356.42241597018
 30
0.0
 10
7555.049673298355
 20
6356.848735218572
 30
0.0
 10
7555.420099377967
 20
6357.113748944915
 30
0.0
 10
7555.690478747823
 20
6357.143910732145
 30
0.0
 10
7555.828423149815
 20
6357.159298924315
 30
0.0
  0
LINE
  5
145
330
1F
100
AcDbEntity
  8
0
  6
Continuous
 62
     7
370
    25
100
AcDbLine
 10
7557.2226800992
 20
6355.8627079106
 30
0.0
 11
7557.2226800992
 21
6351.9373210944
 31
0.0
  0
LINE
  5
146
330
1F
100
AcDbEntity
  8
0
  6
Continuous
 62
     7
370
    25
100
AcDbLine
 10
7556.5229662731
 20
6354.9768823064
 30
0.0
 11
7556.5229662731
 21
6355.2511977829
 31
0.0
  0
SPLINE
  5
147
330
1F
100
AcDbEntity
  8
0
  6
Continuous
 62
     7
370
    25
100
AcDbSpline
210
0.0
220
0.0
230
1.0
 70
     8
 71
     3
 72
    12
 73
     8
 74
     0
 42
0.000000001
 43
0.00000001
 40
0.0
 40
0.0
 40
0.0
 40
0.0
 40
0.5919184564341514
 40
0.7068185104989455
 40
0.8064209499966132
 40
0.898624383955811
 40
1.0
 40
1.0
 40
1.0
 40
1.0
 10
7556.52296627306
 20
6355.251197782863
 30
0.0
 10
7556.529424348186
 20
6355.531511441883
 30
0.0
 10
7556.537136030415
 20
6355.86623809348
 30
0.0
 10
7556.428187249867
 20
6356.230470805729
 30
0.0
 10
7556.353462258442
 20
6356.355311476413
 30
0.0
 10
7556.239035001211
 20
6356.442049873818
 30
0.0
 10
7556.14708240563
 20
6356.450379874133
 30
0.0
 10
7556.098927654257
 20
6356.454742220748
 30
0.0
  0
LINE
  5
148
330
1F
100
AcDbEntity
  8
0
  6
Continuous
 62
     7
370
    25
100
AcDbLine
 10
7555.8284231498
 20
6357.1592989243
 30
0.0
 11
7556.0989276543
 21
6357.1592989243
 31
0.0
  0
LINE
  5
149
330
1F
100
AcDbEntity
  8
0
  6
Continuous
 62
     7
370
    25
100
AcDbLine
 10
7555.4049135222
 20
6355.2446487225
 30
0.0
 11
7555.4049135222
 21
6354.9768823064
 31
0.0
  0
SPLINE
  5
14A
330
1F
100
AcDbEntity
  8
0
  6
Continuous
 62
     7
370
    25
100
AcDbSpline
210
0.0
220
0.0
230
1.0
 70
     8
 71
     3
 72
    11
 73
     7
 74
     0
 42
0.000000001
 43
0.00000001
 40
0.0
 40
0.0
 40
0.0
 40
0.0
 40
0.2748900838018707
 40
0.5431584272073714
 40
0.764959542613245
 40
1.0
 40
1.0
 40
1.0
 40
1.0
 10
7556.098927654257
 20
6357.159298924315
 30
0.0
 10
7556.27520828816
 20
6357.133671653614
 30
0.0
 10
7556.623523187458
 20
6357.083034439441
 30
0.0
 10
7556.984701077069
 20
6356.721830930232
 30
0.0
 10
7557.187205358071
 20
6356.302789672819
 30
0.0
 10
7557.210628912728
 20
6356.012208857565
 30
0.0
 10
7557.222680099239
 20
6355.862707910645
 30
0.0
  0
LINE
  5
14B
330
1F
100
AcDbEntity
  8
0
  6
Continuous
 62
     7
370
    25
100
AcDbLine
 10
7554.7189273908
 20
6354.244415728
 30
0.0
 11
7554.4184827282
 21
6354.244415728
 31
0.0
  0
LINE
  5
14C
330
1F
100
AcDbEntity
  8
0
  6
Continuous
 62
     7
370
    25
100
AcDbLine
 10
7554.4184827282
 20
6354.244415728
 30
0.0
 11
7554.1763165071
 21
6354.9767034925
 31
0.0
  0
LINE
  5
14D
330
1F
100
AcDbEntity
  8
0
  6
Continuous
 62
     7
370
    25
100
AcDbLine
 10
7554.1763165071
 20
6354.9767034925
 30
0.0
 11
7554.7189273908
 21
6354.9767034925
 31
0.0
  0
LINE
  5
14E
330
1F
100
AcDbEntity
  8
0
  6
Continuous
 62
     7
370
    25
100
AcDbLine
 10
7554.7189273908
 20
6354.9767034925
 30
0.0
 11
7554.7189273908
 21
6355.8721738733
 31
0.0
  0
SPLINE
  5
14F
330
1F
100
AcDbEntity
  8
0
  6
Continuous
 62
     7
370
    25
100
AcDbSpline
210
0.0
220
0.0
230
1.0
 70
     8
 71
     3
 72
    11
 73
     7
 74
     0
 42
0.000000001
 43
0.00000001
 40
0.0
 40
0.0
 40
0.0
 40
0.0
 40
0.2794009596235172
 40
0.5565465461656988
 40
0.7766340364551313
 40
0.9999999999999999
 40
0.9999999999999999
 40
0.9999999999999999
 40
0.9999999999999999
 10
7559.764002360334
 20
6356.951323417533
 30
0.0
 10
7559.762736899432
 20
6356.960004379861
 30
0.0
 10
7559.760216192646
 20
6356.97729623028
 30
0.0
 10
7559.743726423954
 20
6356.996066748598
 30
0.0
 10
7559.724272804825
 20
6357.007663435715
 30
0.0
 10
7559.710532581861
 20
6357.009121005744
 30
0.0
 10
7559.703611679306
 20
6357.009855178702
 30
0.0
  0
SPLINE
  5
150
330
1F
100
AcDbEntity
  8
0
  6
Continuous
 62
     7
370
    25
100
AcDbSpline
210
0.0
220
0.0
230
1.0
 70
     8
 71
     3
 72
    11
 73
     7
 74
     0
 42
0.000000001
 43
0.00000001
 40
0.0
 40
0.0
 40
0.0
 40
0.0
 40
0.2798832052102426
 40
0.5593609967542528
 40
0.7791490400073334
 40
1.0
 40
1.0
 40
1.0
 40
1.0
 10
7559.703611679306
 20
6356.891033319343
 30
0.0
 10
7559.71240759479
 20
6356.892309913378
 30
0.0
 10
7559.729986684782
 20
6356.894861252289
 30
0.0
 10
7559.749345278369
 20
6356.911160656975
 30
0.0
 10
7559.761636454833
 20
6356.930562062392
 30
0.0
 10
7559.763212457947
 20
6356.944391845675
 30
0.0
 10
7559.764002360334
 20
6356.951323417533
 30
0.0
  0
SPLINE
  5
151
330
1F
100
AcDbEntity
  8
0
  6
Continuous
 62
     7
370
    25
100
AcDbSpline
210
0.0
220
0.0
230
1.0
 70
     8
 71
     3
 72
    11
 73
     7
 74
     0
 42
0.000000001
 43
0.00000001
 40
0.0
 40
0.0
 40
0.0
 40
0.0
 40
0.2798306643637616
 40
0.5591301884528818
 40
0.7789891707319672
 40
1.0
 40
1.0
 40
1.0
 40
1.0
 10
7559.643299229374
 20
6356.951323417533
 30
0.0
 10
7559.644574531211
 20
6356.942532759067
 30
0.0
 10
7559.647122714265
 20
6356.924968127486
 30
0.0
 10
7559.663436932816
 20
6356.905639235503
 30
0.0
 10
7559.682848183751
 20
6356.893386262277
 30
0.0
 10
7559.696678469467
 20
6356.891818998569
 30
0.0
 10
7559.703611679306
 20
6356.891033319343
 30
0.0
  0
SPLINE
  5
152
330
1F
100
AcDbEntity
  8
0
  6
Continuous
 62
     7
370
    25
100
AcDbSpline
210
0.0
220
0.0
230
1.0
 70
     8
 71
     3
 72
    11
 73
     7
 74
     0
 42
0.000000001
 43
0.00000001
 40
0.0
 40
0.0
 40
0.0
 40
0.0
 40
0.2827412385081281
 40
0.5610444783004341
 40
0.7789556273800272
 40
1.0
 40
1.0
 40
1.0
 40
1.0
 10
7559.703611679306
 20
6357.009855178702
 30
0.0
 10
7559.694839128038
 20
6357.008671867639
 30
0.0
 10
7559.677431722328
 20
6357.006323819148
 30
0.0
 10
7559.657938943115
 20
6356.990761645054
 30
0.0
 10
7559.645619700277
 20
6356.97178019166
 30
0.0
 10
7559.644076391673
 20
6356.958174713786
 30
0.0
 10
7559.643299229374
 20
6356.951323417533
 30
0.0
  0
LINE
  5
153
330
1F
100
AcDbEntity
  8
0
  6
Continuous
 62
     7
370
    25
100
AcDbLine
 10
7578.9274954274
 20
6342.3173176921
 30
0.0
 11
7588.9274933412
 21
6342.3173176921
 31
0.0
  0
ARC
  5
154
330
1F
100
AcDbEntity
  8
0
  6
Continuous
 62
     7
370
    25
100
AcDbCircle
 10
7578.9274924471
 20
6342.3173206724
 30
0.0
 40
10.00000000000091
100
AcDbArc
 50
270.0
 51
0.0
  0
LINE
  5
155
330
1F
100
AcDbEntity
  8
0
  6
Continuous
 62
     7
370
    25
100
AcDbLine
 10
7578.9274954274
 20
6342.3173176921
 30
0.0
 11
7578.9274954274
 21
6332.3173197783
 31
0.0
  0
LINE
  5
156
330
1F
100
AcDbEntity
  8
0
  6
Continuous
 62
     7
370
    25
100
AcDbLine
 10
7428.9274894669
 20
6342.3173176921
 30
0.0
 11
7428.9274894669
 21
6332.3173197783
 31
0.0
  0
ARC
  5
157
330
1F
100
AcDbEntity
  8
0
  6
Continuous
 62
     7
370
    25
100
AcDbCircle
 10
7428.9274924471
 20
6342.3173206724
 30
0.0
 40
10.00000000000091
100
AcDbArc
 50
180.0
 51
270.0
  0
LINE
  5
158
330
1F
100
AcDbEntity
  8
0
  6
Continuous
 62
     7
370
    25
100
AcDbLine
 10
7418.9274915531
 20
6342.3173176921
 30
0.0
 11
7428.9274894669
 21
6342.3173176921
 31
0.0
  0
LINE
  5
159
330
1F
100
AcDbEntity
  8
0
  6
Continuous
 62
     7
370
    25
100
AcDbLine
 10
7428.9274894669
 20
6502.3173215665
 30
0.0
 11
7428.9274894669
 21
6492.3173236526
 31
0.0
  0
LINE
  5
15A
330
1F
100
AcDbEntity
  8
0
  6
Continuous
 62
     7
370
    25
100
AcDbLine
 10
7418.9274915531
 20
6492.3173236526
 30
0.0
 11
7428.9274894669
 21
6492.3173236526
 31
0.0
  0
ARC
  5
15B
330
1F
100
AcDbEntity
  8
0
  6
Continuous
 62
     7
370
    25
100
AcDbCircle
 10
7428.9274924471
 20
6492.3173206724
 30
0.0
 40
10.0
100
AcDbArc
 50
90.0
 51
180.0
  0
LINE
  5
15C
330
1F
100
AcDbEntity
  8
0
  6
Continuous
 62
     7
370
    25
100
AcDbLine
 10
7578.9274954274
 20
6502.3173215665
 30
0.0
 11
7578.9274954274
 21
6492.3173236526
 31
0.0
  0
ARC
  5
15D
330
1F
100
AcDbEntity
  8
0
  6
Continuous
 62
     7
370
    25
100
AcDbCircle
 10
7578.9274924471
 20
6492.3173206724
 30
0.0
 40
10.0
100
AcDbArc
 50
0.0
 51
90.0
  0
LINE
  5
15E
330
1F
100
AcDbEntity
  8
0
  6
Continuous
 62
     7
370
    25
100
AcDbLine
 10
7578.9274954274
 20
6492.3173236526
 30
0.0
 11
7588.9274933412
 21
6492.3173236526
 31
0.0
  0
LINE
  5
15F
330
1F
100
AcDbEntity
  8
0
  6
Continuous
 62
     7
370
    25
100
AcDbLine
 10
7428.9274894669
 20
6342.3173176921
 30
0.0
 11
7578.9274954274
 21
6342.3173176921
 31
0.0
  0
LINE
  5
160
330
1F
100
AcDbEntity
  8
0
  6
Continuous
 62
     7
370
    25
100
AcDbLine
 10
7428.9274894669
 20
6332.3173197783
 30
0.0
 11
7578.9274954274
 21
6332.3173197783
 31
0.0
  0
SPLINE
  5
161
330
1F
100
AcDbEntity
  8
0
  6
Continuous
 62
     7
370
    25
100
AcDbSpline
210
0.0
220
0.0
230
1.0
 70
    11
 71
     3
 72
    26
 73
    22
 74
     0
 42
0.000000001
 43
0.00000001
 40
0.0
 40
0.0
 40
0.0
 40
0.0
 40
0.0432429079350612
 40
0.0862989621042533
 40
0.1336778369608572
 40
0.1911426865684092
 40
0.2557762413112958
 40
0.3192931148746841
 40
0.3764314816595259
 40
0.4285180422908997
 40
0.4784425133077593
 40
0.5277743242930637
 40
0.5770148855271892
 40
0.6263575782323673
 40
0.6762976609721447
 40
0.7281314851003214
 40
0.7839069188213953
 40
0.8452660885569584
 40
0.9105219616618689
 40
0.9569967004944183
 40
1.0
 40
1.0
 40
1.0
 40
1.0
 10
7459.927492685547
 20
6334.551368919719
 30
0.0
 10
7459.735273268056
 20
6334.537882753748
 30
0.0
 10
7459.351665018336
 20
6334.510968695889
 30
0.0
 10
7458.832892729103
 20
6334.316319137941
 30
0.0
 10
7458.377949292442
 20
6334.036615938405
 30
0.0
 10
7458.026343574137
 20
6333.672279395651
 30
0.0
 10
7457.877636910733
 20
6333.284446407561
 30
0.0
 10
7458.017760529038
 20
6332.960972569153
 30
0.0
 10
7458.42006210775
 20
6332.748276625417
 30
0.0
 10
7458.985102671057
 20
6332.631213243801
 30
0.0
 10
7459.633538354584
 20
6332.581724930837
 30
0.0
 10
7460.303025927958
 20
6332.58494372005
 30
0.0
 10
7460.927375917614
 20
6332.639923467928
 30
0.0
 10
7461.441397997737
 20
6332.754742867242
 30
0.0
 10
7461.794682586975
 20
6332.9394280471
 30
0.0
 10
7461.956299943018
 20
6333.200457866506
 30
0.0
 10
7461.902823305021
 20
6333.537571374756
 30
0.0
 10
7461.609725764518
 20
6333.932103721001
 30
0.0
 10
7461.114011033314
 20
6334.279918557959
 30
0.0
 10
7460.516368674336
 20
6334.510026793719
 30
0.0
 10
7460.11864119695
 20
6334.537949310169
 30
0.0
 10
7459.927492685547
 20
6334.551368919719
 30
0.0
  0
SPLINE
  5
162
330
1F
100
AcDbEntity
  8
0
  6
Continuous
 62
     7
370
    25
100
AcDbSpline
210
0.0
220
0.0
230
1.0
 70
    11
 71
     3
 72
    26
 73
    22
 74
     0
 42
0.000000001
 43
0.00000001
 40
0.0
 40
0.0
 40
0.0
 40
0.0
 40
0.0432429157054171
 40
0.0862989776113892
 40
0.1336778609815445
 40
0.1911425903794087
 40
0.2557761567363552
 40
0.3192929925578688
 40
0.3764313696099537
 40
0.4285179396008071
 40
0.4784424195886385
 40
0.5277742394384191
 40
0.577014809520624
 40
0.6263575110922337
 40
0.6762976028057883
 40
0.7281314362480302
 40
0.7839068799914405
 40
0.8452660607526864
 40
0.9105219455834819
 40
0.9569966927671177
 40
0.9999999999999999
 40
0.9999999999999999
 40
0.9999999999999999
 40
0.9999999999999999
 10
7547.92749220871
 20
6334.551368919719
 30
0.0
 10
7547.735272776553
 20
6334.537882758208
 30
0.0
 10
7547.351664497565
 20
6334.510968709252
 30
0.0
 10
7546.832892434422
 20
6334.316319082541
 30
0.0
 10
7546.37794838793
 20
6334.036616437459
 30
0.0
 10
7546.02634758796
 20
6333.672278752161
 30
0.0
 10
7545.877641217544
 20
6333.284446696995
 30
0.0
 10
7546.01775903981
 20
6332.960972396051
 30
0.0
 10
7546.420061891305
 20
6332.748276651431
 30
0.0
 10
7546.98510213027
 20
6332.631213237411
 30
0.0
 10
7547.633537894352
 20
6332.581724932496
 30
0.0
 10
7548.303025446702
 20
6332.584943719609
 30
0.0
 10
7548.927375441962
 20
6332.639923468047
 30
0.0
 10
7549.441397520578
 20
6332.75474286721
 30
0.0
 10
7549.794682110228
 20
6332.939428047109
 30
0.0
 10
7549.956299466154
 20
6333.200457866504
 30
0.0
 10
7549.902822828191
 20
6333.537571374757
 30
0.0
 10
7549.609725287678
 20
6333.932103721001
 30
0.0
 10
7549.114010556477
 20
6334.279918557959
 30
0.0
 10
7548.516368197499
 20
6334.510026793719
 30
0.0
 10
7548.118640720113
 20
6334.537949310169
 30
0.0
 10
7547.92749220871
 20
6334.551368919719
 30
0.0
  0
LINE
  5
163
330
1F
100
AcDbEntity
  8
0
  6
Continuous
 62
     7
370
    25
100
AcDbLine
 10
7418.9274915531
 20
6492.3173236526
 30
0.0
 11
7418.9274915531
 21
6342.3173176921
 31
0.0
  0
LINE
  5
164
330
1F
100
AcDbEntity
  8
0
  6
Continuous
 62
     7
370
    25
100
AcDbLine
 10
7428.9274894669
 20
6492.3173236526
 30
0.0
 11
7428.9274894669
 21
6342.3173176921
 31
0.0
  0
LINE
  5
165
330
1F
100
AcDbEntity
  8
0
  6
Continuous
 62
     7
370
    25
100
AcDbLine
 10
7578.9274954274
 20
6342.3173176921
 30
0.0
 11
7578.9274954274
 21
6492.3173236526
 31
0.0
  0
LINE
  5
166
330
1F
100
AcDbEntity
  8
0
  6
Continuous
 62
     7
370
    25
100
AcDbLine
 10
7588.9274933412
 20
6342.3173176921
 30
0.0
 11
7588.9274933412
 21
6492.3173236526
 31
0.0
  0
LINE
  5
167
330
1F
100
AcDbEntity
  8
0
  6
Continuous
 62
     7
370
    25
100
AcDbLine
 10
7578.9274954274
 20
6502.3173215665
 30
0.0
 11
7428.9274894669
 21
6502.3173215665
 31
0.0
  0
LINE
  5
168
330
1F
100
AcDbEntity
  8
0
  6
Continuous
 62
     7
370
    25
100
AcDbLine
 10
7578.9274954274
 20
6492.3173236526
 30
0.0
 11
7428.9274894669
 21
6492.3173236526
 31
0.0
  0
SPLINE
  5
169
330
1F
100
AcDbEntity
  8
0
  6
Continuous
 62
     7
370
    25
100
AcDbSpline
210
0.0
220
0.0
230
1.0
 70
     8
 71
     3
 72
    14
 73
    10
 74
     0
 42
0.000000001
 43
0.00000001
 40
0.0
 40
0.0
 40
0.0
 40
0.0
 40
0.122165662342854
 40
0.2945110615513105
 40
0.4596091043145052
 40
0.6229474535516857
 40
0.7860900912468946
 40
0.9498885143363247
 40
1.0
 40
1.0
 40
1.0
 40
1.0
 10
7458.293885834446
 20
6333.911282090056
 30
0.0
 10
7458.379089003672
 20
6333.861711527566
 30
0.0
 10
7458.584492677133
 20
6333.742209216514
 30
0.0
 10
7459.121933885941
 20
6333.652262420741
 30
0.0
 10
7459.771687672111
 20
6333.607980077295
 30
0.0
 10
7460.438025771483
 20
6333.622650271176
 30
0.0
 10
7461.029932254807
 20
6333.700029230285
 30
0.0
 10
7461.427661877912
 20
6333.79655775267
 30
0.0
 10
7461.552527133518
 20
6333.892434993265
 30
0.0
 10
7461.581778623095
 20
6333.914895621646
 30
0.0
  0
SPLINE
  5
16A
330
1F
100
AcDbEntity
  8
0
  6
Continuous
 62
     7
370
    25
100
AcDbSpline
210
0.0
220
0.0
230
1.0
 70
     8
 71
     3
 72
    14
 73
    10
 74
     0
 42
0.000000001
 43
0.00000001
 40
0.0
 40
0.0
 40
0.0
 40
0.0
 40
0.1221656148374176
 40
0.2945109470275054
 40
0.4596098329756942
 40
0.622947186718843
 40
0.7860906121458924
 40
0.9498889715405378
 40
1.0
 40
1.0
 40
1.0
 40
1.0
 10
7546.293885357609
 20
6333.911282090056
 30
0.0
 10
7546.379088529491
 20
6333.86171152904
 30
0.0
 10
7546.584492209357
 20
6333.742209221542
 30
0.0
 10
7547.121934416919
 20
6333.652262213626
 30
0.0
 10
7547.771688584282
 20
6333.607980150289
 30
0.0
 10
7548.438027587645
 20
6333.622650523494
 30
0.0
 10
7549.029933691142
 20
6333.700029129693
 30
0.0
 10
7549.427667615248
 20
6333.796557048016
 30
0.0
 10
7549.552527994648
 20
6333.892434981239
 30
0.0
 10
7549.581778146257
 20
6333.914895621646
 30
0.0
  0
LINE
  5
16B
330
1F
100
AcDbEntity
  8
0
  6
Continuous
 62
     7
370
    25
100
AcDbLine
 10
7492.5856263413
 20
6502.6173191942
 30
0.0
 11
7515.6479924022
 21
6502.6173191942
 31
0.0
  0
LINE
  5
16C
330
1F
100
AcDbEntity
  8
0
  6
Continuous
 62
     7
370
    25
100
AcDbLine
 10
7492.206992492
 20
6502.6173191942
 30
0.0
 11
7492.5856263413
 21
6502.6173191942
 31
0.0
  0
LINE
  5
16D
330
1F
100
AcDbEntity
  8
0
  6
Continuous
 62
     7
370
    25
100
AcDbLine
 10
7764.7795863568
 20
6352.117319671
 30
0.0
 11
7834.3795873343
 21
6352.117319671
 31
0.0
  0
LINE
  5
16E
330
1F
100
AcDbEntity
  8
0
  6
Continuous
 62
     7
370
    25
100
AcDbLine
 10
7834.3795873343
 20
6483.1173243798
 30
0.0
 11
7764.7795863568
 21
6483.1173243798
 31
0.0
  0
LINE
  5
16F
330
1F
100
AcDbEntity
  8
0
  6
Continuous
 62
     7
370
    25
100
AcDbLine
 10
7807.6795861243
 20
6352.117319671
 30
0.0
 11
7807.6795861243
 21
6351.2173193372
 31
0.0
  0
LINE
  5
170
330
1F
100
AcDbEntity
  8
0
  6
Continuous
 62
     7
370
    25
100
AcDbLine
 10
7820.8795860528
 20
6351.2173193372
 30
0.0
 11
7820.8795860528
 21
6352.117319671
 31
0.0
  0
ARC
  5
171
330
1F
100
AcDbEntity
  8
0
  6
Continuous
 62
     7
370
    25
100
AcDbCircle
 10
7808.4795863568
 20
6351.2173206724
 30
0.0
 40
0.8000000000001819
100
AcDbArc
 50
180.0
 51
270.0
  0
ARC
  5
172
330
1F
100
AcDbEntity
  8
0
  6
Continuous
 62
     7
370
    25
100
AcDbCircle
 10
7820.0795863568
 20
6351.2173206724
 30
0.0
 40
0.8000000000001819
100
AcDbArc
 50
270.0
 51
0.0
  0
LINE
  5
173
330
1F
100
AcDbEntity
  8
0
  6
Continuous
 62
     7
370
    25
100
AcDbLine
 10
7803.1923361241
 20
6501.4250698365
 30
0.0
 11
7802.0000867664
 21
6502.6173191942
 31
0.0
  0
LINE
  5
174
330
1F
100
AcDbEntity
  8
0
  6
Continuous
 62
     7
370
    25
100
AcDbLine
 10
7777.2029666348
 20
6501.2612017668
 30
0.0
 11
7777.0590866103
 21
6501.1173236049
 31
0.0
  0
LINE
  5
175
330
1F
100
AcDbEntity
  8
0
  6
Continuous
 62
     7
370
    25
100
AcDbLine
 10
7778.5590859248
 20
6502.6173191942
 30
0.0
 11
7777.8629278882
 21
6501.921159295
 31
0.0
  0
LINE
  5
176
330
1F
100
AcDbEntity
  8
0
  6
Continuous
 62
     7
370
    25
100
AcDbLine
 10
7803.5000860809
 20
6499.9817955173
 30
0.0
 11
7803.5000860809
 21
6500.37848678
 31
0.0
  0
LINE
  5
177
330
1F
100
AcDbEntity
  8
0
  6
Continuous
 62
     7
370
    25
100
AcDbLine
 10
7803.5000860809
 20
6498.3942928589
 30
0.0
 11
7803.5000860809
 21
6498.7909841217
 31
0.0
  0
LINE
  5
178
330
1F
100
AcDbEntity
  8
0
  6
Continuous
 62
     7
370
    25
100
AcDbLine
 10
7803.5000860809
 20
6496.8067902006
 30
0.0
 11
7803.5000860809
 21
6497.2034814633
 31
0.0
  0
LINE
  5
179
330
1F
100
AcDbEntity
  8
0
  6
Continuous
 62
     7
370
    25
100
AcDbLine
 10
7803.5000860809
 20
6495.2192949928
 30
0.0
 11
7803.5000860809
 21
6495.6159862555
 31
0.0
  0
LINE
  5
17A
330
1F
100
AcDbEntity
  8
0
  6
Continuous
 62
     7
370
    25
100
AcDbLine
 10
7803.5000860809
 20
6493.6173233069
 30
0.0
 11
7803.5000860809
 21
6494.0284835971
 31
0.0
  0
LINE
  5
17B
330
1F
100
AcDbEntity
  8
0
  6
Continuous
 62
     7
370
    25
100
AcDbLine
 10
7777.0590866103
 20
6494.8223876632
 30
0.0
 11
7777.0590866103
 21
6494.425510136
 31
0.0
  0
LINE
  5
17C
330
1F
100
AcDbEntity
  8
0
  6
Continuous
 62
     7
370
    25
100
AcDbLine
 10
7777.0590866103
 20
6496.4098903216
 30
0.0
 11
7777.0590866103
 21
6496.0130127944
 31
0.0
  0
LINE
  5
17D
330
1F
100
AcDbEntity
  8
0
  6
Continuous
 62
     7
370
    25
100
AcDbLine
 10
7777.0590866103
 20
6497.9973855294
 30
0.0
 11
7777.0590866103
 21
6497.6005154527
 31
0.0
  0
LINE
  5
17E
330
1F
100
AcDbEntity
  8
0
  6
Continuous
 62
     7
370
    25
100
AcDbLine
 10
7777.0590866103
 20
6499.5848881878
 30
0.0
 11
7777.0590866103
 21
6499.1880106605
 31
0.0
  0
LINE
  5
17F
330
1F
100
AcDbEntity
  8
0
  6
Continuous
 62
     7
370
    25
100
AcDbLine
 10
7777.0590866103
 20
6501.1173236049
 30
0.0
 11
7777.0590866103
 21
6500.7755133189
 31
0.0
  0
SPLINE
  5
180
330
1F
100
AcDbEntity
  8
0
  6
Continuous
 62
     7
370
    25
100
AcDbSpline
210
0.0
220
0.0
230
1.0
 70
     8
 71
     3
 72
     9
 73
     5
 74
     0
 42
0.000000001
 43
0.00000001
 40
0.0
 40
0.0
 40
0.0
 40
0.0
 40
0.5046088559467143
 40
1.0
 40
1.0
 40
1.0
 40
1.0
 10
7777.066434745379
 20
6500.767019657004
 30
0.0
 10
7777.209733941326
 20
6500.684236827468
 30
0.0
 10
7777.493714680582
 20
6500.520183365938
 30
0.0
 10
7777.777691688765
 20
6500.356123171399
 30
0.0
 10
7777.918371383734
 20
6500.274849203933
 30
0.0
  0
SPLINE
  5
181
330
1F
100
AcDbEntity
  8
0
  6
Continuous
 62
     7
370
    25
100
AcDbSpline
210
0.0
220
0.0
230
1.0
 70
     8
 71
     3
 72
     9
 73
     5
 74
     0
 42
0.000000001
 43
0.00000001
 40
0.0
 40
0.0
 40
0.0
 40
0.0
 40
0.5046107674494044
 40
1.0
 40
1.0
 40
1.0
 40
1.0
 10
7777.066434745379
 20
6499.179516998637
 30
0.0
 10
7777.209733664862
 20
6499.09673369055
 30
0.0
 10
7777.493712780504
 20
6498.932679902111
 30
0.0
 10
7777.77769142231
 20
6498.768625018857
 30
0.0
 10
7777.918371383734
 20
6498.687353996146
 30
0.0
  0
SPLINE
  5
182
330
1F
100
AcDbEntity
  8
0
  6
Continuous
 62
     7
370
    25
100
AcDbSpline
210
0.0
220
0.0
230
1.0
 70
     8
 71
     3
 72
     9
 73
     5
 74
     0
 42
0.000000001
 43
0.00000001
 40
0.0
 40
0.0
 40
0.0
 40
0.0
 40
0.5046069794124792
 40
1.0
 40
1.0
 40
1.0
 40
1.0
 10
7777.066434745379
 20
6497.59201434027
 30
0.0
 10
7777.209734212727
 20
6497.509234464067
 30
0.0
 10
7777.493716545899
 20
6497.345186245193
 30
0.0
 10
7777.77769195035
 20
6497.181125758059
 30
0.0
 10
7777.918371383734
 20
6497.099851337779
 30
0.0
  0
SPLINE
  5
183
330
1F
100
AcDbEntity
  8
0
  6
Continuous
 62
     7
370
    25
100
AcDbSpline
210
0.0
220
0.0
230
1.0
 70
     8
 71
     3
 72
     9
 73
     5
 74
     0
 42
0.000000001
 43
0.00000001
 40
0.0
 40
0.0
 40
0.0
 40
0.0
 40
0.5046088559467143
 40
1.0
 40
1.0
 40
1.0
 40
1.0
 10
7777.066434745379
 20
6496.004519132483
 30
0.0
 10
7777.209733941326
 20
6495.921736302947
 30
0.0
 10
7777.493714680582
 20
6495.757682841417
 30
0.0
 10
7777.777691688765
 20
6495.593622646878
 30
0.0
 10
7777.918371383734
 20
6495.512348679412
 30
0.0
  0
SPLINE
  5
184
330
1F
100
AcDbEntity
  8
0
  6
Continuous
 62
     7
370
    25
100
AcDbSpline
210
0.0
220
0.0
230
1.0
 70
     8
 71
     3
 72
     9
 73
     5
 74
     0
 42
0.000000001
 43
0.00000001
 40
0.0
 40
0.0
 40
0.0
 40
0.0
 40
0.5046107674494044
 40
1.0
 40
1.0
 40
1.0
 40
1.0
 10
7777.066434745379
 20
6494.417016474116
 30
0.0
 10
7777.209733664862
 20
6494.334233166029
 30
0.0
 10
7777.493712780504
 20
6494.17017937759
 30
0.0
 10
7777.77769142231
 20
6494.006124494336
 30
0.0
 10
7777.918371383734
 20
6493.924853471625
 30
0.0
  0
SPLINE
  5
185
330
1F
100
AcDbEntity
  8
0
  6
Continuous
 62
     7
370
    25
100
AcDbSpline
210
0.0
220
0.0
230
1.0
 70
     8
 71
     3
 72
     9
 73
     5
 74
     0
 42
0.000000001
 43
0.00000001
 40
0.0
 40
0.0
 40
0.0
 40
0.0
 40
0.4999953096170592
 40
1.0
 40
1.0
 40
1.0
 40
1.0
 10
7802.632961434014
 20
6499.476571647037
 30
0.0
 10
7802.776254155704
 20
6499.559356057192
 30
0.0
 10
7803.062842287499
 20
6499.72492643068
 30
0.0
 10
7803.349437255111
 20
6499.890484694227
 30
0.0
 10
7803.492736083157
 20
6499.97326460253
 30
0.0
  0
SPLINE
  5
186
330
1F
100
AcDbEntity
  8
0
  6
Continuous
 62
     7
370
    25
100
AcDbSpline
210
0.0
220
0.0
230
1.0
 70
     8
 71
     3
 72
     9
 73
     5
 74
     0
 42
0.000000001
 43
0.00000001
 40
0.0
 40
0.0
 40
0.0
 40
0.0
 40
0.4999934329112404
 40
1.0
 40
1.0
 40
1.0
 40
1.0
 10
7802.632961434014
 20
6497.889068988669
 30
0.0
 10
7802.776254424625
 20
6497.971852933314
 30
0.0
 10
7803.062844169967
 20
6498.137422997229
 30
0.0
 10
7803.349437524038
 20
6498.302986537392
 30
0.0
 10
7803.492736083157
 20
6498.385769394744
 30
0.0
  0
SPLINE
  5
187
330
1F
100
AcDbEntity
  8
0
  6
Continuous
 62
     7
370
    25
100
AcDbSpline
210
0.0
220
0.0
230
1.0
 70
     8
 71
     3
 72
     9
 73
     5
 74
     0
 42
0.000000001
 43
0.00000001
 40
0.0
 40
0.0
 40
0.0
 40
0.0
 40
0.4999915561068223
 40
1.0
 40
1.0
 40
1.0
 40
1.0
 10
7802.632961434014
 20
6496.301573780883
 30
0.0
 10
7802.776254693556
 20
6496.384354776488
 30
0.0
 10
7803.062846052534
 20
6496.549919563721
 30
0.0
 10
7803.349437792983
 20
6496.71548341349
 30
0.0
 10
7803.492736083157
 20
6496.798266736377
 30
0.0
  0
SPLINE
  5
188
330
1F
100
AcDbEntity
  8
0
  6
Continuous
 62
     7
370
    25
100
AcDbSpline
210
0.0
220
0.0
230
1.0
 70
     8
 71
     3
 72
     9
 73
     5
 74
     0
 42
0.000000001
 43
0.00000001
 40
0.0
 40
0.0
 40
0.0
 40
0.0
 40
0.4999953096170592
 40
1.0
 40
1.0
 40
1.0
 40
1.0
 10
7802.632961434014
 20
6494.714071122516
 30
0.0
 10
7802.776254155704
 20
6494.796855532672
 30
0.0
 10
7803.062842287499
 20
6494.962425906159
 30
0.0
 10
7803.349437255111
 20
6495.127984169706
 30
0.0
 10
7803.492736083157
 20
6495.21076407801
 30
0.0
  0
SPLINE
  5
189
330
1F
100
AcDbEntity
  8
0
  6
Continuous
 62
     7
370
    25
100
AcDbSpline
210
0.0
220
0.0
230
1.0
 70
     8
 71
     3
 72
     9
 73
     5
 74
     0
 42
0.000000001
 43
0.00000001
 40
0.0
 40
0.0
 40
0.0
 40
0.0
 40
0.7917029851007552
 40
1.0
 40
1.0
 40
1.0
 40
1.0
 10
7802.632961434014
 20
6501.064074305404
 30
0.0
 10
7802.776255507421
 20
6501.14685390571
 30
0.0
 10
7802.957250244215
 20
6501.251412814625
 30
0.0
 10
7803.138241237782
 20
6501.355978027907
 30
0.0
 10
7803.175941121466
 20
6501.377758649695
 30
0.0
  0
SPLINE
  5
18A
330
1F
100
AcDbEntity
  8
0
  6
Continuous
 62
     7
370
    25
100
AcDbSpline
210
0.0
220
0.0
230
1.0
 70
     8
 71
     3
 72
     9
 73
     5
 74
     0
 42
0.000000001
 43
0.00000001
 40
0.0
 40
0.0
 40
0.0
 40
0.0
 40
0.4999945147659413
 40
1.0
 40
1.0
 40
1.0
 40
1.0
 10
7777.926188905425
 20
6500.090194014419
 30
0.0
 10
7777.782896845938
 20
6500.007409538469
 30
0.0
 10
7777.496309582966
 20
6499.84183877018
 30
0.0
 10
7777.209714988299
 20
6499.676280901425
 30
0.0
 10
7777.066416118927
 20
6499.593501058925
 30
0.0
  0
SPLINE
  5
18B
330
1F
100
AcDbEntity
  8
0
  6
Continuous
 62
     7
370
    25
100
AcDbSpline
210
0.0
220
0.0
230
1.0
 70
     8
 71
     3
 72
     9
 73
     5
 74
     0
 42
0.000000001
 43
0.00000001
 40
0.0
 40
0.0
 40
0.0
 40
0.0
 40
0.4999926379494428
 40
1.0
 40
1.0
 40
1.0
 40
1.0
 10
7777.926188905425
 20
6498.502691356051
 30
0.0
 10
7777.782896577002
 20
6498.419909829147
 30
0.0
 10
7777.496307700391
 20
6498.254344337534
 30
0.0
 10
7777.209714719356
 20
6498.088786159169
 30
0.0
 10
7777.066416118927
 20
6498.006005851138
 30
0.0
  0
SPLINE
  5
18C
330
1F
100
AcDbEntity
  8
0
  6
Continuous
 62
     7
370
    25
100
AcDbSpline
210
0.0
220
0.0
230
1.0
 70
     8
 71
     3
 72
     9
 73
     5
 74
     0
 42
0.000000001
 43
0.00000001
 40
0.0
 40
0.0
 40
0.0
 40
0.0
 40
0.4999926379494428
 40
1.0
 40
1.0
 40
1.0
 40
1.0
 10
7777.926188905425
 20
6496.915188697684
 30
0.0
 10
7777.782896577002
 20
6496.83240717078
 30
0.0
 10
7777.496307700391
 20
6496.666841679167
 30
0.0
 10
7777.209714719356
 20
6496.501283500802
 30
0.0
 10
7777.066416118927
 20
6496.418503192771
 30
0.0
  0
SPLINE
  5
18D
330
1F
100
AcDbEntity
  8
0
  6
Continuous
 62
     7
370
    25
100
AcDbSpline
210
0.0
220
0.0
230
1.0
 70
     8
 71
     3
 72
     9
 73
     5
 74
     0
 42
0.000000001
 43
0.00000001
 40
0.0
 40
0.0
 40
0.0
 40
0.0
 40
0.4999907612434785
 40
1.0
 40
1.0
 40
1.0
 40
1.0
 10
7777.926188905425
 20
6495.327693489898
 30
0.0
 10
7777.782896308086
 20
6495.244912428496
 30
0.0
 10
7777.496305817927
 20
6495.079347246457
 30
0.0
 10
7777.209714450426
 20
6494.913783791489
 30
0.0
 10
7777.066416118927
 20
6494.831000534404
 30
0.0
  0
LINE
  5
18E
330
1F
100
AcDbEntity
  8
0
  6
Continuous
 62
     7
370
    25
100
AcDbLine
 10
7777.9261889054
 20
6493.7401908315
 30
0.0
 11
7777.7362344905
 21
6493.6304512299
 31
0.0
  0
SPLINE
  5
18F
330
1F
100
AcDbEntity
  8
0
  6
Continuous
 62
     7
370
    25
100
AcDbSpline
210
0.0
220
0.0
230
1.0
 70
     8
 71
     3
 72
     9
 73
     5
 74
     0
 42
0.000000001
 43
0.00000001
 40
0.0
 40
0.0
 40
0.0
 40
0.0
 40
0.5045984181799462
 40
1.0
 40
1.0
 40
1.0
 40
1.0
 10
7803.492758434899
 20
6498.799753455031
 30
0.0
 10
7803.349458387875
 20
6498.882533408338
 30
0.0
 10
7803.065470087749
 20
6499.046584563323
 30
0.0
 10
7802.781488231089
 20
6499.210647078545
 30
0.0
 10
7802.640803170092
 20
6499.291923908103
 30
0.0
  0
SPLINE
  5
190
330
1F
100
AcDbEntity
  8
0
  6
Continuous
 62
     7
370
    25
100
AcDbSpline
210
0.0
220
0.0
230
1.0
 70
     8
 71
     3
 72
     9
 73
     5
 74
     0
 42
0.000000001
 43
0.00000001
 40
0.0
 40
0.0
 40
0.0
 40
0.0
 40
0.5045984181799462
 40
1.0
 40
1.0
 40
1.0
 40
1.0
 10
7803.492758434899
 20
6497.212250796664
 30
0.0
 10
7803.349458387875
 20
6497.29503074997
 30
0.0
 10
7803.065470087749
 20
6497.459081904955
 30
0.0
 10
7802.781488231089
 20
6497.623144420178
 30
0.0
 10
7802.640803170092
 20
6497.704421249736
 30
0.0
  0
SPLINE
  5
191
330
1F
100
AcDbEntity
  8
0
  6
Continuous
 62
     7
370
    25
100
AcDbSpline
210
0.0
220
0.0
230
1.0
 70
     8
 71
     3
 72
     9
 73
     5
 74
     0
 42
0.000000001
 43
0.00000001
 40
0.0
 40
0.0
 40
0.0
 40
0.0
 40
0.5045984181799462
 40
1.0
 40
1.0
 40
1.0
 40
1.0
 10
7803.492758434899
 20
6495.624755588878
 30
0.0
 10
7803.349458387875
 20
6495.707535542184
 30
0.0
 10
7803.065470087749
 20
6495.871586697169
 30
0.0
 10
7802.781488231089
 20
6496.035649212391
 30
0.0
 10
7802.640803170092
 20
6496.116926041949
 30
0.0
  0
SPLINE
  5
192
330
1F
100
AcDbEntity
  8
0
  6
Continuous
 62
     7
370
    25
100
AcDbSpline
210
0.0
220
0.0
230
1.0
 70
     8
 71
     3
 72
     9
 73
     5
 74
     0
 42
0.000000001
 43
0.00000001
 40
0.0
 40
0.0
 40
0.0
 40
0.0
 40
0.5045984181799462
 40
1.0
 40
1.0
 40
1.0
 40
1.0
 10
7803.492758434899
 20
6494.03725293051
 30
0.0
 10
7803.349458387875
 20
6494.120032883817
 30
0.0
 10
7803.065470087749
 20
6494.284084038802
 30
0.0
 10
7802.781488231089
 20
6494.448146554024
 30
0.0
 10
7802.640803170092
 20
6494.529423383582
 30
0.0
  0
SPLINE
  5
193
330
1F
100
AcDbEntity
  8
0
  6
Continuous
 62
     7
370
    25
100
AcDbSpline
210
0.0
220
0.0
230
1.0
 70
     8
 71
     3
 72
     9
 73
     5
 74
     0
 42
0.000000001
 43
0.00000001
 40
0.0
 40
0.0
 40
0.0
 40
0.0
 40
0.5045984181799462
 40
1.0
 40
1.0
 40
1.0
 40
1.0
 10
7803.492758434899
 20
6500.387256113399
 30
0.0
 10
7803.349458387875
 20
6500.470036066705
 30
0.0
 10
7803.065470087749
 20
6500.63408722169
 30
0.0
 10
7802.781488231089
 20
6500.798149736912
 30
0.0
 10
7802.640803170092
 20
6500.87942656647
 30
0.0
  0
SPLINE
  5
194
330
1F
100
AcDbEntity
  8
0
  6
Continuous
 62
     7
370
    25
100
AcDbSpline
210
0.0
220
0.0
230
1.0
 70
     8
 71
     3
 72
     9
 73
     5
 74
     0
 42
0.000000001
 43
0.00000001
 40
0.0
 40
0.0
 40
0.0
 40
0.0
 40
0.6149554575502001
 40
1.0
 40
1.0
 40
1.0
 40
1.0
 10
7777.926188905425
 20
6501.677689222205
 30
0.0
 10
7777.782896433777
 20
6501.594907939232
 30
0.0
 10
7777.54988366856
 20
6501.460294477465
 30
0.0
 10
7777.316869326277
 20
6501.32568391509
 30
0.0
 10
7777.227148425467
 20
6501.273852852691
 30
0.0
  0
LINE
  5
195
330
1F
100
AcDbEntity
  8
0
  6
Continuous
 62
     7
370
    25
100
AcDbLine
 10
7777.9183713837
 20
6500.2800199069
 30
0.0
 11
7777.9183713837
 21
6500.085671512
 31
0.0
  0
LINE
  5
196
330
1F
100
AcDbEntity
  8
0
  6
Continuous
 62
     7
370
    25
100
AcDbLine
 10
7777.9183713837
 20
6498.6925246991
 30
0.0
 11
7777.9183713837
 21
6498.4981763042
 31
0.0
  0
LINE
  5
197
330
1F
100
AcDbEntity
  8
0
  6
Continuous
 62
     7
370
    25
100
AcDbLine
 10
7777.9183713837
 20
6497.1050220407
 30
0.0
 11
7777.9183713837
 21
6496.9106736458
 31
0.0
  0
LINE
  5
198
330
1F
100
AcDbEntity
  8
0
  6
Continuous
 62
     7
370
    25
100
AcDbLine
 10
7777.9183713837
 20
6495.5175193823
 30
0.0
 11
7777.9183713837
 21
6495.3231709875
 31
0.0
  0
LINE
  5
199
330
1F
100
AcDbEntity
  8
0
  6
Continuous
 62
     7
370
    25
100
AcDbLine
 10
7777.9183713837
 20
6493.9300241746
 30
0.0
 11
7777.9183713837
 21
6493.7356757797
 31
0.0
  0
LINE
  5
19A
330
1F
100
AcDbEntity
  8
0
  6
Continuous
 62
     7
370
    25
100
AcDbLine
 10
7802.6408031701
 20
6499.2878335394
 30
0.0
 11
7802.6408031701
 21
6499.4811016
 31
0.0
  0
LINE
  5
19B
330
1F
100
AcDbEntity
  8
0
  6
Continuous
 62
     7
370
    25
100
AcDbLine
 10
7802.6408031701
 20
6497.7003383316
 30
0.0
 11
7802.6408031701
 21
6497.8935989417
 31
0.0
  0
LINE
  5
19C
330
1F
100
AcDbEntity
  8
0
  6
Continuous
 62
     7
370
    25
100
AcDbLine
 10
7802.6408031701
 20
6496.1128356732
 30
0.0
 11
7802.6408031701
 21
6496.3061037339
 31
0.0
  0
LINE
  5
19D
330
1F
100
AcDbEntity
  8
0
  6
Continuous
 62
     7
370
    25
100
AcDbLine
 10
7802.6408031701
 20
6494.5253330148
 30
0.0
 11
7802.6408031701
 21
6494.7186010755
 31
0.0
  0
LINE
  5
19E
330
1F
100
AcDbEntity
  8
0
  6
Continuous
 62
     7
370
    25
100
AcDbLine
 10
7802.6408031701
 20
6500.8753361977
 30
0.0
 11
7802.6408031701
 21
6501.0686042584
 31
0.0
  0
LINE
  5
19F
330
1F
100
AcDbEntity
  8
0
  6
Continuous
 62
     7
370
    25
100
AcDbLine
 10
7777.9183713837
 20
6501.8675225652
 30
0.0
 11
7777.9183713837
 21
6501.6731741704
 31
0.0
  0
LINE
  5
1A0
330
1F
100
AcDbEntity
  8
0
  6
Continuous
 62
     7
370
    25
100
AcDbLine
 10
7777.6586953669
 20
6333.5177126206
 30
0.0
 11
7778.5590859248
 21
6332.617317406
 31
0.0
  0
LINE
  5
1A1
330
1F
100
AcDbEntity
  8
0
  6
Continuous
 62
     7
370
    25
100
AcDbLine
 10
7802.0000867664
 20
6332.617317406
 30
0.0
 11
7803.4153245508
 21
6334.0325551904
 31
0.0
  0
SPLINE
  5
1A2
330
1F
100
AcDbEntity
  8
0
  6
Continuous
 62
     7
370
    25
100
AcDbSpline
210
0.0
220
0.0
230
1.0
 70
     8
 71
     3
 72
     9
 73
     5
 74
     0
 42
0.000000001
 43
0.00000001
 40
0.0
 40
0.0
 40
0.0
 40
0.0
 40
0.5040586987195105
 40
1.0
 40
1.0
 40
1.0
 40
1.0
 10
7803.493630152829
 20
6335.594368246901
 30
0.0
 10
7803.350341594743
 20
6335.677138774466
 30
0.0
 10
7803.066072007786
 20
6335.841346887079
 30
0.0
 10
7802.781805181549
 20
6336.00556038174
 30
0.0
 10
7802.640825521834
 20
6336.08700063597
 30
0.0
  0
SPLINE
  5
1A3
330
1F
100
AcDbEntity
  8
0
  6
Continuous
 62
     7
370
    25
100
AcDbSpline
210
0.0
220
0.0
230
1.0
 70
     8
 71
     3
 72
     9
 73
     5
 74
     0
 42
0.000000001
 43
0.00000001
 40
0.0
 40
0.0
 40
0.0
 40
0.0
 40
0.5040586987195105
 40
1.0
 40
1.0
 40
1.0
 40
1.0
 10
7803.493630152829
 20
6337.181870905269
 30
0.0
 10
7803.350341594743
 20
6337.264641432833
 30
0.0
 10
7803.066072007786
 20
6337.428849545446
 30
0.0
 10
7802.781805181549
 20
6337.593063040107
 30
0.0
 10
7802.640825521834
 20
6337.674503294337
 30
0.0
  0
SPLINE
  5
1A4
330
1F
100
AcDbEntity
  8
0
  6
Continuous
 62
     7
370
    25
100
AcDbSpline
210
0.0
220
0.0
230
1.0
 70
     8
 71
     3
 72
     9
 73
     5
 74
     0
 42
0.000000001
 43
0.00000001
 40
0.0
 40
0.0
 40
0.0
 40
0.0
 40
0.5040567912967711
 40
1.0
 40
1.0
 40
1.0
 40
1.0
 10
7803.493630152829
 20
6338.769366113055
 30
0.0
 10
7803.350341319198
 20
6338.852136163635
 30
0.0
 10
7803.066070109875
 20
6339.016343951345
 30
0.0
 10
7802.781804914802
 20
6339.180562753189
 30
0.0
 10
7802.640825521834
 20
6339.262005952704
 30
0.0
  0
SPLINE
  5
1A5
330
1F
100
AcDbEntity
  8
0
  6
Continuous
 62
     7
370
    25
100
AcDbSpline
210
0.0
220
0.0
230
1.0
 70
     8
 71
     3
 72
     9
 73
     5
 74
     0
 42
0.000000001
 43
0.00000001
 40
0.0
 40
0.0
 40
0.0
 40
0.0
 40
0.5040586987195105
 40
1.0
 40
1.0
 40
1.0
 40
1.0
 10
7803.493630152829
 20
6340.356868771422
 30
0.0
 10
7803.350341594743
 20
6340.439639298987
 30
0.0
 10
7803.066072007786
 20
6340.603847411599
 30
0.0
 10
7802.781805181549
 20
6340.768060906261
 30
0.0
 10
7802.640825521834
 20
6340.849501160491
 30
0.0
  0
SPLINE
  5
1A6
330
1F
100
AcDbEntity
  8
0
  6
Continuous
 62
     7
370
    25
100
AcDbSpline
210
0.0
220
0.0
230
1.0
 70
     8
 71
     3
 72
     9
 73
     5
 74
     0
 42
0.000000001
 43
0.00000001
 40
0.0
 40
0.0
 40
0.0
 40
0.0
 40
0.4999937550466421
 40
1.0
 40
1.0
 40
1.0
 40
1.0
 10
7777.925260376818
 20
6335.297246543277
 30
0.0
 10
7777.781976357601
 20
6335.214475043012
 30
0.0
 10
7777.495404739914
 20
6335.048929974836
 30
0.0
 10
7777.208829890207
 20
6334.883391109473
 30
0.0
 10
7777.065540675707
 20
6334.800620643008
 30
0.0
  0
SPLINE
  5
1A7
330
1F
100
AcDbEntity
  8
0
  6
Continuous
 62
     7
370
    25
100
AcDbSpline
210
0.0
220
0.0
230
1.0
 70
     8
 71
     3
 72
     9
 73
     5
 74
     0
 42
0.000000001
 43
0.00000001
 40
0.0
 40
0.0
 40
0.0
 40
0.0
 40
0.4999956319160505
 40
1.0
 40
1.0
 40
1.0
 40
1.0
 10
7777.925260376818
 20
6336.884749201644
 30
0.0
 10
7777.781976626529
 20
6336.801974752319
 30
0.0
 10
7777.495406622425
 20
6336.636424407392
 30
0.0
 10
7777.20883015914
 20
6336.470885851719
 30
0.0
 10
7777.065540675707
 20
6336.388115850795
 30
0.0
  0
SPLINE
  5
1A8
330
1F
100
AcDbEntity
  8
0
  6
Continuous
 62
     7
370
    25
100
AcDbSpline
210
0.0
220
0.0
230
1.0
 70
     8
 71
     3
 72
     9
 73
     5
 74
     0
 42
0.000000001
 43
0.00000001
 40
0.0
 40
0.0
 40
0.0
 40
0.0
 40
0.4999937550466421
 40
1.0
 40
1.0
 40
1.0
 40
1.0
 10
7777.925260376818
 20
6338.47224440943
 30
0.0
 10
7777.781976357601
 20
6338.389472909165
 30
0.0
 10
7777.495404739914
 20
6338.22392784099
 30
0.0
 10
7777.208829890207
 20
6338.058388975627
 30
0.0
 10
7777.065540675707
 20
6337.975618509162
 30
0.0
  0
SPLINE
  5
1A9
330
1F
100
AcDbEntity
  8
0
  6
Continuous
 62
     7
370
    25
100
AcDbSpline
210
0.0
220
0.0
230
1.0
 70
     8
 71
     3
 72
     9
 73
     5
 74
     0
 42
0.000000001
 43
0.00000001
 40
0.0
 40
0.0
 40
0.0
 40
0.0
 40
0.4999937550466421
 40
1.0
 40
1.0
 40
1.0
 40
1.0
 10
7777.925260376818
 20
6340.059747067798
 30
0.0
 10
7777.781976357601
 20
6339.976975567532
 30
0.0
 10
7777.495404739914
 20
6339.811430499357
 30
0.0
 10
7777.208829890207
 20
6339.645891633994
 30
0.0
 10
7777.065540675707
 20
6339.563121167529
 30
0.0
  0
SPLINE
  5
1AA
330
1F
100
AcDbEntity
  8
0
  6
Continuous
 62
     7
370
    25
100
AcDbSpline
210
0.0
220
0.0
230
1.0
 70
     8
 71
     3
 72
     9
 73
     5
 74
     0
 42
0.000000001
 43
0.00000001
 40
0.0
 40
0.0
 40
0.0
 40
0.0
 40
0.467934626453923
 40
0.9999999999999999
 40
0.9999999999999999
 40
0.9999999999999999
 40
0.9999999999999999
 10
7777.87345742125
 20
6341.617320743907
 30
0.0
 10
7777.747441123224
 20
6341.544522976471
 30
0.0
 10
7777.478137910976
 20
6341.38895045988
 30
0.0
 10
7777.208830058717
 20
6341.233386546825
 30
0.0
 10
7777.065540675707
 20
6341.150616375316
 30
0.0
  0
LINE
  5
1AB
330
1F
100
AcDbEntity
  8
0
  6
Continuous
 62
     7
370
    25
100
AcDbLine
 10
7777.9252603768
 20
6333.7097438849
 30
0.0
 11
7777.6622520878
 21
6333.5578116454
 31
0.0
  0
SPLINE
  5
1AC
330
1F
100
AcDbEntity
  8
0
  6
Continuous
 62
     7
370
    25
100
AcDbSpline
210
0.0
220
0.0
230
1.0
 70
     8
 71
     3
 72
     9
 73
     5
 74
     0
 42
0.000000001
 43
0.00000001
 40
0.0
 40
0.0
 40
0.0
 40
0.0
 40
0.4387547820854862
 40
0.9999999999999999
 40
0.9999999999999999
 40
0.9999999999999999
 40
0.9999999999999999
 10
7803.394403320439
 20
6334.064182905066
 30
0.0
 10
7803.284190310202
 20
6334.127847568368
 30
0.0
 10
7803.032995303933
 20
6334.272950632541
 30
0.0
 10
7802.781804922307
 20
6334.418062235154
 30
0.0
 10
7802.640825521834
 20
6334.499505428184
 30
0.0
  0
LINE
  5
1AD
330
1F
100
AcDbEntity
  8
0
  6
Continuous
 62
     7
370
    25
100
AcDbLine
 10
7777.0590866103
 20
6334.7929688967
 30
0.0
 11
7777.0590866103
 21
6334.3962627329
 31
0.0
  0
LINE
  5
1AE
330
1F
100
AcDbEntity
  8
0
  6
Continuous
 62
     7
370
    25
100
AcDbLine
 10
7777.0590866103
 20
6336.3804641045
 30
0.0
 11
7777.0590866103
 21
6335.9837653912
 31
0.0
  0
LINE
  5
1AF
330
1F
100
AcDbEntity
  8
0
  6
Continuous
 62
     7
370
    25
100
AcDbLine
 10
7777.0590866103
 20
6337.9679667629
 30
0.0
 11
7777.0590866103
 21
6337.5712680496
 31
0.0
  0
LINE
  5
1B0
330
1F
100
AcDbEntity
  8
0
  6
Continuous
 62
     7
370
    25
100
AcDbLine
 10
7777.0590866103
 20
6339.5554619707
 30
0.0
 11
7777.0590866103
 21
6339.1587632574
 31
0.0
  0
LINE
  5
1B1
330
1F
100
AcDbEntity
  8
0
  6
Continuous
 62
     7
370
    25
100
AcDbLine
 10
7777.0590866103
 20
6341.142964629
 30
0.0
 11
7777.0590866103
 21
6340.7462659157
 31
0.0
  0
LINE
  5
1B2
330
1F
100
AcDbEntity
  8
0
  6
Continuous
 62
     7
370
    25
100
AcDbLine
 10
7803.5000860809
 20
6341.5398421563
 30
0.0
 11
7803.5000860809
 21
6341.6173207439
 31
0.0
  0
LINE
  5
1B3
330
1F
100
AcDbEntity
  8
0
  6
Continuous
 62
     7
370
    25
100
AcDbLine
 10
7803.5000860809
 20
6339.9523394979
 30
0.0
 11
7803.5000860809
 21
6340.3494777955
 31
0.0
  0
LINE
  5
1B4
330
1F
100
AcDbEntity
  8
0
  6
Continuous
 62
     7
370
    25
100
AcDbLine
 10
7803.5000860809
 20
6338.3648368395
 30
0.0
 11
7803.5000860809
 21
6338.7619825877
 31
0.0
  0
LINE
  5
1B5
330
1F
100
AcDbEntity
  8
0
  6
Continuous
 62
     7
370
    25
100
AcDbLine
 10
7803.5000860809
 20
6336.7773416318
 30
0.0
 11
7803.5000860809
 21
6337.1744799293
 31
0.0
  0
LINE
  5
1B6
330
1F
100
AcDbEntity
  8
0
  6
Continuous
 62
     7
370
    25
100
AcDbLine
 10
7803.5000860809
 20
6335.1898389734
 30
0.0
 11
7803.5000860809
 21
6335.5869772709
 31
0.0
  0
SPLINE
  5
1B7
330
1F
100
AcDbEntity
  8
0
  6
Continuous
 62
     7
370
    25
100
AcDbSpline
210
0.0
220
0.0
230
1.0
 70
     8
 71
     3
 72
     9
 73
     5
 74
     0
 42
0.000000001
 43
0.00000001
 40
0.0
 40
0.0
 40
0.0
 40
0.0
 40
0.4999933847311774
 40
1.0
 40
1.0
 40
1.0
 40
1.0
 10
7802.63391510833
 20
6336.273302403796
 30
0.0
 10
7802.777198171671
 20
6336.356073934713
 30
0.0
 10
7803.063768089829
 20
6336.521619186798
 30
0.0
 10
7803.350341534656
 20
6336.687157868254
 30
0.0
 10
7803.493630152829
 20
6336.769928304065
 30
0.0
  0
SPLINE
  5
1B8
330
1F
100
AcDbEntity
  8
0
  6
Continuous
 62
     7
370
    25
100
AcDbSpline
210
0.0
220
0.0
230
1.0
 70
     8
 71
     3
 72
     9
 73
     5
 74
     0
 42
0.000000001
 43
0.00000001
 40
0.0
 40
0.0
 40
0.0
 40
0.0
 40
0.4999933847311774
 40
1.0
 40
1.0
 40
1.0
 40
1.0
 10
7802.63391510833
 20
6337.860797611583
 30
0.0
 10
7802.777198171671
 20
6337.9435691425
 30
0.0
 10
7803.063768089829
 20
6338.109114394584
 30
0.0
 10
7803.350341534656
 20
6338.274653076041
 30
0.0
 10
7803.493630152829
 20
6338.357423511851
 30
0.0
  0
SPLINE
  5
1B9
330
1F
100
AcDbEntity
  8
0
  6
Continuous
 62
     7
370
    25
100
AcDbSpline
210
0.0
220
0.0
230
1.0
 70
     8
 71
     3
 72
     9
 73
     5
 74
     0
 42
0.000000001
 43
0.00000001
 40
0.0
 40
0.0
 40
0.0
 40
0.0
 40
0.4999933847311774
 40
1.0
 40
1.0
 40
1.0
 40
1.0
 10
7802.63391510833
 20
6339.44830026995
 30
0.0
 10
7802.777198171671
 20
6339.531071800867
 30
0.0
 10
7803.063768089829
 20
6339.696617052951
 30
0.0
 10
7803.350341534656
 20
6339.862155734408
 30
0.0
 10
7803.493630152829
 20
6339.944926170218
 30
0.0
  0
SPLINE
  5
1BA
330
1F
100
AcDbEntity
  8
0
  6
Continuous
 62
     7
370
    25
100
AcDbSpline
210
0.0
220
0.0
230
1.0
 70
     8
 71
     3
 72
     9
 73
     5
 74
     0
 42
0.000000001
 43
0.00000001
 40
0.0
 40
0.0
 40
0.0
 40
0.0
 40
0.4999933847311774
 40
1.0
 40
1.0
 40
1.0
 40
1.0
 10
7802.63391510833
 20
6341.035802928317
 30
0.0
 10
7802.777198171671
 20
6341.118574459234
 30
0.0
 10
7803.063768089829
 20
6341.284119711318
 30
0.0
 10
7803.350341534656
 20
6341.449658392775
 30
0.0
 10
7803.493630152829
 20
6341.532428828586
 30
0.0
  0
SPLINE
  5
1BB
330
1F
100
AcDbEntity
  8
0
  6
Continuous
 62
     7
370
    25
100
AcDbSpline
210
0.0
220
0.0
230
1.0
 70
     8
 71
     3
 72
     9
 73
     5
 74
     0
 42
0.000000001
 43
0.00000001
 40
0.0
 40
0.0
 40
0.0
 40
0.0
 40
0.5040598944565694
 40
1.0
 40
1.0
 40
1.0
 40
1.0
 10
7777.065542538352
 20
6335.976173249591
 30
0.0
 10
7777.208831471426
 20
6335.893402821815
 30
0.0
 10
7777.49310112797
 20
6335.729195296703
 30
0.0
 10
7777.777367261673
 20
6335.564981211346
 30
0.0
 10
7777.918346238024
 20
6335.483540860522
 30
0.0
  0
SPLINE
  5
1BC
330
1F
100
AcDbEntity
  8
0
  6
Continuous
 62
     7
370
    25
100
AcDbSpline
210
0.0
220
0.0
230
1.0
 70
     8
 71
     3
 72
     9
 73
     5
 74
     0
 42
0.000000001
 43
0.00000001
 40
0.0
 40
0.0
 40
0.0
 40
0.0
 40
0.5040598944565694
 40
1.0
 40
1.0
 40
1.0
 40
1.0
 10
7777.065542538352
 20
6337.563675907958
 30
0.0
 10
7777.208831471426
 20
6337.480905480182
 30
0.0
 10
7777.49310112797
 20
6337.31669795507
 30
0.0
 10
7777.777367261673
 20
6337.152483869713
 30
0.0
 10
7777.918346238024
 20
6337.071043518889
 30
0.0
  0
SPLINE
  5
1BD
330
1F
100
AcDbEntity
  8
0
  6
Continuous
 62
     7
370
    25
100
AcDbSpline
210
0.0
220
0.0
230
1.0
 70
     8
 71
     3
 72
     9
 73
     5
 74
     0
 42
0.000000001
 43
0.00000001
 40
0.0
 40
0.0
 40
0.0
 40
0.0
 40
0.5040598944565694
 40
1.0
 40
1.0
 40
1.0
 40
1.0
 10
7777.065542538352
 20
6339.151178566325
 30
0.0
 10
7777.208831471426
 20
6339.068408138549
 30
0.0
 10
7777.49310112797
 20
6338.904200613437
 30
0.0
 10
7777.777367261673
 20
6338.73998652808
 30
0.0
 10
7777.918346238024
 20
6338.658546177257
 30
0.0
  0
SPLINE
  5
1BE
330
1F
100
AcDbEntity
  8
0
  6
Continuous
 62
     7
370
    25
100
AcDbSpline
210
0.0
220
0.0
230
1.0
 70
     8
 71
     3
 72
     9
 73
     5
 74
     0
 42
0.000000001
 43
0.00000001
 40
0.0
 40
0.0
 40
0.0
 40
0.0
 40
0.5040598944565694
 40
1.0
 40
1.0
 40
1.0
 40
1.0
 10
7777.065542538352
 20
6340.738673774112
 30
0.0
 10
7777.208831471426
 20
6340.655903346335
 30
0.0
 10
7777.49310112797
 20
6340.491695821223
 30
0.0
 10
7777.777367261673
 20
6340.327481735867
 30
0.0
 10
7777.918346238024
 20
6340.246041385043
 30
0.0
  0
SPLINE
  5
1BF
330
1F
100
AcDbEntity
  8
0
  6
Continuous
 62
     7
370
    25
100
AcDbSpline
210
0.0
220
0.0
230
1.0
 70
     8
 71
     3
 72
     9
 73
     5
 74
     0
 42
0.000000001
 43
0.00000001
 40
0.0
 40
0.0
 40
0.0
 40
0.0
 40
0.5040598944565694
 40
1.0
 40
1.0
 40
1.0
 40
1.0
 10
7777.065542538352
 20
6334.388678041804
 30
0.0
 10
7777.208831471426
 20
6334.305907614028
 30
0.0
 10
7777.49310112797
 20
6334.141700088916
 30
0.0
 10
7777.777367261673
 20
6333.97748600356
 30
0.0
 10
7777.918346238024
 20
6333.896045652736
 30
0.0
  0
SPLINE
  5
1C0
330
1F
100
AcDbEntity
  8
0
  6
Continuous
 62
     7
370
    25
100
AcDbSpline
210
0.0
220
0.0
230
1.0
 70
     8
 71
     3
 72
     9
 73
     5
 74
     0
 42
0.000000001
 43
0.00000001
 40
0.0
 40
0.0
 40
0.0
 40
0.0
 40
0.4999933847311774
 40
1.0
 40
1.0
 40
1.0
 40
1.0
 10
7802.63391510833
 20
6334.685799745429
 30
0.0
 10
7802.777198171671
 20
6334.768571276346
 30
0.0
 10
7803.063768089829
 20
6334.93411652843
 30
0.0
 10
7803.350341534656
 20
6335.099655209887
 30
0.0
 10
7803.493630152829
 20
6335.182425645698
 30
0.0
  0
LINE
  5
1C1
330
1F
100
AcDbEntity
  8
0
  6
Continuous
 62
     7
370
    25
100
AcDbLine
 10
7802.6408255218
 20
6336.0827910579
 30
0.0
 11
7802.6408255218
 21
6336.277295915
 31
0.0
  0
LINE
  5
1C2
330
1F
100
AcDbEntity
  8
0
  6
Continuous
 62
     7
370
    25
100
AcDbLine
 10
7802.6408255218
 20
6337.6702937163
 30
0.0
 11
7802.6408255218
 21
6337.8647911228
 31
0.0
  0
LINE
  5
1C3
330
1F
100
AcDbEntity
  8
0
  6
Continuous
 62
     7
370
    25
100
AcDbLine
 10
7802.6408255218
 20
6339.2577963747
 30
0.0
 11
7802.6408255218
 21
6339.4522937811
 31
0.0
  0
LINE
  5
1C4
330
1F
100
AcDbEntity
  8
0
  6
Continuous
 62
     7
370
    25
100
AcDbLine
 10
7802.6408255218
 20
6340.8452915825
 30
0.0
 11
7802.6408255218
 21
6341.0397964395
 31
0.0
  0
LINE
  5
1C5
330
1F
100
AcDbEntity
  8
0
  6
Continuous
 62
     7
370
    25
100
AcDbLine
 10
7777.918346238
 20
6335.4876014269
 30
0.0
 11
7777.918346238
 21
6335.2932530321
 31
0.0
  0
LINE
  5
1C6
330
1F
100
AcDbEntity
  8
0
  6
Continuous
 62
     7
370
    25
100
AcDbLine
 10
7777.918346238
 20
6337.0750966347
 30
0.0
 11
7777.918346238
 21
6336.8807482399
 31
0.0
  0
LINE
  5
1C7
330
1F
100
AcDbEntity
  8
0
  6
Continuous
 62
     7
370
    25
100
AcDbLine
 10
7777.918346238
 20
6338.6625992931
 30
0.0
 11
7777.918346238
 21
6338.4682508982
 31
0.0
  0
LINE
  5
1C8
330
1F
100
AcDbEntity
  8
0
  6
Continuous
 62
     7
370
    25
100
AcDbLine
 10
7777.918346238
 20
6340.2501019515
 30
0.0
 11
7777.918346238
 21
6340.0557535566
 31
0.0
  0
LINE
  5
1C9
330
1F
100
AcDbEntity
  8
0
  6
Continuous
 62
     7
370
    25
100
AcDbLine
 10
7777.918346238
 20
6333.9000987686
 30
0.0
 11
7777.918346238
 21
6333.7057503737
 31
0.0
  0
LINE
  5
1CA
330
1F
100
AcDbEntity
  8
0
  6
Continuous
 62
     7
370
    25
100
AcDbLine
 10
7802.6408255218
 20
6334.4952958501
 30
0.0
 11
7802.6408255218
 21
6334.6897932566
 31
0.0
  0
LINE
  5
1CB
330
1F
100
AcDbEntity
  8
0
  6
Continuous
 62
     7
370
    25
100
AcDbLine
 10
7834.3795873343
 20
6487.6173185981
 30
0.0
 11
7834.3795873343
 21
6468.4947813727
 31
0.0
  0
LINE
  5
1CC
330
1F
100
AcDbEntity
  8
0
  6
Continuous
 62
     7
370
    25
100
AcDbLine
 10
7834.3795873343
 20
6487.6173185981
 30
0.0
 11
7836.7795832573
 21
6487.6173185981
 31
0.0
  0
LINE
  5
1CD
330
1F
100
AcDbEntity
  8
0
  6
Continuous
 62
     7
370
    25
100
AcDbLine
 10
7834.3795873343
 20
6468.4947813727
 30
0.0
 11
7834.3795873343
 21
6366.7398589529
 31
0.0
  0
LINE
  5
1CE
330
1F
100
AcDbEntity
  8
0
  6
Continuous
 62
     7
370
    25
100
AcDbLine
 10
7834.3795873343
 20
6347.6173180021
 30
0.0
 11
7836.7795832573
 21
6347.6173180021
 31
0.0
  0
LINE
  5
1CF
330
1F
100
AcDbEntity
  8
0
  6
Continuous
 62
     7
370
    25
100
AcDbLine
 10
7834.3795873343
 20
6347.6173180021
 30
0.0
 11
7834.3795873343
 21
6366.7398589529
 31
0.0
  0
LINE
  5
1D0
330
1F
100
AcDbEntity
  8
0
  6
Continuous
 62
     7
370
    25
100
AcDbLine
 10
7834.3795873343
 20
6363.1883869744
 30
0.0
 11
7764.7795863568
 21
6363.1883869744
 31
0.0
  0
LINE
  5
1D1
330
1F
100
AcDbEntity
  8
0
  6
Continuous
 62
     7
370
    25
100
AcDbLine
 10
7764.7795863568
 20
6368.6026009596
 30
0.0
 11
7764.7795863568
 21
6363.1883869744
 31
0.0
  0
LINE
  5
1D2
330
1F
100
AcDbEntity
  8
0
  6
Continuous
 62
     7
370
    25
100
AcDbLine
 10
7834.3795873343
 20
6368.6026009596
 30
0.0
 11
7764.7795863568
 21
6368.6026009596
 31
0.0
  0
LINE
  5
1D3
330
1F
100
AcDbEntity
  8
0
  6
Continuous
 62
     7
370
    25
100
AcDbLine
 10
7764.7795863568
 20
6466.6320393659
 30
0.0
 11
7764.7795863568
 21
6472.0462533511
 31
0.0
  0
LINE
  5
1D4
330
1F
100
AcDbEntity
  8
0
  6
Continuous
 62
     7
370
    25
100
AcDbLine
 10
7834.3795873343
 20
6472.0462533511
 30
0.0
 11
7764.7795863568
 21
6472.0462533511
 31
0.0
  0
LINE
  5
1D5
330
1F
100
AcDbEntity
  8
0
  6
Continuous
 62
     7
370
    25
100
AcDbLine
 10
7834.3795873343
 20
6466.6320393659
 30
0.0
 11
7764.7795863568
 21
6466.6320393659
 31
0.0
  0
LINE
  5
1D6
330
1F
100
AcDbEntity
  8
0
  6
Continuous
 62
     7
370
    25
100
AcDbLine
 10
7764.7795863568
 20
6358.9457469858
 30
0.0
 11
7764.7795863568
 21
6352.117319671
 31
0.0
  0
LINE
  5
1D7
330
1F
100
AcDbEntity
  8
0
  6
Continuous
 62
     7
370
    25
100
AcDbLine
 10
7834.3795873343
 20
6358.9457469858
 30
0.0
 11
7764.7795863568
 21
6358.9457469858
 31
0.0
  0
LINE
  5
1D8
330
1F
100
AcDbEntity
  8
0
  6
Continuous
 62
     7
370
    25
100
AcDbLine
 10
7764.7795863568
 20
6476.2888933397
 30
0.0
 11
7764.7795863568
 21
6483.1173243798
 31
0.0
  0
LINE
  5
1D9
330
1F
100
AcDbEntity
  8
0
  6
Continuous
 62
     7
370
    25
100
AcDbLine
 10
7834.3795873343
 20
6476.2888933397
 30
0.0
 11
7764.7795863568
 21
6476.2888933397
 31
0.0
  0
LINE
  5
1DA
330
1F
100
AcDbEntity
  8
0
  6
Continuous
 62
     7
370
    25
100
AcDbLine
 10
7764.7795863568
 20
6368.6026009596
 30
0.0
 11
7764.7795863568
 21
6466.6320393659
 31
0.0
  0
LINE
  5
1DB
330
1F
100
AcDbEntity
  8
0
  6
Continuous
 62
     7
370
    25
100
AcDbLine
 10
7764.7795863568
 20
6472.0462533511
 30
0.0
 11
7764.7795863568
 21
6476.2888933397
 31
0.0
  0
LINE
  5
1DC
330
1F
100
AcDbEntity
  8
0
  6
Continuous
 62
     7
370
    25
100
AcDbLine
 10
7764.7795863568
 20
6363.1883869744
 30
0.0
 11
7764.7795863568
 21
6358.9457469858
 31
0.0
  0
LINE
  5
1DD
330
1F
100
AcDbEntity
  8
0
  6
Continuous
 62
     7
370
    25
100
AcDbLine
 10
7834.3795873343
 20
6483.1173243798
 30
0.0
 11
7764.7795863568
 21
6483.1173243798
 31
0.0
  0
LINE
  5
1DE
330
1F
100
AcDbEntity
  8
0
  6
Continuous
 62
     7
370
    25
100
AcDbLine
 10
7834.3795873343
 20
6352.117319671
 30
0.0
 11
7764.7795863568
 21
6352.117319671
 31
0.0
  0
LINE
  5
1DF
330
1F
100
AcDbEntity
  8
0
  6
Continuous
 62
     7
370
    25
100
AcDbLine
 10
7846.8045853196
 20
6354.244415728
 30
0.0
 11
7846.8045853196
 21
6354.3193387664
 31
0.0
  0
LINE
  5
1E0
330
1F
100
AcDbEntity
  8
0
  6
Continuous
 62
     7
370
    25
100
AcDbLine
 10
7846.8045853196
 20
6352.7151170052
 30
0.0
 11
7846.7795886217
 21
6352.7151170052
 31
0.0
  0
LINE
  5
1E1
330
1F
100
AcDbEntity
  8
0
  6
Continuous
 62
     7
370
    25
100
AcDbLine
 10
7846.8045853196
 20
6351.9373210944
 30
0.0
 11
7846.7795886217
 21
6351.9373210944
 31
0.0
  0
LINE
  5
1E2
330
1F
100
AcDbEntity
  8
0
  6
Continuous
 62
     7
370
    25
100
AcDbLine
 10
7846.8045853196
 20
6352.7151170052
 30
0.0
 11
7846.8045853196
 21
6351.9373210944
 31
0.0
  0
LINE
  5
1E3
330
1F
100
AcDbEntity
  8
0
  6
Continuous
 62
     7
370
    25
100
AcDbLine
 10
7846.8045853196
 20
6356.9049100257
 30
0.0
 11
7846.7795886217
 21
6356.9049100257
 31
0.0
  0
LINE
  5
1E4
330
1F
100
AcDbEntity
  8
0
  6
Continuous
 62
     7
370
    25
100
AcDbLine
 10
7846.8045853196
 20
6355.3879196621
 30
0.0
 11
7846.7795886217
 21
6355.3879196621
 31
0.0
  0
LINE
  5
1E5
330
1F
100
AcDbEntity
  8
0
  6
Continuous
 62
     7
370
    25
100
AcDbLine
 10
7846.8045853196
 20
6358.3363639988
 30
0.0
 11
7846.7795886217
 21
6358.3363639988
 31
0.0
  0
LINE
  5
1E6
330
1F
100
AcDbEntity
  8
0
  6
Continuous
 62
     7
370
    25
100
AcDbLine
 10
7846.8045853196
 20
6354.3193387664
 30
0.0
 11
7846.7795886217
 21
6354.3193387664
 31
0.0
  0
LINE
  5
1E7
330
1F
100
AcDbEntity
  8
0
  6
Continuous
 62
     7
370
    25
100
AcDbLine
 10
7846.8045853196
 20
6355.3879196621
 30
0.0
 11
7846.8045853196
 21
6354.3193387664
 31
0.0
  0
LINE
  5
1E8
330
1F
100
AcDbEntity
  8
0
  6
Continuous
 62
     7
370
    25
100
AcDbLine
 10
7846.8045853196
 20
6353.2917397894
 30
0.0
 11
7846.7795886217
 21
6353.2917397894
 31
0.0
  0
LINE
  5
1E9
330
1F
100
AcDbEntity
  8
0
  6
Continuous
 62
     7
370
    25
100
AcDbLine
 10
7846.8045853196
 20
6358.3364385046
 30
0.0
 11
7846.7795886217
 21
6358.3364385046
 31
0.0
  0
LINE
  5
1EA
330
1F
100
AcDbEntity
  8
0
  6
Continuous
 62
     7
370
    25
100
AcDbLine
 10
7846.8045853196
 20
6359.0726974286
 30
0.0
 11
7846.7795886217
 21
6359.0726974286
 31
0.0
  0
LINE
  5
1EB
330
1F
100
AcDbEntity
  8
0
  6
Continuous
 62
     7
370
    25
100
AcDbLine
 10
7846.8045853196
 20
6359.0815598942
 30
0.0
 11
7846.7795886217
 21
6359.0815598942
 31
0.0
  0
LINE
  5
1EC
330
1F
100
AcDbEntity
  8
0
  6
Continuous
 62
     7
370
    25
100
AcDbLine
 10
7836.7795832573
 20
6492.3173236526
 30
0.0
 11
7836.7795832573
 21
6342.3173176921
 31
0.0
  0
LINE
  5
1ED
330
1F
100
AcDbEntity
  8
0
  6
Continuous
 62
     7
370
    25
100
AcDbLine
 10
7836.7795832573
 20
6492.3173236526
 30
0.0
 11
7846.7795886217
 21
6492.3173236526
 31
0.0
  0
LINE
  5
1EE
330
1F
100
AcDbEntity
  8
0
  6
Continuous
 62
     7
370
    25
100
AcDbLine
 10
7846.7795886217
 20
6492.3173236526
 30
0.0
 11
7846.7795886217
 21
6342.3173176921
 31
0.0
  0
LINE
  5
1EF
330
1F
100
AcDbEntity
  8
0
  6
Continuous
 62
     7
370
    25
100
AcDbLine
 10
7836.7795832573
 20
6342.3173176921
 30
0.0
 11
7846.7795886217
 21
6342.3173176921
 31
0.0
  0
ARC
  5
1F0
330
1F
100
AcDbEntity
  8
0
  6
Continuous
 62
     7
370
    25
100
AcDbCircle
 10
7836.7795863568
 20
6342.3173206724
 30
0.0
 40
10.00000000000091
100
AcDbArc
 50
270.0
 51
0.0
  0
LINE
  5
1F1
330
1F
100
AcDbEntity
  8
0
  6
Continuous
 62
     7
370
    25
100
AcDbLine
 10
7836.7795832573
 20
6342.3173176921
 30
0.0
 11
7836.7795832573
 21
6332.3173197783
 31
0.0
  0
ARC
  5
1F2
330
1F
100
AcDbEntity
  8
0
  6
Continuous
 62
     7
370
    25
100
AcDbCircle
 10
7836.7795863568
 20
6492.3173206724
 30
0.0
 40
10.0
100
AcDbArc
 50
0.0
 51
90.0
  0
LINE
  5
1F3
330
1F
100
AcDbEntity
  8
0
  6
Continuous
 62
     7
370
    25
100
AcDbLine
 10
7836.7795832573
 20
6502.3173215665
 30
0.0
 11
7836.7795832573
 21
6492.3173236526
 31
0.0
  0
LINE
  5
1F4
330
1F
100
AcDbEntity
  8
0
  6
Continuous
 62
     7
370
    25
100
AcDbLine
 10
7811.1073114096
 20
6350.4173206962
 30
0.0
 11
7820.0795874118
 21
6350.4173206962
 31
0.0
  0
LINE
  5
1F5
330
1F
100
AcDbEntity
  8
0
  6
Continuous
 62
     7
370
    25
100
AcDbLine
 10
7808.4795847653
 20
6350.4173206962
 30
0.0
 11
7811.1073114096
 21
6350.4173206962
 31
0.0
  0
SPLINE
  5
1F6
330
1F
100
AcDbEntity
  8
0
  6
Continuous
 62
     7
370
    25
100
AcDbSpline
210
0.0
220
0.0
230
1.0
 70
     8
 71
     3
 72
    18
 73
    14
 74
     0
 42
0.000000001
 43
0.00000001
 40
0.0
 40
0.0
 40
0.0
 40
0.0
 40
0.0907448887254123
 40
0.1814897940666838
 40
0.2746720249370888
 40
0.3687536588740263
 40
0.4656166024071805
 40
0.5588440214776594
 40
0.6547749699578004
 40
0.7480037392242515
 40
0.8439747809109375
 40
0.9365482404709653
 40
1.0
 40
1.0
 40
1.0
 40
1.0
 10
7787.481937569268
 20
6501.11732360493
 30
0.0
 10
7788.179977852163
 20
6501.126099025602
 30
0.0
 10
7789.576058545765
 20
6501.143649868553
 30
0.0
 10
7791.72106963398
 20
6501.170146384773
 30
0.0
 10
7793.845492954328
 20
6501.195336434424
 30
0.0
 10
7795.91459468689
 20
6501.221684996162
 30
0.0
 10
7797.818841719724
 20
6501.249383730677
 30
0.0
 10
7799.514291928836
 20
6501.277376204919
 30
0.0
 10
7800.92312779232
 20
6501.304583329644
 30
0.0
 10
7802.042043470629
 20
6501.330285530248
 30
0.0
 10
7802.79464229704
 20
6501.357417635728
 30
0.0
 10
7803.194405882118
 20
6501.382344128065
 30
0.0
 10
7803.177844529594
 20
6501.397627675695
 30
0.0
 10
7803.171109419949
 20
6501.403843132365
 30
0.0
  0
SPLINE
  5
1F7
330
1F
100
AcDbEntity
  8
0
  6
Continuous
 62
     7
370
    25
100
AcDbSpline
210
0.0
220
0.0
230
1.0
 70
     8
 71
     3
 72
    10
 73
     6
 74
     0
 42
0.000000001
 43
0.00000001
 40
0.0
 40
0.0
 40
0.0
 40
0.0
 40
0.3007701590595847
 40
0.6907294541634023
 40
1.0
 40
1.0
 40
1.0
 40
1.0
 10
7777.877029043324
 20
6501.907062796462
 30
0.0
 10
7777.894657366857
 20
6501.914250772129
 30
0.0
 10
7777.935141443899
 20
6501.930758215966
 30
0.0
 10
7778.366227320867
 20
6501.952935246888
 30
0.0
 10
7778.874784734511
 20
6501.969326731817
 30
0.0
 10
7779.099720542021
 20
6501.976576713431
 30
0.0
  0
LINE
  5
1F8
330
1F
100
AcDbEntity
  8
0
  6
Continuous
 62
     7
370
    25
100
AcDbLine
 10
7787.4819375693
 20
6501.1173236049
 30
0.0
 11
7777.0590866103
 21
6501.1173236049
 31
0.0
  0
SPLINE
  5
1F9
330
1F
100
AcDbEntity
  8
0
  6
Continuous
 62
     7
370
    25
100
AcDbSpline
210
0.0
220
0.0
230
1.0
 70
     8
 71
     3
 72
    15
 73
    11
 74
     0
 42
0.000000001
 43
0.00000001
 40
0.0
 40
0.0
 40
0.0
 40
0.0
 40
0.1354913685720621
 40
0.2702821571840693
 40
0.4089680798108667
 40
0.5439871090616222
 40
0.6829072854625972
 40
0.8181614475737435
 40
0.9571792030331238
 40
1.0
 40
1.0
 40
1.0
 40
1.0
 10
7786.103226256258
 20
6501.976576713431
 30
0.0
 10
7785.438878705099
 20
6501.943037661533
 30
0.0
 10
7784.113618718875
 20
6501.876132976809
 30
0.0
 10
7782.302223436579
 20
6501.779008054424
 30
0.0
 10
7780.696652380449
 20
6501.675905031145
 30
0.0
 10
7779.340786581507
 20
6501.572314942111
 30
0.0
 10
7778.287043277232
 20
6501.471265205507
 30
0.0
 10
7777.575428550351
 20
6501.376762469566
 30
0.0
 10
7777.236226252129
 20
6501.302119853609
 30
0.0
 10
7777.220182742287
 20
6501.258121907709
 30
0.0
 10
7777.216404688246
 20
6501.24776091944
 30
0.0
  0
SPLINE
  5
1FA
330
1F
100
AcDbEntity
  8
0
  6
Continuous
 62
     7
370
    25
100
AcDbSpline
210
0.0
220
0.0
230
1.0
 70
    24
 71
     3
 72
    13
 73
     9
 74
     0
 42
0.000000001
 43
0.00000001
 40
0.0
 40
0.0
 40
0.0
 40
0.0
 40
0.0409241016593772
 40
0.2049391970679996
 40
0.4196578532734753
 40
0.6343764297073603
 40
0.817188130824304
 40
1.0
 40
1.0
 40
1.0
 40
1.0
 10
7779.099720542021
 20
6501.976576713431
 30
0.0
 10
7779.157377158462
 20
6501.976576713431
 30
0.0
 10
7779.446109230755
 20
6501.976576713431
 30
0.0
 10
7780.145726426987
 20
6501.976576713431
 30
0.0
 10
7781.366896228
 20
6501.976576713431
 30
0.0
 10
7782.867379139688
 20
6501.976576713431
 30
0.0
 10
7784.458348354295
 20
6501.976576713431
 30
0.0
 10
7785.554933454256
 20
6501.976576713431
 30
0.0
 10
7786.103226256258
 20
6501.976576713431
 30
0.0
  0
LINE
  5
1FB
330
1F
100
AcDbEntity
  8
0
  6
Continuous
 62
     7
370
    25
100
AcDbLine
 10
7793.2346146672
 20
6502.6173191942
 30
0.0
 11
7802.0000867664
 21
6502.6173191942
 31
0.0
  0
LINE
  5
1FC
330
1F
100
AcDbEntity
  8
0
  6
Continuous
 62
     7
370
    25
100
AcDbLine
 10
7778.5590859248
 20
6502.6173191942
 30
0.0
 11
7793.2346146672
 21
6502.6173191942
 31
0.0
  0
LINE
  5
1FD
330
1F
100
AcDbEntity
  8
0
  6
Continuous
 62
     7
370
    25
100
AcDbLine
 10
7786.9522068768
 20
6493.6173233069
 30
0.0
 11
7786.9522068768
 21
6483.1173243798
 31
0.0
  0
LINE
  5
1FE
330
1F
100
AcDbEntity
  8
0
  6
Continuous
 62
     7
370
    25
100
AcDbLine
 10
7776.0060886039
 20
6493.6173233069
 30
0.0
 11
7776.0060886039
 21
6483.1173243798
 31
0.0
  0
LINE
  5
1FF
330
1F
100
AcDbEntity
  8
0
  6
Continuous
 62
     7
370
    25
100
AcDbLine
 10
7776.0060886039
 20
6493.6173233069
 30
0.0
 11
7780.2033769085
 21
6493.6173233069
 31
0.0
  0
LINE
  5
200
330
1F
100
AcDbEntity
  8
0
  6
Continuous
 62
     7
370
    25
100
AcDbLine
 10
7782.7879209189
 20
6493.6173233069
 30
0.0
 11
7786.9522068768
 21
6493.6173233069
 31
0.0
  0
LINE
  5
201
330
1F
100
AcDbEntity
  8
0
  6
Continuous
 62
     7
370
    25
100
AcDbLine
 10
7801.6903698562
 20
6493.6173233069
 30
0.0
 11
7803.4790828942
 21
6493.6173233069
 31
0.0
  0
SPLINE
  5
202
330
1F
100
AcDbEntity
  8
0
  6
Continuous
 62
     7
370
    25
100
AcDbSpline
210
0.0
220
0.0
230
1.0
 70
     8
 71
     3
 72
    22
 73
    18
 74
     0
 42
0.000000001
 43
0.00000001
 40
0.0
 40
0.0
 40
0.0
 40
0.0
 40
0.0201129481620613
 40
0.0912424164977622
 40
0.1612142522430611
 40
0.2307404109192417
 40
0.3017610441406995
 40
0.3725867893097661
 40
0.441844133764917
 40
0.5122189847936244
 40
0.5833702835129867
 40
0.6535536126042341
 40
0.7229186177240093
 40
0.7938525026019966
 40
0.8647864034440799
 40
0.9341513832764178
 40
0.9999999999999999
 40
0.9999999999999999
 40
0.9999999999999999
 40
0.9999999999999999
 10
7803.434014332182
 20
6500.378486780036
 30
0.0
 10
7803.453232352374
 20
6500.373145554995
 30
0.0
 10
7803.540414926923
 20
6500.348915080383
 30
0.0
 10
7803.038779486693
 20
6500.304385498675
 30
0.0
 10
7801.943759401501
 20
6500.249560764059
 30
0.0
 10
7800.240286535658
 20
6500.1960034569
 30
0.0
 10
7798.057166914579
 20
6500.138220838527
 30
0.0
 10
7795.491869675167
 20
6500.080825725448
 30
0.0
 10
7792.684953529904
 20
6500.028187476499
 30
0.0
 10
7789.75644587682
 20
6499.971986996886
 30
0.0
 10
7786.840226333567
 20
6499.914038250691
 30
0.0
 10
7784.10623736109
 20
6499.858416450023
 30
0.0
 10
7781.673784366281
 20
6499.80541346786
 30
0.0
 10
7779.645496754526
 20
6499.747796350954
 30
0.0
 10
7778.153751471362
 20
6499.690127584318
 30
0.0
 10
7777.221156654045
 20
6499.638365240267
 30
0.0
 10
7777.124646273115
 20
6499.602402119772
 30
0.0
 10
7777.077646006532
 20
6499.584888187755
 30
0.0
  0
SPLINE
  5
203
330
1F
100
AcDbEntity
  8
0
  6
Continuous
 62
     7
370
    25
100
AcDbSpline
210
0.0
220
0.0
230
1.0
 70
     8
 71
     3
 72
    22
 73
    18
 74
     0
 42
0.000000001
 43
0.00000001
 40
0.0
 40
0.0
 40
0.0
 40
0.0
 40
0.0201129481676786
 40
0.0912424165232449
 40
0.1612142488816095
 40
0.2307404109395509
 40
0.3017610441808438
 40
0.3725867858784155
 40
0.4418441336881944
 40
0.5122189812899218
 40
0.5833702835525765
 40
0.6535536126634249
 40
0.7229186178025729
 40
0.7938524991984807
 40
0.8647864000603748
 40
0.9341513832580273
 40
1.0
 40
1.0
 40
1.0
 40
1.0
 10
7803.434014332182
 20
6498.790984121669
 30
0.0
 10
7803.453232352043
 20
6498.785642934079
 30
0.0
 10
7803.540414925097
 20
6498.761412629362
 30
0.0
 10
7803.038779528805
 20
6498.716879263414
 30
0.0
 10
7801.943759311497
 20
6498.662070759856
 30
0.0
 10
7800.240286585085
 20
6498.608498247431
 30
0.0
 10
7798.057167008908
 20
6498.550715382669
 30
0.0
 10
7795.491869478215
 20
6498.493336638388
 30
0.0
 10
7792.684953747183
 20
6498.440678011237
 30
0.0
 10
7789.756445658535
 20
6498.384498234448
 30
0.0
 10
7786.840226452922
 20
6498.326531739755
 30
0.0
 10
7784.106237333634
 20
6498.270915419147
 30
0.0
 10
7781.673784444371
 20
6498.217908081371
 30
0.0
 10
7779.645496692519
 20
6498.160303202377
 30
0.0
 10
7778.153751445496
 20
6498.102634402882
 30
0.0
 10
7777.221156671076
 20
6498.050860374468
 30
0.0
 10
7777.12464627791
 20
6498.014898738171
 30
0.0
 10
7777.077646006532
 20
6497.997385529387
 30
0.0
  0
SPLINE
  5
204
330
1F
100
AcDbEntity
  8
0
  6
Continuous
 62
     7
370
    25
100
AcDbSpline
210
0.0
220
0.0
230
1.0
 70
     8
 71
     3
 72
    22
 73
    18
 74
     0
 42
0.000000001
 43
0.00000001
 40
0.0
 40
0.0
 40
0.0
 40
0.0
 40
0.0201129447682441
 40
0.0912424133492579
 40
0.1612142493358772
 40
0.2307404082518412
 40
0.3017610417182365
 40
0.3725867871315685
 40
0.4418441318255757
 40
0.5122189830969933
 40
0.5833702855851647
 40
0.6535536114909556
 40
0.7229186168499584
 40
0.793852501972584
 40
0.8647864030593057
 40
0.9341513864768131
 40
1.0
 40
1.0
 40
1.0
 40
1.0
 10
7803.434014332182
 20
6497.203481463302
 30
0.0
 10
7803.453232350839
 20
6497.198143027583
 30
0.0
 10
7803.540414930129
 20
6497.173925203482
 30
0.0
 10
7803.038779481384
 20
6497.129384614469
 30
0.0
 10
7801.943759402983
 20
6497.074563690395
 30
0.0
 10
7800.240286534947
 20
6497.021005390036
 30
0.0
 10
7798.057166915941
 20
6496.963222964615
 30
0.0
 10
7795.491869670505
 20
6496.905828089248
 30
0.0
 10
7792.684953546901
 20
6496.85318871543
 30
0.0
 10
7789.756445762971
 20
6496.79699256288
 30
0.0
 10
7786.840226527564
 20
6496.739027490544
 30
0.0
 10
7784.106237258727
 20
6496.683421911439
 30
0.0
 10
7781.673784382587
 20
6496.630414911462
 30
0.0
 10
7779.645496753365
 20
6496.572797828507
 30
0.0
 10
7778.153751436013
 20
6496.515133003638
 30
0.0
 10
7777.221156689052
 20
6496.463355448657
 30
0.0
 10
7777.124646282953
 20
6496.427400347381
 30
0.0
 10
7777.077646006532
 20
6496.409890321601
 30
0.0
  0
SPLINE
  5
205
330
1F
100
AcDbEntity
  8
0
  6
Continuous
 62
     7
370
    25
100
AcDbSpline
210
0.0
220
0.0
230
1.0
 70
     8
 71
     3
 72
    22
 73
    18
 74
     0
 42
0.000000001
 43
0.00000001
 40
0.0
 40
0.0
 40
0.0
 40
0.0
 40
0.0201129481605169
 40
0.091242416490756
 40
0.1612142522306821
 40
0.2307404109015241
 40
0.3017610441175285
 40
0.3725867892811566
 40
0.4418441337309896
 40
0.5122189813076585
 40
0.5833702835449782
 40
0.6535536126308364
 40
0.7229186177452854
 40
0.793852502617826
 40
0.8647864034544624
 40
0.9341513832814742
 40
1.0
 40
1.0
 40
1.0
 40
1.0
 10
7803.434014332182
 20
6495.615986255515
 30
0.0
 10
7803.453232352374
 20
6495.610645030422
 30
0.0
 10
7803.540414926928
 20
6495.586414555574
 30
0.0
 10
7803.038779486597
 20
6495.541884979125
 30
0.0
 10
7801.94375940184
 20
6495.487060221961
 30
0.0
 10
7800.240286534392
 20
6495.433502997984
 30
0.0
 10
7798.057166919411
 20
6495.375720063571
 30
0.0
 10
7795.49186965737
 20
6495.318326123343
 30
0.0
 10
7792.684953641104
 20
6495.265683572113
 30
0.0
 10
7789.756445675447
 20
6495.209499386952
 30
0.0
 10
7786.840226446217
 20
6495.151534302301
 30
0.0
 10
7784.106237343504
 20
6495.095916825342
 30
0.0
 10
7781.673784371088
 20
6495.042912697365
 30
0.0
 10
7779.645496753225
 20
6494.985295892999
 30
0.0
 10
7778.1537514717
 20
6494.927627042454
 30
0.0
 10
7777.221156653967
 20
6494.875864719788
 30
0.0
 10
7777.124646273089
 20
6494.839901596574
 30
0.0
 10
7777.077646006532
 20
6494.822387663234
 30
0.0
  0
SPLINE
  5
206
330
1F
100
AcDbEntity
  8
0
  6
Continuous
 62
     7
370
    25
100
AcDbSpline
210
0.0
220
0.0
230
1.0
 70
     8
 71
     3
 72
    16
 73
    12
 74
     0
 42
0.000000001
 43
0.00000001
 40
0.0
 40
0.0
 40
0.0
 40
0.0
 40
0.0388328234540467
 40
0.1761651560392161
 40
0.3112623973822363
 40
0.4454991663593573
 40
0.5826213669070478
 40
0.719367283040991
 40
0.8530850422660953
 40
0.988960400256378
 40
1.0
 40
1.0
 40
1.0
 40
1.0
 10
7803.434014332182
 20
6494.028483597148
 30
0.0
 10
7803.453232365856
 20
6494.023142409834
 30
0.0
 10
7803.540415001563
 20
6493.998912106368
 30
0.0
 10
7803.038778209356
 20
6493.954378712562
 30
0.0
 10
7801.943763977833
 20
6493.899570328457
 30
0.0
 10
7800.240269169108
 20
6493.845997375358
 30
0.0
 10
7798.0572334914
 20
6493.788216184872
 30
0.0
 10
7795.491624606666
 20
6493.730831227214
 30
0.0
 10
7792.685851222555
 20
6493.678195396723
 30
0.0
 10
7790.663456597314
 20
6493.639395973658
 30
0.0
 10
7789.613556235237
 20
6493.618865987347
 30
0.0
 10
7789.534663793333
 20
6493.617323306907
 30
0.0
  0
SPLINE
  5
207
330
1F
100
AcDbEntity
  8
0
  6
Continuous
 62
     7
370
    25
100
AcDbSpline
210
0.0
220
0.0
230
1.0
 70
     8
 71
     3
 72
    14
 73
    10
 74
     0
 42
0.000000001
 43
0.00000001
 40
0.0
 40
0.0
 40
0.0
 40
0.0
 40
0.0359813417935098
 40
0.1983750359099441
 40
0.3588752511271573
 40
0.5230056187304065
 40
0.6871360232721786
 40
0.8476361799780555
 40
1.0
 40
1.0
 40
1.0
 40
1.0
 10
7787.481937569268
 20
6501.11732360493
 30
0.0
 10
7787.272676951761
 20
6501.113125775098
 30
0.0
 10
7786.118965599062
 20
6501.089981984391
 30
0.0
 10
7784.10615729132
 20
6501.049042972807
 30
0.0
 10
7781.673806253702
 20
6500.996038218576
 30
0.0
 10
7779.645490831348
 20
6500.938421585031
 30
0.0
 10
7778.153753014632
 20
6500.880752688626
 30
0.0
 10
7777.221156294369
 20
6500.828990377649
 30
0.0
 10
7777.124646155319
 20
6500.793027252949
 30
0.0
 10
7777.077646006532
 20
6500.775513318885
 30
0.0
  0
SPLINE
  5
208
330
1F
100
AcDbEntity
  8
0
  6
Continuous
 62
     7
370
    25
100
AcDbSpline
210
0.0
220
0.0
230
1.0
 70
     8
 71
     3
 72
    23
 73
    19
 74
     0
 42
0.000000001
 43
0.00000001
 40
0.0
 40
0.0
 40
0.0
 40
0.0
 40
0.0495140812649692
 40
0.1209630035531278
 40
0.1909032589963714
 40
0.2622001886216937
 40
0.3340869176760973
 40
0.4048036086603218
 40
0.475069914697291
 40
0.5190515761469375
 40
0.5632189883136953
 40
0.5789349551897662
 40
0.6498654372230134
 40
0.7199688836267535
 40
0.7916579081236436
 40
0.8633469522937496
 40
0.9334503765224111
 40
1.0
 40
1.0
 40
1.0
 40
1.0
 10
7803.422205161936
 20
6499.973085788596
 30
0.0
 10
7803.397140866577
 20
6499.959847393928
 30
0.0
 10
7803.335908740863
 20
6499.927505968208
 30
0.0
 10
7802.497615734702
 20
6499.876217976683
 30
0.0
 10
7801.064586593043
 20
6499.823808085326
 30
0.0
 10
7799.083471449143
 20
6499.767111014535
 30
0.0
 10
7796.668551167619
 20
6499.709193179227
 30
0.0
 10
7793.953962042998
 20
6499.654206105971
 30
0.0
 10
7791.440356687978
 20
6499.607745162711
 30
0.0
 10
7789.269014498471
 20
6499.56531336922
 30
0.0
 10
7787.858778806109
 20
6499.537408678095
 30
0.0
 10
7786.120633409418
 20
6499.502489188974
 30
0.0
 10
7784.105500086578
 20
6499.461537106938
 30
0.0
 10
7781.673985974057
 20
6499.408534153753
 30
0.0
 10
7779.645442154522
 20
6499.350928078785
 30
0.0
 10
7778.153765655241
 20
6499.29325960038
 30
0.0
 10
7777.221153359334
 20
6499.241485490131
 30
0.0
 10
7777.124645193302
 20
6499.205523864235
 30
0.0
 10
7777.077646006532
 20
6499.188010660518
 30
0.0
  0
SPLINE
  5
209
330
1F
100
AcDbEntity
  8
0
  6
Continuous
 62
     7
370
    25
100
AcDbSpline
210
0.0
220
0.0
230
1.0
 70
     8
 71
     3
 72
    23
 73
    19
 74
     0
 42
0.000000001
 43
0.00000001
 40
0.0
 40
0.0
 40
0.0
 40
0.0
 40
0.0495140848156938
 40
0.12096300358306
 40
0.1909032623865261
 40
0.2622001885062464
 40
0.3340869211141435
 40
0.4048036120931391
 40
0.4750699181249127
 40
0.5190515795713072
 40
0.5632189917347992
 40
0.578934958609708
 40
0.6498654371737159
 40
0.7199688835722725
 40
0.7916579116030322
 40
0.8633469557678375
 40
0.9334503799913155
 40
1.0
 40
1.0
 40
1.0
 40
1.0
 10
7803.422205161936
 20
6498.38559058081
 30
0.0
 10
7803.397140875906
 20
6498.372348486307
 30
0.0
 10
7803.33590877736
 20
6498.339998024194
 30
0.0
 10
7802.497615641775
 20
6498.288730140115
 30
0.0
 10
7801.06458672333
 20
6498.236298284594
 30
0.0
 10
7799.083471290338
 20
6498.179622302257
 30
0.0
 10
7796.668551265054
 20
6498.121686837353
 30
0.0
 10
7793.953962029176
 20
6498.066704428016
 30
0.0
 10
7791.440356689715
 20
6498.020242374268
 30
0.0
 10
7789.26901449906
 20
6497.977810684964
 30
0.0
 10
7787.858778803149
 20
6497.949906185262
 30
0.0
 10
7786.120633463801
 20
6497.914986062863
 30
0.0
 10
7784.105499999446
 20
6497.874044273525
 30
0.0
 10
7781.673985915631
 20
6497.821040799523
 30
0.0
 10
7779.645442214462
 20
6497.763422754796
 30
0.0
 10
7778.153765645994
 20
6497.705758188139
 30
0.0
 10
7777.221153377254
 20
6497.653980567349
 30
0.0
 10
7777.124645198327
 20
6497.618025474438
 30
0.0
 10
7777.077646006532
 20
6497.600515452731
 30
0.0
  0
SPLINE
  5
20A
330
1F
100
AcDbEntity
  8
0
  6
Continuous
 62
     7
370
    25
100
AcDbSpline
210
0.0
220
0.0
230
1.0
 70
     8
 71
     3
 72
    23
 73
    19
 74
     0
 42
0.000000001
 43
0.00000001
 40
0.0
 40
0.0
 40
0.0
 40
0.0
 40
0.0495140848119499
 40
0.1209630035739136
 40
0.1909032590066973
 40
0.2622001886213568
 40
0.3340869212238182
 40
0.4048036087547237
 40
0.4750699181793224
 40
0.5190515796223913
 40
0.5632189882214093
 40
0.5789349550951298
 40
0.6498654371177689
 40
0.7199688835110248
 40
0.791657911536364
 40
0.8633469556957486
 40
0.933450376532364
 40
0.9999999999999999
 40
0.9999999999999999
 40
0.9999999999999999
 40
0.9999999999999999
 10
7803.422205161936
 20
6496.798087922442
 30
0.0
 10
7803.397140874124
 20
6496.784845993442
 30
0.0
 10
7803.335908771222
 20
6496.752495935654
 30
0.0
 10
7802.497615693914
 20
6496.701224013917
 30
0.0
 10
7801.064586612801
 20
6496.648808280017
 30
0.0
 10
7799.08347135262
 20
6496.592117056194
 30
0.0
 10
7796.668551356535
 20
6496.534181636942
 30
0.0
 10
7793.953961848433
 20
6496.479214209406
 30
0.0
 10
7791.440356748113
 20
6496.432738983125
 30
0.0
 10
7789.269014596187
 20
6496.390305563225
 30
0.0
 10
7787.858778743534
 20
6496.362411584035
 30
0.0
 10
7786.12063342187
 20
6496.327490699601
 30
0.0
 10
7784.105500090624
 20
6496.286538807397
 30
0.0
 10
7781.673985902379
 20
6496.233538689308
 30
0.0
 10
7779.645442214795
 20
6496.175920791175
 30
0.0
 10
7778.153765681557
 20
6496.11825223428
 30
0.0
 10
7777.221153342198
 20
6496.066489836773
 30
0.0
 10
7777.124645188472
 20
6496.030526723071
 30
0.0
 10
7777.077646006532
 20
6496.013012794364
 30
0.0
  0
SPLINE
  5
20B
330
1F
100
AcDbEntity
  8
0
  6
Continuous
 62
     7
370
    25
100
AcDbSpline
210
0.0
220
0.0
230
1.0
 70
     8
 71
     3
 72
    23
 73
    19
 74
     0
 42
0.000000001
 43
0.00000001
 40
0.0
 40
0.0
 40
0.0
 40
0.0
 40
0.0495140846355589
 40
0.1209630066584995
 40
0.1909032618421252
 40
0.2622001912027936
 40
0.334086919990354
 40
0.4048036107120785
 40
0.4750699164882195
 40
0.5190515777746063
 40
0.5632189897774149
 40
0.5789349565951482
 40
0.6498654383651017
 40
0.7199688811270573
 40
0.7916579088970085
 40
0.8633469528010052
 40
0.933450376769443
 40
1.0
 40
1.0
 40
1.0
 40
1.0
 10
7803.422205161936
 20
6495.210592714656
 30
0.0
 10
7803.397140870326
 20
6495.19735128426
 30
0.0
 10
7803.335908756368
 20
6495.16500244362
 30
0.0
 10
7802.497615734732
 20
6495.11371835416
 30
0.0
 10
7801.064586593035
 20
6495.061307316116
 30
0.0
 10
7799.083471449142
 20
6495.00461055698
 30
0.0
 10
7796.668551167631
 20
6494.946692636184
 30
0.0
 10
7793.953962042951
 20
6494.891705589404
 30
0.0
 10
7791.440356688123
 20
6494.84524462738
 30
0.0
 10
7789.26901449815
 20
6494.802812867216
 30
0.0
 10
7787.858778807
 20
6494.774908091549
 30
0.0
 10
7786.120633406921
 20
6494.739988838018
 30
0.0
 10
7784.105500182119
 20
6494.699032963071
 30
0.0
 10
7781.67398582237
 20
6494.646046568436
 30
0.0
 10
7779.645442230985
 20
6494.588424053881
 30
0.0
 10
7778.153765641762
 20
6494.530759988125
 30
0.0
 10
7777.221153362475
 20
6494.478984752996
 30
0.0
 10
7777.124645194332
 20
6494.443023270082
 30
0.0
 10
7777.077646006532
 20
6494.425510135997
 30
0.0
  0
LINE
  5
20C
330
1F
100
AcDbEntity
  8
0
  6
Continuous
 62
     7
370
    25
100
AcDbLine
 10
7803.4867532669
 20
6493.6318146862
 30
0.0
 11
7803.4790828942
 21
6493.6173233069
 31
0.0
  0
SPLINE
  5
20D
330
1F
100
AcDbEntity
  8
0
  6
Continuous
 62
     7
370
    25
100
AcDbSpline
210
0.0
220
0.0
230
1.0
 70
     8
 71
     3
 72
    23
 73
    19
 74
     0
 42
0.000000001
 43
0.00000001
 40
0.0
 40
0.0
 40
0.0
 40
0.0
 40
0.0088418429350299
 40
0.0808327744829439
 40
0.1516519005206592
 40
0.2220198811507644
 40
0.293900716761319
 40
0.365584144399493
 40
0.4356801205612245
 40
0.5069071557647139
 40
0.5789201703896066
 40
0.6499534112169176
 40
0.7201583040025139
 40
0.7919512502861844
 40
0.8585985928829828
 40
0.8952656600180927
 40
0.9653616192953028
 40
1.0
 40
1.0
 40
1.0
 40
1.0
 10
7802.600003790743
 20
6501.063925293792
 30
0.0
 10
7802.606600189291
 20
6501.06160167126
 30
0.0
 10
7802.666904947029
 20
6501.040358944208
 30
0.0
 10
7802.200515283113
 20
6500.998885864322
 30
0.0
 10
7801.188025059904
 20
6500.94410811634
 30
0.0
 10
7799.592246123167
 20
6500.890527215601
 30
0.0
 10
7797.551841564741
 20
6500.832746843621
 30
0.0
 10
7795.153059217628
 20
6500.775367361168
 30
0.0
 10
7792.528622501273
 20
6500.722709105829
 30
0.0
 10
7789.790460348172
 20
6500.666528334124
 30
0.0
 10
7787.063699423392
 20
6500.608565326028
 30
0.0
 10
7784.507728960074
 20
6500.55293660542
 30
0.0
 10
7782.23215584959
 20
6500.499975154014
 30
0.0
 10
7780.385839805726
 20
6500.443630670811
 30
0.0
 10
7779.215296596537
 20
6500.39672990252
 30
0.0
 10
7778.398264386189
 20
6500.351822484692
 30
0.0
 10
7777.934679842087
 20
6500.317120489727
 30
0.0
 10
7777.979788595936
 20
6500.289078167979
 30
0.0
 10
7777.994707238562
 20
6500.27980384003
 30
0.0
  0
SPLINE
  5
20E
330
1F
100
AcDbEntity
  8
0
  6
Continuous
 62
     7
370
    25
100
AcDbSpline
210
0.0
220
0.0
230
1.0
 70
     8
 71
     3
 72
    23
 73
    19
 74
     0
 42
0.000000001
 43
0.00000001
 40
0.0
 40
0.0
 40
0.0
 40
0.0
 40
0.00884183896132
 40
0.0808327707916626
 40
0.1516519010507112
 40
0.2220198780644624
 40
0.2939007139570136
 40
0.3655841459180763
 40
0.4356801184937136
 40
0.506907157966625
 40
0.5789201728740329
 40
0.6499534100121713
 40
0.7201583069466155
 40
0.7919512535119378
 40
0.8585985963702013
 40
0.8952656636491603
 40
0.9653616232013646
 40
1.0
 40
1.0
 40
1.0
 40
1.0
 10
7802.600003790743
 20
6499.476422635425
 30
0.0
 10
7802.606600188471
 20
6499.474101642534
 30
0.0
 10
7802.666904963065
 20
6499.452882947287
 30
0.0
 10
7802.200515225374
 20
6499.411386217796
 30
0.0
 10
7801.188025159363
 20
6499.356602366433
 30
0.0
 10
7799.592246069077
 20
6499.303033998179
 30
0.0
 10
7797.551841465529
 20
6499.245254517749
 30
0.0
 10
7795.153059422964
 20
6499.187858805335
 30
0.0
 10
7792.528622288107
 20
6499.135219749795
 30
0.0
 10
7789.790460455969
 20
6499.079022915105
 30
0.0
 10
7787.063699517825
 20
6499.021060123403
 30
0.0
 10
7784.50772878013
 20
6498.965446584666
 30
0.0
 10
7782.232155945251
 20
6498.912469005133
 30
0.0
 10
7780.385839790276
 20
6498.856128990128
 30
0.0
 10
7779.21529659818
 20
6498.809226855941
 30
0.0
 10
7778.398264386328
 20
6498.764320594494
 30
0.0
 10
7777.934679849435
 20
6498.729613421097
 30
0.0
 10
7777.979788598637
 20
6498.701580011867
 30
0.0
 10
7777.994707238562
 20
6498.692308632243
 30
0.0
  0
SPLINE
  5
20F
330
1F
100
AcDbEntity
  8
0
  6
Continuous
 62
     7
370
    25
100
AcDbSpline
210
0.0
220
0.0
230
1.0
 70
     8
 71
     3
 72
    23
 73
    19
 74
     0
 42
0.000000001
 43
0.00000001
 40
0.0
 40
0.0
 40
0.0
 40
0.0
 40
0.008841842936208
 40
0.0808327744937144
 40
0.1516519044843678
 40
0.2220198812314336
 40
0.2939007168515658
 40
0.3655841485409577
 40
0.4356801208509405
 40
0.5069071560639204
 40
0.5789201706984085
 40
0.6499534115351843
 40
0.7201583082035612
 40
0.7919512544967976
 40
0.8585985930450049
 40
0.8952656601850004
 40
0.9653616233326396
 40
1.0
 40
1.0
 40
1.0
 40
1.0
 10
7802.600003790743
 20
6497.888927427638
 30
0.0
 10
7802.606600189368
 20
6497.886603796886
 30
0.0
 10
7802.666904947811
 20
6497.86536099468
 30
0.0
 10
7802.200515236844
 20
6497.823891639767
 30
0.0
 10
7801.188025156584
 20
6497.769097562817
 30
0.0
 10
7799.592246068912
 20
6497.715531971427
 30
0.0
 10
7797.551841469122
 20
6497.657751518554
 30
0.0
 10
7795.15305940896
 20
6497.600356863652
 30
0.0
 10
7792.528622388796
 20
6497.547714605126
 30
0.0
 10
7789.790460362552
 20
6497.491529720456
 30
0.0
 10
7787.063699430139
 20
6497.43356701094
 30
0.0
 10
7784.507728873317
 20
6497.377941219203
 30
0.0
 10
7782.232155923636
 20
6497.324967831774
 30
0.0
 10
7780.385839860325
 20
6497.268623185959
 30
0.0
 10
7779.215296563984
 20
6497.221732503574
 30
0.0
 10
7778.398264370433
 20
6497.176826220021
 30
0.0
 10
7777.934679854203
 20
6497.142109611631
 30
0.0
 10
7777.979788600236
 20
6497.11407706716
 30
0.0
 10
7777.994707238562
 20
6497.104805973876
 30
0.0
  0
SPLINE
  5
210
330
1F
100
AcDbEntity
  8
0
  6
Continuous
 62
     7
370
    25
100
AcDbSpline
210
0.0
220
0.0
230
1.0
 70
     8
 71
     3
 72
    23
 73
    19
 74
     0
 42
0.000000001
 43
0.00000001
 40
0.0
 40
0.0
 40
0.0
 40
0.0
 40
0.0088418429350299
 40
0.0808327744829439
 40
0.1516519005206592
 40
0.2220198811507644
 40
0.293900716761319
 40
0.365584144399493
 40
0.4356801205612245
 40
0.5069071557647139
 40
0.5789201703896066
 40
0.6499534112169176
 40
0.7201583040025139
 40
0.7919512502861844
 40
0.8585985928829828
 40
0.8952656600180927
 40
0.9653616192953028
 40
1.0
 40
1.0
 40
1.0
 40
1.0
 10
7802.600003790743
 20
6496.301424769271
 30
0.0
 10
7802.606600189291
 20
6496.299101146739
 30
0.0
 10
7802.666904947029
 20
6496.277858419688
 30
0.0
 10
7802.200515283113
 20
6496.236385339801
 30
0.0
 10
7801.188025059904
 20
6496.18160759182
 30
0.0
 10
7799.592246123167
 20
6496.12802669108
 30
0.0
 10
7797.551841564741
 20
6496.0702463191
 30
0.0
 10
7795.153059217628
 20
6496.012866836647
 30
0.0
 10
7792.528622501273
 20
6495.960208581309
 30
0.0
 10
7789.790460348172
 20
6495.904027809604
 30
0.0
 10
7787.063699423392
 20
6495.846064801507
 30
0.0
 10
7784.507728960074
 20
6495.790436080899
 30
0.0
 10
7782.23215584959
 20
6495.737474629494
 30
0.0
 10
7780.385839805726
 20
6495.68113014629
 30
0.0
 10
7779.215296596537
 20
6495.634229377999
 30
0.0
 10
7778.398264386189
 20
6495.589321960171
 30
0.0
 10
7777.934679842087
 20
6495.554619965206
 30
0.0
 10
7777.979788595936
 20
6495.526577643458
 30
0.0
 10
7777.994707238562
 20
6495.517303315509
 30
0.0
  0
SPLINE
  5
211
330
1F
100
AcDbEntity
  8
0
  6
Continuous
 62
     7
370
    25
100
AcDbSpline
210
0.0
220
0.0
230
1.0
 70
     8
 71
     3
 72
    23
 73
    19
 74
     0
 42
0.000000001
 43
0.00000001
 40
0.0
 40
0.0
 40
0.0
 40
0.0
 40
0.00884183896132
 40
0.0808327707916626
 40
0.1516519010507112
 40
0.2220198780644624
 40
0.2939007139570136
 40
0.3655841459180763
 40
0.4356801184937136
 40
0.506907157966625
 40
0.5789201728740329
 40
0.6499534100121713
 40
0.7201583069466155
 40
0.7919512535119378
 40
0.8585985963702013
 40
0.8952656636491603
 40
0.9653616232013646
 40
1.0
 40
1.0
 40
1.0
 40
1.0
 10
7802.600003790743
 20
6494.713922110904
 30
0.0
 10
7802.606600188471
 20
6494.711601118013
 30
0.0
 10
7802.666904963065
 20
6494.690382422766
 30
0.0
 10
7802.200515225374
 20
6494.648885693276
 30
0.0
 10
7801.188025159363
 20
6494.594101841912
 30
0.0
 10
7799.592246069077
 20
6494.540533473658
 30
0.0
 10
7797.551841465529
 20
6494.482753993228
 30
0.0
 10
7795.153059422964
 20
6494.425358280814
 30
0.0
 10
7792.528622288107
 20
6494.372719225275
 30
0.0
 10
7789.790460455969
 20
6494.316522390584
 30
0.0
 10
7787.063699517825
 20
6494.258559598882
 30
0.0
 10
7784.50772878013
 20
6494.202946060145
 30
0.0
 10
7782.232155945251
 20
6494.149968480612
 30
0.0
 10
7780.385839790276
 20
6494.093628465607
 30
0.0
 10
7779.21529659818
 20
6494.04672633142
 30
0.0
 10
7778.398264386328
 20
6494.001820069973
 30
0.0
 10
7777.934679849435
 20
6493.967112896577
 30
0.0
 10
7777.979788598637
 20
6493.939079487346
 30
0.0
 10
7777.994707238562
 20
6493.929808107722
 30
0.0
  0
SPLINE
  5
212
330
1F
100
AcDbEntity
  8
0
  6
Continuous
 62
     7
370
    25
100
AcDbSpline
210
0.0
220
0.0
230
1.0
 70
    24
 71
     3
 72
    10
 73
     6
 74
     0
 42
0.000000001
 43
0.00000001
 40
0.0
 40
0.0
 40
0.0
 40
0.0
 40
0.0685894636843989
 40
0.5300992923720131
 40
0.9999999999999999
 40
0.9999999999999999
 40
0.9999999999999999
 40
0.9999999999999999
 10
7780.203376908488
 20
6493.617323306907
 30
0.0
 10
7780.253851488567
 20
6493.617323306907
 30
0.0
 10
7780.643948418114
 20
6493.617323306907
 30
0.0
 10
7781.453825128675
 20
6493.617323306907
 30
0.0
 10
7782.340559521826
 20
6493.617323306907
 30
0.0
 10
7782.787920918949
 20
6493.617323306907
 30
0.0
  0
SPLINE
  5
213
330
1F
100
AcDbEntity
  8
0
  6
Continuous
 62
     7
370
    25
100
AcDbSpline
210
0.0
220
0.0
230
1.0
 70
     8
 71
     3
 72
    14
 73
    10
 74
     0
 42
0.000000001
 43
0.00000001
 40
0.0
 40
0.0
 40
0.0
 40
0.0
 40
0.0991143923706427
 40
0.1967370474049726
 40
0.3818926294050435
 40
0.5696021035701626
 40
0.7552630036768586
 40
0.9379755178868422
 40
1.0
 40
1.0
 40
1.0
 40
1.0
 10
7786.103226256258
 20
6501.976576713431
 30
0.0
 10
7785.651761146111
 20
6501.966662867451
 30
0.0
 10
7784.755625775129
 20
6501.946984385445
 30
0.0
 10
7783.13364210652
 20
6501.910942173926
 30
0.0
 10
7781.339597217982
 20
6501.86347260721
 30
0.0
 10
7779.640704830277
 20
6501.805671796455
 30
0.0
 10
7778.510455508164
 20
6501.74930587695
 30
0.0
 10
7777.954644105672
 20
6501.708931425297
 30
0.0
 10
7777.986041388078
 20
6501.683851574226
 30
0.0
 10
7777.993998502083
 20
6501.67749550711
 30
0.0
  0
SPLINE
  5
214
330
1F
100
AcDbEntity
  8
0
  6
Continuous
 62
     7
370
    25
100
AcDbSpline
210
0.0
220
0.0
230
1.0
 70
     8
 71
     3
 72
    24
 73
    20
 74
     0
 42
0.000000001
 43
0.00000001
 40
0.0
 40
0.0
 40
0.0
 40
0.0
 40
0.020994495790679
 40
0.0928833677418162
 40
0.163602103362057
 40
0.2338703253010128
 40
0.3056492655177664
 40
0.3772310735524203
 40
0.4472276805078985
 40
0.5183537430972737
 40
0.5902646708907245
 40
0.6169031168757444
 40
0.6548735351884779
 40
0.6922724696531166
 40
0.7632049952492252
 40
0.8351159089631003
 40
0.9062420203487659
 40
0.9762386104436586
 40
1.0
 40
1.0
 40
1.0
 40
1.0
 10
7802.577834588177
 20
6500.875105229724
 30
0.0
 10
7802.596535430827
 20
6500.869588393585
 30
0.0
 10
7802.679271270843
 20
6500.845180933412
 30
0.0
 10
7802.209946833651
 20
6500.800487733324
 30
0.0
 10
7801.185534424471
 20
6500.745655433443
 30
0.0
 10
7799.592930056711
 20
6500.692104200236
 30
0.0
 10
7797.551647805712
 20
6500.634303903624
 30
0.0
 10
7795.15314419265
 20
6500.576929430297
 30
0.0
 10
7792.528473816902
 20
6500.524271056867
 30
0.0
 10
7789.790982368647
 20
6500.468085777856
 30
0.0
 10
7787.626733274825
 20
6500.422136288955
 30
0.0
 10
7785.960275219238
 20
6500.386037764523
 30
0.0
 10
7784.758049757718
 20
6500.359504610103
 30
0.0
 10
7783.132330197446
 20
6500.323427179277
 30
0.0
 10
7781.340043378563
 20
6500.275973749714
 30
0.0
 10
7779.640585733414
 20
6500.218169538853
 30
0.0
 10
7778.510487653977
 20
6500.161797947076
 30
0.0
 10
7777.954641834548
 20
6500.121443493994
 30
0.0
 10
7777.986040927811
 20
6500.096351894394
 30
0.0
 10
7777.993998502083
 20
6500.089992848742
 30
0.0
  0
SPLINE
  5
215
330
1F
100
AcDbEntity
  8
0
  6
Continuous
 62
     7
370
    25
100
AcDbSpline
210
0.0
220
0.0
230
1.0
 70
     8
 71
     3
 72
    24
 73
    20
 74
     0
 42
0.000000001
 43
0.00000001
 40
0.0
 40
0.0
 40
0.0
 40
0.0
 40
0.0209944918674029
 40
0.092883368165359
 40
0.1636021040572564
 40
0.2338703262661384
 40
0.3056492627001204
 40
0.3772310750456834
 40
0.4472276784144293
 40
0.5183537452613598
 40
0.590264673331047
 40
0.616903119418395
 40
0.6548735378769868
 40
0.6922724724852886
 40
0.7632049943916551
 40
0.8351159083817664
 40
0.9062420240249847
 40
0.97623861438876
 40
1.0
 40
1.0
 40
1.0
 40
1.0
 10
7802.577834588177
 20
6499.287602571357
 30
0.0
 10
7802.596535428402
 20
6499.282088651286
 30
0.0
 10
7802.679271273523
 20
6499.257694087643
 30
0.0
 10
7802.209946860869
 20
6499.212978865736
 30
0.0
 10
7801.185534406997
 20
6499.158155315899
 30
0.0
 10
7799.592930149655
 20
6499.10459747915
 30
0.0
 10
7797.551647610853
 20
6499.046815237826
 30
0.0
 10
7795.153144412325
 20
6498.989419848289
 30
0.0
 10
7792.528473595149
 20
6498.93678223735
 30
0.0
 10
7789.790982496893
 20
6498.880579219265
 30
0.0
 10
7787.626733267564
 20
6498.83463400333
 30
0.0
 10
7785.960275221516
 20
6498.798534981021
 30
0.0
 10
7784.758049753315
 20
6498.772002232966
 30
0.0
 10
7783.132330261446
 20
6498.735923217644
 30
0.0
 10
7781.340043303475
 20
6498.688480970293
 30
0.0
 10
7779.640585693139
 20
6498.630675643586
 30
0.0
 10
7778.510487693148
 20
6498.574295223446
 30
0.0
 10
7777.954641839618
 20
6498.533934458232
 30
0.0
 10
7777.986040929641
 20
6498.508853890068
 30
0.0
 10
7777.993998502083
 20
6498.502497640956
 30
0.0
  0
SPLINE
  5
216
330
1F
100
AcDbEntity
  8
0
  6
Continuous
 62
     7
370
    25
100
AcDbSpline
210
0.0
220
0.0
230
1.0
 70
     8
 71
     3
 72
    24
 73
    20
 74
     0
 42
0.000000001
 43
0.00000001
 40
0.0
 40
0.0
 40
0.0
 40
0.0
 40
0.0209944957915038
 40
0.0928833718161327
 40
0.1636021035012403
 40
0.2338703293298543
 40
0.3056492654909271
 40
0.3772310775643302
 40
0.4472276806669435
 40
0.518353743259113
 40
0.590264671055389
 40
0.6169031170414555
 40
0.6548735353556807
 40
0.6922724698217887
 40
0.7632049954206841
 40
0.8351159091373843
 40
0.9062420205258442
 40
0.9762386144791027
 40
0.9999999999999999
 40
0.9999999999999999
 40
0.9999999999999999
 40
0.9999999999999999
 10
7802.577834588177
 20
6497.70010736357
 30
0.0
 10
7802.596535429689
 20
6497.694590687089
 30
0.0
 10
7802.679271268291
 20
6497.670183932196
 30
0.0
 10
7802.20994691268
 20
6497.625475463193
 30
0.0
 10
7801.185534304559
 20
6497.570664794059
 30
0.0
 10
7799.59293022059
 20
6497.517091549243
 30
0.0
 10
7797.551647605573
 20
6497.459313276328
 30
0.0
 10
7795.153144399584
 20
6497.401917692368
 30
0.0
 10
7792.528473699344
 20
6497.349276944111
 30
0.0
 10
7789.790982387771
 20
6497.293086855595
 30
0.0
 10
7787.626733273143
 20
6497.247138516834
 30
0.0
 10
7785.960275219634
 20
6497.211039874742
 30
0.0
 10
7784.758049757585
 20
6497.184506761138
 30
0.0
 10
7783.132330197588
 20
6497.148429255642
 30
0.0
 10
7781.340043377945
 20
6497.100976297616
 30
0.0
 10
7779.640585735626
 20
6497.043170146833
 30
0.0
 10
7778.51048762546
 20
6496.986805655845
 30
0.0
 10
7777.954641844739
 20
6496.946430879417
 30
0.0
 10
7777.986040930937
 20
6496.921351045386
 30
0.0
 10
7777.993998502083
 20
6496.914994982589
 30
0.0
  0
SPLINE
  5
217
330
1F
100
AcDbEntity
  8
0
  6
Continuous
 62
     7
370
    25
100
AcDbSpline
210
0.0
220
0.0
230
1.0
 70
     8
 71
     3
 72
    24
 73
    20
 74
     0
 42
0.000000001
 43
0.00000001
 40
0.0
 40
0.0
 40
0.0
 40
0.0
 40
0.020994495790679
 40
0.0928833677418162
 40
0.163602103362057
 40
0.2338703253010128
 40
0.3056492655177664
 40
0.3772310735524203
 40
0.4472276805078985
 40
0.5183537430972737
 40
0.5902646708907245
 40
0.6169031168757444
 40
0.6548735351884779
 40
0.6922724696531166
 40
0.7632049952492252
 40
0.8351159089631003
 40
0.9062420203487659
 40
0.9762386104436586
 40
1.0
 40
1.0
 40
1.0
 40
1.0
 10
7802.577834588177
 20
6496.112604705203
 30
0.0
 10
7802.596535430827
 20
6496.107087869064
 30
0.0
 10
7802.679271270843
 20
6496.082680408891
 30
0.0
 10
7802.209946833651
 20
6496.037987208803
 30
0.0
 10
7801.185534424471
 20
6495.983154908922
 30
0.0
 10
7799.592930056711
 20
6495.929603675715
 30
0.0
 10
7797.551647805712
 20
6495.871803379103
 30
0.0
 10
7795.15314419265
 20
6495.814428905776
 30
0.0
 10
7792.528473816902
 20
6495.761770532346
 30
0.0
 10
7789.790982368647
 20
6495.705585253335
 30
0.0
 10
7787.626733274825
 20
6495.659635764434
 30
0.0
 10
7785.960275219238
 20
6495.623537240002
 30
0.0
 10
7784.758049757718
 20
6495.597004085582
 30
0.0
 10
7783.132330197446
 20
6495.560926654756
 30
0.0
 10
7781.340043378563
 20
6495.513473225194
 30
0.0
 10
7779.640585733414
 20
6495.455669014332
 30
0.0
 10
7778.510487653977
 20
6495.399297422555
 30
0.0
 10
7777.954641834548
 20
6495.358942969473
 30
0.0
 10
7777.986040927811
 20
6495.333851369873
 30
0.0
 10
7777.993998502083
 20
6495.327492324222
 30
0.0
  0
SPLINE
  5
218
330
1F
100
AcDbEntity
  8
0
  6
Continuous
 62
     7
370
    25
100
AcDbSpline
210
0.0
220
0.0
230
1.0
 70
     8
 71
     3
 72
    24
 73
    20
 74
     0
 42
0.000000001
 43
0.00000001
 40
0.0
 40
0.0
 40
0.0
 40
0.0
 40
0.0209944918685523
 40
0.092883368170444
 40
0.163602104066213
 40
0.2338703262789418
 40
0.3056492627168536
 40
0.3772310750663353
 40
0.4472276784389133
 40
0.5183537452897377
 40
0.5902646692902692
 40
0.6169031193974218
 40
0.6548735378580922
 40
0.6922724724684415
 40
0.7632049943786914
 40
0.8351159083727394
 40
0.9062420240198518
 40
0.9762386143874592
 40
1.0
 40
1.0
 40
1.0
 40
1.0
 10
7802.577834588177
 20
6494.525102046836
 30
0.0
 10
7802.596535428402
 20
6494.519588126789
 30
0.0
 10
7802.67927127352
 20
6494.495193563255
 30
0.0
 10
7802.209946860913
 20
6494.450478339005
 30
0.0
 10
7801.18553440684
 20
6494.395654799201
 30
0.0
 10
7799.592930150244
 20
6494.34209692543
 30
0.0
 10
7797.551647608607
 20
6494.284314824767
 30
0.0
 10
7795.153144420599
 20
6494.226918913229
 30
0.0
 10
7792.528473564825
 20
6494.174283217487
 30
0.0
 10
7789.790982665064
 20
6494.118072948341
 30
0.0
 10
7787.626732999272
 20
6494.072149401341
 30
0.0
 10
7785.96027534357
 20
6494.036030724285
 30
0.0
 10
7784.758049731276
 20
6494.009502809996
 30
0.0
 10
7783.132330273375
 20
6493.973422096931
 30
0.0
 10
7781.340043299418
 20
6493.925980648529
 30
0.0
 10
7779.640585694223
 20
6493.868175064943
 30
0.0
 10
7778.510487692856
 20
6493.811794713521
 30
0.0
 10
7777.954641839639
 20
6493.771433932683
 30
0.0
 10
7777.986040929645
 20
6493.746353365339
 30
0.0
 10
7777.993998502083
 20
6493.739997116435
 30
0.0
  0
LINE
  5
219
330
1F
100
AcDbEntity
  8
0
  6
Continuous
 62
     7
370
    25
100
AcDbLine
 10
7800.4143349944
 20
6493.6173233069
 30
0.0
 11
7800.4143349944
 21
6483.1173243798
 31
0.0
  0
LINE
  5
21A
330
1F
100
AcDbEntity
  8
0
  6
Continuous
 62
     7
370
    25
100
AcDbLine
 10
7786.9522068768
 20
6493.6173233069
 30
0.0
 11
7800.4143349944
 21
6493.6173233069
 31
0.0
  0
LINE
  5
21B
330
1F
100
AcDbEntity
  8
0
  6
Continuous
 62
     7
370
    25
100
AcDbLine
 10
7804.5530840873
 20
6493.6173233069
 30
0.0
 11
7804.5530840873
 21
6483.1173243798
 31
0.0
  0
LINE
  5
21C
330
1F
100
AcDbEntity
  8
0
  6
Continuous
 62
     7
370
    25
100
AcDbLine
 10
7803.4797422706
 20
6493.6173233069
 30
0.0
 11
7804.5530840873
 21
6493.6173233069
 31
0.0
  0
LINE
  5
21D
330
1F
100
AcDbEntity
  8
0
  6
Continuous
 62
     7
370
    25
100
AcDbLine
 10
7800.4143349944
 20
6493.6173233069
 30
0.0
 11
7801.6903698562
 21
6493.6173233069
 31
0.0
  0
LINE
  5
21E
330
1F
100
AcDbEntity
  8
0
  6
Continuous
 62
     7
370
    25
100
AcDbLine
 10
7790.2304791032
 20
6341.6173207439
 30
0.0
 11
7790.2304791032
 21
6352.117319671
 31
0.0
  0
LINE
  5
21F
330
1F
100
AcDbEntity
  8
0
  6
Continuous
 62
     7
370
    25
100
AcDbLine
 10
7803.7549667178
 20
6341.6173207439
 30
0.0
 11
7803.7549667178
 21
6352.117319671
 31
0.0
  0
LINE
  5
220
330
1F
100
AcDbEntity
  8
0
  6
Continuous
 62
     7
370
    25
100
AcDbLine
 10
7803.7549667178
 20
6341.6173207439
 30
0.0
 11
7790.2304791032
 21
6341.6173207439
 31
0.0
  0
LINE
  5
221
330
1F
100
AcDbEntity
  8
0
  6
Continuous
 62
     7
370
    25
100
AcDbLine
 10
7776.7550991966
 20
6341.6173207439
 30
0.0
 11
7776.7550991966
 21
6352.117319671
 31
0.0
  0
LINE
  5
222
330
1F
100
AcDbEntity
  8
0
  6
Continuous
 62
     7
370
    25
100
AcDbLine
 10
7790.2304791032
 20
6341.6173207439
 30
0.0
 11
7776.7550991966
 21
6341.6173207439
 31
0.0
  0
SPLINE
  5
223
330
1F
100
AcDbEntity
  8
0
  6
Continuous
 62
     7
370
    25
100
AcDbSpline
210
0.0
220
0.0
230
1.0
 70
     8
 71
     3
 72
    27
 73
    23
 74
     0
 42
0.000000001
 43
0.00000001
 40
0.0
 40
0.0
 40
0.0
 40
0.0
 40
0.0068740923289445
 40
0.0610607992567155
 40
0.1168494145191682
 40
0.1705441160494423
 40
0.2257959805006731
 40
0.2794914349543571
 40
0.3347663531607862
 40
0.3880844061088233
 40
0.4429573098634119
 40
0.4961357398489376
 40
0.550864494758546
 40
0.6038329058483242
 40
0.6583562825234123
 40
0.7110184458957012
 40
0.7652082715566761
 40
0.8178241369142325
 40
0.8719949462645206
 40
0.924140851640914
 40
0.9777989963274201
 40
1.0
 40
1.0
 40
1.0
 40
1.0
 10
7803.405299794562
 20
6334.042576221335
 30
0.0
 10
7803.41067602256
 20
6334.041481381199
 30
0.0
 10
7803.458431677096
 20
6334.031756197037
 30
0.0
 10
7803.198535692576
 20
6334.012966509481
 30
0.0
 10
7802.59940356675
 20
6333.985258314613
 30
0.0
 10
7801.607811170138
 20
6333.957268653447
 30
0.0
 10
7800.319495932191
 20
6333.930059457811
 30
0.0
 10
7798.732335892777
 20
6333.904362758729
 30
0.0
 10
7796.924846290422
 20
6333.877210386736
 30
0.0
 10
7794.917867078821
 20
6333.849210393911
 30
0.0
 10
7792.80834822248
 20
6333.821540949395
 30
0.0
 10
7790.613564471619
 20
6333.794711059263
 30
0.0
 10
7788.438150820034
 20
6333.769000137872
 30
0.0
 10
7786.303431212461
 20
6333.741141286255
 30
0.0
 10
7784.312632819888
 20
6333.713411980844
 30
0.0
 10
7782.483387832234
 20
6333.685598155854
 30
0.0
 10
7780.898518797148
 20
6333.659918795143
 30
0.0
 10
7779.574734723675
 20
6333.63301188098
 30
0.0
 10
7778.57052369427
 20
6333.605300654142
 30
0.0
 10
7777.919978819666
 20
6333.577300599537
 30
0.0
 10
7777.619176617353
 20
6333.555367864501
 30
0.0
 10
7777.666426393096
 20
6333.542912382391
 30
0.0
 10
7777.680254553146
 20
6333.539267150271
 30
0.0
  0
LINE
  5
224
330
1F
100
AcDbEntity
  8
0
  6
Continuous
 62
     7
370
    25
100
AcDbLine
 10
7802.0000271617
 20
6332.617317406
 30
0.0
 11
7778.5590859248
 21
6332.617317406
 31
0.0
  0
LINE
  5
225
330
1F
100
AcDbEntity
  8
0
  6
Continuous
 62
     7
370
    25
100
AcDbLine
 10
7777.0861331492
 20
6334.7929688967
 30
0.0
 11
7777.0619522898
 21
6334.7980874456
 31
0.0
  0
SPLINE
  5
226
330
1F
100
AcDbEntity
  8
0
  6
Continuous
 62
     7
370
    25
100
AcDbSpline
210
0.0
220
0.0
230
1.0
 70
     8
 71
     3
 72
    22
 73
    18
 74
     0
 42
0.000000001
 43
0.00000001
 40
0.0
 40
0.0
 40
0.0
 40
0.0
 40
0.0672991376466178
 40
0.139146071751381
 40
0.2104035724857256
 40
0.2803051720360032
 40
0.3517145378862523
 40
0.4235175082894126
 40
0.4939615452696542
 40
0.5644055791823003
 40
0.6362085253155513
 40
0.707617941103418
 40
0.7775194848620353
 40
0.8487770046507028
 40
0.9206239458512963
 40
0.9913015514610843
 40
1.0
 40
1.0
 40
1.0
 40
1.0
 10
7777.080024604387
 20
6334.800717500556
 30
0.0
 10
7777.159007732485
 20
6334.818011748292
 30
0.0
 10
7777.322311340728
 20
6334.853768917259
 30
0.0
 10
7778.364667362799
 20
6334.910891717186
 30
0.0
 10
7779.951009053711
 20
6334.967541454782
 30
0.0
 10
7782.044701139741
 20
6335.020018361951
 30
0.0
 10
7784.539333863693
 20
6335.077079392507
 30
0.0
 10
7787.323679613569
 20
6335.134977706854
 30
0.0
 10
7790.237578096962
 20
6335.189200993398
 30
0.0
 10
7793.153655318421
 20
6335.243407542544
 30
0.0
 10
7795.943545716719
 20
6335.301311315851
 30
0.0
 10
7798.449674438921
 20
6335.358367701515
 30
0.0
 10
7800.549796269274
 20
6335.410857296436
 30
0.0
 10
7802.176176583976
 20
6335.467506174148
 30
0.0
 10
7803.160497390749
 20
6335.525491724845
 30
0.0
 10
7803.577691167714
 20
6335.564452081594
 30
0.0
 10
7803.476993662588
 20
6335.584752629375
 30
0.0
 10
7803.465958696492
 20
6335.586977270949
 30
0.0
  0
LINE
  5
227
330
1F
100
AcDbEntity
  8
0
  6
Continuous
 62
     7
370
    25
100
AcDbLine
 10
7777.0861331492
 20
6336.3804641045
 30
0.0
 11
7777.0619522898
 21
6336.385590104
 31
0.0
  0
SPLINE
  5
228
330
1F
100
AcDbEntity
  8
0
  6
Continuous
 62
     7
370
    25
100
AcDbSpline
210
0.0
220
0.0
230
1.0
 70
     8
 71
     3
 72
    22
 73
    18
 74
     0
 42
0.000000001
 43
0.00000001
 40
0.0
 40
0.0
 40
0.0
 40
0.0
 40
0.0672991376395069
 40
0.1391460717366786
 40
0.2104035689651002
 40
0.280305168507992
 40
0.3517145378642626
 40
0.423517508259836
 40
0.4939615418150067
 40
0.5644055791378373
 40
0.6362085252635016
 40
0.707617941043823
 40
0.7775194814315203
 40
0.8487770047110513
 40
0.9206239459040533
 40
0.9913015480655359
 40
1.0
 40
1.0
 40
1.0
 40
1.0
 10
7777.080024604387
 20
6336.388220158923
 30
0.0
 10
7777.159007734648
 20
6336.405514211834
 30
0.0
 10
7777.322311347363
 20
6336.441270977987
 30
0.0
 10
7778.364667316924
 20
6336.498396945933
 30
0.0
 10
7779.951009102322
 20
6336.555034654366
 30
0.0
 10
7782.04470120844
 20
6336.607511883037
 30
0.0
 10
7784.539333794095
 20
6336.664583652014
 30
0.0
 10
7787.323679513244
 20
6336.72248323689
 30
0.0
 10
7790.23757828995
 20
6336.77669088379
 30
0.0
 10
7793.153655205039
 20
6336.83091391333
 30
0.0
 10
7795.943545745824
 20
6336.888812145354
 30
0.0
 10
7798.449674352719
 20
6336.945873888941
 30
0.0
 10
7800.549796396298
 20
6336.998347811979
 30
0.0
 10
7802.176176521736
 20
6337.055009255237
 30
0.0
 10
7803.16049739646
 20
6337.113005074114
 30
0.0
 10
7803.577691136378
 20
6337.151927817831
 30
0.0
 10
7803.476993663382
 20
6337.172252628062
 30
0.0
 10
7803.465958696492
 20
6337.174479929316
 30
0.0
  0
LINE
  5
229
330
1F
100
AcDbEntity
  8
0
  6
Continuous
 62
     7
370
    25
100
AcDbLine
 10
7777.0861331492
 20
6337.9679667629
 30
0.0
 11
7777.0619522898
 21
6337.9730927623
 31
0.0
  0
SPLINE
  5
22A
330
1F
100
AcDbEntity
  8
0
  6
Continuous
 62
     7
370
    25
100
AcDbSpline
210
0.0
220
0.0
230
1.0
 70
     8
 71
     3
 72
    22
 73
    18
 74
     0
 42
0.000000001
 43
0.00000001
 40
0.0
 40
0.0
 40
0.0
 40
0.0
 40
0.0672991342144278
 40
0.1391460683282912
 40
0.2104035690716614
 40
0.2803051686307929
 40
0.3517145380036536
 40
0.423517504863314
 40
0.4939615418524782
 40
0.5644055791916746
 40
0.6362085217814245
 40
0.7076179410919003
 40
0.7775194814958374
 40
0.8487770047919232
 40
0.9206239424447749
 40
0.9913015480635151
 40
1.0
 40
1.0
 40
1.0
 40
1.0
 10
7777.080024604387
 20
6337.97572281729
 30
0.0
 10
7777.15900773686
 20
6337.993013954737
 30
0.0
 10
7777.322311358462
 20
6338.02876469389
 30
0.0
 10
7778.364667366603
 20
6338.08588992617
 30
0.0
 10
7779.951009038154
 20
6338.142540062443
 30
0.0
 10
7782.044701232128
 20
6338.195012971445
 30
0.0
 10
7784.539333686072
 20
6338.252089895103
 30
0.0
 10
7787.323679703743
 20
6338.30997319006
 30
0.0
 10
7790.237578195396
 20
6338.364196074727
 30
0.0
 10
7793.153655113505
 20
6338.418419043646
 30
0.0
 10
7795.943545924637
 20
6338.476302067351
 30
0.0
 10
7798.449674258659
 20
6338.533380109197
 30
0.0
 10
7800.549796416659
 20
6338.585848623284
 30
0.0
 10
7802.176176472648
 20
6338.642515798314
 30
0.0
 10
7803.160497451923
 20
6338.700494054914
 30
0.0
 10
7803.577691139001
 20
6338.739430784136
 30
0.0
 10
7803.476993663209
 20
6338.75975531693
 30
0.0
 10
7803.465958696492
 20
6338.761982587684
 30
0.0
  0
LINE
  5
22B
330
1F
100
AcDbEntity
  8
0
  6
Continuous
 62
     7
370
    25
100
AcDbLine
 10
7777.0861331492
 20
6339.5554619707
 30
0.0
 11
7777.0619522898
 21
6339.5605879701
 31
0.0
  0
SPLINE
  5
22C
330
1F
100
AcDbEntity
  8
0
  6
Continuous
 62
     7
370
    25
100
AcDbSpline
210
0.0
220
0.0
230
1.0
 70
     8
 71
     3
 72
    22
 73
    18
 74
     0
 42
0.000000001
 43
0.00000001
 40
0.0
 40
0.0
 40
0.0
 40
0.0
 40
0.0672991376466178
 40
0.139146071751381
 40
0.2104035724857256
 40
0.2803051720360032
 40
0.3517145378862523
 40
0.4235175082894126
 40
0.4939615452696542
 40
0.5644055791823003
 40
0.6362085253155513
 40
0.707617941103418
 40
0.7775194848620353
 40
0.8487770046507028
 40
0.9206239458512963
 40
0.9913015514610843
 40
1.0
 40
1.0
 40
1.0
 40
1.0
 10
7777.080024604387
 20
6339.563218025077
 30
0.0
 10
7777.159007732485
 20
6339.580512272812
 30
0.0
 10
7777.322311340728
 20
6339.61626944178
 30
0.0
 10
7778.364667362799
 20
6339.673392241707
 30
0.0
 10
7779.951009053711
 20
6339.730041979303
 30
0.0
 10
7782.044701139741
 20
6339.782518886472
 30
0.0
 10
7784.539333863693
 20
6339.839579917028
 30
0.0
 10
7787.323679613569
 20
6339.897478231374
 30
0.0
 10
7790.237578096962
 20
6339.951701517919
 30
0.0
 10
7793.153655318421
 20
6340.005908067065
 30
0.0
 10
7795.943545716719
 20
6340.063811840372
 30
0.0
 10
7798.449674438921
 20
6340.120868226036
 30
0.0
 10
7800.549796269274
 20
6340.173357820957
 30
0.0
 10
7802.176176583976
 20
6340.230006698669
 30
0.0
 10
7803.160497390749
 20
6340.287992249366
 30
0.0
 10
7803.577691167714
 20
6340.326952606115
 30
0.0
 10
7803.476993662588
 20
6340.347253153896
 30
0.0
 10
7803.465958696492
 20
6340.34947779547
 30
0.0
  0
LINE
  5
22D
330
1F
100
AcDbEntity
  8
0
  6
Continuous
 62
     7
370
    25
100
AcDbLine
 10
7777.0861331492
 20
6341.142964629
 30
0.0
 11
7777.0619522898
 21
6341.1480906285
 31
0.0
  0
SPLINE
  5
22E
330
1F
100
AcDbEntity
  8
0
  6
Continuous
 62
     7
370
    25
100
AcDbSpline
210
0.0
220
0.0
230
1.0
 70
     8
 71
     3
 72
    16
 73
    12
 74
     0
 42
0.000000001
 43
0.00000001
 40
0.0
 40
0.0
 40
0.0
 40
0.0
 40
0.1132813911556529
 40
0.2342178686539662
 40
0.3541621755118755
 40
0.4718241652187935
 40
0.5920241111015689
 40
0.7128865806423518
 40
0.8314616291020266
 40
0.9500366781508935
 40
1.0
 40
1.0
 40
1.0
 40
1.0
 10
7777.080024604387
 20
6341.150720683444
 30
0.0
 10
7777.159007533965
 20
6341.168014743653
 30
0.0
 10
7777.322310731753
 20
6341.203771524895
 30
0.0
 10
7778.364669965575
 20
6341.260897374133
 30
0.0
 10
7779.950999361016
 20
6341.317535533139
 30
0.0
 10
7782.044737134393
 20
6341.370011101078
 30
0.0
 10
7784.539196036815
 20
6341.42708918374
 30
0.0
 10
7787.324192099296
 20
6341.484965117912
 30
0.0
 10
7790.235706578598
 20
6341.539215797136
 30
0.0
 10
7792.581449260092
 20
6341.582617152158
 30
0.0
 10
7793.898311862788
 20
6341.609385305504
 30
0.0
 10
7794.288696733005
 20
6341.617320743907
 30
0.0
  0
SPLINE
  5
22F
330
1F
100
AcDbEntity
  8
0
  6
Continuous
 62
     7
370
    25
100
AcDbSpline
210
0.0
220
0.0
230
1.0
 70
     8
 71
     3
 72
    22
 73
    18
 74
     0
 42
0.000000001
 43
0.00000001
 40
0.0
 40
0.0
 40
0.0
 40
0.0
 40
0.0271115889559783
 40
0.098578050351928
 40
0.1704384229589358
 40
0.2409386561440391
 40
0.3114388621302291
 40
0.3832992508839246
 40
0.4547657392927796
 40
0.5247230091594743
 40
0.5960374318642943
 40
0.667941827569063
 40
0.738675849018152
 40
0.8089592780164514
 40
0.880753708713537
 40
0.9523509896925921
 40
1.0
 40
1.0
 40
1.0
 40
1.0
 10
7777.994524699337
 20
6333.709922698844
 30
0.0
 10
7777.988540831871
 20
6333.716749211423
 30
0.0
 10
7777.966783420698
 20
6333.741570489948
 30
0.0
 10
7778.554108675697
 20
6333.787258793791
 30
0.0
 10
7779.72611555445
 20
6333.845127790837
 30
0.0
 10
7781.442629946804
 20
6333.899354468039
 30
0.0
 10
7783.574281345696
 20
6333.95357653318
 30
0.0
 10
7786.046467518289
 20
6334.011459754525
 30
0.0
 10
7788.71882694248
 20
6334.068537498113
 30
0.0
 10
7791.458582535069
 20
6334.121006859143
 30
0.0
 10
7794.148037672043
 20
6334.177671282125
 30
0.0
 10
7796.658132989378
 20
6334.235614876228
 30
0.0
 10
7798.843139798655
 20
6334.29057661638
 30
0.0
 10
7800.620777124086
 20
6334.344095081861
 30
0.0
 10
7801.880391096294
 20
6334.401897884911
 30
0.0
 10
7802.572587653532
 20
6334.453241296324
 30
0.0
 10
7802.575966597885
 20
6334.483214645902
 30
0.0
 10
7802.577316772826
 20
6334.495191542018
 30
0.0
  0
SPLINE
  5
230
330
1F
100
AcDbEntity
  8
0
  6
Continuous
 62
     7
370
    25
100
AcDbSpline
210
0.0
220
0.0
230
1.0
 70
     8
 71
     3
 72
    22
 73
    18
 74
     0
 42
0.000000001
 43
0.00000001
 40
0.0
 40
0.0
 40
0.0
 40
0.0
 40
0.0271115889522606
 40
0.0985780503384104
 40
0.1704384229355644
 40
0.2409386521988043
 40
0.3114388581753271
 40
0.3832992509858545
 40
0.4547657353629
 40
0.5247230052200017
 40
0.5960374319196876
 40
0.6679418276145964
 40
0.7386758490539861
 40
0.8089592780426478
 40
0.8807537087298886
 40
0.9523509896991259
 40
0.9999999999999999
 40
0.9999999999999999
 40
0.9999999999999999
 40
0.9999999999999999
 10
7777.994524699337
 20
6335.297425357211
 30
0.0
 10
7777.988540831711
 20
6335.30425188195
 30
0.0
 10
7777.966783419961
 20
6335.329073204684
 30
0.0
 10
7778.554108684863
 20
6335.374760751162
 30
0.0
 10
7779.726115499731
 20
6335.432632992783
 30
0.0
 10
7781.442630000034
 20
6335.486847846396
 30
0.0
 10
7783.5742814436
 20
6335.541069142172
 30
0.0
 10
7786.046467320984
 20
6335.598967483323
 30
0.0
 10
7788.718827045085
 20
6335.656030114616
 30
0.0
 10
7791.458582622243
 20
6335.708500302239
 30
0.0
 10
7794.148037573249
 20
6335.765176452392
 30
0.0
 10
7796.658133003059
 20
6335.823116871018
 30
0.0
 10
7798.843139795043
 20
6335.87807944995
 30
0.0
 10
7800.620777125075
 20
6335.931597692254
 30
0.0
 10
7801.880391096026
 20
6335.989400556322
 30
0.0
 10
7802.572587653573
 20
6336.040743952669
 30
0.0
 10
7802.575966597897
 20
6336.070717303693
 30
0.0
 10
7802.577316772826
 20
6336.082694200385
 30
0.0
  0
SPLINE
  5
231
330
1F
100
AcDbEntity
  8
0
  6
Continuous
 62
     7
370
    25
100
AcDbSpline
210
0.0
220
0.0
230
1.0
 70
     8
 71
     3
 72
    22
 73
    18
 74
     0
 42
0.000000001
 43
0.00000001
 40
0.0
 40
0.0
 40
0.0
 40
0.0
 40
0.0271115889630449
 40
0.0985780543996335
 40
0.1704384229586849
 40
0.2409386561621641
 40
0.3114388621667302
 40
0.3832992509391563
 40
0.4547657393666392
 40
0.5247230092515682
 40
0.5960374359796216
 40
0.6679418276315842
 40
0.7386758490991101
 40
0.8089592820034655
 40
0.8807537127192643
 40
0.9523509896801723
 40
1.0
 40
1.0
 40
1.0
 40
1.0
 10
7777.994524699337
 20
6336.884920564998
 30
0.0
 10
7777.988540833609
 20
6336.891746847394
 30
0.0
 10
7777.966783427868
 20
6336.916567289981
 30
0.0
 10
7778.554108599955
 20
6336.962269931447
 30
0.0
 10
7779.726115611609
 20
6337.020122173525
 30
0.0
 10
7781.442629940649
 20
6337.07435324379
 30
0.0
 10
7783.574281346192
 20
6337.128574210346
 30
0.0
 10
7786.04646752269
 20
6337.186457442584
 30
0.0
 10
7788.71882692468
 20
6337.243536251201
 30
0.0
 10
7791.458582652474
 20
6337.296001406507
 30
0.0
 10
7794.148037469003
 20
6337.352681877589
 30
0.0
 10
7796.658133090225
 20
6337.410610027994
 30
0.0
 10
7798.843139852717
 20
6337.465572846091
 30
0.0
 10
7800.620777070147
 20
6337.519102197793
 30
0.0
 10
7801.880391069954
 20
6337.576905341429
 30
0.0
 10
7802.572587663621
 20
6337.628237676796
 30
0.0
 10
7802.575966600732
 20
6337.658212087601
 30
0.0
 10
7802.577316772826
 20
6337.670189408172
 30
0.0
  0
SPLINE
  5
232
330
1F
100
AcDbEntity
  8
0
  6
Continuous
 62
     7
370
    25
100
AcDbSpline
210
0.0
220
0.0
230
1.0
 70
     8
 71
     3
 72
    22
 73
    18
 74
     0
 42
0.000000001
 43
0.00000001
 40
0.0
 40
0.0
 40
0.0
 40
0.0
 40
0.0271115889519504
 40
0.0985780503372827
 40
0.1704384229336147
 40
0.2409386561082441
 40
0.311438858171763
 40
0.3832992509814684
 40
0.4547657393797059
 40
0.5247230092360075
 40
0.5960374319302326
 40
0.6679418276243189
 40
0.7386758490628993
 40
0.8089592780507571
 40
0.8807537087371765
 40
0.952350989705595
 40
0.9999999999999999
 40
0.9999999999999999
 40
0.9999999999999999
 40
0.9999999999999999
 10
7777.994524699337
 20
6338.472423223365
 30
0.0
 10
7777.988540831948
 20
6338.479249731452
 30
0.0
 10
7777.966783421054
 20
6338.504070993642
 30
0.0
 10
7778.55410867126
 20
6338.549759577295
 30
0.0
 10
7779.726115570556
 20
6338.607627375241
 30
0.0
 10
7781.442629856536
 20
6338.661858419342
 30
0.0
 10
7783.574281525218
 20
6338.716064153487
 30
0.0
 10
7786.046467406519
 20
6338.773963744272
 30
0.0
 10
7788.718826958346
 20
6338.831037118363
 30
0.0
 10
7791.458582530766
 20
6338.883507628912
 30
0.0
 10
7794.148037673216
 20
6338.940171739751
 30
0.0
 10
7796.658132989068
 20
6338.998115418413
 30
0.0
 10
7798.843139798737
 20
6339.053077136237
 30
0.0
 10
7800.620777124064
 20
6339.106595607659
 30
0.0
 10
7801.8803910963
 20
6339.164398409084
 30
0.0
 10
7802.572587653513
 20
6339.215741820895
 30
0.0
 10
7802.575966597879
 20
6339.245715170438
 30
0.0
 10
7802.577316772826
 20
6339.257692066539
 30
0.0
  0
SPLINE
  5
233
330
1F
100
AcDbEntity
  8
0
  6
Continuous
 62
     7
370
    25
100
AcDbSpline
210
0.0
220
0.0
230
1.0
 70
     8
 71
     3
 72
    22
 73
    18
 74
     0
 42
0.000000001
 43
0.00000001
 40
0.0
 40
0.0
 40
0.0
 40
0.0
 40
0.0271115889538046
 40
0.0985780503440244
 40
0.1704384229452709
 40
0.2409386522125258
 40
0.3114388581930636
 40
0.3832992510076835
 40
0.4547657353887989
 40
0.5247230052498847
 40
0.5960374319536321
 40
0.6679418276526358
 40
0.7386758451572913
 40
0.8089592780376921
 40
0.8807537087290215
 40
0.9523509897023363
 40
1.0
 40
1.0
 40
1.0
 40
1.0
 10
7777.994524699337
 20
6340.059925881732
 30
0.0
 10
7777.988540831711
 20
6340.066752406469
 30
0.0
 10
7777.966783419961
 20
6340.091573729198
 30
0.0
 10
7778.554108684862
 20
6340.13726127578
 30
0.0
 10
7779.726115499736
 20
6340.195133516954
 30
0.0
 10
7781.442630000015
 20
6340.249348372192
 30
0.0
 10
7783.57428144367
 20
6340.303569661895
 30
0.0
 10
7786.046467320714
 20
6340.361468026092
 30
0.0
 10
7788.718827046073
 20
6340.418530572095
 30
0.0
 10
7791.458582618615
 20
6340.471001073121
 30
0.0
 10
7794.148037587138
 20
6340.527676033624
 30
0.0
 10
7796.658132904932
 20
6340.58562092076
 30
0.0
 10
7798.843139946633
 20
6340.640567090187
 30
0.0
 10
7800.62077705057
 20
6340.694101743484
 30
0.0
 10
7801.88039111005
 20
6340.751900121689
 30
0.0
 10
7802.572587651381
 20
6340.803244625909
 30
0.0
 10
7802.575966597271
 20
6340.833217870673
 30
0.0
 10
7802.577316772826
 20
6340.845194724906
 30
0.0
  0
SPLINE
  5
234
330
1F
100
AcDbEntity
  8
0
  6
Continuous
 62
     7
370
    25
100
AcDbSpline
210
0.0
220
0.0
230
1.0
 70
     8
 71
     3
 72
    22
 73
    18
 74
     0
 42
0.000000001
 43
0.00000001
 40
0.0
 40
0.0
 40
0.0
 40
0.0
 40
0.0374813207079918
 40
0.1081749261034453
 40
0.1792581389516238
 40
0.2489960345232825
 40
0.3187339874731006
 40
0.389817178127034
 40
0.4605107648030066
 40
0.5297116976502991
 40
0.6002549021401999
 40
0.6713816523694652
 40
0.741350811293495
 40
0.8108742742734866
 40
0.8818922655979098
 40
0.9527152563624808
 40
1.0
 40
1.0
 40
1.0
 40
1.0
 10
7777.136568923182
 20
6334.396262732852
 30
0.0
 10
7777.124264169134
 20
6334.405788054315
 30
0.0
 10
7777.088751390109
 20
6334.433279106547
 30
0.0
 10
7777.733120826015
 20
6334.481776047591
 30
0.0
 10
7778.994076207158
 20
6334.539658942684
 30
0.0
 10
7780.827938146808
 20
6334.593881960367
 30
0.0
 10
7783.108290341268
 20
6334.648104893919
 30
0.0
 10
7785.752183630478
 20
6334.705987756621
 30
0.0
 10
7788.610346804895
 20
6334.763066519164
 30
0.0
 10
7791.540531089257
 20
6334.815532543526
 30
0.0
 10
7794.416942908175
 20
6334.872208775311
 30
0.0
 10
7797.101521943247
 20
6334.930153338315
 30
0.0
 10
7799.4384184142
 20
6334.985099851383
 30
0.0
 10
7801.339599130986
 20
6335.038633246029
 30
0.0
 10
7802.686851535739
 20
6335.096436136439
 30
0.0
 10
7803.427499318403
 20
6335.147806940452
 30
0.0
 10
7803.431005159367
 20
6335.177822260627
 30
0.0
 10
7803.432408732064
 20
6335.189838973391
 30
0.0
  0
SPLINE
  5
235
330
1F
100
AcDbEntity
  8
0
  6
Continuous
 62
     7
370
    25
100
AcDbSpline
210
0.0
220
0.0
230
1.0
 70
     8
 71
     3
 72
    22
 73
    18
 74
     0
 42
0.000000001
 43
0.00000001
 40
0.0
 40
0.0
 40
0.0
 40
0.0
 40
0.037481320703847
 40
0.1081749226131367
 40
0.1792581389704394
 40
0.2489960345343862
 40
0.3187339874764923
 40
0.389817178122565
 40
0.4605107647907198
 40
0.5297116976303599
 40
0.6002548986491317
 40
0.6713816488705314
 40
0.7413508111931701
 40
0.8108742708032565
 40
0.8818922621198262
 40
0.9527152563677097
 40
1.0
 40
1.0
 40
1.0
 40
1.0
 10
7777.136568923182
 20
6335.983765391219
 30
0.0
 10
7777.124264166357
 20
6335.993291113766
 30
0.0
 10
7777.088751380457
 20
6336.02078332268
 30
0.0
 10
7777.733120895624
 20
6336.069265573334
 30
0.0
 10
7778.99407615399
 20
6336.127165049364
 30
0.0
 10
7780.827938152572
 20
6336.181383714182
 30
0.0
 10
7783.108290340529
 20
6336.235607756173
 30
0.0
 10
7785.752183627477
 20
6336.293490527014
 30
0.0
 10
7788.610346817428
 20
6336.350568535757
 30
0.0
 10
7791.540530994587
 20
6336.40303761928
 30
0.0
 10
7794.416942992132
 20
6336.459702155619
 30
0.0
 10
7797.101522020805
 20
6336.517645802904
 30
0.0
 10
7799.43841827692
 20
6336.572607553549
 30
0.0
 10
7801.33959919675
 20
6336.626125720962
 30
0.0
 10
7802.686851556197
 20
6336.683929458951
 30
0.0
 10
7803.42749930959
 20
6336.735311050644
 30
0.0
 10
7803.431005156877
 20
6336.765325334316
 30
0.0
 10
7803.432408732064
 20
6336.777341631759
 30
0.0
  0
SPLINE
  5
236
330
1F
100
AcDbEntity
  8
0
  6
Continuous
 62
     7
370
    25
100
AcDbSpline
210
0.0
220
0.0
230
1.0
 70
     8
 71
     3
 72
    22
 73
    18
 74
     0
 42
0.000000001
 43
0.00000001
 40
0.0
 40
0.0
 40
0.0
 40
0.0
 40
0.0374813208244003
 40
0.108174922961066
 40
0.1792581395469978
 40
0.2489960319518751
 40
0.3187339851182834
 40
0.3898171795099712
 40
0.4605107629271549
 40
0.52971169598937
 40
0.6002549006983618
 40
0.6713816511485307
 40
0.7413508136962152
 40
0.8108742735299138
 40
0.8818922650749028
 40
0.9527152595505786
 40
1.0
 40
1.0
 40
1.0
 40
1.0
 10
7777.136568923182
 20
6337.571268049586
 30
0.0
 10
7777.124264166098
 20
6337.580793793318
 30
0.0
 10
7777.088751379452
 20
6337.608286063378
 30
0.0
 10
7777.733120904095
 20
6337.656767538059
 30
0.0
 10
7778.994076102764
 20
6337.71467024962
 30
0.0
 10
7780.827938202347
 20
6337.768877092846
 30
0.0
 10
7783.108290432082
 20
6337.823100364708
 30
0.0
 10
7785.752183442984
 20
6337.880998256494
 30
0.0
 10
7788.61034691337
 20
6337.938061151613
 30
0.0
 10
7791.540531076101
 20
6337.990531063462
 30
0.0
 10
7794.416942899752
 20
6338.047207321139
 30
0.0
 10
7797.101522033609
 20
6338.105147816401
 30
0.0
 10
7799.438418273498
 20
6338.160110318649
 30
0.0
 10
7801.339599197842
 20
6338.213628587539
 30
0.0
 10
7802.686851555304
 20
6338.271431152238
 30
0.0
 10
7803.427499298621
 20
6338.322816832026
 30
0.0
 10
7803.431005153784
 20
6338.352823565394
 30
0.0
 10
7803.432408732064
 20
6338.364836839545
 30
0.0
  0
SPLINE
  5
237
330
1F
100
AcDbEntity
  8
0
  6
Continuous
 62
     7
370
    25
100
AcDbSpline
210
0.0
220
0.0
230
1.0
 70
     8
 71
     3
 72
    22
 73
    18
 74
     0
 42
0.000000001
 43
0.00000001
 40
0.0
 40
0.0
 40
0.0
 40
0.0
 40
0.0374813207079918
 40
0.1081749261034453
 40
0.1792581389516238
 40
0.2489960345232825
 40
0.3187339874731006
 40
0.389817178127034
 40
0.4605107648030066
 40
0.5297116976502991
 40
0.6002549021401999
 40
0.6713816523694652
 40
0.741350811293495
 40
0.8108742742734866
 40
0.8818922655979098
 40
0.9527152563624808
 40
1.0
 40
1.0
 40
1.0
 40
1.0
 10
7777.136568923182
 20
6339.158763257373
 30
0.0
 10
7777.124264169134
 20
6339.168288578836
 30
0.0
 10
7777.088751390109
 20
6339.195779631068
 30
0.0
 10
7777.733120826015
 20
6339.244276572112
 30
0.0
 10
7778.994076207158
 20
6339.302159467205
 30
0.0
 10
7780.827938146808
 20
6339.356382484888
 30
0.0
 10
7783.108290341268
 20
6339.410605418439
 30
0.0
 10
7785.752183630478
 20
6339.468488281142
 30
0.0
 10
7788.610346804895
 20
6339.525567043685
 30
0.0
 10
7791.540531089257
 20
6339.578033068047
 30
0.0
 10
7794.416942908175
 20
6339.634709299832
 30
0.0
 10
7797.101521943247
 20
6339.692653862836
 30
0.0
 10
7799.4384184142
 20
6339.747600375904
 30
0.0
 10
7801.339599130986
 20
6339.80113377055
 30
0.0
 10
7802.686851535739
 20
6339.85893666096
 30
0.0
 10
7803.427499318403
 20
6339.910307464973
 30
0.0
 10
7803.431005159367
 20
6339.940322785148
 30
0.0
 10
7803.432408732064
 20
6339.952339497912
 30
0.0
  0
SPLINE
  5
238
330
1F
100
AcDbEntity
  8
0
  6
Continuous
 62
     7
370
    25
100
AcDbSpline
210
0.0
220
0.0
230
1.0
 70
     8
 71
     3
 72
    22
 73
    18
 74
     0
 42
0.000000001
 43
0.00000001
 40
0.0
 40
0.0
 40
0.0
 40
0.0
 40
0.037481320703847
 40
0.1081749226131367
 40
0.1792581389704394
 40
0.2489960345343862
 40
0.3187339874764923
 40
0.389817178122565
 40
0.4605107647907198
 40
0.5297116976303599
 40
0.6002548986491317
 40
0.6713816488705314
 40
0.7413508111931701
 40
0.8108742708032565
 40
0.8818922621198262
 40
0.9527152563677097
 40
1.0
 40
1.0
 40
1.0
 40
1.0
 10
7777.136568923182
 20
6340.74626591574
 30
0.0
 10
7777.124264166357
 20
6340.755791638287
 30
0.0
 10
7777.088751380457
 20
6340.7832838472
 30
0.0
 10
7777.733120895624
 20
6340.831766097855
 30
0.0
 10
7778.99407615399
 20
6340.889665573884
 30
0.0
 10
7780.827938152572
 20
6340.943884238703
 30
0.0
 10
7783.108290340529
 20
6340.998108280693
 30
0.0
 10
7785.752183627477
 20
6341.055991051535
 30
0.0
 10
7788.610346817428
 20
6341.113069060278
 30
0.0
 10
7791.540530994587
 20
6341.1655381438
 30
0.0
 10
7794.416942992132
 20
6341.22220268014
 30
0.0
 10
7797.101522020805
 20
6341.280146327425
 30
0.0
 10
7799.43841827692
 20
6341.335108078069
 30
0.0
 10
7801.33959919675
 20
6341.388626245483
 30
0.0
 10
7802.686851556197
 20
6341.446429983472
 30
0.0
 10
7803.42749930959
 20
6341.497811575165
 30
0.0
 10
7803.431005156877
 20
6341.527825858837
 30
0.0
 10
7803.432408732064
 20
6341.53984215628
 30
0.0
  0
SPLINE
  5
239
330
1F
100
AcDbEntity
  8
0
  6
Continuous
 62
     7
370
    25
100
AcDbSpline
210
0.0
220
0.0
230
1.0
 70
     8
 71
     3
 72
    22
 73
    18
 74
     0
 42
0.000000001
 43
0.00000001
 40
0.0
 40
0.0
 40
0.0
 40
0.0
 40
0.037905779371399
 40
0.1093592337758962
 40
0.1812065276990848
 40
0.2516939297475607
 40
0.3221813006905884
 40
0.3940286148234717
 40
0.4654820922146801
 40
0.535426633614372
 40
0.6067280769989843
 40
0.6786193860076712
 40
0.7493405337703567
 40
0.8196111710906804
 40
0.8913925351054625
 40
0.9629767852837263
 40
1.0
 40
1.0
 40
1.0
 40
1.0
 10
7777.990784507878
 20
6333.900158373225
 30
0.0
 10
7777.979267751472
 20
6333.909688893528
 30
0.0
 10
7777.946041587096
 20
6333.937184711186
 30
0.0
 10
7778.548563485047
 20
6333.9856739842
 30
0.0
 10
7779.727573435051
 20
6334.043571817623
 30
0.0
 10
7781.442242646477
 20
6334.097795238071
 30
0.0
 10
7783.574387442424
 20
6334.152001925582
 30
0.0
 10
7786.046439250345
 20
6334.209905370449
 30
0.0
 10
7788.718832972912
 20
6334.266962490576
 30
0.0
 10
7791.458586363735
 20
6334.319449383722
 30
0.0
 10
7794.148015398349
 20
6334.376108914663
 30
0.0
 10
7796.658218234369
 20
6334.434054331141
 30
0.0
 10
7798.842827846502
 20
6334.489013765552
 30
0.0
 10
7800.621944334682
 20
6334.542539639326
 30
0.0
 10
7801.875934635897
 20
6334.600314596487
 30
0.0
 10
7802.547300499589
 20
6334.648891368303
 30
0.0
 10
7802.557636685025
 20
6334.676227729494
 30
0.0
 10
7802.561160188801
 20
6334.685546425689
 30
0.0
  0
SPLINE
  5
23A
330
1F
100
AcDbEntity
  8
0
  6
Continuous
 62
     7
370
    25
100
AcDbSpline
210
0.0
220
0.0
230
1.0
 70
     8
 71
     3
 72
    22
 73
    18
 74
     0
 42
0.000000001
 43
0.00000001
 40
0.0
 40
0.0
 40
0.0
 40
0.0
 40
0.0379057792209077
 40
0.1093592373630034
 40
0.1812065269350013
 40
0.2516939287036323
 40
0.3221813032783004
 40
0.3940286171259397
 40
0.4654820942334676
 40
0.5354266315058946
 40
0.6067280786113464
 40
0.6786193873346146
 40
0.7493405308784814
 40
0.8196111718068497
 40
0.8913925355366495
 40
0.9629767854307137
 40
1.0
 40
1.0
 40
1.0
 40
1.0
 10
7777.990784507878
 20
6335.487653581012
 30
0.0
 10
7777.97926775434
 20
6335.497183706216
 30
0.0
 10
7777.946041597017
 20
6335.524678385013
 30
0.0
 10
7778.548563414042
 20
6335.573182116657
 30
0.0
 10
7779.727573479313
 20
6335.631064336791
 30
0.0
 10
7781.442242717793
 20
6335.685288580864
 30
0.0
 10
7783.574387352461
 20
6335.739507360971
 30
0.0
 10
7786.046439279797
 20
6335.797406412295
 30
0.0
 10
7788.718832852961
 20
6335.854468765353
 30
0.0
 10
7791.458586569472
 20
6335.906939351997
 30
0.0
 10
7794.148015293365
 20
6335.963614156874
 30
0.0
 10
7796.658218155221
 20
6336.021559583216
 30
0.0
 10
7798.8428279931
 20
6336.076503785052
 30
0.0
 10
7800.621944261593
 20
6336.130045759177
 30
0.0
 10
7801.875934649674
 20
6336.187816305879
 30
0.0
 10
7802.547300497999
 20
6336.236394136223
 30
0.0
 10
7802.557636684621
 20
6336.263730415712
 30
0.0
 10
7802.561160188801
 20
6336.273049084056
 30
0.0
  0
SPLINE
  5
23B
330
1F
100
AcDbEntity
  8
0
  6
Continuous
 62
     7
370
    25
100
AcDbSpline
210
0.0
220
0.0
230
1.0
 70
     8
 71
     3
 72
    22
 73
    18
 74
     0
 42
0.000000001
 43
0.00000001
 40
0.0
 40
0.0
 40
0.0
 40
0.0
 40
0.0379057792279639
 40
0.1093592373833608
 40
0.1812065269687332
 40
0.2516939287504856
 40
0.3221813033382751
 40
0.3940286131333432
 40
0.46548209427545
 40
0.5354266315608972
 40
0.6067280786796218
 40
0.6786193833454657
 40
0.749340530840543
 40
0.8196111678949634
 40
0.8913925356967654
 40
0.9629767815680806
 40
0.9999999999999999
 40
0.9999999999999999
 40
0.9999999999999999
 40
0.9999999999999999
 10
7777.990784507878
 20
6337.075156239379
 30
0.0
 10
7777.979267754299
 20
6337.084686366657
 30
0.0
 10
7777.946041596859
 20
6337.112181051435
 30
0.0
 10
7778.548563415377
 20
6337.160684707203
 30
0.0
 10
7779.727573474423
 20
6337.218567243784
 30
0.0
 10
7781.442242735639
 20
6337.272790332071
 30
0.0
 10
7783.57438724455
 20
6337.327013433322
 30
0.0
 10
7786.046439484624
 20
6337.384896080152
 30
0.0
 10
7788.718832730637
 20
6337.441975057433
 30
0.0
 10
7791.458586604275
 20
6337.494440122925
 30
0.0
 10
7794.148015172318
 20
6337.551120790937
 30
0.0
 10
7796.65821835121
 20
6337.609048240142
 30
0.0
 10
7798.842827820235
 20
6337.664013621375
 30
0.0
 10
7800.62194439991
 20
6337.717533431286
 30
0.0
 10
7801.875934554045
 20
6337.775327079667
 30
0.0
 10
7802.547300524655
 20
6337.823883567818
 30
0.0
 10
7802.557636691119
 20
6337.851229710745
 30
0.0
 10
7802.561160188801
 20
6337.860551742423
 30
0.0
  0
SPLINE
  5
23C
330
1F
100
AcDbEntity
  8
0
  6
Continuous
 62
     7
370
    25
100
AcDbSpline
210
0.0
220
0.0
230
1.0
 70
     8
 71
     3
 72
    22
 73
    18
 74
     0
 42
0.000000001
 43
0.00000001
 40
0.0
 40
0.0
 40
0.0
 40
0.0
 40
0.0379057830720781
 40
0.109359237190268
 40
0.1812065308255714
 40
0.251693932591611
 40
0.3221813032522025
 40
0.3940286170972005
 40
0.4654820942021016
 40
0.5354266314719571
 40
0.6067280785747875
 40
0.6786193872954127
 40
0.7493405347747253
 40
0.8196111718134813
 40
0.8913925355406422
 40
0.9629767854320748
 40
0.9999999999999999
 40
0.9999999999999999
 40
0.9999999999999999
 40
0.9999999999999999
 10
7777.990784507878
 20
6338.662651447165
 30
0.0
 10
7777.979267748768
 20
6338.672184922572
 30
0.0
 10
7777.946041578795
 20
6338.699689263961
 30
0.0
 10
7778.548563483626
 20
6338.74817314803
 30
0.0
 10
7779.727573435087
 20
6338.80607271684
 30
0.0
 10
7781.4422426477
 20
6338.860295601251
 30
0.0
 10
7783.574387437452
 20
6338.914502726992
 30
0.0
 10
7786.046439269365
 20
6338.972404933415
 30
0.0
 10
7788.718832854765
 20
6339.029466522927
 30
0.0
 10
7791.458586572341
 20
6339.081937019409
 30
0.0
 10
7794.148015279682
 20
6339.138612953367
 30
0.0
 10
7796.658218253297
 20
6339.19655392742
 30
0.0
 10
7798.842827841504
 20
6339.251514535164
 30
0.0
 10
7800.621944336051
 20
6339.305040096697
 30
0.0
 10
7801.875934635521
 20
6339.362815139411
 30
0.0
 10
7802.547300499633
 20
6339.4113918907
 30
0.0
 10
7802.557636685036
 20
6339.438728253474
 30
0.0
 10
7802.561160188801
 20
6339.44804695021
 30
0.0
  0
SPLINE
  5
23D
330
1F
100
AcDbEntity
  8
0
  6
Continuous
 62
     7
370
    25
100
AcDbSpline
210
0.0
220
0.0
230
1.0
 70
     8
 71
     3
 72
    22
 73
    18
 74
     0
 42
0.000000001
 43
0.00000001
 40
0.0
 40
0.0
 40
0.0
 40
0.0
 40
0.0379057792322878
 40
0.1093592373902489
 40
0.1812065269781996
 40
0.2516939287624815
 40
0.3221813033528005
 40
0.3940286131504469
 40
0.4654820942951179
 40
0.5354266315830751
 40
0.6067280787043585
 40
0.6786193874435893
 40
0.749340531003159
 40
0.81961117194713
 40
0.891392535692868
 40
0.9629767815667521
 40
1.0
 40
1.0
 40
1.0
 40
1.0
 10
7777.990784507878
 20
6340.250154105533
 30
0.0
 10
7777.979267754297
 20
6340.259684232799
 30
0.0
 10
7777.946041596853
 20
6340.287178917543
 30
0.0
 10
7778.548563415368
 20
6340.335682573732
 30
0.0
 10
7779.727573474447
 20
6340.393565108565
 30
0.0
 10
7781.442242735551
 20
6340.447788203231
 30
0.0
 10
7783.574387244879
 20
6340.50201128063
 30
0.0
 10
7786.046439483372
 20
6340.559894017986
 30
0.0
 10
7788.718832735238
 20
6340.616972660238
 30
0.0
 10
7791.458586587366
 20
6340.669438956812
 30
0.0
 10
7794.148015288427
 20
6340.726114952824
 30
0.0
 10
7796.658218156735
 20
6340.784059959115
 30
0.0
 10
7798.842827991934
 20
6340.839004629448
 30
0.0
 10
7800.621944264775
 20
6340.892545147245
 30
0.0
 10
7801.875934614163
 20
6340.950321151417
 30
0.0
 10
7802.547300519458
 20
6340.998881872137
 30
0.0
 10
7802.557636689798
 20
6341.026227688291
 30
0.0
 10
7802.561160188801
 20
6341.035549608577
 30
0.0
  0
LINE
  5
23E
330
1F
100
AcDbEntity
  8
0
  6
Continuous
 62
     7
370
    25
100
AcDbLine
 10
7803.8040734946
 20
6341.6173207439
 30
0.0
 11
7803.8040734946
 21
6352.117319671
 31
0.0
  0
LINE
  5
23F
330
1F
100
AcDbEntity
  8
0
  6
Continuous
 62
     7
370
    25
100
AcDbLine
 10
7803.8040734946
 20
6341.6173207439
 30
0.0
 11
7803.7549667178
 21
6341.6173207439
 31
0.0
  0
LINE
  5
240
330
1F
100
AcDbEntity
  8
0
  6
Continuous
 62
     8
370
    25
100
AcDbLine
 10
7834.3795873343
 20
6468.4947813727
 30
0.0
 11
7836.7795832573
 21
6468.4947813727
 31
0.0
  0
LINE
  5
241
330
1F
100
AcDbEntity
  8
0
  6
Continuous
 62
     8
370
    25
100
AcDbLine
 10
7834.3795873343
 20
6366.7398589529
 30
0.0
 11
7836.7795832573
 21
6366.7398589529
 31
0.0
  0
LINE
  5
242
330
1F
100
AcDbEntity
  8
0
  6
Continuous
 62
     8
370
    25
100
AcDbLine
 10
7810.6697537123
 20
6351.2173193372
 30
0.0
 11
7820.8795860528
 21
6351.2173193372
 31
0.0
  0
LINE
  5
243
330
1F
100
AcDbEntity
  8
0
  6
Continuous
 62
     8
370
    25
100
AcDbLine
 10
7810.6697537123
 20
6351.2173193372
 30
0.0
 11
7807.6795861243
 21
6351.2173193372
 31
0.0
  0
LINE
  5
244
330
1F
100
AcDbEntity
  8
0
  6
Continuous
 62
     7
370
    25
100
AcDbLine
 10
7569.4274910762
 20
6089.5349979257
 30
0.0
 11
7569.4274910762
 21
6159.1349989032
 31
0.0
  0
LINE
  5
245
330
1F
100
AcDbEntity
  8
0
  6
Continuous
 62
     7
370
    25
100
AcDbLine
 10
7438.427493818
 20
6159.1349989032
 30
0.0
 11
7438.427493818
 21
6089.5349979257
 31
0.0
  0
LINE
  5
246
330
1F
100
AcDbEntity
  8
0
  6
Continuous
 62
     7
370
    25
100
AcDbLine
 10
7554.8049517944
 20
6089.5349979257
 30
0.0
 11
7453.0500330999
 21
6089.5349979257
 31
0.0
  0
LINE
  5
247
330
1F
100
AcDbEntity
  8
0
  6
Continuous
 62
     7
370
    25
100
AcDbLine
 10
7433.9274921491
 20
6089.5349979257
 30
0.0
 11
7433.9274921491
 21
6087.1350020027
 31
0.0
  0
LINE
  5
248
330
1F
100
AcDbEntity
  8
0
  6
Continuous
 62
     7
370
    25
100
AcDbLine
 10
7453.0500330999
 20
6089.5349979257
 30
0.0
 11
7433.9274921491
 21
6089.5349979257
 31
0.0
  0
LINE
  5
249
330
1F
100
AcDbEntity
  8
0
  6
Continuous
 62
     7
370
    25
100
AcDbLine
 10
7573.9274927452
 20
6089.5349979257
 30
0.0
 11
7573.9274927452
 21
6087.1350020027
 31
0.0
  0
LINE
  5
24A
330
1F
100
AcDbEntity
  8
0
  6
Continuous
 62
     7
370
    25
100
AcDbLine
 10
7554.8049517944
 20
6089.5349979257
 30
0.0
 11
7573.9274927452
 21
6089.5349979257
 31
0.0
  0
LINE
  5
24B
330
1F
100
AcDbEntity
  8
0
  6
Continuous
 62
     7
370
    25
100
AcDbLine
 10
7552.9422097876
 20
6089.5349979257
 30
0.0
 11
7552.9422097876
 21
6159.1349989032
 31
0.0
  0
LINE
  5
24C
330
1F
100
AcDbEntity
  8
0
  6
Continuous
 62
     7
370
    25
100
AcDbLine
 10
7558.3564237728
 20
6089.5349979257
 30
0.0
 11
7558.3564237728
 21
6159.1349989032
 31
0.0
  0
LINE
  5
24D
330
1F
100
AcDbEntity
  8
0
  6
Continuous
 62
     7
370
    25
100
AcDbLine
 10
7558.3564237728
 20
6159.1349989032
 30
0.0
 11
7552.9422097876
 21
6159.1349989032
 31
0.0
  0
LINE
  5
24E
330
1F
100
AcDbEntity
  8
0
  6
Continuous
 62
     7
370
    25
100
AcDbLine
 10
7454.9127751067
 20
6089.5349979257
 30
0.0
 11
7454.9127751067
 21
6159.1349989032
 31
0.0
  0
LINE
  5
24F
330
1F
100
AcDbEntity
  8
0
  6
Continuous
 62
     7
370
    25
100
AcDbLine
 10
7449.4985611215
 20
6089.5349979257
 30
0.0
 11
7449.4985611215
 21
6159.1349989032
 31
0.0
  0
LINE
  5
250
330
1F
100
AcDbEntity
  8
0
  6
Continuous
 62
     7
370
    25
100
AcDbLine
 10
7449.4985611215
 20
6159.1349989032
 30
0.0
 11
7454.9127751067
 21
6159.1349989032
 31
0.0
  0
LINE
  5
251
330
1F
100
AcDbEntity
  8
0
  6
Continuous
 62
     7
370
    25
100
AcDbLine
 10
7454.9127751067
 20
6159.1349989032
 30
0.0
 11
7552.9422097876
 21
6159.1349989032
 31
0.0
  0
LINE
  5
252
330
1F
100
AcDbEntity
  8
0
  6
Continuous
 62
     7
370
    25
100
AcDbLine
 10
7562.5990637615
 20
6089.5349979257
 30
0.0
 11
7562.5990637615
 21
6159.1349989032
 31
0.0
  0
LINE
  5
253
330
1F
100
AcDbEntity
  8
0
  6
Continuous
 62
     7
370
    25
100
AcDbLine
 10
7569.4274910762
 20
6159.1349989032
 30
0.0
 11
7562.5990637615
 21
6159.1349989032
 31
0.0
  0
LINE
  5
254
330
1F
100
AcDbEntity
  8
0
  6
Continuous
 62
     7
370
    25
100
AcDbLine
 10
7445.2559211328
 20
6089.5349979257
 30
0.0
 11
7445.2559211328
 21
6159.1349989032
 31
0.0
  0
LINE
  5
255
330
1F
100
AcDbEntity
  8
0
  6
Continuous
 62
     7
370
    25
100
AcDbLine
 10
7438.427493818
 20
6159.1349989032
 30
0.0
 11
7445.2559211328
 21
6159.1349989032
 31
0.0
  0
LINE
  5
256
330
1F
100
AcDbEntity
  8
0
  6
Continuous
 62
     7
370
    25
100
AcDbLine
 10
7445.2559211328
 20
6159.1349989032
 30
0.0
 11
7449.4985611215
 21
6159.1349989032
 31
0.0
  0
LINE
  5
257
330
1F
100
AcDbEntity
  8
0
  6
Continuous
 62
     7
370
    25
100
AcDbLine
 10
7562.5990637615
 20
6159.1349989032
 30
0.0
 11
7558.3564237728
 21
6159.1349989032
 31
0.0
  0
LINE
  5
258
330
1F
100
AcDbEntity
  8
0
  6
Continuous
 62
     7
370
    25
100
AcDbLine
 10
7438.427493818
 20
6089.5349979257
 30
0.0
 11
7438.427493818
 21
6159.1349989032
 31
0.0
  0
LINE
  5
259
330
1F
100
AcDbEntity
  8
0
  6
Continuous
 62
     7
370
    25
100
AcDbLine
 10
7569.4274910762
 20
6089.5349979257
 30
0.0
 11
7569.4274910762
 21
6159.1349989032
 31
0.0
  0
LINE
  5
25A
330
1F
100
AcDbEntity
  8
0
  6
Continuous
 62
     7
370
    25
100
AcDbLine
 10
7557.222702451
 20
6077.1099999404
 30
0.0
 11
7557.222702451
 21
6077.1349966383
 31
0.0
  0
LINE
  5
25B
330
1F
100
AcDbEntity
  8
0
  6
Continuous
 62
     7
370
    25
100
AcDbLine
 10
7557.222702451
 20
6077.1099999404
 30
0.0
 11
7540.8645578697
 21
6077.1099999404
 31
0.0
  0
LINE
  5
25C
330
1F
100
AcDbEntity
  8
0
  6
Continuous
 62
     7
370
    25
100
AcDbLine
 10
7540.8645578697
 20
6077.1099999404
 30
0.0
 11
7540.8645578697
 21
6077.1349966383
 31
0.0
  0
LINE
  5
25D
330
1F
100
AcDbEntity
  8
0
  6
Continuous
 62
     7
370
    25
100
AcDbLine
 10
7539.2025121524
 20
6077.1099999404
 30
0.0
 11
7539.2025121524
 21
6077.1349966383
 31
0.0
  0
LINE
  5
25E
330
1F
100
AcDbEntity
  8
0
  6
Continuous
 62
     7
370
    25
100
AcDbLine
 10
7538.9345669224
 20
6077.1099999404
 30
0.0
 11
7538.9345669224
 21
6077.1349966383
 31
0.0
  0
LINE
  5
25F
330
1F
100
AcDbEntity
  8
0
  6
Continuous
 62
     7
370
    25
100
AcDbLine
 10
7539.1157203391
 20
6077.1099999404
 30
0.0
 11
7538.9345669224
 21
6077.1099999404
 31
0.0
  0
LINE
  5
260
330
1F
100
AcDbEntity
  8
0
  6
Continuous
 62
     7
370
    25
100
AcDbLine
 10
7562.3158969953
 20
6077.1099999404
 30
0.0
 11
7562.3158969953
 21
6077.1349966383
 31
0.0
  0
LINE
  5
261
330
1F
100
AcDbEntity
  8
0
  6
Continuous
 62
     7
370
    25
100
AcDbLine
 10
7560.4443633034
 20
6077.1099999404
 30
0.0
 11
7560.4443633034
 21
6077.1349966383
 31
0.0
  0
LINE
  5
262
330
1F
100
AcDbEntity
  8
0
  6
Continuous
 62
     7
370
    25
100
AcDbLine
 10
7559.7390801682
 20
6077.1099999404
 30
0.0
 11
7559.7390801682
 21
6077.1349966383
 31
0.0
  0
LINE
  5
263
330
1F
100
AcDbEntity
  8
0
  6
Continuous
 62
     7
370
    25
100
AcDbLine
 10
7557.9739705696
 20
6077.1099999404
 30
0.0
 11
7557.9739705696
 21
6077.1349966383
 31
0.0
  0
SPLINE
  5
264
330
1F
100
AcDbEntity
  8
0
  6
Continuous
 62
     7
370
    25
100
AcDbSpline
210
0.0
220
0.0
230
1.0
 70
    24
 71
     3
 72
    12
 73
     8
 74
     0
 42
0.000000001
 43
0.00000001
 40
0.0
 40
0.0
 40
0.0
 40
0.0
 40
0.105118971011784
 40
0.2604632366456552
 40
0.5553543959569671
 40
0.8115288372538105
 40
1.0
 40
1.0
 40
1.0
 40
1.0
 10
7559.739080168238
 20
6077.109999940369
 30
0.0
 10
7559.763259035597
 20
6077.109999940369
 30
0.0
 10
7559.823169306693
 20
6077.109999940369
 30
0.0
 10
7559.954644419336
 20
6077.109999940369
 30
0.0
 10
7560.121392963359
 20
6077.109999940369
 30
0.0
 10
7560.297068504843
 20
6077.109999940369
 30
0.0
 10
7560.40051543299
 20
6077.109999940369
 30
0.0
 10
7560.444363303413
 20
6077.109999940369
 30
0.0
  0
LINE
  5
265
330
1F
100
AcDbEntity
  8
0
  6
Continuous
 62
     7
370
    25
100
AcDbLine
 10
7563.4928838386
 20
6077.1099999404
 30
0.0
 11
7563.4928838386
 21
6077.1349966383
 31
0.0
  0
SPLINE
  5
266
330
1F
100
AcDbEntity
  8
0
  6
Continuous
 62
     7
370
    25
100
AcDbSpline
210
0.0
220
0.0
230
1.0
 70
    24
 71
     3
 72
     9
 73
     5
 74
     0
 42
0.000000001
 43
0.00000001
 40
0.0
 40
0.0
 40
0.0
 40
0.0
 40
0.5118917428912559
 40
1.0
 40
1.0
 40
1.0
 40
1.0
 10
7563.492883838644
 20
6077.109999940369
 30
0.0
 10
7563.465681893465
 20
6077.109999940369
 30
0.0
 10
7563.412541858373
 20
6077.109999940369
 30
0.0
 10
7563.351666421824
 20
6077.109999940369
 30
0.0
 10
7563.321952618589
 20
6077.109999940369
 30
0.0
  0
LINE
  5
267
330
1F
100
AcDbEntity
  8
0
  6
Continuous
 62
     7
370
    25
100
AcDbLine
 10
7563.3219526186
 20
6077.1099999404
 30
0.0
 11
7563.3219526186
 21
6077.1349966383
 31
0.0
  0
LINE
  5
268
330
1F
100
AcDbEntity
  8
0
  6
Continuous
 62
     7
370
    25
100
AcDbLine
 10
7563.1598577871
 20
6077.1099999404
 30
0.0
 11
7563.1598577871
 21
6077.1349966383
 31
0.0
  0
LINE
  5
269
330
1F
100
AcDbEntity
  8
0
  6
Continuous
 62
     7
370
    25
100
AcDbLine
 10
7563.5533490255
 20
6077.1099999404
 30
0.0
 11
7563.5533490255
 21
6077.1349966383
 31
0.0
  0
SPLINE
  5
26A
330
1F
100
AcDbEntity
  8
0
  6
Continuous
 62
     7
370
    25
100
AcDbSpline
210
0.0
220
0.0
230
1.0
 70
    24
 71
     3
 72
    10
 73
     6
 74
     0
 42
0.000000001
 43
0.00000001
 40
0.0
 40
0.0
 40
0.0
 40
0.0
 40
0.3157192278034027
 40
0.5946747033724322
 40
0.9999999999999999
 40
0.9999999999999999
 40
0.9999999999999999
 40
0.9999999999999999
 10
7563.553349025478
 20
6077.109999940369
 30
0.0
 10
7563.552516156919
 20
6077.109999940369
 30
0.0
 10
7563.550947402722
 20
6077.109999940369
 30
0.0
 10
7563.534901506471
 20
6077.109999940369
 30
0.0
 10
7563.50851409637
 20
6077.109999940369
 30
0.0
 10
7563.492883838644
 20
6077.109999940369
 30
0.0
  0
LINE
  5
26B
330
1F
100
AcDbEntity
  8
0
  6
Continuous
 62
     7
370
    25
100
AcDbLine
 10
7563.6211455836
 20
6077.1099999404
 30
0.0
 11
7563.6211455836
 21
6077.1349966383
 31
0.0
  0
LINE
  5
26C
330
1F
100
AcDbEntity
  8
0
  6
Continuous
 62
     7
370
    25
100
AcDbLine
 10
7563.3474298789
 20
6077.1099999404
 30
0.0
 11
7562.7726026847
 21
6077.1099999404
 31
0.0
  0
LINE
  5
26D
330
1F
100
AcDbEntity
  8
0
  6
Continuous
 62
     7
370
    25
100
AcDbLine
 10
7563.3474298789
 20
6077.1099999404
 30
0.0
 11
7563.9288731887
 21
6077.1099999404
 31
0.0
  0
LINE
  5
26E
330
1F
100
AcDbEntity
  8
0
  6
Continuous
 62
     7
370
    25
100
AcDbLine
 10
7578.9274954274
 20
6087.1350020027
 30
0.0
 11
7578.9274954274
 21
6077.1349966383
 31
0.0
  0
ARC
  5
26F
330
1F
100
AcDbEntity
  8
0
  6
Continuous
 62
     7
370
    25
100
AcDbCircle
 10
7578.9274924471
 20
6087.1349989032
 30
0.0
 40
10.0
100
AcDbArc
 50
270.0
 51
0.0
  0
LINE
  5
270
330
1F
100
AcDbEntity
  8
0
  6
Continuous
 62
     7
370
    25
100
AcDbLine
 10
7588.9274933412
 20
6087.1350020027
 30
0.0
 11
7578.9274954274
 21
6087.1350020027
 31
0.0
  0
LINE
  5
271
330
1F
100
AcDbEntity
  8
0
  6
Continuous
 62
     7
370
    25
100
AcDbLine
 10
7578.9274954274
 20
6077.1349966383
 30
0.0
 11
7428.9274894669
 21
6077.1349966383
 31
0.0
  0
LINE
  5
272
330
1F
100
AcDbEntity
  8
0
  6
Continuous
 62
     7
370
    25
100
AcDbLine
 10
7428.9274894669
 20
6087.1350020027
 30
0.0
 11
7428.9274894669
 21
6077.1349966383
 31
0.0
  0
LINE
  5
273
330
1F
100
AcDbEntity
  8
0
  6
Continuous
 62
     7
370
    25
100
AcDbLine
 10
7578.9274954274
 20
6087.1350020027
 30
0.0
 11
7428.9274894669
 21
6087.1350020027
 31
0.0
  0
ARC
  5
274
330
1F
100
AcDbEntity
  8
0
  6
Continuous
 62
     7
370
    25
100
AcDbCircle
 10
7428.9274924471
 20
6087.1349989032
 30
0.0
 40
10.0
100
AcDbArc
 50
180.0
 51
270.0
  0
LINE
  5
275
330
1F
100
AcDbEntity
  8
0
  6
Continuous
 62
     7
370
    25
100
AcDbLine
 10
7428.9274894669
 20
6087.1350020027
 30
0.0
 11
7418.9274915531
 21
6087.1350020027
 31
0.0
  0
LINE
  5
276
330
1F
100
AcDbEntity
  8
0
  6
Continuous
 62
     7
370
    25
100
AcDbLine
 10
7511.2060423977
 20
6132.3521286106
 30
0.0
 11
7510.7166719659
 21
6130.3135547644
 31
0.0
  0
SPLINE
  5
277
330
1F
100
AcDbEntity
  8
0
  6
Continuous
 62
     7
370
    25
100
AcDbSpline
210
0.0
220
0.0
230
1.0
 70
     8
 71
     3
 72
    12
 73
     8
 74
     0
 42
0.000000001
 43
0.00000001
 40
0.0
 40
0.0
 40
0.0
 40
0.0
 40
0.0684904521048834
 40
0.3439657881421572
 40
0.5587717002642032
 40
0.7735775137539617
 40
1.0
 40
1.0
 40
1.0
 40
1.0
 10
7508.167078629067
 20
6127.581160501215
 30
0.0
 10
7508.274178256301
 20
6127.658894863256
 30
0.0
 10
7508.812043120074
 20
6128.049284476454
 30
0.0
 10
7509.590291278785
 20
6128.814281992005
 30
0.0
 10
7510.364675629715
 20
6129.93975080743
 30
0.0
 10
7510.916847587006
 20
6131.091380497199
 30
0.0
 10
7511.107966862672
 20
6131.924567184227
 30
0.0
 10
7511.206042397698
 20
6132.352128610584
 30
0.0
  0
CIRCLE
  5
278
330
1F
100
AcDbEntity
  8
0
  6
Continuous
 62
     7
370
    25
100
AcDbCircle
 10
7503.9274924471
 20
6133.6349989032
 30
0.0
 40
7.25
  0
SPLINE
  5
279
330
1F
100
AcDbEntity
  8
0
  6
Continuous
 62
     7
370
    25
100
AcDbSpline
210
0.0
220
0.0
230
1.0
 70
     8
 71
     3
 72
    14
 73
    10
 74
     0
 42
0.000000001
 43
0.00000001
 40
0.0
 40
0.0
 40
0.0
 40
0.0
 40
0.0902136996899965
 40
0.241081475251145
 40
0.3919493132472402
 40
0.5428832363372437
 40
0.6938040756800223
 40
0.8469021231189704
 40
1.0
 40
1.0
 40
1.0
 40
1.0
 10
7500.194195102831
 20
6127.078037694666
 30
0.0
 10
7500.416040894615
 20
6126.954203665056
 30
0.0
 10
7501.008887778684
 20
6126.62327731299
 30
0.0
 10
7502.07520252735
 20
6126.308584397425
 30
0.0
 10
7503.336868734296
 20
6126.118760685093
 30
0.0
 10
7504.616710345063
 20
6126.156733392479
 30
0.0
 10
7505.874997562991
 20
6126.409816192528
 30
0.0
 10
7507.085310510389
 20
6126.870633186338
 30
0.0
 10
7507.806489390078
 20
6127.344318150874
 30
0.0
 10
7508.167078629067
 20
6127.581160501215
 30
0.0
  0
CIRCLE
  5
27A
330
1F
100
AcDbEntity
  8
0
  6
Continuous
 62
     7
370
    25
100
AcDbCircle
 10
7503.9274924471
 20
6133.6349989032
 30
0.0
 40
6.249999999999091
  0
CIRCLE
  5
27B
330
1F
100
AcDbEntity
  8
0
  6
Continuous
 62
     7
370
    25
100
AcDbCircle
 10
7503.9274924471
 20
6133.6349989032
 30
0.0
 40
3.650000000000546
  0
SPLINE
  5
27C
330
1F
100
AcDbEntity
  8
0
  6
Continuous
 62
     7
370
    25
100
AcDbSpline
210
0.0
220
0.0
230
1.0
 70
     8
 71
     3
 72
    39
 73
    35
 74
     0
 42
0.000000001
 43
0.00000001
 40
0.0
 40
0.0
 40
0.0
 40
0.0
 40
0.0308463630216908
 40
0.0621059475587126
 40
0.0933651321343214
 40
0.1258167787821194
 40
0.1582684400312326
 40
0.1904165735718292
 40
0.2225647221769899
 40
0.2547204271646524
 40
0.2868744394687359
 40
0.3187995980404642
 40
0.3507247615270718
 40
0.3825674241070181
 40
0.4144079615611914
 40
0.4461267655388508
 40
0.4778456102651053
 40
0.5093762638026925
 40
0.5409061068033744
 40
0.5724168303825715
 40
0.6039275816418934
 40
0.635148431736465
 40
0.6663692864628934
 40
0.697598362053356
 40
0.7288259384134942
 40
0.7598088573123234
 40
0.7907917673653287
 40
0.8217076555007448
 40
0.8526213500871369
 40
0.883397975146152
 40
0.9141746045069874
 40
0.9447783197533387
 40
0.975380943615796
 40
1.0
 40
1.0
 40
1.0
 40
1.0
 10
7491.006394758751
 20
6136.432647690746
 30
0.0
 10
7490.897550263796
 20
6135.734594396796
 30
0.0
 10
7490.6784031802
 20
6134.329136604681
 30
0.0
 10
7490.787340319102
 20
6132.184165559875
 30
0.0
 10
7491.218441239373
 20
6130.049299591803
 30
0.0
 10
7492.021108957511
 20
6127.991199941223
 30
0.0
 10
7493.163222113542
 20
6126.077687308713
 30
0.0
 10
7494.613459747953
 20
6124.39478006325
 30
0.0
 10
7496.315307599816
 20
6122.977537944374
 30
0.0
 10
7498.235246855365
 20
6121.873073647346
 30
0.0
 10
7500.306993406657
 20
6121.103752059456
 30
0.0
 10
7502.475084311166
 20
6120.704751783393
 30
0.0
 10
7504.672104708907
 20
6120.668762733969
 30
0.0
 10
7506.840848495084
 20
6121.009514432046
 30
0.0
 10
7508.919287363985
 20
6121.702116375566
 30
0.0
 10
7510.844169362513
 20
6122.74216938869
 30
0.0
 10
7512.564909302169
 20
6124.081863640576
 30
0.0
 10
7514.02689206078
 20
6125.693930164609
 30
0.0
 10
7515.201443251227
 20
6127.520488477126
 30
0.0
 10
7516.04319044068
 20
6129.52194134894
 30
0.0
 10
7516.53929042021
 20
6131.628498330185
 30
0.0
 10
7516.664926021059
 20
6133.782122520643
 30
0.0
 10
7516.435542538649
 20
6135.920705312014
 30
0.0
 10
7515.842462515568
 20
6137.988440100014
 30
0.0
 10
7514.916966824686
 20
6139.924376643713
 30
0.0
 10
7513.674501878169
 20
6141.666667047269
 30
0.0
 10
7512.166978080311
 20
6143.175308862138
 30
0.0
 10
7510.424546197247
 20
6144.40235613364
 30
0.0
 10
7508.507420773215
 20
6145.322891159501
 30
0.0
 10
7506.463367159762
 20
6145.89680595324
 30
0.0
 10
7504.358884332844
 20
6146.125506075691
 30
0.0
 10
7502.253394577135
 20
6145.984522978087
 30
0.0
 10
7500.327116471713
 20
6145.549599250911
 30
0.0
 10
7499.169834140724
 20
6145.041421631878
 30
0.0
 10
7498.653891872546
 20
6144.814864717993
 30
0.0
  0
ARC
  5
27D
330
1F
100
AcDbEntity
  8
0
  6
Continuous
 62
     7
370
    25
100
AcDbCircle
 10
7503.9274924471
 20
6133.6349989032
 30
0.0
 40
13.22050000000093
100
AcDbArc
 50
77.7830172522
 51
167.7830161819
  0
SPLINE
  5
27E
330
1F
100
AcDbEntity
  8
0
  6
Continuous
 62
     7
370
    25
100
AcDbSpline
210
0.0
220
0.0
230
1.0
 70
     8
 71
     3
 72
    16
 73
    12
 74
     0
 42
0.000000001
 43
0.00000001
 40
0.0
 40
0.0
 40
0.0
 40
0.0
 40
0.1148327995066092
 40
0.2307153512010734
 40
0.3466032739456055
 40
0.4626832312143815
 40
0.5787631648326655
 40
0.6949736441802962
 40
0.8112108798678195
 40
0.9056054485966281
 40
1.0
 40
1.0
 40
1.0
 40
1.0
 10
7492.293134242227
 20
6137.811359003756
 30
0.0
 10
7492.532923277789
 20
6138.475772747381
 30
0.0
 10
7493.0146933974
 20
6139.810674020028
 30
0.0
 10
7494.162408584114
 20
6141.619627718846
 30
0.0
 10
7495.571913231245
 20
6143.232464780437
 30
0.0
 10
7497.243776289154
 20
6144.578586114478
 30
0.0
 10
7499.114203497273
 20
6145.633099629485
 30
0.0
 10
7501.139464602828
 20
6146.353070547771
 30
0.0
 10
7503.121065633602
 20
6146.708026472843
 30
0.0
 10
7504.999339259142
 20
6146.778709767715
 30
0.0
 10
7506.149874402871
 20
6146.630301297006
 30
0.0
 10
7506.725141921943
 20
6146.556097068462
 30
0.0
  0
SPLINE
  5
27F
330
1F
100
AcDbEntity
  8
0
  6
Continuous
 62
     7
370
    25
100
AcDbSpline
210
0.0
220
0.0
230
1.0
 70
     8
 71
     3
 72
    13
 73
     9
 74
     0
 42
0.000000001
 43
0.00000001
 40
0.0
 40
0.0
 40
0.0
 40
0.0
 40
0.0409241016593772
 40
0.2049391970679996
 40
0.4196578532734753
 40
0.6343764297073603
 40
0.817188130824304
 40
1.0
 40
1.0
 40
1.0
 40
1.0
 10
7498.653891872546
 20
6144.814864717993
 30
0.0
 10
7498.534801201758
 20
6144.757208101553
 30
0.0
 10
7497.938420451546
 20
6144.46847602926
 30
0.0
 10
7496.770880137481
 20
6143.768858833027
 30
0.0
 10
7495.278942312616
 20
6142.547689032015
 30
0.0
 10
7493.975592459317
 20
6141.047206120326
 30
0.0
 10
7492.963147894526
 20
6139.45623690572
 30
0.0
 10
7492.516472194764
 20
6138.359651805759
 30
0.0
 10
7492.293134242227
 20
6137.811359003756
 30
0.0
  0
CIRCLE
  5
280
330
1F
100
AcDbEntity
  8
0
  6
Continuous
 62
     7
370
    25
100
AcDbCircle
 10
7503.9274924471
 20
6133.6349989032
 30
0.0
 40
11.72050000000033
  0
CIRCLE
  5
281
330
1F
100
AcDbEntity
  8
0
  6
Continuous
 62
     7
370
    25
100
AcDbCircle
 10
7503.9274924471
 20
6133.6349989032
 30
0.0
 40
7.625000000000274
  0
SPLINE
  5
282
330
1F
100
AcDbEntity
  8
0
  6
Continuous
 62
     7
370
    25
100
AcDbSpline
210
0.0
220
0.0
230
1.0
 70
     8
 71
     3
 72
    28
 73
    24
 74
     0
 42
0.000000001
 43
0.00000001
 40
0.0
 40
0.0
 40
0.0
 40
0.0
 40
0.0280927486575097
 40
0.0779666182129237
 40
0.1281601707241798
 40
0.1791841651268692
 40
0.2297895654638223
 40
0.2794320258333424
 40
0.3301452675463319
 40
0.3811380213583441
 40
0.4311656908710781
 40
0.4811933833533489
 40
0.5321861581764393
 40
0.5828993949494229
 40
0.6325418523650731
 40
0.6831472448986335
 40
0.734171236931328
 40
0.7843648131398709
 40
0.8342386874898744
 40
0.8851846077735182
 40
0.9359907271186038
 40
0.9856717703538382
 40
1.0
 40
1.0
 40
1.0
 40
1.0
 10
7506.725141921943
 20
6146.556097068462
 30
0.0
 10
7507.249932915055
 20
6146.422048872557
 30
0.0
 10
7508.706400543069
 20
6146.050021035778
 30
0.0
 10
7510.948636343203
 20
6144.956145644616
 30
0.0
 10
7513.259243255032
 20
6143.154381451794
 30
0.0
 10
7515.123928071506
 20
6140.868537849712
 30
0.0
 10
7516.433859106037
 20
6138.239724633749
 30
0.0
 10
7517.138084580859
 20
6135.395000787666
 30
0.0
 10
7517.205575110348
 20
6132.456688030234
 30
0.0
 10
7516.62075575212
 20
6129.568420758848
 30
0.0
 10
7515.422316451514
 20
6126.891911346661
 30
0.0
 10
7513.670867783713
 20
6124.539804461062
 30
0.0
 10
7511.435177099372
 20
6122.619978761759
 30
0.0
 10
7508.837453859874
 20
6121.245094154495
 30
0.0
 10
7506.010880415995
 20
6120.471758189996
 30
0.0
 10
7503.076622434064
 20
6120.332083202224
 30
0.0
 10
7500.173232049782
 20
6120.845494685222
 30
0.0
 10
7497.466674024567
 20
6121.978778874931
 30
0.0
 10
7495.076121731608
 20
6123.672307643624
 30
0.0
 10
7493.092542817589
 20
6125.857245617265
 30
0.0
 10
7491.691904308218
 20
6128.425374378841
 30
0.0
 10
7490.943513919467
 20
6130.550255527733
 30
0.0
 10
7490.881191008874
 20
6131.783521565026
 30
0.0
 10
7490.867240264943
 20
6132.059583426091
 30
0.0
  0
SPLINE
  5
283
330
1F
100
AcDbEntity
  8
0
  6
Continuous
 62
     7
370
    25
100
AcDbSpline
210
0.0
220
0.0
230
1.0
 70
     8
 71
     3
 72
    12
 73
     8
 74
     0
 42
0.000000001
 43
0.00000001
 40
0.0
 40
0.0
 40
0.0
 40
0.0
 40
0.168954795899866
 40
0.335366710073227
 40
0.6509911397681493
 40
0.9709690474915945
 40
1.0
 40
1.0
 40
1.0
 40
1.0
 10
7492.293134242227
 20
6137.811359003756
 30
0.0
 10
7492.472977540928
 20
6138.262549607672
 30
0.0
 10
7492.829957377414
 20
6139.158140097693
 30
0.0
 10
7493.769511263266
 20
6140.785364439739
 30
0.0
 10
7495.261992701505
 20
6142.540912665633
 30
0.0
 10
7496.724092522822
 20
6143.838585934127
 30
0.0
 10
7497.636140580603
 20
6144.256166852203
 30
0.0
 10
7497.712005771627
 20
6144.290901706192
 30
0.0
  0
LINE
  5
284
330
1F
100
AcDbEntity
  8
0
  6
Continuous
 62
     7
370
    25
100
AcDbLine
 10
7515.2376498132
 20
6143.769746632
 30
0.0
 11
7510.4282106309
 21
6145.0941907099
 31
0.0
  0
LINE
  5
285
330
1F
100
AcDbEntity
  8
0
  6
Continuous
 62
     7
370
    25
100
AcDbLine
 10
7504.0339467574
 20
6146.8550702414
 30
0.0
 11
7500.2086524888
 21
6147.9084966561
 31
0.0
  0
LINE
  5
286
330
1F
100
AcDbEntity
  8
0
  6
Continuous
 62
     7
370
    25
100
AcDbLine
 10
7518.7450935169
 20
6130.3076203769
 30
0.0
 11
7515.2376498132
 21
6143.769746632
 31
0.0
  0
LINE
  5
287
330
1F
100
AcDbEntity
  8
0
  6
Continuous
 62
     7
370
    25
100
AcDbLine
 10
7515.3155670538
 20
6126.9252598142
 30
0.0
 11
7518.7450935169
 21
6130.3076203769
 31
0.0
  0
LINE
  5
288
330
1F
100
AcDbEntity
  8
0
  6
Continuous
 62
     7
370
    25
100
AcDbLine
 10
7500.2086524888
 20
6147.9084966561
 30
0.0
 11
7497.3837117701
 21
6145.1224069899
 31
0.0
  0
LINE
  5
289
330
1F
100
AcDbEntity
  8
0
  6
Continuous
 62
     7
370
    25
100
AcDbLine
 10
7492.617335081
 20
6123.5002502656
 30
0.0
 11
7497.2509955093
 21
6122.2242154038
 31
0.0
  0
LINE
  5
28A
330
1F
100
AcDbEntity
  8
0
  6
Continuous
 62
     7
370
    25
100
AcDbLine
 10
7489.1098913773
 20
6136.9623783833
 30
0.0
 11
7492.617335081
 21
6123.5002502656
 31
0.0
  0
LINE
  5
28B
330
1F
100
AcDbEntity
  8
0
  6
Continuous
 62
     7
370
    25
100
AcDbLine
 10
7492.5318014845
 20
6140.337226898
 30
0.0
 11
7489.1098913773
 21
6136.9623783833
 31
0.0
  0
LINE
  5
28C
330
1F
100
AcDbEntity
  8
0
  6
Continuous
 62
     7
370
    25
100
AcDbLine
 10
7503.7487241913
 20
6120.4348429894
 30
0.0
 11
7507.6463324054
 21
6119.3615011728
 31
0.0
  0
LINE
  5
28D
330
1F
100
AcDbEntity
  8
0
  6
Continuous
 62
     7
370
    25
100
AcDbLine
 10
7507.6463324054
 20
6119.3615011728
 30
0.0
 11
7510.6571855991
 21
6122.3309449708
 31
0.0
  0
LINE
  5
28E
330
1F
100
AcDbEntity
  8
0
  6
Continuous
 62
     8
370
    25
100
AcDbLine
 10
7453.0500330999
 20
6089.5349979257
 30
0.0
 11
7453.0500330999
 21
6087.1350020027
 31
0.0
  0
LINE
  5
28F
330
1F
100
AcDbEntity
  8
0
  6
Continuous
 62
     8
370
    25
100
AcDbLine
 10
7554.8049517944
 20
6089.5349979257
 30
0.0
 11
7554.8049517944
 21
6087.1350020027
 31
0.0
  0
ENDSEC
  0
SECTION
  2
OBJECTS
  0
DICTIONARY
  5
C
330
0
100
AcDbDictionary
281
     1
  3
ACAD_GROUP
350
D
  3
ACAD_LAYOUT
350
1A
  3
ACAD_MLINESTYLE
350
17
  3
ACAD_PLOTSETTINGS
350
19
  3
ACAD_PLOTSTYLENAME
350
E
  3
ACAD_SCALELIST
350
47
  0
DICTIONARY
  5
D
102
{ACAD_REACTORS
330
C
102
}
330
C
100
AcDbDictionary
281
     1
  0
DICTIONARY
  5
1A
102
{ACAD_REACTORS
330
C
102
}
330
C
100
AcDbDictionary
281
     1
  3
Layout1
350
1E
  3
Layout2
350
26
  3
Model
350
22
  0
DICTIONARY
  5
17
102
{ACAD_REACTORS
330
C
102
}
330
C
100
AcDbDictionary
281
     1
  3
Standard
350
18
  0
DICTIONARY
  5
19
102
{ACAD_REACTORS
330
C
102
}
330
C
100
AcDbDictionary
281
     1
  0
ACDBDICTIONARYWDFLT
  5
E
102
{ACAD_REACTORS
330
C
102
}
330
C
100
AcDbDictionary
281
     1
  3
Normal
350
F
100
AcDbDictionaryWithDefault
340
F
  0
DICTIONARY
  5
47
102
{ACAD_REACTORS
330
C
102
}
330
C
100
AcDbDictionary
281
     1
  3
A0
350
48
  3
A1
350
49
  3
A2
350
4A
  3
A3
350
4B
  3
A4
350
4C
  3
A5
350
4D
  3
A6
350
4E
  3
A7
350
4F
  3
A8
350
50
  3
A9
350
51
  3
B0
350
52
  3
B1
350
53
  3
B2
350
54
  3
B3
350
55
  3
B4
350
56
  3
B5
350
57
  3
B6
350
58
  3
B7
350
59
  3
B8
350
5A
  3
B9
350
5B
  3
C0
350
5C
  3
C1
350
5D
  3
C2
350
5E
  3
C3
350
5F
  3
C4
350
60
  3
C5
350
61
  3
C6
350
62
  3
C7
350
63
  3
C8
350
64
  3
C9
350
65
  3
D0
350
66
  3
D1
350
67
  3
D2
350
68
  0
LAYOUT
  5
1E
102
{ACAD_REACTORS
330
1A
102
}
330
1A
100
AcDbPlotSettings
  1

  2
none_device
  4

  6

 40
0.0
 41
0.0
 42
0.0
 43
0.0
 44
0.0
 45
0.0
 46
0.0
 47
0.0
 48
0.0
 49
0.0
140
0.0
141
0.0
142
1.0
143
1.0
 70
   688
 72
     1
 73
     0
 74
     5
  7

 75
    16
147
1.0
148
0.0
149
0.0
100
AcDbLayout
  1
Layout1
 70
     1
 71
     1
 10
0.0
 20
0.0
 11
420.0
 21
297.0
 12
0.0
 22
0.0
 32
0.0
 14
1.0000000000E+20
 24
1.0000000000E+20
 34
1.0000000000E+20
 15
-1.0000000000E+20
 25
-1.0000000000E+20
 35
-1.0000000000E+20
146
0.0
 13
0.0
 23
0.0
 33
0.0
 16
1.0
 26
0.0
 36
0.0
 17
0.0
 27
1.0
 37
0.0
 76
     0
330
1B
  0
LAYOUT
  5
26
102
{ACAD_REACTORS
330
1A
102
}
330
1A
100
AcDbPlotSettings
  1

  2
none_device
  4

  6

 40
0.0
 41
0.0
 42
0.0
 43
0.0
 44
0.0
 45
0.0
 46
0.0
 47
0.0
 48
0.0
 49
0.0
140
0.0
141
0.0
142
1.0
143
1.0
 70
   688
 72
     1
 73
     0
 74
     5
  7

 75
    16
147
1.0
148
0.0
149
0.0
100
AcDbLayout
  1
Layout2
 70
     1
 71
     2
 10
0.0
 20
0.0
 11
0.0
 21
0.0
 12
0.0
 22
0.0
 32
0.0
 14
0.0
 24
0.0
 34
0.0
 15
0.0
 25
0.0
 35
0.0
146
0.0
 13
0.0
 23
0.0
 33
0.0
 16
1.0
 26
0.0
 36
0.0
 17
0.0
 27
1.0
 37
0.0
 76
     0
330
23
  0
LAYOUT
  5
22
102
{ACAD_REACTORS
330
1A
102
}
330
1A
100
AcDbPlotSettings
  1

  2
none_device
  4
Letter_(8.50_x_11.00_Inches)
  6

 40
6.35
 41
6.35
 42
6.35000508
 43
6.35000508
 44
215.9
 45
279.4
 46
0.0
 47
0.0
 48
0.0
 49
0.0
140
0.0
141
0.0
142
1.0
143
1.0
 70
  1712
 72
     1
 73
     0
 74
     0
  7

 75
     0
147
1.0
148
0.0
149
0.0
100
AcDbLayout
  1
Model
 70
     1
 71
     0
 10
0.0
 20
0.0
 11
20000.0
 21
10000.0
 12
0.0
 22
0.0
 32
0.0
 14
0.0
 24
0.0
 34
0.0
 15
20000.0
 25
10000.0
 35
0.0
146
0.0
 13
0.0
 23
0.0
 33
0.0
 16
1.0
 26
0.0
 36
0.0
 17
0.0
 27
1.0
 37
0.0
 76
     0
330
1F
331
29
  0
MLINESTYLE
  5
18
102
{ACAD_REACTORS
330
17
102
}
330
17
100
AcDbMlineStyle
  2
Standard
 70
     0
  3

 62
   256
 51
90.0
 52
90.0
 71
     2
 49
0.5
 62
   256
  6
BYLAYER
 49
-0.5
 62
   256
  6
BYLAYER
  0
ACDBPLACEHOLDER
  5
F
102
{ACAD_REACTORS
330
E
102
}
330
E
  0
SCALE
  5
48
102
{ACAD_REACTORS
330
47
102
}
330
47
100
AcDbScale
 70
     0
300
1:1
140
1.0
141
1.0
290
     1
  0
SCALE
  5
49
102
{ACAD_REACTORS
330
47
102
}
330
47
100
AcDbScale
 70
     0
300
1:2
140
1.0
141
2.0
290
     0
  0
SCALE
  5
4A
102
{ACAD_REACTORS
330
47
102
}
330
47
100
AcDbScale
 70
     0
300
1:4
140
1.0
141
4.0
290
     0
  0
SCALE
  5
4B
102
{ACAD_REACTORS
330
47
102
}
330
47
100
AcDbScale
 70
     0
300
1:5
140
1.0
141
5.0
290
     0
  0
SCALE
  5
4C
102
{ACAD_REACTORS
330
47
102
}
330
47
100
AcDbScale
 70
     0
300
1:8
140
1.0
141
8.0
290
     0
  0
SCALE
  5
4D
102
{ACAD_REACTORS
330
47
102
}
330
47
100
AcDbScale
 70
     0
300
1:10
140
1.0
141
10.0
290
     0
  0
SCALE
  5
4E
102
{ACAD_REACTORS
330
47
102
}
330
47
100
AcDbScale
 70
     0
300
1:16
140
1.0
141
16.0
290
     0
  0
SCALE
  5
4F
102
{ACAD_REACTORS
330
47
102
}
330
47
100
AcDbScale
 70
     0
300
1:20
140
1.0
141
20.0
290
     0
  0
SCALE
  5
50
102
{ACAD_REACTORS
330
47
102
}
330
47
100
AcDbScale
 70
     0
300
1:30
140
1.0
141
30.0
290
     0
  0
SCALE
  5
51
102
{ACAD_REACTORS
330
47
102
}
330
47
100
AcDbScale
 70
     0
300
1:40
140
1.0
141
40.0
290
     0
  0
SCALE
  5
52
102
{ACAD_REACTORS
330
47
102
}
330
47
100
AcDbScale
 70
     0
300
1:50
140
1.0
141
50.0
290
     0
  0
SCALE
  5
53
102
{ACAD_REACTORS
330
47
102
}
330
47
100
AcDbScale
 70
     0
300
1:100
140
1.0
141
100.0
290
     0
  0
SCALE
  5
54
102
{ACAD_REACTORS
330
47
102
}
330
47
100
AcDbScale
 70
     0
300
2:1
140
2.0
141
1.0
290
     0
  0
SCALE
  5
55
102
{ACAD_REACTORS
330
47
102
}
330
47
100
AcDbScale
 70
     0
300
4:1
140
4.0
141
1.0
290
     0
  0
SCALE
  5
56
102
{ACAD_REACTORS
330
47
102
}
330
47
100
AcDbScale
 70
     0
300
8:1
140
8.0
141
1.0
290
     0
  0
SCALE
  5
57
102
{ACAD_REACTORS
330
47
102
}
330
47
100
AcDbScale
 70
     0
300
10:1
140
10.0
141
1.0
290
     0
  0
SCALE
  5
58
102
{ACAD_REACTORS
330
47
102
}
330
47
100
AcDbScale
 70
     0
300
100:1
140
100.0
141
1.0
290
     0
  0
SCALE
  5
59
102
{ACAD_REACTORS
330
47
102
}
330
47
100
AcDbScale
 70
     0
300
1/128" = 1'-0"
140
0.0078125
141
12.0
290
     0
  0
SCALE
  5
5A
102
{ACAD_REACTORS
330
47
102
}
330
47
100
AcDbScale
 70
     0
300
1/64" = 1'-0"
140
0.015625
141
12.0
290
     0
  0
SCALE
  5
5B
102
{ACAD_REACTORS
330
47
102
}
330
47
100
AcDbScale
 70
     0
300
1/32" = 1'-0"
140
0.03125
141
12.0
290
     0
  0
SCALE
  5
5C
102
{ACAD_REACTORS
330
47
102
}
330
47
100
AcDbScale
 70
     0
300
1/16" = 1'-0"
140
0.0625
141
12.0
290
     0
  0
SCALE
  5
5D
102
{ACAD_REACTORS
330
47
102
}
330
47
100
AcDbScale
 70
     0
300
3/32" = 1'-0"
140
0.09375
141
12.0
290
     0
  0
SCALE
  5
5E
102
{ACAD_REACTORS
330
47
102
}
330
47
100
AcDbScale
 70
     0
300
1/8" = 1'-0"
140
0.125
141
12.0
290
     0
  0
SCALE
  5
5F
102
{ACAD_REACTORS
330
47
102
}
330
47
100
AcDbScale
 70
     0
300
3/16" = 1'-0"
140
0.1875
141
12.0
290
     0
  0
SCALE
  5
60
102
{ACAD_REACTORS
330
47
102
}
330
47
100
AcDbScale
 70
     0
300
1/4" = 1'-0"
140
0.25
141
12.0
290
     0
  0
SCALE
  5
61
102
{ACAD_REACTORS
330
47
102
}
330
47
100
AcDbScale
 70
     0
300
3/8" = 1'-0"
140
0.375
141
12.0
290
     0
  0
SCALE
  5
62
102
{ACAD_REACTORS
330
47
102
}
330
47
100
AcDbScale
 70
     0
300
1/2" = 1'-0"
140
0.5
141
12.0
290
     0
  0
SCALE
  5
63
102
{ACAD_REACTORS
330
47
102
}
330
47
100
AcDbScale
 70
     0
300
3/4" = 1'-0"
140
0.75
141
12.0
290
     0
  0
SCALE
  5
64
102
{ACAD_REACTORS
330
47
102
}
330
47
100
AcDbScale
 70
     0
300
1" = 1'-0"
140
1.0
141
12.0
290
     0
  0
SCALE
  5
65
102
{ACAD_REACTORS
330
47
102
}
330
47
100
AcDbScale
 70
     0
300
1-1/2" = 1'-0"
140
1.5
141
12.0
290
     0
  0
SCALE
  5
66
102
{ACAD_REACTORS
330
47
102
}
330
47
100
AcDbScale
 70
     0
300
3" = 1'-0"
140
3.0
141
12.0
290
     0
  0
SCALE
  5
67
102
{ACAD_REACTORS
330
47
102
}
330
47
100
AcDbScale
 70
     0
300
6" = 1'-0"
140
6.0
141
12.0
290
     0
  0
SCALE
  5
68
102
{ACAD_REACTORS
330
47
102
}
330
47
100
AcDbScale
 70
     0
300
1'-0" = 1'-0"
140
12.0
141
12.0
290
     0
  0
ENDSEC
  0
EOF
