  0
SECTION
  2
HEADER
  9
$ACADVER
  1
AC1015
  9
$ACADMAINTVER
 70
     6
  9
$DWGCODEPAGE
  3
ANSI_1250
  9
$INSBASE
 10
0.0
 20
0.0
 30
0.0
  9
$EXTMIN
 10
0.0
 20
0.0
 30
0.0
  9
$EXTMAX
 10
20000.0
 20
10000.0
 30
0.0
  9
$LIMMIN
 10
0.0
 20
0.0
  9
$LIMMAX
 10
20000.0
 20
10000.0
  9
$ORTHOMODE
 70
     0
  9
$REGENMODE
 70
     1
  9
$FILLMODE
 70
     1
  9
$QTEXTMODE
 70
     0
  9
$MIRRTEXT
 70
     1
  9
$LTSCALE
 40
1.0
  9
$ATTMODE
 70
     1
  9
$TEXTSIZE
 40
2.0
  9
$TRACEWID
 40
1.0
  9
$TEXTSTYLE
  7
Standard
  9
$CLAYER
  8
0
  9
$CELTYPE
  6
ByLayer
  9
$CECOLOR
 62
   256
  9
$CELTSCALE
 40
1.0
  9
$DISPSILH
 70
     0
  9
$DIMSCALE
 40
1.0
  9
$DIMASZ
 40
2.0
  9
$DIMEXO
 40
1.0
  9
$DIMDLI
 40
3.75
  9
$DIMRND
 40
0.0
  9
$DIMDLE
 40
0.0
  9
$DIMEXE
 40
1.0
  9
$DIMTP
 40
0.0
  9
$DIMTM
 40
0.0
  9
$DIMTXT
 40
2.0
  9
$DIMCEN
 40
2.5
  9
$DIMTSZ
 40
0.0
  9
$DIMTOL
 70
     0
  9
$DIMLIM
 70
     0
  9
$DIMTIH
 70
     1
  9
$DIMTOH
 70
     1
  9
$DIMSE1
 70
     0
  9
$DIMSE2
 70
     0
  9
$DIMTAD
 70
     1
  9
$DIMZIN
 70
     0
  9
$DIMBLK
  1

  9
$DIMASO
 70
     1
  9
$DIMSHO
 70
     1
  9
$DIMPOST
  1

  9
$DIMAPOST
  1

  9
$DIMALT
 70
     0
  9
$DIMALTD
 70
     3
  9
$DIMALTF
 40
0.0393700787
  9
$DIMLFAC
 40
1.0
  9
$DIMTOFL
 70
     1
  9
$DIMTVP
 40
0.0
  9
$DIMTIX
 70
     0
  9
$DIMSOXD
 70
     0
  9
$DIMSAH
 70
     0
  9
$DIMBLK1
  1

  9
$DIMBLK2
  1

  9
$DIMSTYLE
  2
ISO-25
  9
$DIMCLRD
 70
     0
  9
$DIMCLRE
 70
     0
  9
$DIMCLRT
 70
     0
  9
$DIMTFAC
 40
1.0
  9
$DIMGAP
 40
1.524
  9
$DIMJUST
 70
     0
  9
$DIMSD1
 70
     0
  9
$DIMSD2
 70
     0
  9
$DIMTOLJ
 70
     0
  9
$DIMTZIN
 70
     0
  9
$DIMALTZ
 70
     0
  9
$DIMALTTZ
 70
     0
  9
$DIMUPT
 70
     0
  9
$DIMDEC
 70
     2
  9
$DIMTDEC
 70
     0
  9
$DIMALTU
 70
     2
  9
$DIMALTTD
 70
     3
  9
$DIMTXSTY
  7
Standard
  9
$DIMAUNIT
 70
     0
  9
$DIMADEC
 70
     2
  9
$DIMALTRND
 40
0.0
  9
$DIMAZIN
 70
     0
  9
$DIMDSEP
 70
    44
  9
$DIMATFIT
 70
     3
  9
$DIMFRAC
 70
     0
  9
$DIMLDRBLK
  1

  9
$DIMLUNIT
 70
     2
  9
$DIMLWD
 70
    -2
  9
$DIMLWE
 70
    -2
  9
$DIMTMOVE
 70
     0
  9
$LUNITS
 70
     2
  9
$LUPREC
 70
     3
  9
$SKETCHINC
 40
1.0
  9
$FILLETRAD
 40
10.0
  9
$AUNITS
 70
     0
  9
$AUPREC
 70
     2
  9
$MENU
  1
.
  9
$ELEVATION
 40
0.0
  9
$PELEVATION
 40
0.0
  9
$THICKNESS
 40
0.0
  9
$LIMCHECK
 70
     0
  9
$CHAMFERA
 40
0.0
  9
$CHAMFERB
 40
0.0
  9
$CHAMFERC
 40
0.0
  9
$CHAMFERD
 40
0.0
  9
$SKPOLY
 70
     0
  9
$TDCREATE
 40
2459157.446767326
  9
$TDUCREATE
 40
2459157.40510066
  9
$TDUPDATE
 40
2459157.4467675
  9
$TDUUPDATE
 40
2459157.405100833
  9
$TDINDWG
 40
0.0000000116
  9
$TDUSRTIMER
 40
0.0000000116
  9
$USRTIMER
 70
     1
  9
$ANGBASE
 50
0.0
  9
$ANGDIR
 70
     0
  9
$PDMODE
 70
     0
  9
$PDSIZE
 40
-1.0
  9
$PLINEWID
 40
0.0
  9
$SPLFRAME
 70
     0
  9
$SPLINETYPE
 70
     6
  9
$SPLINESEGS
 70
     8
  9
$HANDSEED
  5
3D6
  9
$SURFTAB1
 70
     6
  9
$SURFTAB2
 70
     6
  9
$SURFTYPE
 70
     6
  9
$SURFU
 70
     6
  9
$SURFV
 70
     6
  9
$UCSBASE
  2

  9
$UCSNAME
  2

  9
$UCSORG
 10
0.0
 20
0.0
 30
0.0
  9
$UCSXDIR
 10
1.0
 20
0.0
 30
0.0
  9
$UCSYDIR
 10
0.0
 20
1.0
 30
0.0
  9
$UCSORTHOREF
  2

  9
$UCSORTHOVIEW
 70
     0
  9
$UCSORGTOP
 10
0.0
 20
0.0
 30
0.0
  9
$UCSORGBOTTOM
 10
0.0
 20
0.0
 30
0.0
  9
$UCSORGLEFT
 10
0.0
 20
0.0
 30
0.0
  9
$UCSORGRIGHT
 10
0.0
 20
0.0
 30
0.0
  9
$UCSORGFRONT
 10
0.0
 20
0.0
 30
0.0
  9
$UCSORGBACK
 10
0.0
 20
0.0
 30
0.0
  9
$PUCSBASE
  2

  9
$PUCSNAME
  2

  9
$PUCSORG
 10
0.0
 20
0.0
 30
0.0
  9
$PUCSXDIR
 10
1.0
 20
0.0
 30
0.0
  9
$PUCSYDIR
 10
0.0
 20
1.0
 30
0.0
  9
$PUCSORTHOREF
  2

  9
$PUCSORTHOVIEW
 70
     0
  9
$PUCSORGTOP
 10
0.0
 20
0.0
 30
0.0
  9
$PUCSORGBOTTOM
 10
0.0
 20
0.0
 30
0.0
  9
$PUCSORGLEFT
 10
0.0
 20
0.0
 30
0.0
  9
$PUCSORGRIGHT
 10
0.0
 20
0.0
 30
0.0
  9
$PUCSORGFRONT
 10
0.0
 20
0.0
 30
0.0
  9
$PUCSORGBACK
 10
0.0
 20
0.0
 30
0.0
  9
$USERI1
 70
     0
  9
$USERI2
 70
     0
  9
$USERI3
 70
     0
  9
$USERI4
 70
     0
  9
$USERI5
 70
     0
  9
$USERR1
 40
0.0
  9
$USERR2
 40
0.0
  9
$USERR3
 40
0.0
  9
$USERR4
 40
0.0
  9
$USERR5
 40
0.0
  9
$WORLDVIEW
 70
     1
  9
$SHADEDGE
 70
     3
  9
$SHADEDIF
 70
    70
  9
$TILEMODE
 70
     1
  9
$MAXACTVP
 70
    64
  9
$PINSBASE
 10
0.0
 20
0.0
 30
0.0
  9
$PLIMCHECK
 70
     0
  9
$PEXTMIN
 10
1.0000000000E+20
 20
1.0000000000E+20
 30
1.0000000000E+20
  9
$PEXTMAX
 10
-1.0000000000E+20
 20
-1.0000000000E+20
 30
-1.0000000000E+20
  9
$PLIMMIN
 10
0.0
 20
0.0
  9
$PLIMMAX
 10
420.0
 20
297.0
  9
$UNITMODE
 70
     0
  9
$VISRETAIN
 70
     1
  9
$PLINEGEN
 70
     0
  9
$PSLTSCALE
 70
     1
  9
$TREEDEPTH
 70
  3020
  9
$CMLSTYLE
  2
Standard
  9
$CMLJUST
 70
     0
  9
$CMLSCALE
 40
20.0
  9
$PROXYGRAPHICS
 70
     1
  9
$MEASUREMENT
 70
     1
  9
$CELWEIGHT
370
    -1
  9
$ENDCAPS
280
     0
  9
$JOINSTYLE
280
     0
  9
$LWDISPLAY
290
     1
  9
$INSUNITS
 70
     4
  9
$HYPERLINKBASE
  1

  9
$STYLESHEET
  1

  9
$XEDIT
290
     1
  9
$CEPSNTYPE
380
     0
  9
$PSTYLEMODE
290
     1
  9
$FINGERPRINTGUID
  2
{030516aa-1916-4f09-8d3a-84e73baf38f6}
  9
$VERSIONGUID
  2
{FAEB1C32-E019-11D5-929B-00C0DF256EC4}
  9
$EXTNAMES
290
     1
  9
$PSVPSCALE
 40
0.0
  9
$OLESTARTUP
290
     0
  0
ENDSEC
  0
SECTION
  2
CLASSES
  0
CLASS
  1
ACDBDICTIONARYWDFLT
  2
AcDbDictionaryWithDefault
  3
ObjectDBX Classes
 90
        0
280
     0
281
     0
  0
CLASS
  1
VISUALSTYLE
  2
AcDbVisualStyle
  3
ObjectDBX Classes
 90
     4095
280
     0
281
     0
  0
CLASS
  1
MATERIAL
  2
AcDbMaterial
  3
ObjectDBX Classes
 90
     1153
280
     0
281
     0
  0
CLASS
  1
SCALE
  2
AcDbScale
  3
ObjectDBX Classes
 90
     1153
280
     0
281
     0
  0
CLASS
  1
TABLESTYLE
  2
AcDbTableStyle
  3
ObjectDBX Classes
 90
     4095
280
     0
281
     0
  0
CLASS
  1
MLEADERSTYLE
  2
AcDbMLeaderStyle
  3
ACDB_MLEADERSTYLE_CLASS
 90
     4095
280
     0
281
     0
  0
CLASS
  1
SUN
  2
AcDbSun
  3
SCENEOE
 90
     1153
280
     0
281
     0
  0
CLASS
  1
ACDBPLACEHOLDER
  2
AcDbPlaceHolder
  3
ObjectDBX Classes
 90
        0
280
     0
281
     0
  0
CLASS
  1
LAYOUT
  2
AcDbLayout
  3
ObjectDBX Classes
 90
        0
280
     0
281
     0
  0
ENDSEC
  0
SECTION
  2
TABLES
  0
TABLE
  2
VPORT
  5
8
330
0
100
AcDbSymbolTable
 70
     1
  0
VPORT
  5
29
330
8
100
AcDbSymbolTableRecord
100
AcDbViewportTableRecord
  2
*Active
 70
     0
 10
0.0
 20
0.0
 11
1.0
 21
1.0
 12
10000.0
 22
5000.0
 13
0.0
 23
0.0
 14
10.0
 24
10.0
 15
10.0
 25
10.0
 16
0.0
 26
0.0
 36
1.0
 17
0.0
 27
0.0
 37
0.0
 40
10000.0
 41
2.0
 42
50.0
 43
0.0
 44
0.0
 50
0.0
 51
0.0
 71
     0
 72
  2000
 73
     1
 74
     3
 75
     0
 76
     0
 77
     0
 78
     0
281
     0
 65
     1
110
0.0
120
0.0
130
0.0
111
1.0
121
0.0
131
0.0
112
0.0
122
1.0
132
0.0
 79
     0
146
0.0
  0
ENDTAB
  0
TABLE
  2
LTYPE
  5
5
330
0
100
AcDbSymbolTable
 70
     6
  0
LTYPE
  5
14
330
5
100
AcDbSymbolTableRecord
100
AcDbLinetypeTableRecord
  2
ByBlock
 70
     0
  3

 72
    65
 73
     0
 40
0.0
  0
LTYPE
  5
15
330
5
100
AcDbSymbolTableRecord
100
AcDbLinetypeTableRecord
  2
ByLayer
 70
     0
  3

 72
    65
 73
     0
 40
0.0
  0
LTYPE
  5
16
330
5
100
AcDbSymbolTableRecord
100
AcDbLinetypeTableRecord
  2
Continuous
 70
     0
  3
Solid line
 72
    65
 73
     0
 40
0.0
  0
LTYPE
  5
6E
330
5
100
AcDbSymbolTableRecord
100
AcDbLinetypeTableRecord
  2
HIDDEN
 70
     0
  3
Hidden __ __ __ __ __ __ __ __ __ __ __ __ __ __
 72
    65
 73
     2
 40
1.905
 49
1.27
 74
     0
 49
-0.635
 74
     0
  0
LTYPE
  5
6F
330
5
100
AcDbSymbolTableRecord
100
AcDbLinetypeTableRecord
  2
PHANTOM
 70
     0
  3
Phantom ______  __  __  ______  __  __  ______
 72
    65
 73
     6
 40
12.7
 49
6.35
 74
     0
 49
-1.27
 74
     0
 49
1.27
 74
     0
 49
-1.27
 74
     0
 49
1.27
 74
     0
 49
-1.27
 74
     0
  0
LTYPE
  5
70
330
5
100
AcDbSymbolTableRecord
100
AcDbLinetypeTableRecord
  2
CENTER
 70
     0
  3
Center ____ _ ____ _ ____ _ ____ _ ____ _ ____
 72
    65
 73
     4
 40
10.16
 49
6.35
 74
     0
 49
-1.27
 74
     0
 49
1.27
 74
     0
 49
-1.27
 74
     0
  0
LTYPE
  5
71
330
5
100
AcDbSymbolTableRecord
100
AcDbLinetypeTableRecord
  2
CENTERX2
 70
     0
  3
Center (2x) ________  __  ________  __  _____
 72
    65
 73
     4
 40
20.32
 49
12.7
 74
     0
 49
-2.54
 74
     0
 49
2.54
 74
     0
 49
-2.54
 74
     0
  0
LTYPE
  5
72
330
5
100
AcDbSymbolTableRecord
100
AcDbLinetypeTableRecord
  2
DOT2
 70
     0
  3
Dot (.5x) ........................................
 72
    65
 73
     2
 40
0.635
 49
0.0
 74
     0
 49
-0.635
 74
     0
  0
ENDTAB
  0
TABLE
  2
LAYER
  5
2
330
0
100
AcDbSymbolTable
 70
    13
  0
LAYER
  5
10
330
2
100
AcDbSymbolTableRecord
100
AcDbLayerTableRecord
  2
0
 70
     0
 62
     7
  6
Continuous
370
    -3
390
F
  0
LAYER
  5
73
330
2
100
AcDbSymbolTableRecord
100
AcDbLayerTableRecord
  2
FORMAT
 70
     0
 62
     7
  6
Continuous
370
    -3
390
F
  0
LAYER
  5
74
330
2
100
AcDbSymbolTableRecord
100
AcDbLayerTableRecord
  2
OSA
 70
     0
 62
     7
  6
CENTER
370
    -3
390
F
  0
LAYER
  5
75
330
2
100
AcDbSymbolTableRecord
100
AcDbLayerTableRecord
  2
0_35
 70
     0
 62
     7
  6
Continuous
370
    35
390
F
  0
LAYER
  5
76
330
2
100
AcDbSymbolTableRecord
100
AcDbLayerTableRecord
  2
0_5
 70
     0
 62
     7
  6
Continuous
370
    50
390
F
  0
LAYER
  5
77
330
2
100
AcDbSymbolTableRecord
100
AcDbLayerTableRecord
  2
0_25
 70
     0
 62
     7
  6
Continuous
370
    25
390
F
  0
LAYER
  5
78
330
2
100
AcDbSymbolTableRecord
100
AcDbLayerTableRecord
  2
0_18
 70
     0
 62
     7
  6
Continuous
370
    -3
390
F
  0
LAYER
  5
79
330
2
100
AcDbSymbolTableRecord
100
AcDbLayerTableRecord
  2
SLD-0
 70
     0
 62
   179
  6
Continuous
370
    -3
390
F
  0
LAYER
  5
7A
330
2
100
AcDbSymbolTableRecord
100
AcDbLayerTableRecord
  2
KOTY
 70
     0
 62
     7
  6
Continuous
370
    -3
390
F
  0
LAYER
  5
7B
330
2
100
AcDbSymbolTableRecord
100
AcDbLayerTableRecord
  2
SILNA
 70
     0
 62
   179
  6
Continuous
370
    -3
390
F
  0
LAYER
  5
7C
330
2
100
AcDbSymbolTableRecord
100
AcDbLayerTableRecord
  2
0_18_1
 70
     0
 62
   179
  6
Continuous
370
    -3
390
F
  0
LAYER
  5
7D
330
2
100
AcDbSymbolTableRecord
100
AcDbLayerTableRecord
  2
0_35_1
 70
     0
 62
   179
  6
Continuous
370
    35
390
F
  0
LAYER
  5
7E
330
2
100
AcDbSymbolTableRecord
100
AcDbLayerTableRecord
  2
0_5_1
 70
     0
 62
   179
  6
Continuous
370
    50
390
F
  0
ENDTAB
  0
TABLE
  2
STYLE
  5
3
330
0
100
AcDbSymbolTable
 70
     1
  0
STYLE
  5
11
330
3
100
AcDbSymbolTableRecord
100
AcDbTextStyleTableRecord
  2
Standard
 70
     0
 40
0.0
 41
1.0
 50
0.0
 71
     0
 42
2.0
  3
txt
  4

  0
ENDTAB
  0
TABLE
  2
VIEW
  5
6
330
0
100
AcDbSymbolTable
 70
     0
  0
ENDTAB
  0
TABLE
  2
UCS
  5
7
330
0
100
AcDbSymbolTable
 70
     0
  0
ENDTAB
  0
TABLE
  2
APPID
  5
9
330
0
100
AcDbSymbolTable
 70
     1
  0
APPID
  5
12
330
9
100
AcDbSymbolTableRecord
100
AcDbRegAppTableRecord
  2
ACAD
 70
     0
  0
ENDTAB
  0
TABLE
  2
DIMSTYLE
  5
A
330
0
100
AcDbSymbolTable
 70
     1
100
AcDbDimStyleTable
  0
DIMSTYLE
105
27
330
A
100
AcDbSymbolTableRecord
100
AcDbDimStyleTableRecord
  2
ISO-25
 70
     0
 41
2.5
 42
0.625
 43
3.75
 44
1.25
 73
     0
 74
     0
 77
     1
 78
     8
140
2.5
141
2.5
143
0.0393700787
147
0.625
171
     3
172
     1
178
     0
271
     2
272
     2
274
     3
278
    44
283
     0
284
     8
340
11
  0
ENDTAB
  0
TABLE
  2
BLOCK_RECORD
  5
1
330
0
100
AcDbSymbolTable
 70
     1
  0
BLOCK_RECORD
  5
1F
330
1
100
AcDbSymbolTableRecord
100
AcDbBlockTableRecord
  2
*Model_Space
340
22
  0
BLOCK_RECORD
  5
1B
330
1
100
AcDbSymbolTableRecord
100
AcDbBlockTableRecord
  2
*Paper_Space
340
1E
  0
BLOCK_RECORD
  5
23
330
1
100
AcDbSymbolTableRecord
100
AcDbBlockTableRecord
  2
*Paper_Space0
340
26
  0
ENDTAB
  0
ENDSEC
  0
SECTION
  2
BLOCKS
  0
BLOCK
  5
20
330
1F
100
AcDbEntity
  8
0
100
AcDbBlockBegin
  2
*Model_Space
 70
     0
 10
0.0
 20
0.0
 30
0.0
  3
*Model_Space
  1

  0
ENDBLK
  5
21
330
1F
100
AcDbEntity
  8
0
100
AcDbBlockEnd
  0
BLOCK
  5
1C
330
1B
100
AcDbEntity
 67
     1
  8
0
100
AcDbBlockBegin
  2
*Paper_Space
 70
     0
 10
0.0
 20
0.0
 30
0.0
  3
*Paper_Space
  1

  0
ENDBLK
  5
1D
330
1B
100
AcDbEntity
 67
     1
  8
0
100
AcDbBlockEnd
  0
BLOCK
  5
24
330
23
100
AcDbEntity
  8
0
100
AcDbBlockBegin
  2
*Paper_Space0
 70
     0
 10
0.0
 20
0.0
 30
0.0
  3
*Paper_Space0
  1

  0
ENDBLK
  5
25
330
23
100
AcDbEntity
  8
0
100
AcDbBlockEnd
  0
ENDSEC
  0
SECTION
  2
ENTITIES
  0
LINE
  5
7F
330
1F
100
AcDbEntity
  8
0
  6
Continuous
 62
     7
370
    25
100
AcDbLine
 10
6410.047351211
 20
5075.1561307001
 30
0.0
 11
6410.0480652087
 21
5074.1106382634
 31
0.0
  0
LINE
  5
80
330
1F
100
AcDbEntity
  8
0
  6
Continuous
 62
     7
370
    25
100
AcDbLine
 10
6476.5480497011
 20
5074.1560530654
 30
0.0
 11
6476.5473357035
 21
5075.2015455021
 31
0.0
  0
LINE
  5
81
330
1F
100
AcDbEntity
  8
0
  6
Continuous
 62
     7
370
    25
100
AcDbLine
 10
6403.2990966912
 20
5072.597954228
 30
0.0
 11
6403.2994356216
 21
5072.1016651915
 31
0.0
  0
LINE
  5
82
330
1F
100
AcDbEntity
  8
0
  6
Continuous
 62
     7
370
    25
100
AcDbLine
 10
6483.2994169659
 20
5072.1562995397
 30
0.0
 11
6483.2990780355
 21
5072.6525885763
 31
0.0
  0
ARC
  5
83
330
1F
100
AcDbEntity
  8
0
  6
Continuous
 62
     7
370
    25
100
AcDbCircle
 10
6403.9494011832
 20
5072.6531679009
 30
0.0
 40
0.0547695479954405
100
AcDbArc
 50
270.0391289725
 51
330.0391289718
  0
ARC
  5
84
330
1F
100
AcDbEntity
  8
0
  6
Continuous
 62
     7
370
    25
100
AcDbCircle
 10
6482.6486987359
 20
5072.7069139738
 30
0.0
 40
0.0547695479954405
100
AcDbArc
 50
210.0391289732
 51
270.0391289725
  0
LINE
  5
85
330
1F
100
AcDbEntity
  8
0
  6
Continuous
 62
     7
370
    25
100
AcDbLine
 10
6482.6012856289
 20
5072.6794968136
 30
0.0
 11
6482.3618914622
 21
5073.0934864887
 31
0.0
  0
LINE
  5
86
330
1F
100
AcDbEntity
  8
0
  6
Continuous
 62
     7
370
    25
100
AcDbLine
 10
6404.2356801861
 20
5073.0401317933
 30
0.0
 11
6403.996851694
 21
5072.6258155259
 31
0.0
  0
ARC
  5
87
330
1F
100
AcDbEntity
  8
0
  6
Continuous
 62
     7
370
    25
100
AcDbCircle
 10
6404.3305496068
 20
5072.9854452592
 30
0.0
 40
0.1095026209374669
100
AcDbArc
 50
90.0391289723
 51
150.0391289724
  0
ARC
  5
88
330
1F
100
AcDbEntity
  8
0
  6
Continuous
 62
     7
370
    25
100
AcDbCircle
 10
6482.2670968241
 20
5073.0386704274
 30
0.0
 40
0.1095026209377664
100
AcDbArc
 50
30.0391289731
 51
90.0391289728
  0
LINE
  5
89
330
1F
100
AcDbEntity
  8
0
  6
Continuous
 62
     7
370
    25
100
AcDbLine
 10
6482.2670220415
 20
5073.1481730228
 30
0.0
 11
6404.3304748242
 21
5073.0949478546
 31
0.0
  0
LINE
  5
8A
330
1F
100
AcDbEntity
  8
0
  6
Continuous
 62
     7
370
    25
100
AcDbLine
 10
6465.6896777562
 20
5068.988022591
 30
0.0
 11
6465.6896549772
 21
5069.0213773989
 31
0.0
  0
ARC
  5
8B
330
1F
100
AcDbEntity
  8
0
  6
Continuous
 62
     7
370
    25
100
AcDbCircle
 10
6483.3495426816
 20
5055.2182591016
 30
0.0
 40
6.853085275301809
100
AcDbArc
 50
305.7773854749
 51
359.8077807782
  0
LINE
  5
8C
330
1F
100
AcDbEntity
  8
0
  6
Continuous
 62
     7
370
    25
100
AcDbLine
 10
6490.2327506769
 20
5055.1942650569
 30
0.0
 11
6490.3048787683
 21
5064.1610819107
 31
0.0
  0
ARC
  5
8D
330
1F
100
AcDbEntity
  8
0
  6
Continuous
 62
     7
370
    25
100
AcDbCircle
 10
6490.3028299803
 20
5067.1610812112
 30
0.0
 40
2.000000000000034
100
AcDbArc
 50
0.0391289727
 51
90.0391289726
  0
LINE
  5
8E
330
1F
100
AcDbEntity
  8
0
  6
Continuous
 62
     7
370
    25
100
AcDbLine
 10
6492.3048783019
 20
5064.1624477695
 30
0.0
 11
6492.3028295139
 21
5067.1624470699
 31
0.0
  0
LINE
  5
8F
330
1F
100
AcDbEntity
  8
0
  6
Continuous
 62
     7
370
    25
100
AcDbLine
 10
6485.0514653459
 20
5069.1574953657
 30
0.0
 11
6485.0494165578
 21
5072.1574946661
 31
0.0
  0
LINE
  5
90
330
1F
100
AcDbEntity
  8
0
  6
Continuous
 62
     7
370
    25
100
AcDbLine
 10
6401.5494360297
 20
5072.1004700651
 30
0.0
 11
6401.5514848177
 21
5069.1004707647
 31
0.0
  0
LINE
  5
91
330
1F
100
AcDbEntity
  8
0
  6
Continuous
 62
     7
370
    25
100
AcDbLine
 10
6475.5915085981
 20
4996.967779411
 30
0.0
 11
6476.7620270369
 21
5042.8658986894
 31
0.0
  0
ARC
  5
92
330
1F
100
AcDbEntity
  8
0
  6
Continuous
 62
     7
370
    25
100
AcDbCircle
 10
6468.593783816
 20
4997.1462391391
 30
0.0
 40
7.000000000000861
100
AcDbArc
 50
270.0391289727
 51
358.5391289727
  0
ARC
  5
93
330
1F
100
AcDbEntity
  8
0
  6
Continuous
 62
     7
370
    25
100
AcDbCircle
 10
6311.7576417556
 20
5036.8899928507
 30
0.0
 40
27.00000000000012
100
AcDbArc
 50
228.333381863
 51
287.8619202193
  0
ARC
  5
94
330
1F
100
AcDbEntity
  8
0
  6
Continuous
 62
     7
370
    25
100
AcDbCircle
 10
6311.7576417556
 20
5036.8899928507
 30
0.0
 40
27.00000000000085
100
AcDbArc
 50
73.2163377261
 51
132.7448760823
  0
ARC
  5
95
330
1F
100
AcDbEntity
  8
0
  6
Continuous
 62
     7
370
    25
100
AcDbCircle
 10
6376.3063201236
 20
5062.0116073504
 30
0.0
 40
2.000000000000709
100
AcDbArc
 50
0.5391289727
 51
92.0546227194
  0
ARC
  5
96
330
1F
100
AcDbEntity
  8
0
  6
Continuous
 62
     7
370
    25
100
AcDbCircle
 10
6376.7676297257
 20
5012.9875064059
 30
0.0
 40
1.99999999999984
100
AcDbArc
 50
269.0236352259
 51
0.5391289727
  0
LINE
  5
97
330
1F
100
AcDbEntity
  8
0
  6
Continuous
 62
     7
370
    25
100
AcDbLine
 10
6378.7675411863
 20
5013.0063252795
 30
0.0
 11
6378.3062315841
 21
5062.030426224
 31
0.0
  0
LINE
  5
98
330
1F
100
AcDbEntity
  8
0
  6
Continuous
 62
     7
370
    25
100
AcDbLine
 10
6376.2346156311
 20
5064.0103215535
 30
0.0
 11
6351.235222294
 21
5063.113460557
 31
0.0
  0
LINE
  5
99
330
1F
100
AcDbEntity
  8
0
  6
Continuous
 62
     7
370
    25
100
AcDbLine
 10
6351.7217060792
 20
5011.4140593751
 30
0.0
 11
6376.7335498152
 21
5010.987796787
 31
0.0
  0
ARC
  5
9A
330
1F
100
AcDbEntity
  8
0
  6
Continuous
 62
     7
370
    25
100
AcDbCircle
 10
6351.3069267865
 20
5061.1147463539
 30
0.0
 40
2.000000000000035
100
AcDbArc
 50
92.0546227194
 51
180.0391289727
  0
ARC
  5
9B
330
1F
100
AcDbEntity
  8
0
  6
Continuous
 62
     7
370
    25
100
AcDbCircle
 10
6351.7557859897
 20
5013.4137689939
 30
0.0
 40
2.00000000000072
100
AcDbArc
 50
181.0391289727
 51
269.0236352259
  0
LINE
  5
9C
330
1F
100
AcDbEntity
  8
0
  6
Continuous
 62
     7
370
    25
100
AcDbLine
 10
6349.3069272529
 20
5061.1133804952
 30
0.0
 11
6349.3095696056
 21
5057.2442364199
 31
0.0
  0
LINE
  5
9D
330
1F
100
AcDbEntity
  8
0
  6
Continuous
 62
     7
370
    25
100
AcDbLine
 10
6349.6859470781
 20
5017.2460072091
 30
0.0
 11
6349.7561149033
 21
5013.3774985385
 31
0.0
  0
ARC
  5
9E
330
1F
100
AcDbEntity
  8
0
  6
Continuous
 62
     7
370
    25
100
AcDbCircle
 10
6327.7277227522
 20
5060.0054745845
 30
0.0
 40
0.250000000000459
100
AcDbArc
 50
90.0391289726
 51
168.5391289727
  0
ARC
  5
9F
330
1F
100
AcDbEntity
  8
0
  6
Continuous
 62
     7
370
    25
100
AcDbCircle
 10
6328.159882922
 20
5014.0791299222
 30
0.0
 40
0.2499999999995966
100
AcDbArc
 50
192.5391289725
 51
271.0391289727
  0
LINE
  5
A0
330
1F
100
AcDbEntity
  8
0
  6
Continuous
 62
     7
370
    25
100
AcDbLine
 10
6328.1644167289
 20
5013.8291710364
 30
0.0
 11
6329.0020975713
 21
5013.844365068
 31
0.0
  0
LINE
  5
A1
330
1F
100
AcDbEntity
  8
0
  6
Continuous
 62
     7
370
    25
100
AcDbLine
 10
6328.5653704518
 20
5060.2560466971
 30
0.0
 11
6327.7275520199
 21
5060.2554745262
 31
0.0
  0
ARC
  5
A2
330
1F
100
AcDbEntity
  8
0
  6
Continuous
 62
     7
370
    25
100
AcDbCircle
 10
6328.5655411842
 20
5060.0060467554
 30
0.0
 40
0.2500000000004596
100
AcDbArc
 50
10.5391289726
 51
90.0391289729
  0
ARC
  5
A3
330
1F
100
AcDbEntity
  8
0
  6
Continuous
 62
     7
370
    25
100
AcDbCircle
 10
6328.9975637644
 20
5014.0943239538
 30
0.0
 40
0.2500000000012246
100
AcDbArc
 50
271.0391289727
 51
350.5391289725
  0
LINE
  5
A4
330
1F
100
AcDbEntity
  8
0
  6
Continuous
 62
     7
370
    25
100
AcDbLine
 10
6327.4827075947
 20
5060.0551492516
 30
0.0
 11
6327.0679122795
 21
5058.0092142638
 31
0.0
  0
LINE
  5
A5
330
1F
100
AcDbEntity
  8
0
  6
Continuous
 62
     7
370
    25
100
AcDbLine
 10
6327.4626235775
 20
5016.0626204148
 30
0.0
 11
6327.9158459304
 21
5014.024853346
 31
0.0
  0
LINE
  5
A6
330
1F
100
AcDbEntity
  8
0
  6
Continuous
 62
     7
370
    25
100
AcDbLine
 10
6329.2441632862
 20
5014.0532304528
 30
0.0
 11
6329.7449408605
 21
5017.0583652642
 31
0.0
  0
LINE
  5
A7
330
1F
100
AcDbEntity
  8
0
  6
Continuous
 62
     7
370
    25
100
AcDbLine
 10
6329.368563388
 20
5057.056594475
 30
0.0
 11
6328.8113237402
 21
5060.0517734995
 31
0.0
  0
ARC
  5
A8
330
1F
100
AcDbEntity
  8
0
  6
Continuous
 62
     7
370
    25
100
AcDbCircle
 10
6311.7576417556
 20
5036.8899928507
 30
0.0
 40
23.99999999999977
100
AcDbArc
 50
290.0404013193
 51
303.9494441624
  0
ARC
  5
A9
330
1F
100
AcDbEntity
  8
0
  6
Continuous
 62
     7
370
    25
100
AcDbCircle
 10
6311.7576417556
 20
5036.8899928507
 30
0.0
 40
24.00000000000037
100
AcDbArc
 50
57.128813783
 51
71.0378566261
  0
LINE
  5
AA
330
1F
100
AcDbEntity
  8
0
  6
Continuous
 62
     7
370
    25
100
AcDbLine
 10
6417.2754136133
 20
5019.4720600266
 30
0.0
 11
6417.8877404656
 21
4996.6829984446
 31
0.0
  0
LWPOLYLINE
  5
AB
330
1F
100
AcDbEntity
  8
0
  6
Continuous
 62
     7
370
    25
100
AcDbPolyline
 90
        7
 70
   128
 43
0.0
 10
6417.8867916141
 20
4996.7224229165
 10
6418.0628065642
 20
4995.5636704797
 10
6419.0166036728
 20
4993.6649090323
 10
6420.7700328099
 20
4991.9274373307
 10
6422.7087074305
 20
4990.809725372
 10
6423.8901581775
 20
4990.3933761278
 10
6425.9226022657
 20
4990.1170960975
  0
LINE
  5
AC
330
1F
100
AcDbEntity
  8
0
  6
Continuous
 62
     7
370
    25
100
AcDbLine
 10
6384.3661285528
 20
5057.5741134997
 30
0.0
 11
6378.3486976489
 21
5057.5174903572
 31
0.0
  0
LINE
  5
AD
330
1F
100
AcDbEntity
  8
0
  6
Continuous
 62
     7
370
    25
100
AcDbLine
 10
6378.7250751214
 20
5017.5192611464
 30
0.0
 11
6385.9677729518
 21
5017.5874138711
 31
0.0
  0
ARC
  5
AE
330
1F
100
AcDbEntity
  8
0
  6
Continuous
 62
     7
370
    25
100
AcDbCircle
 10
6325.597821334
 20
5058.3072622667
 30
0.0
 40
1.50000000000057
100
AcDbArc
 50
237.128813783
 51
348.5391289727
  0
ARC
  5
AF
330
1F
100
AcDbEntity
  8
0
  6
Continuous
 62
     7
370
    25
100
AcDbCircle
 10
6325.9984016278
 20
5015.7369609578
 30
0.0
 40
1.500000000000343
100
AcDbArc
 50
12.5391289727
 51
123.9494441624
  0
LINE
  5
B0
330
1F
100
AcDbEntity
  8
0
  6
Continuous
 62
     7
370
    25
100
AcDbLine
 10
6349.3095696056
 20
5057.2442364199
 30
0.0
 11
6329.368563388
 21
5057.056594475
 31
0.0
  0
LINE
  5
B1
330
1F
100
AcDbEntity
  8
0
  6
Continuous
 62
     7
370
    25
100
AcDbLine
 10
6329.7449408605
 20
5017.0583652642
 30
0.0
 11
6349.6859470781
 21
5017.2460072091
 31
0.0
  0
LINE
  5
B2
330
1F
100
AcDbEntity
  8
0
  6
Continuous
 62
     7
370
    25
100
AcDbLine
 10
6224.8808702038
 20
5056.0732854015
 30
0.0
 11
6221.3953564649
 21
5055.7551753963
 31
0.0
  0
LINE
  5
B3
330
1F
100
AcDbEntity
  8
0
  6
Continuous
 62
     7
370
    25
100
AcDbLine
 10
6221.7663631363
 20
5016.3277097114
 30
0.0
 11
6225.2572458848
 21
5016.0752465742
 31
0.0
  0
LINE
  5
B4
330
1F
100
AcDbEntity
  8
0
  6
Continuous
 62
     7
370
    25
100
AcDbLine
 10
6293.4317947868
 20
5056.7183395512
 30
0.0
 11
6224.8808702038
 21
5056.0732854015
 31
0.0
  0
LINE
  5
B5
330
1F
100
AcDbEntity
  8
0
  6
Continuous
 62
     7
370
    25
100
AcDbLine
 10
6225.2572458848
 20
5016.0752465742
 30
0.0
 11
6293.8081704678
 21
5016.7203007239
 31
0.0
  0
LINE
  5
B6
330
1F
100
AcDbEntity
  8
0
  6
Continuous
 62
     7
370
    25
100
AcDbLine
 10
6221.3953564649
 20
5055.7551753963
 30
0.0
 11
6221.3968690066
 21
5053.5403907818
 31
0.0
  0
LINE
  5
B7
330
1F
100
AcDbEntity
  8
0
  6
Continuous
 62
     7
370
    25
100
AcDbLine
 10
6221.7261975036
 20
5018.5421306059
 30
0.0
 11
6221.7663631363
 21
5016.3277097114
 31
0.0
  0
ARC
  5
B8
330
1F
100
AcDbEntity
  8
0
  6
Continuous
 62
     7
370
    25
100
AcDbCircle
 10
6384.3473096792
 20
5059.5740249602
 30
0.0
 40
1.99999999999984
100
AcDbArc
 50
270.5391289727
 51
0.5391289727
  0
ARC
  5
B9
330
1F
100
AcDbEntity
  8
0
  6
Continuous
 62
     7
370
    25
100
AcDbCircle
 10
6386.1496578625
 20
5015.9572359483
 30
0.0
 40
1.612651672039054
100
AcDbArc
 50
48.4751822876
 51
96.2460121567
  0
ARC
  5
BA
330
1F
100
AcDbEntity
  8
0
  6
Continuous
 62
     7
370
    25
100
AcDbCircle
 10
6392.2782830464
 20
5024.433618073
 30
0.0
 40
8.83661007036507
100
AcDbArc
 50
235.0483555272
 51
282.7969881199
  0
LWPOLYLINE
  5
BB
330
1F
100
AcDbEntity
  8
0
  6
Continuous
 62
     7
370
    25
100
AcDbPolyline
 90
        3
 70
   128
 43
0.0
 10
6394.2824857769
 20
5015.8208820694
 10
6394.2879512548
 20
5015.8213924703
 10
6394.2775976553
 20
5015.8205230804
  0
LINE
  5
BC
330
1F
100
AcDbEntity
  8
0
  6
Continuous
 62
     7
370
    25
100
AcDbLine
 10
6800.6623090591
 20
4980.1730145241
 30
0.0
 11
6800.6145040043
 21
5050.1729982004
 31
0.0
  0
LINE
  5
BD
330
1F
100
AcDbEntity
  8
0
  6
Continuous
 62
     7
370
    25
100
AcDbLine
 10
6790.6145063363
 20
5050.1661689068
 30
0.0
 11
6790.662311391
 21
4980.1661852306
 31
0.0
  0
LINE
  5
BE
330
1F
100
AcDbEntity
  8
0
  6
Continuous
 62
     7
370
    25
100
AcDbLine
 10
6800.6083576402
 20
5059.1729961016
 30
0.0
 11
6799.607674944
 21
5060.172312939
 31
0.0
  0
LINE
  5
BF
330
1F
100
AcDbEntity
  8
0
  6
Continuous
 62
     7
370
    25
100
AcDbLine
 10
6791.6076768096
 20
5060.1668495042
 30
0.0
 11
6790.6083599721
 21
5059.1661668081
 31
0.0
  0
LINE
  5
C0
330
1F
100
AcDbEntity
  8
0
  6
Continuous
 62
     7
370
    25
100
AcDbLine
 10
6096.0658880159
 20
4974.691823668
 30
0.0
 11
6096.0146683144
 21
5049.6918061783
 31
0.0
  0
LINE
  5
C1
330
1F
100
AcDbEntity
  8
0
  6
Continuous
 62
     7
370
    25
100
AcDbLine
 10
6086.0146706464
 20
5049.6849768847
 30
0.0
 11
6086.0658903479
 21
4974.6849943744
 31
0.0
  0
LINE
  5
C2
330
1F
100
AcDbEntity
  8
0
  6
Continuous
 62
     7
370
    25
100
AcDbLine
 10
6096.0085219503
 20
5058.6918040795
 30
0.0
 11
6095.0078392541
 21
5059.6911209169
 31
0.0
  0
LINE
  5
C3
330
1F
100
AcDbEntity
  8
0
  6
Continuous
 62
     7
370
    25
100
AcDbLine
 10
6087.0078411197
 20
5059.6856574821
 30
0.0
 11
6086.0085242822
 21
5058.684974786
 31
0.0
  0
LINE
  5
C4
330
1F
100
AcDbEntity
  8
0
  6
Continuous
 62
     7
370
    25
100
AcDbLine
 10
6816.5844513817
 20
5094.1839148094
 30
0.0
 11
6813.8844520113
 21
5094.1820709001
 31
0.0
  0
LINE
  5
C5
330
1F
100
AcDbEntity
  8
0
  6
Continuous
 62
     7
370
    25
100
AcDbLine
 10
6813.8844520113
 20
5094.1820709001
 30
0.0
 11
6072.6846248564
 21
5093.6758836637
 31
0.0
  0
LINE
  5
C6
330
1F
100
AcDbEntity
  8
0
  6
Continuous
 62
     7
370
    25
100
AcDbLine
 10
6072.6846248564
 20
5093.6758836637
 30
0.0
 11
6069.984625486
 21
5093.6740397544
 31
0.0
  0
LINE
  5
C7
330
1F
100
AcDbEntity
  8
0
  6
Continuous
 62
     7
370
    25
100
AcDbLine
 10
6407.510836395
 20
5076.704542354
 30
0.0
 11
6410.047351211
 21
5075.1561307001
 31
0.0
  0
LINE
  5
C8
330
1F
100
AcDbEntity
  8
0
  6
Continuous
 62
     7
370
    25
100
AcDbLine
 10
6411.7581009468
 20
5074.1118060973
 30
0.0
 11
6413.4136952359
 21
5073.1011510539
 31
0.0
  0
LINE
  5
C9
330
1F
100
AcDbEntity
  8
0
  6
Continuous
 62
     7
370
    25
100
AcDbLine
 10
6473.1838016298
 20
5073.1419698235
 30
0.0
 11
6474.838013963
 21
5074.1548852315
 31
0.0
  0
LINE
  5
CA
330
1F
100
AcDbEntity
  8
0
  6
Continuous
 62
     7
370
    25
100
AcDbLine
 10
6476.5473357035
 20
5075.2015455021
 30
0.0
 11
6479.0817332424
 21
5076.7534202317
 31
0.0
  0
LINE
  5
CB
330
1F
100
AcDbEntity
  8
0
  6
Continuous
 62
     7
370
    25
100
AcDbLine
 10
6476.5480497011
 20
5074.1560530654
 30
0.0
 11
6410.0480652087
 21
5074.1106382634
 31
0.0
  0
LINE
  5
CC
330
1F
100
AcDbEntity
  8
0
  6
Continuous
 62
     7
370
    25
100
AcDbLine
 10
6403.2990966912
 20
5072.597954228
 30
0.0
 11
6483.2990780355
 21
5072.6525885763
 31
0.0
  0
LWPOLYLINE
  5
CD
330
1F
100
AcDbEntity
  8
0
  6
Continuous
 62
     7
370
    25
100
AcDbPolyline
 90
       18
 70
   128
 43
0.0
 10
6487.0690338015
 20
5049.458341511
 10
6487.1140899226
 20
5049.4892521253
 10
6486.3711293746
 20
5048.9857314568
 10
6484.8303756892
 20
5047.958523527
 10
6482.7494681907
 20
5046.6033609283
 10
6480.1127826812
 20
5044.9378686001
 10
6477.0151138515
 20
5043.0526900604
 10
6473.4319524922
 20
5040.968438245
 10
6469.4700470963
 20
5038.7760378502
 10
6465.20630608
 20
5036.5435917785
 10
6458.7267732119
 20
5033.3988823319
 10
6451.8528424589
 20
5030.3666020423
 10
6445.1888276753
 20
5027.7177114543
 10
6438.4548505697
 20
5025.3133665144
 10
6432.0255610313
 20
5023.2695176204
 10
6425.862813465
 20
5021.5285304698
 10
6420.2021305966
 20
5020.1170111897
 10
6415.1784919127
 20
5019.0081694279
  0
LWPOLYLINE
  5
CE
330
1F
100
AcDbEntity
  8
0
  6
Continuous
 62
     7
370
    25
100
AcDbPolyline
 90
        9
 70
   128
 43
0.0
 10
6408.5404747511
 20
5025.7980687679
 10
6408.8052521161
 20
5024.3257390276
 10
6409.2963966366
 20
5022.9236443165
 10
6409.9914645822
 20
5021.6558558685
 10
6410.8586935757
 20
5020.5803075521
 10
6411.8584540322
 20
5019.7461484776
 10
6412.9450601032
 20
5019.191497041
 10
6414.0688573744
 20
5018.941699035
 10
6415.1784919127
 20
5019.0081694279
  0
LINE
  5
CF
330
1F
100
AcDbEntity
  8
0
  6
Continuous
 62
     7
370
    25
100
AcDbLine
 10
6408.5404747511
 20
5025.7980687679
 30
0.0
 11
6408.2650825506
 21
5064.1050545127
 31
0.0
  0
ARC
  5
D0
330
1F
100
AcDbEntity
  8
0
  6
Continuous
 62
     7
370
    25
100
AcDbCircle
 10
6409.3603785868
 20
5067.3431526941
 30
0.0
 40
1.791632486066083
100
AcDbArc
 50
100.358751063
 51
187.6518592351
  0
LINE
  5
D1
330
1F
100
AcDbEntity
  8
0
  6
Continuous
 62
     7
370
    25
100
AcDbLine
 10
6409.0382233647
 20
5069.1055836794
 30
0.0
 11
6490.3014641216
 21
5069.1610807448
 31
0.0
  0
LINE
  5
D2
330
1F
100
AcDbEntity
  8
0
  6
Continuous
 62
     7
370
    25
100
AcDbLine
 10
6407.5846998228
 20
5067.1045905589
 30
0.0
 11
6407.5867486109
 21
5064.1045912585
 31
0.0
  0
LINE
  5
D3
330
1F
100
AcDbEntity
  8
0
  6
Continuous
 62
     7
370
    25
100
AcDbLine
 10
6407.5867486109
 20
5064.1045912585
 30
0.0
 11
6492.3048783019
 21
5064.1624477695
 31
0.0
  0
LINE
  5
D4
330
1F
100
AcDbEntity
  8
0
  6
Continuous
 62
     7
370
    25
100
AcDbLine
 10
6401.5494360297
 20
5072.1004700651
 30
0.0
 11
6485.0494165578
 21
5072.1574946661
 31
0.0
  0
LINE
  5
D5
330
1F
100
AcDbEntity
  8
0
  6
Continuous
 62
     7
370
    25
100
AcDbLine
 10
6419.5064089177
 20
4996.9294772412
 30
0.0
 11
6419.0468757604
 21
5019.8493148993
 31
0.0
  0
LINE
  5
D6
330
1F
100
AcDbEntity
  8
0
  6
Continuous
 62
     7
370
    25
100
AcDbLine
 10
6407.5846998228
 20
5067.1045905589
 30
0.0
 11
6390.0466057393
 21
5067.0926132768
 31
0.0
  0
ARC
  5
D7
330
1F
100
AcDbEntity
  8
0
  6
Continuous
 62
     7
370
    25
100
AcDbCircle
 10
6393.1015454078
 20
5067.5785960442
 30
0.0
 40
3.093353459920836
100
AcDbArc
 50
150.6908881428
 51
189.0389274219
  0
LINE
  5
D8
330
1F
100
AcDbEntity
  8
0
  6
Continuous
 62
     7
370
    25
100
AcDbLine
 10
6390.4041676884
 20
5069.0928579328
 30
0.0
 11
6409.0382233647
 21
5069.1055836794
 31
0.0
  0
LINE
  5
D9
330
1F
100
AcDbEntity
  8
0
  6
Continuous
 62
     7
370
    25
100
AcDbLine
 10
6390.0466057393
 20
5067.0926132768
 30
0.0
 11
6390.0486545274
 21
5064.0926139764
 31
0.0
  0
LINE
  5
DA
330
1F
100
AcDbEntity
  8
0
  6
Continuous
 62
     7
370
    25
100
AcDbLine
 10
6390.0486545274
 20
5064.0926139764
 30
0.0
 11
6407.5867486109
 21
5064.1045912585
 31
0.0
  0
ARC
  5
DB
330
1F
100
AcDbEntity
  8
0
  6
Continuous
 62
     7
370
    25
100
AcDbCircle
 10
6376.6207633062
 20
5150.5001407644
 30
0.0
 40
128.7224717714282
100
AcDbArc
 50
276.5835806135
 51
284.3576035357
  0
LWPOLYLINE
  5
DC
330
1F
100
AcDbEntity
  8
0
  6
Continuous
 62
     7
370
    25
100
AcDbPolyline
 90
        6
 70
   128
 43
0.0
 10
6391.3791129744
 20
5022.6265084002
 10
6391.5532001004
 20
5021.28316242
 10
6391.8206069119
 20
5019.9429094921
 10
6392.5485752449
 20
5017.7172997719
 10
6393.4491942196
 20
5016.2758820513
 10
6394.38558288
 20
5015.8315615688
  0
ARC
  5
DD
330
1F
100
AcDbEntity
  8
0
  6
Continuous
 62
     7
370
    25
100
AcDbCircle
 10
6374.6195517798
 20
5214.8524248333
 30
0.0
 40
200.0000000000305
100
AcDbArc
 50
275.6718096185
 51
281.7004332959
  0
LINE
  5
DE
330
1F
100
AcDbEntity
  8
0
  6
Continuous
 62
     7
370
    25
100
AcDbLine
 10
6391.3791129744
 20
5022.6265084002
 30
0.0
 11
6391.289555529
 21
5064.0934614243
 31
0.0
  0
LINE
  5
DF
330
1F
100
AcDbEntity
  8
0
  6
Continuous
 62
     7
370
    25
100
AcDbLine
 10
6468.5985643215
 20
4990.1462407715
 30
0.0
 11
6425.9226022657
 21
4990.1170960975
 31
0.0
  0
ARC
  5
E0
330
1F
100
AcDbEntity
  8
0
  6
Continuous
 62
     7
370
    25
100
AcDbCircle
 10
6426.2175731351
 20
4996.8226262387
 30
0.0
 40
6.712014771170288
100
AcDbArc
 50
179.087849133
 51
267.4812286245
  0
LINE
  5
E1
330
1F
100
AcDbEntity
  8
0
  6
Continuous
 62
     7
370
    25
100
AcDbLine
 10
6319.5541295799
 20
5062.7398434809
 30
0.0
 11
6320.0391925533
 21
5011.1914342066
 31
0.0
  0
LINE
  5
E2
330
1F
100
AcDbEntity
  8
0
  6
Continuous
 62
     7
370
    25
100
AcDbLine
 10
6293.4317947868
 20
5056.7183395512
 30
0.0
 11
6293.8081704678
 21
5016.7203007239
 31
0.0
  0
LINE
  5
E3
330
1F
100
AcDbEntity
  8
0
  6
Continuous
 62
     7
370
    25
100
AcDbLine
 10
6390.0466057393
 20
5067.0926132768
 30
0.0
 11
6384.3028546991
 21
5067.0886906997
 31
0.0
  0
ARC
  5
E4
330
1F
100
AcDbEntity
  8
0
  6
Continuous
 62
     7
370
    25
100
AcDbCircle
 10
6386.3028542327
 20
5067.0900565584
 30
0.0
 40
2.000000000000034
100
AcDbArc
 50
90.0391289727
 51
180.0391289727
  0
LINE
  5
E5
330
1F
100
AcDbEntity
  8
0
  6
Continuous
 62
     7
370
    25
100
AcDbLine
 10
6386.301488374
 20
5069.0900560921
 30
0.0
 11
6390.4041676884
 21
5069.0928579328
 31
0.0
  0
LINE
  5
E6
330
1F
100
AcDbEntity
  8
0
  6
Continuous
 62
     7
370
    25
100
AcDbLine
 10
6384.3028546991
 20
5067.0886906997
 30
0.0
 11
6384.3049034871
 21
5064.0886913993
 31
0.0
  0
LINE
  5
E7
330
1F
100
AcDbEntity
  8
0
  6
Continuous
 62
     7
370
    25
100
AcDbLine
 10
6384.3049034871
 20
5064.0886913993
 30
0.0
 11
6390.0486545274
 21
5064.0926139764
 31
0.0
  0
LINE
  5
E8
330
1F
100
AcDbEntity
  8
0
  6
Continuous
 62
     7
370
    25
100
AcDbLine
 10
6349.6859470781
 20
5017.2460072091
 30
0.0
 11
6349.3095696056
 21
5057.2442364199
 31
0.0
  0
LINE
  5
E9
330
1F
100
AcDbEntity
  8
0
  6
Continuous
 62
     7
370
    25
100
AcDbLine
 10
6329.368563388
 20
5057.056594475
 30
0.0
 11
6329.7449408605
 21
5017.0583652642
 31
0.0
  0
ARC
  5
EA
330
1F
100
AcDbEntity
  8
0
  6
Continuous
 62
     7
370
    25
100
AcDbCircle
 10
6389.9788421541
 20
5066.3656601644
 30
0.0
 40
43.76156024897596
100
AcDbArc
 50
265.6980167642
 51
271.8336481747
  0
LWPOLYLINE
  5
EB
330
1F
100
AcDbEntity
  8
0
  6
Continuous
 62
     7
370
    25
100
AcDbPolyline
 90
       11
 70
   128
 43
0.0
 10
6386.4122627266
 20
5052.6807715401
 10
6386.5709548864
 20
5050.6367621691
 10
6386.9365190176
 20
5048.4448071916
 10
6387.6502251497
 20
5045.0302275288
 10
6388.3255046981
 20
5041.4151037181
 10
6388.6003212488
 20
5038.8812263218
 10
6388.6280814448
 20
5036.2818078902
 10
6388.0134221375
 20
5031.280089452
 10
6387.3651059125
 20
5027.9194761658
 10
6386.8298381142
 20
5024.6458167542
 10
6386.6961497803
 20
5022.7273923596
  0
LINE
  5
EC
330
1F
100
AcDbEntity
  8
0
  6
Continuous
 62
     7
370
    25
100
AcDbLine
 10
6386.4122627266
 20
5052.6807715401
 30
0.0
 11
6386.3049030208
 21
5064.090057258
 31
0.0
  0
ARC
  5
ED
330
1F
100
AcDbEntity
  8
0
  6
Continuous
 62
     7
370
    25
100
AcDbCircle
 10
6393.6937717915
 20
5022.797291783
 30
0.0
 40
6.999999999998988
100
AcDbArc
 50
181.9540745396
 51
275.6718096185
  0
LWPOLYLINE
  5
EE
330
1F
100
AcDbEntity
  8
0
  6
Continuous
 62
     7
370
    25
100
AcDbPolyline
 90
        4
 70
   128
 43
0.0
 10
6386.6961584559
 20
5022.7273965476
 10
6386.6961578191
 20
5022.727351293
 10
6386.6978455191
 20
5022.5586847706
 10
6386.6978470469
 20
5022.5586400664
  0
LWPOLYLINE
  5
EF
330
1F
100
AcDbEntity
  8
0
  6
Continuous
 62
     7
370
    25
100
AcDbPolyline
 90
       12
 70
   128
 43
0.0
 10
6384.684240947
 20
5024.0600695044
 10
6384.8732228445
 20
5025.8043006797
 10
6385.5912141597
 20
5028.7115002435
 10
6386.4980501821
 20
5031.8371664852
 10
6387.0313763137
 20
5034.0703384458
 10
6387.3431296083
 20
5036.3850831077
 10
6387.3082245338
 20
5038.7375291177
 10
6386.9517729629
 20
5041.0513606372
 10
6386.0563904427
 20
5044.3500049076
 10
6385.1111028693
 20
5047.4401929676
 10
6384.6286561382
 20
5049.4359267022
 10
6384.4252572681
 20
5051.2904114145
  0
ARC
  5
F0
330
1F
100
AcDbEntity
  8
0
  6
Continuous
 62
     7
370
    25
100
AcDbCircle
 10
6384.6735443656
 20
5053.0506015425
 30
0.0
 40
1.777615191624197
100
AcDbArc
 50
261.9710021197
 51
347.9919918358
  0
ARC
  5
F1
330
1F
100
AcDbEntity
  8
0
  6
Continuous
 62
     7
370
    25
100
AcDbCircle
 10
6384.9383546504
 20
5022.2586961052
 30
0.0
 40
1.819208590989827
100
AcDbArc
 50
14.9299225826
 51
98.0295410886
  0
LINE
  5
F2
330
1F
100
AcDbEntity
  8
0
  6
Continuous
 62
     7
370
    25
100
AcDbLine
 10
6384.6861096905
 20
5023.8616711727
 30
0.0
 11
6384.6842580115
 21
5024.0600694126
 31
0.0
  0
LINE
  5
F3
330
1F
100
AcDbEntity
  8
0
  6
Continuous
 62
     7
370
    25
100
AcDbLine
 10
6385.0869910202
 20
5021.7050542721
 30
0.0
 11
6384.6861038088
 21
5023.8616710326
 31
0.0
  0
LINE
  5
F4
330
1F
100
AcDbEntity
  8
0
  6
Continuous
 62
     7
370
    25
100
AcDbLine
 10
6224.8808702038
 20
5056.0732854015
 30
0.0
 11
6225.2572458848
 21
5016.0752465742
 31
0.0
  0
LINE
  5
F5
330
1F
100
AcDbEntity
  8
0
  6
Continuous
 62
     7
370
    25
100
AcDbLine
 10
6221.3953564649
 20
5055.7551753963
 30
0.0
 11
6221.7663631363
 21
5016.3277097114
 31
0.0
  0
LINE
  5
F6
330
1F
100
AcDbEntity
  8
0
  6
Continuous
 62
     7
370
    25
100
AcDbLine
 10
6221.3968690066
 20
5053.5403907818
 30
0.0
 11
6221.7261975036
 21
5018.5421306059
 31
0.0
  0
ARC
  5
F7
330
1F
100
AcDbEntity
  8
0
  6
Continuous
 62
     7
370
    25
100
AcDbCircle
 10
6384.987274185
 20
5022.1222285568
 30
0.0
 40
1.765353851703787
100
AcDbArc
 50
14.3115279969
 51
99.8227774322
  0
ARC
  5
F8
330
1F
100
AcDbEntity
  8
0
  6
Continuous
 62
     7
370
    25
100
AcDbCircle
 10
6385.4476410254
 20
5020.0422808698
 30
0.0
 40
1.701435809420905
100
AcDbArc
 50
23.2225860219
 51
102.2377091055
  0
LINE
  5
F9
330
1F
100
AcDbEntity
  8
0
  6
Continuous
 62
     7
370
    25
100
AcDbLine
 10
6795.662310225
 20
4980.1695998773
 30
0.0
 11
6795.6670907305
 21
4973.1696015097
 31
0.0
  0
LINE
  5
FA
330
1F
100
AcDbEntity
  8
0
  6
Continuous
 62
     7
370
    25
100
AcDbLine
 10
6795.662310225
 20
4980.1695998773
 30
0.0
 11
6804.1623082429
 21
4980.1754047768
 31
0.0
  0
LINE
  5
FB
330
1F
100
AcDbEntity
  8
0
  6
Continuous
 62
     7
370
    25
100
AcDbLine
 10
6804.1623082429
 20
4980.1754047768
 30
0.0
 11
6804.1670887483
 21
4973.1754064092
 31
0.0
  0
LINE
  5
FC
330
1F
100
AcDbEntity
  8
0
  6
Continuous
 62
     7
370
    25
100
AcDbLine
 10
6795.6670907305
 20
4973.1696015097
 30
0.0
 11
6804.1670887483
 21
4973.1754064092
 31
0.0
  0
LINE
  5
FD
330
1F
100
AcDbEntity
  8
0
  6
Continuous
 62
     7
370
    25
100
AcDbLine
 10
6787.1623122072
 20
4980.1637949778
 30
0.0
 11
6787.1670927127
 21
4973.1637966102
 31
0.0
  0
LINE
  5
FE
330
1F
100
AcDbEntity
  8
0
  6
Continuous
 62
     7
370
    25
100
AcDbLine
 10
6787.1623122072
 20
4980.1637949778
 30
0.0
 11
6795.662310225
 21
4980.1695998773
 31
0.0
  0
LINE
  5
FF
330
1F
100
AcDbEntity
  8
0
  6
Continuous
 62
     7
370
    25
100
AcDbLine
 10
6787.1670927127
 20
4973.1637966102
 30
0.0
 11
6795.6670907305
 21
4973.1696015097
 31
0.0
  0
LINE
  5
100
330
1F
100
AcDbEntity
  8
0
  6
Continuous
 62
     7
370
    25
100
AcDbLine
 10
6795.6076758768
 20
5060.1695812216
 30
0.0
 11
6799.607674944
 21
5060.172312939
 31
0.0
  0
LINE
  5
101
330
1F
100
AcDbEntity
  8
0
  6
Continuous
 62
     7
370
    25
100
AcDbLine
 10
6791.6076768096
 20
5060.1668495042
 30
0.0
 11
6795.6076758768
 21
5060.1695812216
 31
0.0
  0
LINE
  5
102
330
1F
100
AcDbEntity
  8
0
  6
Continuous
 62
     7
370
    25
100
AcDbLine
 10
6082.5624765173
 20
4979.6826029557
 30
0.0
 11
6082.5658911641
 21
4974.6826041217
 31
0.0
  0
LINE
  5
103
330
1F
100
AcDbEntity
  8
0
  6
Continuous
 62
     7
370
    25
100
AcDbLine
 10
6082.5624765173
 20
4979.6826029557
 30
0.0
 11
6086.0624757011
 21
4979.6849932085
 31
0.0
  0
LINE
  5
104
330
1F
100
AcDbEntity
  8
0
  6
Continuous
 62
     7
370
    25
100
AcDbLine
 10
6099.562472553
 20
4979.6942127547
 30
0.0
 11
6099.5658871997
 21
4974.6942139207
 31
0.0
  0
LINE
  5
105
330
1F
100
AcDbEntity
  8
0
  6
Continuous
 62
     7
370
    25
100
AcDbLine
 10
6096.0624733692
 20
4979.691822502
 30
0.0
 11
6099.562472553
 21
4979.6942127547
 31
0.0
  0
LINE
  5
106
330
1F
100
AcDbEntity
  8
0
  6
Continuous
 62
     7
370
    25
100
AcDbLine
 10
6077.0658924466
 20
4974.6788480103
 30
0.0
 11
6077.0672583054
 21
4972.6788484767
 31
0.0
  0
LINE
  5
107
330
1F
100
AcDbEntity
  8
0
  6
Continuous
 62
     7
370
    25
100
AcDbLine
 10
6077.0658924466
 20
4974.6788480103
 30
0.0
 11
6127.0658807868
 21
4974.7129944779
 31
0.0
  0
LINE
  5
108
330
1F
100
AcDbEntity
  8
0
  6
Continuous
 62
     7
370
    25
100
AcDbLine
 10
6127.0658807868
 20
4974.7129944779
 30
0.0
 11
6127.0672466455
 21
4972.7129949443
 31
0.0
  0
LINE
  5
109
330
1F
100
AcDbEntity
  8
0
  6
Continuous
 62
     7
370
    25
100
AcDbLine
 10
6077.0672583054
 20
4972.6788484767
 30
0.0
 11
6127.0672466455
 21
4972.7129949443
 31
0.0
  0
LINE
  5
10A
330
1F
100
AcDbEntity
  8
0
  6
Continuous
 62
     7
370
    25
100
AcDbLine
 10
6087.0078411197
 20
5059.6856574821
 30
0.0
 11
6095.0078392541
 21
5059.6911209169
 31
0.0
  0
LINE
  5
10B
330
1F
100
AcDbEntity
  8
0
  6
Continuous
 62
     7
370
    25
100
AcDbLine
 10
6759.6657332669
 20
4975.1450155866
 30
0.0
 11
6759.6670991256
 21
4973.145016053
 31
0.0
  0
LINE
  5
10C
330
1F
100
AcDbEntity
  8
0
  6
Continuous
 62
     7
370
    25
100
AcDbLine
 10
6809.6657216071
 20
4975.1791620543
 30
0.0
 11
6809.6670874658
 21
4973.1791625207
 31
0.0
  0
LINE
  5
10D
330
1F
100
AcDbEntity
  8
0
  6
Continuous
 62
     7
370
    25
100
AcDbLine
 10
6759.6657332669
 20
4975.1450155866
 30
0.0
 11
6787.165726854
 21
4975.1637961438
 31
0.0
  0
LINE
  5
10E
330
1F
100
AcDbEntity
  8
0
  6
Continuous
 62
     7
370
    25
100
AcDbLine
 10
6804.1657228896
 20
4975.1754059428
 30
0.0
 11
6809.6657216071
 21
4975.1791620543
 31
0.0
  0
LINE
  5
10F
330
1F
100
AcDbEntity
  8
0
  6
Continuous
 62
     7
370
    25
100
AcDbLine
 10
6759.6670991256
 20
4973.145016053
 30
0.0
 11
6787.1670927127
 21
4973.1637966102
 31
0.0
  0
LINE
  5
110
330
1F
100
AcDbEntity
  8
0
  6
Continuous
 62
     7
370
    25
100
AcDbLine
 10
6804.1670887483
 20
4973.1754064092
 30
0.0
 11
6809.6670874658
 21
4973.1791625207
 31
0.0
  0
LINE
  5
111
330
1F
100
AcDbEntity
  8
0
  6
Continuous
 62
     7
370
    25
100
AcDbLine
 10
6795.6083588062
 20
5059.1695814548
 30
0.0
 11
6795.6131393116
 21
5052.1695830872
 31
0.0
  0
LINE
  5
112
330
1F
100
AcDbEntity
  8
0
  6
Continuous
 62
     7
370
    25
100
AcDbLine
 10
6804.108356824
 20
5059.1753863543
 30
0.0
 11
6804.1131373295
 21
5052.1753879867
 31
0.0
  0
LINE
  5
113
330
1F
100
AcDbEntity
  8
0
  6
Continuous
 62
     7
370
    25
100
AcDbLine
 10
6795.6131393116
 20
5052.1695830872
 30
0.0
 11
6797.6451160033
 21
5052.1709707841
 31
0.0
  0
LINE
  5
114
330
1F
100
AcDbEntity
  8
0
  6
Continuous
 62
     7
370
    25
100
AcDbLine
 10
6795.6083588062
 20
5059.1695814548
 30
0.0
 11
6804.108356824
 21
5059.1753863543
 31
0.0
  0
LINE
  5
115
330
1F
100
AcDbEntity
  8
0
  6
Continuous
 62
     7
370
    25
100
AcDbLine
 10
6787.1083607883
 20
5059.1637765553
 30
0.0
 11
6787.1131412938
 21
5052.1637781877
 31
0.0
  0
LINE
  5
116
330
1F
100
AcDbEntity
  8
0
  6
Continuous
 62
     7
370
    25
100
AcDbLine
 10
6793.58116262
 20
5052.1681953904
 30
0.0
 11
6795.6131393116
 21
5052.1695830872
 31
0.0
  0
LINE
  5
117
330
1F
100
AcDbEntity
  8
0
  6
Continuous
 62
     7
370
    25
100
AcDbLine
 10
6787.1083607883
 20
5059.1637765553
 30
0.0
 11
6795.6083588062
 21
5059.1695814548
 31
0.0
  0
LINE
  5
118
330
1F
100
AcDbEntity
  8
0
  6
Continuous
 62
     7
370
    25
100
AcDbLine
 10
6091.0085231162
 20
5058.6883894327
 30
0.0
 11
6091.0133036217
 21
5051.6883910651
 31
0.0
  0
LINE
  5
119
330
1F
100
AcDbEntity
  8
0
  6
Continuous
 62
     7
370
    25
100
AcDbLine
 10
6099.5085211341
 20
5058.6941943322
 30
0.0
 11
6099.5133016395
 21
5051.6941959646
 31
0.0
  0
LINE
  5
11A
330
1F
100
AcDbEntity
  8
0
  6
Continuous
 62
     7
370
    25
100
AcDbLine
 10
6093.0452803134
 20
5051.6897787619
 30
0.0
 11
6091.0133036217
 21
5051.6883910651
 31
0.0
  0
LINE
  5
11B
330
1F
100
AcDbEntity
  8
0
  6
Continuous
 62
     7
370
    25
100
AcDbLine
 10
6099.5085211341
 20
5058.6941943322
 30
0.0
 11
6091.0085231162
 21
5058.6883894327
 31
0.0
  0
LINE
  5
11C
330
1F
100
AcDbEntity
  8
0
  6
Continuous
 62
     7
370
    25
100
AcDbLine
 10
6082.5085250984
 20
5058.6825845332
 30
0.0
 11
6082.5133056039
 21
5051.6825861656
 31
0.0
  0
LINE
  5
11D
330
1F
100
AcDbEntity
  8
0
  6
Continuous
 62
     7
370
    25
100
AcDbLine
 10
6091.0133036217
 20
5051.6883910651
 30
0.0
 11
6088.9813269301
 21
5051.6870033682
 31
0.0
  0
LINE
  5
11E
330
1F
100
AcDbEntity
  8
0
  6
Continuous
 62
     7
370
    25
100
AcDbLine
 10
6091.0085231162
 20
5058.6883894327
 30
0.0
 11
6082.5085250984
 21
5058.6825845332
 31
0.0
  0
LINE
  5
11F
330
1F
100
AcDbEntity
  8
0
  6
Continuous
 62
     7
370
    25
100
AcDbLine
 10
6785.6131416436
 20
5052.1627537937
 30
0.0
 11
6785.6145075023
 21
5050.1627542601
 31
0.0
  0
LINE
  5
120
330
1F
100
AcDbEntity
  8
0
  6
Continuous
 62
     7
370
    25
100
AcDbLine
 10
6805.6131369797
 20
5052.1764123807
 30
0.0
 11
6805.6145028384
 21
5050.1764128471
 31
0.0
  0
LINE
  5
121
330
1F
100
AcDbEntity
  8
0
  6
Continuous
 62
     7
370
    25
100
AcDbLine
 10
6797.6451160033
 20
5052.1709707841
 30
0.0
 11
6805.6131369797
 21
5052.1764123807
 31
0.0
  0
LINE
  5
122
330
1F
100
AcDbEntity
  8
0
  6
Continuous
 62
     7
370
    25
100
AcDbLine
 10
6785.6131416436
 20
5052.1627537937
 30
0.0
 11
6793.58116262
 21
5052.1681953904
 31
0.0
  0
LINE
  5
123
330
1F
100
AcDbEntity
  8
0
  6
Continuous
 62
     7
370
    25
100
AcDbLine
 10
6785.6145075023
 20
5050.1627542601
 30
0.0
 11
6805.6145028384
 21
5050.1764128471
 31
0.0
  0
LINE
  5
124
330
1F
100
AcDbEntity
  8
0
  6
Continuous
 62
     7
370
    25
100
AcDbLine
 10
6088.9813269301
 20
5051.6870033682
 30
0.0
 11
6081.0133059537
 21
5051.6815617716
 31
0.0
  0
LINE
  5
125
330
1F
100
AcDbEntity
  8
0
  6
Continuous
 62
     7
370
    25
100
AcDbLine
 10
6101.0133012898
 20
5051.6952203586
 30
0.0
 11
6093.0452803134
 21
5051.6897787619
 31
0.0
  0
LINE
  5
126
330
1F
100
AcDbEntity
  8
0
  6
Continuous
 62
     7
370
    25
100
AcDbLine
 10
6101.0133012898
 20
5051.6952203586
 30
0.0
 11
6101.0146671485
 21
5049.695220825
 31
0.0
  0
LINE
  5
127
330
1F
100
AcDbEntity
  8
0
  6
Continuous
 62
     7
370
    25
100
AcDbLine
 10
6101.0146671485
 20
5049.695220825
 30
0.0
 11
6081.0146718124
 21
5049.681562238
 31
0.0
  0
LINE
  5
128
330
1F
100
AcDbEntity
  8
0
  6
Continuous
 62
     7
370
    25
100
AcDbLine
 10
6081.0133059537
 20
5051.6815617716
 30
0.0
 11
6081.0146718124
 21
5049.681562238
 31
0.0
  0
LINE
  5
129
330
1F
100
AcDbEntity
  8
0
  6
Continuous
 62
     7
370
    25
100
AcDbLine
 10
6785.6129709891
 20
5052.412639753
 30
0.0
 11
6785.6131416436
 21
5052.1627537937
 31
0.0
  0
LINE
  5
12A
330
1F
100
AcDbEntity
  8
0
  6
Continuous
 62
     7
370
    25
100
AcDbLine
 10
6805.6129663252
 20
5052.4262983401
 30
0.0
 11
6805.6131369797
 21
5052.1764123807
 31
0.0
  0
LINE
  5
12B
330
1F
100
AcDbEntity
  8
0
  6
Continuous
 62
     7
370
    25
100
AcDbLine
 10
6081.0131352992
 20
5051.9314477309
 30
0.0
 11
6081.0133059537
 21
5051.6815617716
 31
0.0
  0
LINE
  5
12C
330
1F
100
AcDbEntity
  8
0
  6
Continuous
 62
     7
370
    25
100
AcDbLine
 10
6101.0131306353
 20
5051.945106318
 30
0.0
 11
6101.0133012898
 21
5051.6952203586
 31
0.0
  0
LINE
  5
12D
330
1F
100
AcDbEntity
  8
0
  6
Continuous
 62
     7
370
    25
100
AcDbLine
 10
6785.5967169591
 20
5076.2130901324
 30
0.0
 11
6805.5967122952
 21
5076.2267487195
 31
0.0
  0
LINE
  5
12E
330
1F
100
AcDbEntity
  8
0
  6
Continuous
 62
     7
370
    25
100
AcDbLine
 10
6785.5967169591
 20
5076.2130901324
 30
0.0
 11
6785.6129709891
 21
5052.412639753
 31
0.0
  0
LINE
  5
12F
330
1F
100
AcDbEntity
  8
0
  6
Continuous
 62
     7
370
    25
100
AcDbLine
 10
6805.5967122952
 20
5076.2267487195
 30
0.0
 11
6805.6129663252
 21
5052.4262983401
 31
0.0
  0
LINE
  5
130
330
1F
100
AcDbEntity
  8
0
  6
Continuous
 62
     7
370
    25
100
AcDbLine
 10
6100.9968766053
 20
5075.7455566974
 30
0.0
 11
6080.9968812692
 21
5075.7318981103
 31
0.0
  0
LINE
  5
131
330
1F
100
AcDbEntity
  8
0
  6
Continuous
 62
     7
370
    25
100
AcDbLine
 10
6080.9968812692
 20
5075.7318981103
 30
0.0
 11
6081.0131352992
 21
5051.9314477309
 31
0.0
  0
LINE
  5
132
330
1F
100
AcDbEntity
  8
0
  6
Continuous
 62
     7
370
    25
100
AcDbLine
 10
6100.9968766053
 20
5075.7455566974
 30
0.0
 11
6101.0131306353
 21
5051.945106318
 31
0.0
  0
LINE
  5
133
330
1F
100
AcDbEntity
  8
0
  6
Continuous
 62
     7
370
    25
100
AcDbLine
 10
6040.9955591184
 20
5077.6542385343
 30
0.0
 11
6040.9963786336
 21
5076.4542388142
 31
0.0
  0
LINE
  5
134
330
1F
100
AcDbEntity
  8
0
  6
Continuous
 62
     7
370
    25
100
AcDbLine
 10
6040.9955591184
 20
5077.6542385343
 30
0.0
 11
6845.5953714886
 21
5078.2037234917
 31
0.0
  0
LINE
  5
135
330
1F
100
AcDbEntity
  8
0
  6
Continuous
 62
     7
370
    25
100
AcDbLine
 10
6845.5953714886
 20
5078.2037234917
 30
0.0
 11
6845.5961910039
 21
5077.0037237716
 31
0.0
  0
LINE
  5
136
330
1F
100
AcDbEntity
  8
0
  6
Continuous
 62
     7
370
    25
100
AcDbLine
 10
6040.9963786336
 20
5076.4542388142
 30
0.0
 11
6845.5961910039
 21
5077.0037237716
 31
0.0
  0
LINE
  5
137
330
1F
100
AcDbEntity
  8
0
  6
Continuous
 62
     7
370
    25
100
AcDbLine
 10
6818.2491075017
 20
5092.1335098423
 30
0.0
 11
6813.8858530691
 21
5092.1305300471
 31
0.0
  0
ARC
  5
138
330
1F
100
AcDbEntity
  8
0
  6
Continuous
 62
     7
370
    25
100
AcDbCircle
 10
6816.5856123616
 20
5092.4839152058
 30
0.0
 40
1.699999999999303
100
AcDbArc
 50
348.1048823995
 51
90.0391289727
  0
LINE
  5
139
330
1F
100
AcDbEntity
  8
0
  6
Continuous
 62
     7
370
    25
100
AcDbLine
 10
6813.8858530691
 20
5092.1305300471
 30
0.0
 11
6072.6860259142
 21
5091.6243428107
 31
0.0
  0
LINE
  5
13A
330
1F
100
AcDbEntity
  8
0
  6
Continuous
 62
     7
370
    25
100
AcDbLine
 10
6072.6860259142
 20
5091.6243428107
 30
0.0
 11
6068.3227714816
 21
5091.6213630155
 31
0.0
  0
ARC
  5
13B
330
1F
100
AcDbEntity
  8
0
  6
Continuous
 62
     7
370
    25
100
AcDbCircle
 10
6069.9857864659
 20
5091.9740401509
 30
0.0
 40
1.700000000000211
100
AcDbArc
 50
90.0391289727
 51
191.9733755459
  0
LINE
  5
13C
330
1F
100
AcDbEntity
  8
0
  6
Continuous
 62
     7
370
    25
100
AcDbLine
 10
6813.8887261924
 20
5087.923473125
 30
0.0
 11
6072.6888990375
 21
5087.4172858886
 31
0.0
  0
LINE
  5
13D
330
1F
100
AcDbEntity
  8
0
  6
Continuous
 62
     7
370
    25
100
AcDbLine
 10
6072.6860259142
 20
5091.6243428107
 30
0.0
 11
6072.6888990375
 21
5087.4172858886
 31
0.0
  0
LINE
  5
13E
330
1F
100
AcDbEntity
  8
0
  6
Continuous
 62
     7
370
    25
100
AcDbLine
 10
6813.8858530691
 20
5092.1305300471
 30
0.0
 11
6813.8887261924
 21
5087.923473125
 31
0.0
  0
LINE
  5
13F
330
1F
100
AcDbEntity
  8
0
  6
Continuous
 62
     7
370
    25
100
AcDbLine
 10
6817.362788053
 20
5087.9258456644
 30
0.0
 11
6813.8887261924
 21
5087.923473125
 31
0.0
  0
LINE
  5
140
330
1F
100
AcDbEntity
  8
0
  6
Continuous
 62
     7
370
    25
100
AcDbLine
 10
6818.2491075017
 20
5092.1335098423
 30
0.0
 11
6817.362788053
 21
5087.9258456644
 31
0.0
  0
LINE
  5
141
330
1F
100
AcDbEntity
  8
0
  6
Continuous
 62
     7
370
    25
100
AcDbLine
 10
6072.6888990375
 20
5087.4172858886
 30
0.0
 11
6069.214837177
 21
5087.4149133492
 31
0.0
  0
LINE
  5
142
330
1F
100
AcDbEntity
  8
0
  6
Continuous
 62
     7
370
    25
100
AcDbLine
 10
6068.3227714816
 20
5091.6213630155
 30
0.0
 11
6069.214837177
 21
5087.4149133492
 31
0.0
  0
LINE
  5
143
330
1F
100
AcDbEntity
  8
0
  6
Continuous
 62
     7
370
    25
100
AcDbLine
 10
6816.0887256794
 20
5087.9249755696
 30
0.0
 11
6816.0953783679
 21
5078.1835770758
 31
0.0
  0
LINE
  5
144
330
1F
100
AcDbEntity
  8
0
  6
Continuous
 62
     7
370
    25
100
AcDbLine
 10
6070.4888995505
 20
5087.415783444
 30
0.0
 11
6070.4955522391
 21
5077.6743849503
 31
0.0
  0
LINE
  5
145
330
1F
100
AcDbEntity
  8
0
  6
Continuous
 62
     7
370
    25
100
AcDbLine
 10
6785.5962049956
 20
5076.9627480104
 30
0.0
 11
6785.5967169591
 21
5076.2130901324
 31
0.0
  0
LINE
  5
146
330
1F
100
AcDbEntity
  8
0
  6
Continuous
 62
     7
370
    25
100
AcDbLine
 10
6805.5962003317
 20
5076.9764065975
 30
0.0
 11
6805.5967122952
 21
5076.2267487195
 31
0.0
  0
LINE
  5
147
330
1F
100
AcDbEntity
  8
0
  6
Continuous
 62
     7
370
    25
100
AcDbLine
 10
6080.9963693057
 20
5076.4815559883
 30
0.0
 11
6080.9968812692
 21
5075.7318981103
 31
0.0
  0
LINE
  5
148
330
1F
100
AcDbEntity
  8
0
  6
Continuous
 62
     7
370
    25
100
AcDbLine
 10
6100.9963646418
 20
5076.4952145754
 30
0.0
 11
6100.9968766053
 21
5075.7455566974
 31
0.0
  0
LINE
  5
149
330
1F
100
AcDbEntity
  8
0
  6
Continuous
 62
     8
370
    25
100
AcDbLine
 10
6403.996851694
 20
5072.6258155259
 30
0.0
 11
6482.6012856289
 21
5072.6794968136
 31
0.0
  0
LINE
  5
14A
330
1F
100
AcDbEntity
  8
0
  6
Continuous
 62
     8
370
    25
100
AcDbLine
 10
6404.2356801861
 20
5073.0401317933
 30
0.0
 11
6482.3618914622
 21
5073.0934864887
 31
0.0
  0
LWPOLYLINE
  5
14B
330
1F
100
AcDbEntity
  8
0
  6
Continuous
 62
     8
370
    25
100
AcDbPolyline
 90
       21
 70
   128
 43
0.0
 10
6408.5404747511
 20
5025.7980687679
 10
6414.1300700304
 20
5026.8449948211
 10
6420.6723897532
 20
5028.23146116
 10
6427.5476259883
 20
5029.8798748701
 10
6434.9683106488
 20
5031.8852925572
 10
6442.5017324219
 20
5034.1694019047
 10
6450.1753719972
 20
5036.7632205544
 10
6457.8818890092
 20
5039.6517475765
 10
6461.6743852187
 20
5041.1820219629
 10
6465.3263928313
 20
5042.7255624364
 10
6468.9543966448
 20
5044.3292399063
 10
6472.3830215989
 20
5045.9105812036
 10
6475.6826833551
 20
5047.4949721822
 10
6478.718859803
 20
5049.0082060664
 10
6481.3809562939
 20
5050.3801547624
 10
6483.7441946729
 20
5051.6341366414
 10
6485.852063432
 20
5052.782018281
 10
6487.57843539
 20
5053.7432353589
 10
6489.3155379484
 20
5054.729937952
 10
6490.1666642701
 20
5055.2206510049
 10
6490.1227025626
 20
5055.1951978077
  0
LINE
  5
14C
330
1F
100
AcDbEntity
  8
0
  6
Continuous
 62
     8
370
    25
100
AcDbLine
 10
6492.3028295139
 20
5067.1624470699
 30
0.0
 11
6407.5846998228
 21
5067.1045905589
 31
0.0
  0
LINE
  5
14D
330
1F
100
AcDbEntity
  8
0
  6
Continuous
 62
     8
370
    25
100
AcDbLine
 10
6419.5064089177
 20
4996.9294772412
 30
0.0
 11
6475.5915085981
 21
4996.967779411
 31
0.0
  0
LINE
  5
14E
330
1F
100
AcDbEntity
  8
0
  6
Continuous
 62
     8
370
    25
100
AcDbLine
 10
6376.7335498152
 20
5010.987796787
 30
0.0
 11
6376.2346156311
 21
5064.0103215535
 31
0.0
  0
LINE
  5
14F
330
1F
100
AcDbEntity
  8
0
  6
Continuous
 62
     8
370
    25
100
AcDbLine
 10
6351.235222294
 20
5063.113460557
 30
0.0
 11
6351.7217060792
 21
5011.4140593751
 31
0.0
  0
LINE
  5
150
330
1F
100
AcDbEntity
  8
0
  6
Continuous
 62
     8
370
    25
100
AcDbLine
 10
6349.7561149033
 20
5013.3774985385
 30
0.0
 11
6349.3069272529
 21
5061.1133804952
 31
0.0
  0
LINE
  5
151
330
1F
100
AcDbEntity
  8
0
  6
Continuous
 62
     8
370
    25
100
AcDbLine
 10
6327.7275520199
 20
5060.2554745262
 30
0.0
 11
6328.1644167289
 21
5013.8291710364
 31
0.0
  0
LINE
  5
152
330
1F
100
AcDbEntity
  8
0
  6
Continuous
 62
     8
370
    25
100
AcDbLine
 10
6327.4827075947
 20
5060.0551492516
 30
0.0
 11
6327.9158459304
 21
5014.024853346
 31
0.0
  0
LINE
  5
153
330
1F
100
AcDbEntity
  8
0
  6
Continuous
 62
     8
370
    25
100
AcDbLine
 10
6328.5653704518
 20
5060.2560466971
 30
0.0
 11
6329.0020975713
 21
5013.844365068
 31
0.0
  0
LINE
  5
154
330
1F
100
AcDbEntity
  8
0
  6
Continuous
 62
     8
370
    25
100
AcDbLine
 10
6328.8113237402
 20
5060.0517734995
 30
0.0
 11
6329.2441632862
 21
5014.0532304528
 31
0.0
  0
LINE
  5
155
330
1F
100
AcDbEntity
  8
0
  6
Continuous
 62
     8
370
    25
100
AcDbLine
 10
6327.0679122795
 20
5058.0092142638
 30
0.0
 11
6327.4626235775
 21
5016.0626204148
 31
0.0
  0
LINE
  5
156
330
1F
100
AcDbEntity
  8
0
  6
Continuous
 62
     8
370
    25
100
AcDbLine
 10
6324.7836931235
 20
5057.0474228893
 30
0.0
 11
6325.1607098706
 21
5016.9812569515
 31
0.0
  0
ARC
  5
157
330
1F
100
AcDbEntity
  8
0
  6
Continuous
 62
     8
370
    25
100
AcDbCircle
 10
6419.3035059805
 20
4992.4360687104
 30
0.0
 40
4.497987308395027
100
AcDbArc
 50
87.4145262023
 51
107.477098399
  0
LINE
  5
158
330
1F
100
AcDbEntity
  8
0
  6
Continuous
 62
     8
370
    25
100
AcDbLine
 10
6384.4252572681
 20
5051.2904114145
 30
0.0
 11
6384.3661285528
 21
5057.5741134997
 31
0.0
  0
LWPOLYLINE
  5
159
330
1F
100
AcDbEntity
  8
0
  6
Continuous
 62
     8
370
    25
100
AcDbPolyline
 90
        6
 70
   128
 43
0.0
 10
6385.9672540805
 20
5017.6425551437
 10
6385.9732573145
 20
5017.6069337286
 10
6385.9108001667
 20
5017.97596028
 10
6385.7609149275
 20
5018.8308628701
 10
6385.5203578913
 20
5020.0598485176
 10
6385.0869910202
 20
5021.7050542721
  0
ARC
  5
15A
330
1F
100
AcDbEntity
  8
0
  6
Continuous
 62
     8
370
    25
100
AcDbCircle
 10
6373.2023809451
 20
5018.0093827927
 30
0.0
 40
14.07105711218761
100
AcDbArc
 50
356.7744677051
 51
11.0783975128
  0
LINE
  5
15B
330
1F
100
AcDbEntity
  8
0
  6
Continuous
 62
     8
370
    25
100
AcDbLine
 10
6785.6129709891
 20
5052.412639753
 30
0.0
 11
6787.1129706393
 21
5052.413664147
 31
0.0
  0
LINE
  5
15C
330
1F
100
AcDbEntity
  8
0
  6
Continuous
 62
     8
370
    25
100
AcDbLine
 10
6804.112966675
 20
5052.425273946
 30
0.0
 11
6805.6129663252
 21
5052.4262983401
 31
0.0
  0
LINE
  5
15D
330
1F
100
AcDbEntity
  8
0
  6
Continuous
 62
     8
370
    25
100
AcDbLine
 10
6101.0131306353
 20
5051.945106318
 30
0.0
 11
6099.5131309851
 21
5051.9440819239
 31
0.0
  0
LINE
  5
15E
330
1F
100
AcDbEntity
  8
0
  6
Continuous
 62
     8
370
    25
100
AcDbLine
 10
6082.5131349494
 20
5051.9324721249
 30
0.0
 11
6081.0131352992
 21
5051.9314477309
 31
0.0
  0
LINE
  5
15F
330
1F
100
AcDbEntity
  8
0
  6
Continuous
 62
     8
370
    25
100
AcDbLine
 10
6813.8844520113
 20
5094.1820709001
 30
0.0
 11
6813.8858530691
 21
5092.1305300471
 31
0.0
  0
LINE
  5
160
330
1F
100
AcDbEntity
  8
0
  6
Continuous
 62
     8
370
    25
100
AcDbLine
 10
6072.6846248564
 20
5093.6758836637
 30
0.0
 11
6072.6860259142
 21
5091.6243428107
 31
0.0
  0
LINE
  5
161
330
1F
100
AcDbEntity
  8
0
  6
Continuous
 62
     8
370
    25
100
AcDbLine
 10
6072.6888990375
 20
5087.4172858886
 30
0.0
 11
6072.695551726
 21
5077.6758873948
 31
0.0
  0
LINE
  5
162
330
1F
100
AcDbEntity
  8
0
  6
Continuous
 62
     8
370
    25
100
AcDbLine
 10
6813.8887261924
 20
5087.923473125
 30
0.0
 11
6813.895378881
 21
5078.1820746313
 31
0.0
  0
LINE
  5
163
330
1F
100
AcDbEntity
  8
0
  6
Continuous
 62
     7
370
    25
100
AcDbLine
 10
7113.6065793921
 20
5074.4815564547
 30
0.0
 11
7113.6065793921
 21
5074.1333456644
 31
0.0
  0
LINE
  5
164
330
1F
100
AcDbEntity
  8
0
  6
Continuous
 62
     7
370
    25
100
AcDbLine
 10
7180.1065793921
 20
5074.1333456644
 30
0.0
 11
7180.1065793921
 21
5074.4815564547
 31
0.0
  0
LINE
  5
165
330
1F
100
AcDbEntity
  8
0
  6
Continuous
 62
     7
370
    25
100
AcDbLine
 10
7106.8565793921
 20
5072.6252714022
 30
0.0
 11
7106.8565793921
 21
5072.1289823656
 31
0.0
  0
LINE
  5
166
330
1F
100
AcDbEntity
  8
0
  6
Continuous
 62
     7
370
    25
100
AcDbLine
 10
7186.8565793921
 20
5072.1289823656
 30
0.0
 11
7186.8565793921
 21
5072.6252714022
 31
0.0
  0
LINE
  5
167
330
1F
100
AcDbEntity
  8
0
  6
Continuous
 62
     7
370
    25
100
AcDbLine
 10
7186.1588024696
 20
5072.6526667527
 30
0.0
 11
7185.919691103
 21
5073.0668196596
 31
0.0
  0
LINE
  5
168
330
1F
100
AcDbEntity
  8
0
  6
Continuous
 62
     7
370
    25
100
AcDbLine
 10
7107.7934676811
 20
5073.0668196596
 30
0.0
 11
7107.5543563145
 21
5072.6526667527
 31
0.0
  0
LINE
  5
169
330
1F
100
AcDbEntity
  8
0
  6
Continuous
 62
     7
370
    25
100
AcDbLine
 10
7126.856674588
 20
5036.7193201375
 30
0.0
 11
7126.856674588
 21
5036.0742659879
 31
0.0
  0
LINE
  5
16A
330
1F
100
AcDbEntity
  8
0
  6
Continuous
 62
     7
370
    25
100
AcDbLine
 10
7166.8564841961
 20
5036.0742659879
 30
0.0
 11
7166.8564841961
 21
5036.7193201376
 31
0.0
  0
CIRCLE
  5
16B
330
1F
100
AcDbEntity
  8
0
  6
Continuous
 62
     7
370
    25
100
AcDbCircle
 10
7146.8565793921
 20
5036.8899928507
 30
0.0
 40
26.99999999999909
  0
ARC
  5
16C
330
1F
100
AcDbEntity
  8
0
  6
Continuous
 62
     7
370
    25
100
AcDbCircle
 10
7182.4949154836
 20
4966.9469138778
 30
0.0
 40
52.62877915726408
100
AcDbArc
 50
98.6463020948
 51
109.6412584055
  0
ARC
  5
16D
330
1F
100
AcDbEntity
  8
0
  6
Continuous
 62
     7
370
    25
100
AcDbCircle
 10
7111.5362695784
 20
4968.1737419279
 30
0.0
 40
51.36686230964189
100
AcDbArc
 50
70.2409348879
 51
81.5040799091
  0
LINE
  5
16E
330
1F
100
AcDbEntity
  8
0
  6
Continuous
 62
     7
370
    25
100
AcDbLine
 10
7188.6065793921
 20
5069.1289830652
 30
0.0
 11
7188.6065793921
 21
5072.1289823656
 31
0.0
  0
LINE
  5
16F
330
1F
100
AcDbEntity
  8
0
  6
Continuous
 62
     7
370
    25
100
AcDbLine
 10
7105.1065793921
 20
5072.1289823656
 30
0.0
 11
7105.1065793921
 21
5069.1289830652
 31
0.0
  0
LINE
  5
170
330
1F
100
AcDbEntity
  8
0
  6
Continuous
 62
     7
370
    25
100
AcDbLine
 10
7099.9750159965
 20
5050.5574966784
 30
0.0
 11
7100.1156724938
 21
5034.4398622748
 31
0.0
  0
LINE
  5
171
330
1F
100
AcDbEntity
  8
0
  6
Continuous
 62
     7
370
    25
100
AcDbLine
 10
7193.597538055
 20
5034.4457939144
 30
0.0
 11
7193.8564968093
 21
5064.1195210932
 31
0.0
  0
LWPOLYLINE
  5
172
330
1F
100
AcDbEntity
  8
0
  6
Continuous
 62
     7
370
    25
100
AcDbPolyline
 90
       14
 70
   128
 43
0.0
 10
7100.1519912409
 20
5034.4630150469
 10
7100.1673992746
 20
5033.4447734482
 10
7100.5114586346
 20
5031.4630843148
 10
7101.1549764416
 20
5029.6118737149
 10
7102.0652850162
 20
5027.9102374164
 10
7103.2174612876
 20
5026.3607749737
 10
7104.6062310086
 20
5024.9506041745
 10
7106.2486019201
 20
5023.6626518081
 10
7108.1825265088
 20
5022.4828014963
 10
7110.4482103478
 20
5021.4102557113
 10
7113.0443474593
 20
5020.4640691027
 10
7115.8779335793
 20
5019.6742986259
 10
7118.914418266
 20
5019.0216785235
 10
7119.1630433764
 20
5018.9801487826
  0
LWPOLYLINE
  5
173
330
1F
100
AcDbEntity
  8
0
  6
Continuous
 62
     7
370
    25
100
AcDbPolyline
 90
       13
 70
   128
 43
0.0
 10
7174.5291476443
 20
5018.9902901746
 10
7176.0910523208
 20
5019.2801508365
 10
7178.9691654442
 20
5019.9652925365
 10
7181.7349036316
 20
5020.8261185432
 10
7184.2396977452
 20
5021.8497668103
 10
7186.6033354249
 20
5023.122164271
 10
7188.4288414209
 20
5024.4092200888
 10
7189.9559347602
 20
5025.8042875076
 10
7191.2102166016
 20
5027.3074592816
 10
7192.2045829839
 20
5028.9189673518
 10
7192.9998142456
 20
5030.8167346547
 10
7193.4566204488
 20
5032.7545446473
 10
7193.5775819952
 20
5034.4724579844
  0
ARC
  5
174
330
1F
100
AcDbEntity
  8
0
  6
Continuous
 62
     7
370
    25
100
AcDbCircle
 10
7099.645681584
 20
5067.2577295761
 30
0.0
 40
1.766756699415045
100
AcDbArc
 50
116.5294471245
 51
183.9821816636
  0
ARC
  5
175
330
1F
100
AcDbEntity
  8
0
  6
Continuous
 62
     7
370
    25
100
AcDbCircle
 10
7193.8719277588
 20
5067.167020481
 30
0.0
 40
1.960449927094244
100
AcDbArc
 50
359.450509273
 51
83.8889281655
  0
LINE
  5
176
330
1F
100
AcDbEntity
  8
0
  6
Continuous
 62
     7
370
    25
100
AcDbLine
 10
7195.8565793921
 20
5064.1289842312
 30
0.0
 11
7195.8565793921
 21
5067.1289835316
 31
0.0
  0
LINE
  5
177
330
1F
100
AcDbEntity
  8
0
  6
Continuous
 62
     7
370
    25
100
AcDbLine
 10
7097.8565793921
 20
5067.1289835316
 30
0.0
 11
7097.8565793921
 21
5064.1289842312
 31
0.0
  0
LINE
  5
178
330
1F
100
AcDbEntity
  8
0
  6
Continuous
 62
     7
370
    25
100
AcDbLine
 10
7114.0070116822
 20
5020.1957575886
 30
0.0
 11
7114.615834415
 21
4996.9457608661
 31
0.0
  0
LINE
  5
179
330
1F
100
AcDbEntity
  8
0
  6
Continuous
 62
     7
370
    25
100
AcDbLine
 10
7179.0973243692
 20
4996.9457608661
 30
0.0
 11
7179.7061185312
 21
5020.1946665192
 31
0.0
  0
ARC
  5
17A
330
1F
100
AcDbEntity
  8
0
  6
Continuous
 62
     7
370
    25
100
AcDbCircle
 10
7121.5880413598
 20
4997.0647899977
 30
0.0
 40
6.935095207278298
100
AcDbArc
 50
180.9830902485
 51
268.1099307951
  0
ARC
  5
17B
330
1F
100
AcDbEntity
  8
0
  6
Continuous
 62
     7
370
    25
100
AcDbCircle
 10
7172.1274928842
 20
4997.0570357963
 30
0.0
 40
6.927387849470507
100
AcDbArc
 50
271.3239574927
 51
359.0693717493
  0
LWPOLYLINE
  5
17C
330
1F
100
AcDbEntity
  8
0
  6
Continuous
 62
     7
370
    25
100
AcDbPolyline
 90
        3
 70
   128
 43
0.0
 10
7128.7016569186
 20
4990.1212454403
 10
7128.6984503119
 20
4990.1212054359
 10
7128.7388610422
 20
4990.1214195866
  0
LWPOLYLINE
  5
17D
330
1F
100
AcDbEntity
  8
0
  6
Continuous
 62
     7
370
    25
100
AcDbPolyline
 90
        3
 70
   128
 43
0.0
 10
7164.4736767126
 20
4990.1228238087
 10
7164.8361659854
 20
4990.1219961271
 10
7164.9965132254
 20
4990.1213285328
  0
LINE
  5
17E
330
1F
100
AcDbEntity
  8
0
  6
Continuous
 62
     7
370
    25
100
AcDbLine
 10
7238.8565782261
 20
5059.1695837868
 30
0.0
 11
7237.8565784593
 21
5060.1695830872
 31
0.0
  0
LINE
  5
17F
330
1F
100
AcDbEntity
  8
0
  6
Continuous
 62
     7
370
    25
100
AcDbLine
 10
7229.8565803249
 20
5060.1695830872
 30
0.0
 11
7228.8565805581
 21
5059.1695837868
 31
0.0
  0
LINE
  5
180
330
1F
100
AcDbEntity
  8
0
  6
Continuous
 62
     7
370
    25
100
AcDbLine
 10
7091.8565782261
 20
5058.6883917647
 30
0.0
 11
7090.8565784593
 21
5059.6883910651
 31
0.0
  0
LINE
  5
181
330
1F
100
AcDbEntity
  8
0
  6
Continuous
 62
     7
370
    25
100
AcDbLine
 10
7082.8565803249
 20
5059.6883910651
 30
0.0
 11
7081.8565805581
 21
5058.6883917647
 31
0.0
  0
LINE
  5
182
330
1F
100
AcDbEntity
  8
0
  6
Continuous
 62
     7
370
    25
100
AcDbLine
 10
7091.8565793921
 20
4979.6884078552
 30
0.0
 11
7091.8565793921
 21
5049.681562238
 31
0.0
  0
LINE
  5
183
330
1F
100
AcDbEntity
  8
0
  6
Continuous
 62
     7
370
    25
100
AcDbLine
 10
7081.8565793921
 20
5049.681562238
 30
0.0
 11
7081.8565793921
 21
4979.6884078552
 31
0.0
  0
LINE
  5
184
330
1F
100
AcDbEntity
  8
0
  6
Continuous
 62
     7
370
    25
100
AcDbLine
 10
7238.8565782261
 20
5058.6883917647
 30
0.0
 11
7237.8565784593
 21
5059.6883910651
 31
0.0
  0
LINE
  5
185
330
1F
100
AcDbEntity
  8
0
  6
Continuous
 62
     7
370
    25
100
AcDbLine
 10
7229.8565803249
 20
5059.6883910651
 30
0.0
 11
7228.8565805581
 21
5058.6883917647
 31
0.0
  0
LINE
  5
186
330
1F
100
AcDbEntity
  8
0
  6
Continuous
 62
     7
370
    25
100
AcDbLine
 10
7238.8565793921
 20
4974.6884090212
 30
0.0
 11
7238.8565793921
 21
5049.681562238
 31
0.0
  0
LINE
  5
187
330
1F
100
AcDbEntity
  8
0
  6
Continuous
 62
     7
370
    25
100
AcDbLine
 10
7228.8565793921
 20
5049.681562238
 30
0.0
 11
7228.8565793921
 21
4974.6884090212
 31
0.0
  0
LINE
  5
188
330
1F
100
AcDbEntity
  8
0
  6
Continuous
 62
     7
370
    25
100
AcDbLine
 10
7091.8565782261
 20
5059.1695837868
 30
0.0
 11
7090.8565784593
 21
5060.1695830872
 31
0.0
  0
LINE
  5
189
330
1F
100
AcDbEntity
  8
0
  6
Continuous
 62
     7
370
    25
100
AcDbLine
 10
7082.8565803249
 20
5060.1695830872
 30
0.0
 11
7081.8565805581
 21
5059.1695837868
 31
0.0
  0
LWPOLYLINE
  5
18A
330
1F
100
AcDbEntity
  8
0
  6
Continuous
 62
     7
370
    25
100
AcDbPolyline
 90
        8
 70
   128
 43
0.0
 10
7096.8565793921
 20
5093.6740401509
 10
7096.3811671727
 20
5093.6740689726
 10
7095.5166897778
 20
5093.6742833509
 10
7094.806053226
 20
5093.6746850261
 10
7094.3365430515
 20
5093.6752248463
 10
7094.2074849521
 20
5093.6755386022
 10
7094.1804738144
 20
5093.6756688866
 10
7094.1819666841
 20
5093.6756485463
  0
LINE
  5
18B
330
1F
100
AcDbEntity
  8
0
  6
Continuous
 62
     7
370
    25
100
AcDbLine
 10
7196.8565793921
 20
5093.6740401509
 30
0.0
 11
7096.8565793921
 21
5093.6740401509
 31
0.0
  0
LWPOLYLINE
  5
18C
330
1F
100
AcDbEntity
  8
0
  6
Continuous
 62
     7
370
    25
100
AcDbPolyline
 90
        7
 70
   128
 43
0.0
 10
7199.5324260981
 20
5093.6756681651
 10
7199.5249164971
 20
5093.6756218339
 10
7199.4249626395
 20
5093.6753192057
 10
7199.0417073598
 20
5093.6748017272
 10
7198.386467008
 20
5093.6743649112
 10
7197.5486919336
 20
5093.6741017889
 10
7196.8565793921
 20
5093.6740401509
  0
LINE
  5
18D
330
1F
100
AcDbEntity
  8
0
  6
Continuous
 62
     7
370
    25
100
AcDbLine
 10
7092.4565793921
 20
5092.4820712965
 30
0.0
 11
7092.4565793921
 21
5091.975884026
 31
0.0
  0
LINE
  5
18E
330
1F
100
AcDbEntity
  8
0
  6
Continuous
 62
     7
370
    25
100
AcDbLine
 10
7201.2565793921
 20
5091.9758840601
 30
0.0
 11
7201.2565793921
 21
5092.4820712966
 31
0.0
  0
LINE
  5
18F
330
1F
100
AcDbEntity
  8
0
  6
Continuous
 62
     7
370
    25
100
AcDbLine
 10
7115.3283927516
 20
5074.1261332079
 30
0.0
 11
7117.0634994667
 21
5073.0653136283
 31
0.0
  0
LINE
  5
190
330
1F
100
AcDbEntity
  8
0
  6
Continuous
 62
     7
370
    25
100
AcDbLine
 10
7176.6496593175
 20
5073.0653136283
 30
0.0
 11
7178.3847660325
 21
5074.1261332079
 31
0.0
  0
ARC
  5
191
330
1F
100
AcDbEntity
  8
0
  6
Continuous
 62
     7
370
    25
100
AcDbCircle
 10
7094.0913815951
 20
5092.5130298068
 30
0.0
 40
1.635095309883297
100
AcDbArc
 50
110.951918166
 51
181.0848896493
  0
ARC
  5
192
330
1F
100
AcDbEntity
  8
0
  6
Continuous
 62
     7
370
    25
100
AcDbCircle
 10
7095.6016630157
 20
5084.3341908519
 30
0.0
 40
9.929344638934774
100
AcDbArc
 50
82.7392775551
 51
102.1802188189
  0
ARC
  5
193
330
1F
100
AcDbEntity
  8
0
  6
Continuous
 62
     7
370
    25
100
AcDbCircle
 10
7198.0240108759
 20
5034.7439808886
 30
0.0
 40
59.45139769513317
100
AcDbArc
 50
88.3449732559
 51
91.1251744951
  0
ARC
  5
194
330
1F
100
AcDbEntity
  8
0
  6
Continuous
 62
     7
370
    25
100
AcDbCircle
 10
7199.5736745407
 20
5092.4959607596
 30
0.0
 40
1.682962167161185
100
AcDbArc
 50
359.5271333713
 51
84.2918104768
  0
LINE
  5
195
330
1F
100
AcDbEntity
  8
0
  6
Continuous
 62
     7
370
    25
100
AcDbLine
 10
7196.8565793921
 20
5094.1839152058
 30
0.0
 11
7096.8565793921
 21
5094.1839152058
 31
0.0
  0
LWPOLYLINE
  5
196
330
1F
100
AcDbEntity
  8
0
  6
Continuous
 62
     7
370
    25
100
AcDbPolyline
 90
       33
 70
   128
 43
0.0
 10
7180.1065793921
 20
5074.1333456644
 10
7180.0624928807
 20
5074.1321767157
 10
7179.7105019371
 20
5074.1298512094
 10
7179.0102512414
 20
5074.1275627452
 10
7177.9691636252
 20
5074.1253355813
 10
7176.5982748762
 20
5074.1231933264
 10
7174.9121167562
 20
5074.1211586887
 10
7172.9285629607
 20
5074.119253236
 10
7170.6686396535
 20
5074.1174971666
 10
7168.1563025838
 20
5074.1159090952
 10
7165.4181831495
 20
5074.1145058558
 10
7162.4833060977
 20
5074.113302323
 10
7159.3827818554
 20
5074.1123112546
 10
7156.1494767509
 20
5074.1115431562
 10
7152.8176646225
 20
5074.1110061698
 10
7149.4226635078
 20
5074.1107059876
 10
7146.000461263
 20
5074.1106457917
 10
7142.5873340834
 20
5074.11082622
 10
7139.2194619662
 20
5074.11124536
 10
7135.9325451935
 20
5074.1118987688
 10
7132.761425901
 20
5074.1127795199
 10
7129.7397187419
 20
5074.1138782774
 10
7126.8994545638
 20
5074.115183394
 10
7124.2707408737
 20
5074.1166810351
 10
7121.8814426906
 20
5074.1183553255
 10
7119.7568871696
 20
5074.1201885172
 10
7117.9195951278
 20
5074.1221611779
 10
7116.3890423179
 20
5074.124252397
 10
7115.1814529804
 20
5074.126440007
 10
7114.3096278626
 20
5074.1287008186
 10
7113.7828085279
 20
5074.1310108668
 10
7113.6065793921
 20
5074.1333456644
 10
7113.6065793921
 20
5074.1333456644
  0
LWPOLYLINE
  5
197
330
1F
100
AcDbEntity
  8
0
  6
Continuous
 62
     7
370
    25
100
AcDbPolyline
 90
       35
 70
   128
 43
0.0
 10
7106.8565793921
 20
5072.6252714022
 10
7107.0323401112
 20
5072.6227133813
 10
7107.558077677
 20
5072.6201778404
 10
7108.429171889
 20
5072.6176870619
 10
7109.6379675398
 20
5072.6152629349
 10
7111.1738416898
 20
5072.6129267626
 10
7113.0232970217
 20
5072.6106990755
 10
7115.1700804556
 20
5072.6085994505
 10
7117.5953259815
 20
5072.6066463392
 10
7120.2777204545
 20
5072.6048569056
 10
7123.1936908955
 20
5072.6032468754
 10
7126.3176116515
 20
5072.6018303975
 10
7129.6220295944
 20
5072.60061992
 10
7133.0779053807
 20
5072.5996260806
 10
7136.6548686496
 20
5072.5988576132
 10
7140.3214849193
 20
5072.5983212711
 10
7144.0455318343
 20
5072.5980217678
 10
7147.7942823362
 20
5072.5979617352
 10
7151.534792271
 20
5072.598141701
 10
7155.2341899027
 20
5072.5985600835
 10
7158.8599647921
 20
5072.5992132061
 10
7162.380253499
 20
5072.600095329
 10
7165.7641195996
 20
5072.6011987002
 10
7168.9818255571
 20
5072.6025136232
 10
7172.0050940557
 20
5072.6040285423
 10
7174.8073565032
 20
5072.6057301444
 10
7177.3639865165
 20
5072.6076034758
 10
7179.652516339
 20
5072.6096320736
 10
7181.6528342884
 20
5072.6117981104
 10
7183.3473614987
 20
5072.614082551
 10
7184.7212064037
 20
5072.6164653195
 10
7185.7622956051
 20
5072.6189254763
 10
7186.4614799735
 20
5072.6214414012
 10
7186.8126150515
 20
5072.6239909844
 10
7186.8565793921
 20
5072.6252714022
  0
LWPOLYLINE
  5
198
330
1F
100
AcDbEntity
  8
0
  6
Continuous
 62
     7
370
    25
100
AcDbPolyline
 90
       40
 70
   128
 43
0.0
 10
7107.5069214395
 20
5072.6252714022
 10
7107.6850997375
 20
5072.6227169576
 10
7108.218021021
 20
5072.6201856466
 10
7109.1008590725
 20
5072.6177003929
 10
7110.3256187738
 20
5072.6152837034
 10
7111.8812085114
 20
5072.6129574641
 10
7113.7535406238
 20
5072.6107427418
 10
7115.9256589814
 20
5072.6086595932
 10
7118.377892544
 20
5072.6067268837
 10
7121.0880335048
 20
5072.6049621163
 10
7124.0315384074
 20
5072.6033812729
 10
7127.1817504158
 20
5072.6019986699
 10
7130.5101407221
 20
5072.6008268284
 10
7133.9865669083
 20
5072.5998763607
 10
7137.5795459205
 20
5072.5991558745
 10
7141.2565391844
 20
5072.5986718945
 10
7144.9842472797
 20
5072.5984288037
 10
7148.7289115045
 20
5072.5984288037
 10
7152.4566195997
 20
5072.5986718945
 10
7156.1336128636
 20
5072.5991558745
 10
7159.7265918758
 20
5072.5998763607
 10
7163.203018062
 20
5072.6008268284
 10
7166.5314083683
 20
5072.6019986699
 10
7169.6816203767
 20
5072.6033812729
 10
7172.6251252794
 20
5072.6049621163
 10
7175.3352662401
 20
5072.6067268837
 10
7177.7874998027
 20
5072.6086595932
 10
7179.9596181603
 20
5072.6107427418
 10
7181.8319502727
 20
5072.6129574641
 10
7183.3875400103
 20
5072.6152837034
 10
7184.6122997117
 20
5072.6177003929
 10
7185.4951377631
 20
5072.6201856466
 10
7186.0280590467
 20
5072.6227169576
 10
7186.2062373446
 20
5072.6252714022
 10
7186.0280590467
 20
5072.6278258467
 10
7185.4951377631
 20
5072.6303571577
 10
7184.6122997117
 20
5072.6328424114
 10
7183.3875400103
 20
5072.6352591009
 10
7181.8319502727
 20
5072.6375853402
 10
7180.6877211198
 20
5072.6389955541
  0
LWPOLYLINE
  5
199
330
1F
100
AcDbEntity
  8
0
  6
Continuous
 62
     7
370
    25
100
AcDbPolyline
 90
       35
 70
   128
 43
0.0
 10
7107.5543532595
 20
5072.6526561698
 10
7107.7323167824
 20
5072.6501048044
 10
7108.2645956862
 20
5072.6475765445
 10
7109.1463695704
 20
5072.6450942865
 10
7110.3696529544
 20
5072.6426805102
 10
7111.9233675944
 20
5072.6403570749
 10
7113.7934428099
 20
5072.6381450221
 10
7115.9629429103
 20
5072.6360643846
 10
7118.4122205666
 20
5072.6341340048
 10
7121.1190947412
 20
5072.6323713646
 10
7124.0590515623
 20
5072.6307924267
 10
7127.2054663258
 20
5072.6294114903
 10
7130.5298446122
 20
5072.6282410613
 10
7134.002080337
 20
5072.6272917393
 10
7137.5907283959
 20
5072.6265721216
 10
7141.2632894362
 20
5072.626088725
 10
7144.9865041765
 20
5072.6258459272
 10
7148.7266546076
 20
5072.6258459272
 10
7152.4498693479
 20
5072.626088725
 10
7156.1224303882
 20
5072.6265721216
 10
7159.7110784471
 20
5072.6272917393
 10
7163.183314172
 20
5072.6282410613
 10
7166.5076924584
 20
5072.6294114903
 10
7169.6541072218
 20
5072.6307924267
 10
7172.594064043
 20
5072.6323713646
 10
7175.3009382175
 20
5072.6341340048
 10
7177.7502158739
 20
5072.6360643846
 10
7179.9197159743
 20
5072.6381450221
 10
7181.7897911898
 20
5072.6403570749
 10
7183.3435058297
 20
5072.6426805102
 10
7184.5667892137
 20
5072.6450942865
 10
7185.448563098
 20
5072.6475765445
 10
7185.9808420017
 20
5072.6501048044
 10
7186.1588055247
 20
5072.6526561698
 10
7186.1588024696
 20
5072.6526667527
  0
LWPOLYLINE
  5
19A
330
1F
100
AcDbEntity
  8
0
  6
Continuous
 62
     7
370
    25
100
AcDbPolyline
 90
       35
 70
   128
 43
0.0
 10
7107.7934646447
 20
5073.066809141
 10
7107.9703454528
 20
5073.0642732979
 10
7108.4993860171
 20
5073.0617604198
 10
7109.3757952644
 20
5073.0592932636
 10
7110.5916362968
 20
5073.0568941725
 10
7112.1358982697
 20
5073.0545848728
 10
7113.9945961074
 20
5073.052386278
 10
7116.1508971546
 20
5073.0503182988
 10
7118.585273615
 20
5073.0483996633
 10
7121.2756793984
 20
5073.0466477469
 10
7124.1977497735
 20
5073.0450784151
 10
7127.3250220184
 20
5073.0437058802
 10
7130.6291750714
 20
5073.042542572
 10
7134.0802860108
 20
5073.0415990256
 10
7137.6471010415
 20
5073.0408837859
 10
7141.2973185343
 20
5073.0404033303
 10
7144.9978815543
 20
5073.0401620097
 10
7148.7152772298
 20
5073.0401620097
 10
7152.4158402498
 20
5073.0404033303
 10
7156.0660577426
 20
5073.0408837859
 10
7159.6328727733
 20
5073.0415990256
 10
7163.0839837128
 20
5073.042542572
 10
7166.3881367658
 20
5073.0437058802
 10
7169.5154090107
 20
5073.0450784151
 10
7172.4374793857
 20
5073.0466477469
 10
7175.1278851692
 20
5073.0483996633
 10
7177.5622616296
 20
5073.0503182988
 10
7179.7185626767
 20
5073.052386278
 10
7181.5772605144
 20
5073.0545848728
 10
7183.1215224873
 20
5073.0568941725
 10
7184.3373635197
 20
5073.0592932636
 10
7185.213772767
 20
5073.0617604198
 10
7185.7428133314
 20
5073.0642732979
 10
7185.9196941395
 20
5073.066809141
 10
7185.919691103
 20
5073.0668196596
  0
LWPOLYLINE
  5
19B
330
1F
100
AcDbEntity
  8
0
  6
Continuous
 62
     7
370
    25
100
AcDbPolyline
 90
       34
 70
   128
 43
0.0
 10
7107.9831287477
 20
5073.066809141
 10
7108.1591507421
 20
5073.0642856102
 10
7108.6856226427
 20
5073.061784933
 10
7109.5577766386
 20
5073.0593297557
 10
7110.7677143681
 20
5073.0569423129
 10
7112.3044784478
 20
5073.0546442256
 10
7114.1541517041
 20
5073.0524563056
 10
7116.2999832097
 20
5073.0503983672
 10
7118.7225399821
 20
5073.0484890473
 10
7121.3998829721
 20
5073.046745637
 10
7124.3077657469
 20
5073.0451839249
 10
7127.4198540699
 20
5073.0438180541
 10
7130.7079643872
 20
5073.0426603941
 10
7134.1423190627
 20
5073.0417214289
 10
7137.6918160486
 20
5073.0410096619
 10
7141.3243105505
 20
5073.0405315391
 10
7145.0069061357
 20
5073.0402913902
 10
7148.7062526484
 20
5073.0402913902
 10
7152.3888482337
 20
5073.0405315391
 10
7156.0213427356
 20
5073.0410096619
 10
7159.5708397215
 20
5073.0417214289
 10
7163.0051943969
 20
5073.0426603941
 10
7166.2933047143
 20
5073.0438180541
 10
7169.4053930372
 20
5073.0451839249
 10
7172.313275812
 20
5073.046745637
 10
7174.990618802
 20
5073.0484890473
 10
7177.4131755744
 20
5073.0503983672
 10
7179.55900708
 20
5073.0524563056
 10
7181.4086803363
 20
5073.0546442256
 10
7182.945444416
 20
5073.0569423129
 10
7184.1553821455
 20
5073.0593297557
 10
7185.0275361414
 20
5073.061784933
 10
7185.5540080421
 20
5073.0642856102
 10
7185.7300270147
 20
5073.0667986735
  0
LWPOLYLINE
  5
19C
330
1F
100
AcDbEntity
  8
0
  6
Continuous
 62
     7
370
    25
100
AcDbPolyline
 90
        8
 70
   128
 43
0.0
 10
7156.941618202
 20
5050.0447671182
 10
7156.5008664564
 20
5050.0411918243
 10
7152.9301349445
 20
5050.0145346895
 10
7149.195844319
 20
5049.9887932355
 10
7145.4085793389
 20
5049.9644889927
 10
7141.6773585525
 20
5049.9399079958
 10
7138.0929455011
 20
5049.9150212936
 10
7136.8316776957
 20
5049.9057549252
  0
LWPOLYLINE
  5
19D
330
1F
100
AcDbEntity
  8
0
  6
Continuous
 62
     7
370
    25
100
AcDbPolyline
 90
        5
 70
   128
 43
0.0
 10
7146.8565793921
 20
5048.6143511446
 10
7149.5972725227
 20
5048.6144713118
 10
7152.2929635479
 20
5048.61482984
 10
7154.8993892955
 20
5048.6154208422
 10
7156.5475905025
 20
5048.6159329064
  0
LWPOLYLINE
  5
19E
330
1F
100
AcDbEntity
  8
0
  6
Continuous
 62
     7
370
    25
100
AcDbPolyline
 90
        5
 70
   128
 43
0.0
 10
7137.1655682816
 20
5048.6159329064
 10
7138.8137694886
 20
5048.6154208422
 10
7141.4201952363
 20
5048.61482984
 10
7144.1158862615
 20
5048.6144713118
 10
7146.8565793921
 20
5048.6143511446
  0
LWPOLYLINE
  5
19F
330
1F
100
AcDbEntity
  8
0
  6
Continuous
 62
     7
370
    25
100
AcDbPolyline
 90
        5
 70
   128
 43
0.0
 10
7137.9931049135
 20
5050.9582585894
 10
7142.3739718805
 20
5051.0054442545
 10
7146.8565793921
 20
5051.0506433122
 10
7151.3391869036
 20
5051.0964394884
 10
7155.5066725099
 20
5051.1430476264
  0
LWPOLYLINE
  5
1A0
330
1F
100
AcDbEntity
  8
0
  6
Continuous
 62
     7
370
    25
100
AcDbPolyline
 90
        5
 70
   128
 43
0.0
 10
7138.3608370623
 20
5051.1497193379
 10
7142.3739718805
 20
5051.1929442148
 10
7146.8565793921
 20
5051.2381432726
 10
7151.3391869036
 20
5051.2839394488
 10
7155.1019572844
 20
5051.3260213508
  0
LWPOLYLINE
  5
1A1
330
1F
100
AcDbEntity
  8
0
  6
Continuous
 62
     7
370
    25
100
AcDbPolyline
 90
        7
 70
   128
 43
0.0
 10
7137.0652970785
 20
5050.4751929037
 10
7138.2890239855
 20
5050.4898617582
 10
7142.5308435924
 20
5050.5372383871
 10
7146.8565793921
 20
5050.5824478931
 10
7151.1823151917
 20
5050.628233621
 10
7155.4241347986
 20
5050.6773617145
 10
7156.3841506868
 20
5050.6895719435
  0
LWPOLYLINE
  5
1A2
330
1F
100
AcDbEntity
  8
0
  6
Continuous
 62
     7
370
    25
100
AcDbPolyline
 90
        4
 70
   128
 43
0.0
 10
7140.0114178205
 20
5052.0090987219
 10
7142.5308435924
 20
5052.0372380373
 10
7146.8565793921
 20
5052.0824475433
 10
7148.4213636482
 20
5052.0990099941
  0
LWPOLYLINE
  5
1A3
330
1F
100
AcDbEntity
  8
0
  6
Continuous
 62
     7
370
    25
100
AcDbPolyline
 90
        7
 70
   128
 43
0.0
 10
7136.9530613374
 20
5050.0988476176
 10
7138.2890239855
 20
5050.1148618456
 10
7142.5308435924
 20
5050.1622384745
 10
7146.8565793921
 20
5050.2074479805
 10
7151.1823151917
 20
5050.2532337084
 10
7155.4241347986
 20
5050.3023618019
 10
7156.8160702485
 20
5050.32006552
  0
LWPOLYLINE
  5
1A4
330
1F
100
AcDbEntity
  8
0
  6
Continuous
 62
     7
370
    25
100
AcDbPolyline
 90
        5
 70
   128
 43
0.0
 10
7139.2753788783
 20
5051.6258780345
 10
7142.5308435924
 20
5051.6622381247
 10
7146.8565793921
 20
5051.7074476307
 10
7151.1823151917
 20
5051.7532333587
 10
7154.0827158933
 20
5051.7868253475
  0
CIRCLE
  5
1A5
330
1F
100
AcDbEntity
  8
0
  6
Continuous
 62
     7
370
    25
100
AcDbCircle
 10
7146.8565019932
 20
5036.0736593256
 30
0.0
 40
19.99962607608056
  0
CIRCLE
  5
1A6
330
1F
100
AcDbEntity
  8
0
  6
Continuous
 62
     7
370
    25
100
AcDbCircle
 10
7146.8565030973
 20
5036.0408445456
 30
0.0
 40
19.71433085080782
  0
CIRCLE
  5
1A7
330
1F
100
AcDbEntity
  8
0
  6
Continuous
 62
     7
370
    25
100
AcDbCircle
 10
7146.8565058913
 20
5036.0407468336
 30
0.0
 40
17.49964394837636
  0
ARC
  5
1A8
330
1F
100
AcDbEntity
  8
0
  6
Continuous
 62
     7
370
    25
100
AcDbCircle
 10
7146.8570319853
 20
5036.7188873408
 30
0.0
 40
19.99945221550476
100
AcDbArc
 50
0.0012399054
 51
90.0012966196
  0
ARC
  5
1A9
330
1F
100
AcDbEntity
  8
0
  6
Continuous
 62
     7
370
    25
100
AcDbCircle
 10
7146.8561267989
 20
5036.7188873408
 30
0.0
 40
19.99945221550566
100
AcDbArc
 50
89.9987033804
 51
179.9987600948
  0
ARC
  5
1AA
330
1F
100
AcDbEntity
  8
0
  6
Continuous
 62
     7
370
    25
100
AcDbCircle
 10
7144.4176382422
 20
5037.032854691
 30
0.0
 40
15.04124211950635
100
AcDbArc
 50
177.7866363414
 51
205.531695699
  0
ARC
  5
1AB
330
1F
100
AcDbEntity
  8
0
  6
Continuous
 62
     7
370
    25
100
AcDbCircle
 10
7146.8565793921
 20
5037.6136402559
 30
0.0
 40
17.50027887422741
100
AcDbArc
 50
203.8055864032
 51
336.1944135968
  0
ARC
  5
1AC
330
1F
100
AcDbEntity
  8
0
  6
Continuous
 62
     7
370
    25
100
AcDbCircle
 10
7148.5095499506
 20
5037.1390918737
 30
0.0
 40
15.79811705429111
100
AcDbArc
 50
335.3492710411
 51
1.7301743041
  0
ARC
  5
1AD
330
1F
100
AcDbEntity
  8
0
  6
Continuous
 62
     7
370
    25
100
AcDbCircle
 10
7146.8565793921
 20
5037.4969971233
 30
0.0
 40
26.51333400675086
100
AcDbArc
 50
52.8503848833
 51
127.1496151167
  0
LWPOLYLINE
  5
1AE
330
1F
100
AcDbEntity
  8
0
  6
Continuous
 62
     7
370
    25
100
AcDbPolyline
 90
        9
 70
   128
 43
0.0
 10
7124.8044921595
 20
5069.0928579328
 10
7125.0337558253
 20
5069.0922862874
 10
7125.4043089983
 20
5069.0917503277
 10
7125.9049874572
 20
5069.0912662015
 10
7126.5207064976
 20
5069.0908484947
 10
7127.2329154118
 20
5069.0905097923
 10
7128.0201563944
 20
5069.0902602988
 10
7128.8587110342
 20
5069.0901075312
 10
7129.7233149154
 20
5069.0900560921
  0
LINE
  5
1AF
330
1F
100
AcDbEntity
  8
0
  6
Continuous
 62
     7
370
    25
100
AcDbLine
 10
7129.7233149154
 20
5069.0900560921
 30
0.0
 11
7129.7233149154
 21
5067.0886906997
 31
0.0
  0
LWPOLYLINE
  5
1B0
330
1F
100
AcDbEntity
  8
0
  6
Continuous
 62
     7
370
    25
100
AcDbPolyline
 90
        9
 70
   128
 43
0.0
 10
7129.7233149154
 20
5067.0886906997
 10
7128.5128694818
 20
5067.0887627145
 10
7127.3388929859
 20
5067.0889765892
 10
7126.2367556103
 20
5067.0893258801
 10
7125.2396631304
 20
5067.0898000634
 10
7124.3776564739
 20
5067.0903848529
 10
7123.6767066315
 20
5067.0910626296
 10
7123.1579321893
 20
5067.0918129732
 10
7122.8369630571
 20
5067.0926132768
  0
ARC
  5
1B1
330
1F
100
AcDbEntity
  8
0
  6
Continuous
 62
     7
370
    25
100
AcDbCircle
 10
7124.8211511941
 20
5067.1086747231
 30
0.0
 40
1.984253142381281
100
AcDbArc
 50
90.4810392221
 51
180.4637831314
  0
LINE
  5
1B2
330
1F
100
AcDbEntity
  8
0
  6
Continuous
 62
     7
370
    25
100
AcDbLine
 10
7129.7233149154
 20
5069.0900560921
 30
0.0
 11
7163.9898438687
 21
5069.0900560921
 31
0.0
  0
LINE
  5
1B3
330
1F
100
AcDbEntity
  8
0
  6
Continuous
 62
     7
370
    25
100
AcDbLine
 10
7163.9898438687
 20
5069.0900560921
 30
0.0
 11
7163.9898438687
 21
5067.0886906997
 31
0.0
  0
LINE
  5
1B4
330
1F
100
AcDbEntity
  8
0
  6
Continuous
 62
     7
370
    25
100
AcDbLine
 10
7163.9898438687
 20
5067.0886906997
 30
0.0
 11
7129.7233149154
 21
5067.0886906997
 31
0.0
  0
LWPOLYLINE
  5
1B5
330
1F
100
AcDbEntity
  8
0
  6
Continuous
 62
     7
370
    25
100
AcDbPolyline
 90
        9
 70
   128
 43
0.0
 10
7163.9898438687
 20
5069.0900560921
 10
7164.8544477499
 20
5069.0901075312
 10
7165.6930023898
 20
5069.0902602988
 10
7166.4802433724
 20
5069.0905097923
 10
7167.1924522866
 20
5069.0908484947
 10
7167.8081713269
 20
5069.0912662015
 10
7168.3088497858
 20
5069.0917503277
 10
7168.6794029588
 20
5069.0922862874
 10
7168.9086666247
 20
5069.0928579328
  0
ARC
  5
1B6
330
1F
100
AcDbEntity
  8
0
  6
Continuous
 62
     7
370
    25
100
AcDbCircle
 10
7168.89200759
 20
5067.1086747231
 30
0.0
 40
1.984253142380923
100
AcDbArc
 50
359.5362168685
 51
89.5189607779
  0
LWPOLYLINE
  5
1B7
330
1F
100
AcDbEntity
  8
0
  6
Continuous
 62
     7
370
    25
100
AcDbPolyline
 90
        9
 70
   128
 43
0.0
 10
7170.876195727
 20
5067.0926132768
 10
7170.5552265948
 20
5067.0918129732
 10
7170.0364521527
 20
5067.0910626296
 10
7169.3355023102
 20
5067.0903848529
 10
7168.4734956537
 20
5067.0898000634
 10
7167.4764031738
 20
5067.0893258801
 10
7166.3742657982
 20
5067.0889765892
 10
7165.2002893024
 20
5067.0887627145
 10
7163.9898438687
 20
5067.0886906997
  0
LWPOLYLINE
  5
1B8
330
1F
100
AcDbEntity
  8
0
  6
Continuous
 62
     7
370
    25
100
AcDbPolyline
 90
        9
 70
   128
 43
0.0
 10
7122.8369630571
 20
5064.0926139764
 10
7123.1579321893
 20
5064.0918136728
 10
7123.6767066315
 20
5064.0910633292
 10
7124.3776564739
 20
5064.0903855525
 10
7125.2396631304
 20
5064.089800763
 10
7126.2367556103
 20
5064.0893265796
 10
7127.3388929859
 20
5064.0889772888
 10
7128.5128694818
 20
5064.0887634141
 10
7129.7233149154
 20
5064.0886913993
  0
LINE
  5
1B9
330
1F
100
AcDbEntity
  8
0
  6
Continuous
 62
     7
370
    25
100
AcDbLine
 10
7122.8369630571
 20
5067.0926132768
 30
0.0
 11
7122.8369630571
 21
5064.0926139764
 31
0.0
  0
LINE
  5
1BA
330
1F
100
AcDbEntity
  8
0
  6
Continuous
 62
     7
370
    25
100
AcDbLine
 10
7129.7233149154
 20
5067.0886906997
 30
0.0
 11
7129.7233149154
 21
5064.0886913993
 31
0.0
  0
LINE
  5
1BB
330
1F
100
AcDbEntity
  8
0
  6
Continuous
 62
     7
370
    25
100
AcDbLine
 10
7129.7233149154
 20
5064.0886913993
 30
0.0
 11
7163.9898438687
 21
5064.0886913993
 31
0.0
  0
LINE
  5
1BC
330
1F
100
AcDbEntity
  8
0
  6
Continuous
 62
     7
370
    25
100
AcDbLine
 10
7163.9898438687
 20
5067.0886906997
 30
0.0
 11
7163.9898438687
 21
5064.0886913993
 31
0.0
  0
LWPOLYLINE
  5
1BD
330
1F
100
AcDbEntity
  8
0
  6
Continuous
 62
     7
370
    25
100
AcDbPolyline
 90
        9
 70
   128
 43
0.0
 10
7163.9898438687
 20
5064.0886913993
 10
7165.2002893024
 20
5064.0887634141
 10
7166.3742657982
 20
5064.0889772888
 10
7167.4764031738
 20
5064.0893265796
 10
7168.4734956537
 20
5064.089800763
 10
7169.3355023102
 20
5064.0903855525
 10
7170.0364521527
 20
5064.0910633292
 10
7170.5552265948
 20
5064.0918136728
 10
7170.876195727
 20
5064.0926139764
  0
LINE
  5
1BE
330
1F
100
AcDbEntity
  8
0
  6
Continuous
 62
     7
370
    25
100
AcDbLine
 10
7170.876195727
 20
5067.0926132768
 30
0.0
 11
7170.876195727
 21
5064.0926139764
 31
0.0
  0
LWPOLYLINE
  5
1BF
330
1F
100
AcDbEntity
  8
0
  6
Continuous
 62
     7
370
    25
100
AcDbPolyline
 90
        9
 70
   128
 43
0.0
 10
7114.6847122681
 20
5069.1055836794
 10
7116.5702311756
 20
5069.1042688208
 10
7118.2973721495
 20
5069.102856126
 10
7119.8552884369
 20
5069.1013544668
 10
7121.2341960461
 20
5069.0997732739
 10
7122.4254351914
 20
5069.0981224776
 10
7123.421524679
 20
5069.0964124451
 10
7124.2162088894
 20
5069.0946539158
 10
7124.8044921595
 20
5069.0928579328
  0
LWPOLYLINE
  5
1C0
330
1F
100
AcDbEntity
  8
0
  6
Continuous
 62
     7
370
    25
100
AcDbPolyline
 90
       11
 70
   128
 43
0.0
 10
7179.028446516
 20
5069.1055836794
 10
7181.8784023192
 20
5069.1075770488
 10
7184.4645142227
 20
5069.1097316848
 10
7186.767299236
 20
5069.1120313548
 10
7188.769408868
 20
5069.114458734
 10
7190.4557598259
 20
5069.1169955351
 10
7191.8136476478
 20
5069.1196226467
 10
7192.8328424145
 20
5069.1223202768
 10
7193.5056658187
 20
5069.1250681024
 10
7193.8270490108
 20
5069.1278454222
 10
7193.856329676
 20
5069.1288784337
  0
LWPOLYLINE
  5
1C1
330
1F
100
AcDbEntity
  8
0
  6
Continuous
 62
     7
370
    25
100
AcDbPolyline
 90
        7
 70
   128
 43
0.0
 10
7193.8556216839
 20
5069.1291879709
 10
7193.7945707864
 20
5069.1306313126
 10
7193.4084758266
 20
5069.1334047856
 10
7192.671672855
 20
5069.1361449467
 10
7191.5897127239
 20
5069.1388311523
 10
7190.1707465961
 20
5069.1414431654
 10
7188.6065793921
 20
5069.1437244951
  0
LWPOLYLINE
  5
1C2
330
1F
100
AcDbEntity
  8
0
  6
Continuous
 62
     7
370
    25
100
AcDbPolyline
 90
        5
 70
   128
 43
0.0
 10
7105.1065793921
 20
5069.1437244951
 10
7103.5424121881
 20
5069.1414431654
 10
7102.1234460603
 20
5069.1388311523
 10
7101.0414859292
 20
5069.1361449467
 10
7100.8565480222
 20
5069.1355688952
  0
LWPOLYLINE
  5
1C3
330
1F
100
AcDbEntity
  8
0
  6
Continuous
 62
     7
370
    25
100
AcDbPolyline
 90
        9
 70
   128
 43
0.0
 10
7100.8565510637
 20
5069.1223972253
 10
7100.8803163696
 20
5069.1223202768
 10
7101.8995111364
 20
5069.1196226467
 10
7103.2573989583
 20
5069.1169955351
 10
7104.9437499161
 20
5069.114458734
 10
7106.9458595482
 20
5069.1120313548
 10
7109.2486445614
 20
5069.1097316848
 10
7111.834756465
 20
5069.1075770488
 10
7114.6847122681
 20
5069.1055836794
  0
LWPOLYLINE
  5
1C4
330
1F
100
AcDbEntity
  8
0
  6
Continuous
 62
     7
370
    25
100
AcDbPolyline
 90
        9
 70
   128
 43
0.0
 10
7168.9086666247
 20
5069.0928579328
 10
7169.4969547132
 20
5069.0946539149
 10
7170.291638807
 20
5069.096412444
 10
7171.2877281485
 20
5069.0981224762
 10
7172.4789671193
 20
5069.0997732723
 10
7173.8578745262
 20
5069.1013544649
 10
7175.4157905852
 20
5069.1028561239
 10
7177.1429313059
 20
5069.1042688185
 10
7179.028446516
 20
5069.1055836794
  0
LWPOLYLINE
  5
1C5
330
1F
100
AcDbEntity
  8
0
  6
Continuous
 62
     7
370
    25
100
AcDbPolyline
 90
       18
 70
   128
 43
0.0
 10
7146.8565793921
 20
5069.1004707647
 10
7150.7087833997
 20
5069.1005923931
 10
7154.5281217609
 20
5069.1009562408
 10
7158.2820092276
 20
5069.1015592034
 10
7161.9384189554
 20
5069.1023961368
 10
7165.4661557457
 20
5069.1034599004
 10
7168.8351221922
 20
5069.1047414187
 10
7172.0165754609
 20
5069.1062297582
 10
7174.9833725143
 20
5069.1079122209
 10
7177.710201686
 20
5069.1097744525
 10
7180.173798631
 20
5069.1118005653
 10
7182.3531448088
 20
5069.1139732732
 10
7184.2296468061
 20
5069.1162740392
 10
7185.7872949697
 20
5069.1186832342
 10
7187.0127999945
 20
5069.1211803038
 10
7187.8957063039
 20
5069.1237439437
 10
7188.4284812524
 20
5069.126352282
 10
7188.6065793921
 20
5069.1289830652
  0
LWPOLYLINE
  5
1C6
330
1F
100
AcDbEntity
  8
0
  6
Continuous
 62
     7
370
    25
100
AcDbPolyline
 90
       18
 70
   128
 43
0.0
 10
7105.1065793921
 20
5069.1289830652
 10
7105.2846775318
 20
5069.126352282
 10
7105.8174524803
 20
5069.1237439437
 10
7106.7003587896
 20
5069.1211803038
 10
7107.9258638144
 20
5069.1186832342
 10
7109.483511978
 20
5069.1162740392
 10
7111.3600139754
 20
5069.1139732732
 10
7113.5393601531
 20
5069.1118005653
 10
7116.0029570981
 20
5069.1097744525
 10
7118.7297862698
 20
5069.1079122209
 10
7121.6965833232
 20
5069.1062297582
 10
7124.8780365919
 20
5069.1047414187
 10
7128.2470030384
 20
5069.1034599004
 10
7131.7747398288
 20
5069.1023961368
 10
7135.4311495566
 20
5069.1015592034
 10
7139.1850370232
 20
5069.1009562408
 10
7143.0043753845
 20
5069.1005923931
 10
7146.8565793921
 20
5069.1004707647
  0
LWPOLYLINE
  5
1C7
330
1F
100
AcDbEntity
  8
0
  6
Continuous
 62
     7
370
    25
100
AcDbPolyline
 90
        3
 70
   128
 43
0.0
 10
7164.6438204276
 20
5016.5056409427
 10
7164.2976247866
 20
5016.2758820513
 10
7164.204813467
 20
5016.2597634354
  0
LWPOLYLINE
  5
1C8
330
1F
100
AcDbEntity
  8
0
  6
Continuous
 62
     7
370
    25
100
AcDbPolyline
 90
        3
 70
   128
 43
0.0
 10
7129.0693383566
 20
5016.5056409427
 10
7129.4155339975
 20
5016.2758820513
 10
7129.7617289849
 20
5016.2157580919
  0
LWPOLYLINE
  5
1C9
330
1F
100
AcDbEntity
  8
0
  6
Continuous
 62
     7
370
    25
100
AcDbPolyline
 90
        9
 70
   128
 43
0.0
 10
7122.8369630571
 20
5067.0926132768
 10
7122.2832750125
 20
5067.0943036286
 10
7121.5353301016
 20
5067.0959587302
 10
7120.5978255516
 20
5067.0975681872
 10
7119.4766490582
 20
5067.099121892
 10
7118.1788418093
 20
5067.1006100871
 10
7116.7125542658
 20
5067.1020234263
 10
7115.0869949746
 20
5067.1033530336
 10
7113.3123727376
 20
5067.1045905589
  0
ARC
  5
1CA
330
1F
100
AcDbEntity
  8
0
  6
Continuous
 62
     7
370
    25
100
AcDbCircle
 10
7115.0718117471
 20
5067.3690077215
 30
0.0
 40
1.779197027884947
100
AcDbArc
 50
102.566333572
 51
188.54673081
  0
ARC
  5
1CB
330
1F
100
AcDbEntity
  8
0
  6
Continuous
 62
     7
370
    25
100
AcDbCircle
 10
7178.6382877353
 20
5067.366909563
 30
0.0
 40
1.781912331531832
100
AcDbArc
 50
351.534603635
 51
77.3523319831
  0
LWPOLYLINE
  5
1CC
330
1F
100
AcDbEntity
  8
0
  6
Continuous
 62
     7
370
    25
100
AcDbPolyline
 90
        9
 70
   128
 43
0.0
 10
7180.4007860466
 20
5067.1045905589
 10
7178.6261638096
 20
5067.1033530336
 10
7177.0006045183
 20
5067.1020234263
 10
7175.5343169748
 20
5067.1006100871
 10
7174.236509726
 20
5067.099121892
 10
7173.1153332325
 20
5067.0975681872
 10
7172.1778286825
 20
5067.0959587302
 10
7171.4298837716
 20
5067.0943036286
 10
7170.876195727
 20
5067.0926132768
  0
LINE
  5
1CD
330
1F
100
AcDbEntity
  8
0
  6
Continuous
 62
     7
370
    25
100
AcDbLine
 10
7113.3123727376
 20
5067.1045905589
 30
0.0
 11
7113.3123727376
 21
5064.1045912585
 31
0.0
  0
LWPOLYLINE
  5
1CE
330
1F
100
AcDbEntity
  8
0
  6
Continuous
 62
     7
370
    25
100
AcDbPolyline
 90
        9
 70
   128
 43
0.0
 10
7113.3123727376
 20
5064.1045912585
 10
7115.0869949746
 20
5064.1033537332
 10
7116.7125542658
 20
5064.1020241259
 10
7118.1788418093
 20
5064.1006107867
 10
7119.4766490582
 20
5064.0991225916
 10
7120.5978255516
 20
5064.0975688868
 10
7121.5353301016
 20
5064.0959594297
 10
7122.2832750125
 20
5064.0943043282
 10
7122.8369630571
 20
5064.0926139764
  0
LINE
  5
1CF
330
1F
100
AcDbEntity
  8
0
  6
Continuous
 62
     7
370
    25
100
AcDbLine
 10
7180.4007860466
 20
5067.1045905589
 30
0.0
 11
7180.4007860466
 21
5064.1045912585
 31
0.0
  0
LWPOLYLINE
  5
1D0
330
1F
100
AcDbEntity
  8
0
  6
Continuous
 62
     7
370
    25
100
AcDbPolyline
 90
        9
 70
   128
 43
0.0
 10
7170.876195727
 20
5064.0926139764
 10
7171.4298837716
 20
5064.0943043282
 10
7172.1778286825
 20
5064.0959594297
 10
7173.1153332325
 20
5064.0975688868
 10
7174.236509726
 20
5064.0991225916
 10
7175.5343169748
 20
5064.1006107867
 10
7177.0006045183
 20
5064.1020241259
 10
7178.6261638096
 20
5064.1033537332
 10
7180.4007860466
 20
5064.1045912585
  0
LINE
  5
1D1
330
1F
100
AcDbEntity
  8
0
  6
Continuous
 62
     7
370
    25
100
AcDbLine
 10
7139.9015435165
 20
5052.0990099941
 30
0.0
 11
7153.8116152677
 21
5052.0990099941
 31
0.0
  0
LWPOLYLINE
  5
1D2
330
1F
100
AcDbEntity
  8
0
  6
Continuous
 62
     7
370
    25
100
AcDbPolyline
 90
       22
 70
   128
 43
0.0
 10
7146.8565793921
 20
5072.1004700651
 10
7150.7087833997
 20
5072.1005916935
 10
7154.5281217609
 20
5072.1009555412
 10
7158.2820092276
 20
5072.1015585038
 10
7161.9384189554
 20
5072.1023954372
 10
7165.4661557457
 20
5072.1034592008
 10
7168.8351221922
 20
5072.1047407191
 10
7172.0165754609
 20
5072.1062290586
 10
7174.9833725143
 20
5072.1079115213
 10
7177.710201686
 20
5072.109773753
 10
7180.173798631
 20
5072.1117998657
 10
7182.3531448088
 20
5072.1139725736
 10
7184.2296468061
 20
5072.1162733396
 10
7185.7872949697
 20
5072.1186825347
 10
7187.0127999945
 20
5072.1211796042
 10
7187.8957063039
 20
5072.1237432441
 10
7188.4284812524
 20
5072.1263515824
 10
7188.6065793921
 20
5072.1289823656
 10
7188.4284812524
 20
5072.1316131488
 10
7187.8957063039
 20
5072.1342214871
 10
7187.0127999945
 20
5072.136785127
 10
7186.8565793921
 20
5072.1371507973
  0
LWPOLYLINE
  5
1D3
330
1F
100
AcDbEntity
  8
0
  6
Continuous
 62
     7
370
    25
100
AcDbPolyline
 90
       22
 70
   128
 43
0.0
 10
7106.8565793921
 20
5072.1371507973
 10
7106.7003587896
 20
5072.136785127
 10
7105.8174524803
 20
5072.1342214871
 10
7105.2846775318
 20
5072.1316131488
 10
7105.1065793921
 20
5072.1289823656
 10
7105.2846775318
 20
5072.1263515824
 10
7105.8174524803
 20
5072.1237432441
 10
7106.7003587896
 20
5072.1211796042
 10
7107.9258638144
 20
5072.1186825347
 10
7109.483511978
 20
5072.1162733396
 10
7111.3600139754
 20
5072.1139725736
 10
7113.5393601531
 20
5072.1117998657
 10
7116.0029570981
 20
5072.109773753
 10
7118.7297862698
 20
5072.1079115213
 10
7121.6965833232
 20
5072.1062290586
 10
7124.8780365919
 20
5072.1047407191
 10
7128.2470030384
 20
5072.1034592008
 10
7131.7747398288
 20
5072.1023954372
 10
7135.4311495566
 20
5072.1015585038
 10
7139.1850370232
 20
5072.1009555412
 10
7143.0043753845
 20
5072.1005916935
 10
7146.8565793921
 20
5072.1004700651
  0
LWPOLYLINE
  5
1D4
330
1F
100
AcDbEntity
  8
0
  6
Continuous
 62
     7
370
    25
100
AcDbPolyline
 90
       11
 70
   128
 43
0.0
 10
7180.4007860466
 20
5064.1045912585
 10
7183.3209206732
 20
5064.1066309215
 10
7185.9760821717
 20
5064.1088330179
 10
7188.3469764475
 20
5064.1111815459
 10
7190.4163750727
 20
5064.1136594395
 10
7192.169240479
 20
5064.1162486928
 10
7193.5928352298
 20
5064.1189304907
 10
7194.6768145791
 20
5064.1216853454
 10
7195.4133016424
 20
5064.1244932385
 10
7195.7969446357
 20
5064.127333766
 10
7195.8565793921
 20
5064.1289842312
  0
ARC
  5
1D5
330
1F
100
AcDbEntity
  8
0
  6
Continuous
 62
     7
370
    25
100
AcDbCircle
 10
7098.7069492259
 20
5116.2199759518
 30
0.0
 40
52.09793227463557
100
AcDbArc
 50
269.0647466392
 51
270.164488769
  0
LWPOLYLINE
  5
1D6
330
1F
100
AcDbEntity
  8
0
  6
Continuous
 62
     7
370
    25
100
AcDbPolyline
 90
        7
 70
   128
 43
0.0
 10
7100.8565793921
 20
5064.1174550567
 10
7101.5439183051
 20
5064.1162486928
 10
7103.2967837114
 20
5064.1136594395
 10
7105.3661823366
 20
5064.1111815459
 10
7107.7370766124
 20
5064.1088330179
 10
7110.3922381109
 20
5064.1066309215
 10
7113.3123727376
 20
5064.1045912585
  0
LINE
  5
1D7
330
1F
100
AcDbEntity
  8
0
  6
Continuous
 62
     7
370
    25
100
AcDbLine
 10
7135.5973243743
 20
4996.9326292902
 30
0.0
 11
7135.9963411491
 21
5012.1704615989
 31
0.0
  0
ARC
  5
1D8
330
1F
100
AcDbEntity
  8
0
  6
Continuous
 62
     7
370
    25
100
AcDbCircle
 10
7130.3622536608
 20
5044.7888063553
 30
0.0
 40
48.14166229643821
100
AcDbArc
 50
263.7917309822
 51
276.2428624162
  0
ARC
  5
1D9
330
1F
100
AcDbEntity
  8
0
  6
Continuous
 62
     7
370
    25
100
AcDbCircle
 10
7163.3509051233
 20
5044.7888062733
 30
0.0
 40
48.14166221489079
100
AcDbArc
 50
263.7571375732
 51
276.2082690284
  0
LINE
  5
1DA
330
1F
100
AcDbEntity
  8
0
  6
Continuous
 62
     7
370
    25
100
AcDbLine
 10
7158.1158344098
 20
4996.9326292902
 30
0.0
 11
7157.716817635
 21
5012.1704615989
 31
0.0
  0
LINE
  5
1DB
330
1F
100
AcDbEntity
  8
0
  6
Continuous
 62
     7
370
    25
100
AcDbLine
 10
7136.2942316842
 20
5023.6602327694
 30
0.0
 11
7137.1657041377
 21
5048.6159328593
 31
0.0
  0
LINE
  5
1DC
330
1F
100
AcDbEntity
  8
0
  6
Continuous
 62
     7
370
    25
100
AcDbLine
 10
7157.4189271
 20
5023.6602327694
 30
0.0
 11
7156.5474546464
 21
5048.6159328593
 31
0.0
  0
LWPOLYLINE
  5
1DD
330
1F
100
AcDbEntity
  8
0
  6
Continuous
 62
     7
370
    25
100
AcDbPolyline
 90
        6
 70
   128
 43
0.0
 10
7128.5997230995
 20
4990.1170960975
 10
7127.3221054771
 20
4990.608034071
 10
7126.217585817
 20
4992.0439740593
 10
7125.4535676837
 20
4994.2519889042
 10
7125.2406568874
 20
4995.5554369952
 10
7125.1560779617
 20
4996.9294772412
  0
ARC
  5
1DE
330
1F
100
AcDbEntity
  8
0
  6
Continuous
 62
     7
370
    25
100
AcDbCircle
 10
7128.6011671236
 20
4997.1156466288
 30
0.0
 40
6.99855068020538
100
AcDbArc
 50
269.9881780543
 51
358.5015016538
  0
LWPOLYLINE
  5
1DF
330
1F
100
AcDbEntity
  8
0
  6
Continuous
 62
     7
370
    25
100
AcDbPolyline
 90
        6
 70
   128
 43
0.0
 10
7168.5570808224
 20
4996.9294772412
 10
7168.4725046226
 20
4995.5554553018
 10
7168.2595979066
 20
4994.2520117512
 10
7167.4955729672
 20
4992.0439740593
 10
7166.3910533071
 20
4990.608034071
 10
7165.1134356846
 20
4990.1170960975
  0
ARC
  5
1E0
330
1F
100
AcDbEntity
  8
0
  6
Continuous
 62
     7
370
    25
100
AcDbCircle
 10
7165.1119916606
 20
4997.1156466288
 30
0.0
 40
6.998550680203839
100
AcDbArc
 50
181.4984983462
 51
270.0118219457
  0
LWPOLYLINE
  5
1E1
330
1F
100
AcDbEntity
  8
0
  6
Continuous
 62
     7
370
    25
100
AcDbPolyline
 90
        8
 70
   128
 43
0.0
 10
7128.5997230995
 20
4990.1170960975
 10
7126.6494368517
 20
4990.1186694257
 10
7124.9880774693
 20
4990.1203904844
 10
7123.6393994915
 20
4990.1222346653
 10
7122.6226866592
 20
4990.1241756
 10
7121.9524761912
 20
4990.1261855365
 10
7121.6383509271
 20
4990.1282357362
 10
7121.6182231468
 20
4990.1286657543
  0
LWPOLYLINE
  5
1E2
330
1F
100
AcDbEntity
  8
0
  6
Continuous
 62
     7
370
    25
100
AcDbPolyline
 90
        8
 70
   128
 43
0.0
 10
7172.0908755551
 20
4990.128545098
 10
7172.074807857
 20
4990.1282357362
 10
7171.760682593
 20
4990.1261855365
 10
7171.0904721249
 20
4990.1241756
 10
7170.0737592926
 20
4990.1222346653
 10
7168.7250813148
 20
4990.1203904844
 10
7167.0637219325
 20
4990.1186694257
 10
7165.1134356846
 20
4990.1170960975
  0
ARC
  5
1E3
330
1F
100
AcDbEntity
  8
0
  6
Continuous
 62
     7
370
    25
100
AcDbCircle
 10
7136.7907890469
 20
4695.8059960907
 30
0.0
 40
301.1334278497661
100
AcDbArc
 50
89.9618535684
 51
90.2270776388
  0
ARC
  5
1E4
330
1F
100
AcDbEntity
  8
0
  6
Continuous
 62
     7
370
    25
100
AcDbCircle
 10
7156.9223697372
 20
4695.8059960894
 30
0.0
 40
301.1334278510858
100
AcDbArc
 50
89.7729223612
 51
90.0381464316
  0
LWPOLYLINE
  5
1E5
330
1F
100
AcDbEntity
  8
0
  6
Continuous
 62
     7
370
    25
100
AcDbPolyline
 90
        9
 70
   128
 43
0.0
 10
7132.0432265822
 20
4990.125976597
 10
7132.9929824969
 20
4990.2553987365
 10
7133.9074425549
 20
4990.6401526618
 10
7134.7526226024
 20
4991.2659397315
 10
7135.4971131442
 20
4992.1095037694
 10
7136.1132466174
 20
4993.1394953363
 10
7136.5781256034
 20
4994.3176367714
 10
7136.8744737665
 20
4995.6001447083
 10
7136.9912778956
 20
4996.9393571997
  0
LWPOLYLINE
  5
1E6
330
1F
100
AcDbEntity
  8
0
  6
Continuous
 62
     7
370
    25
100
AcDbPolyline
 90
        8
 70
   128
 43
0.0
 10
7132.0432265822
 20
4990.125976597
 10
7131.2684065792
 20
4990.1253927729
 10
7130.5811106486
 20
4990.1247598945
 10
7129.9879578258
 20
4990.1240840569
 10
7129.4946604967
 20
4990.1233717687
 10
7129.1059693843
 20
4990.1226298897
 10
7128.8256277965
 20
4990.1218655645
 10
7128.6878173584
 20
4990.1212802233
  0
LWPOLYLINE
  5
1E7
330
1F
100
AcDbEntity
  8
0
  6
Continuous
 62
     7
370
    25
100
AcDbPolyline
 90
        9
 70
   128
 43
0.0
 10
7156.7218808885
 20
4996.9393571997
 10
7156.8386850177
 20
4995.6001447083
 10
7157.1350331808
 20
4994.3176367714
 10
7157.5999121668
 20
4993.1394953363
 10
7158.21604564
 20
4992.1095037694
 10
7158.9605361817
 20
4991.2659397315
 10
7159.8057162292
 20
4990.6401526618
 10
7160.7201762873
 20
4990.2553987365
 10
7161.669932202
 20
4990.125976597
  0
LWPOLYLINE
  5
1E8
330
1F
100
AcDbEntity
  8
0
  6
Continuous
 62
     7
370
    25
100
AcDbPolyline
 90
        6
 70
   128
 43
0.0
 10
7164.5234553466
 20
4990.1228106876
 10
7164.2184982875
 20
4990.1233717687
 10
7163.7252009584
 20
4990.1240840569
 10
7163.1320481356
 20
4990.1247598945
 10
7162.4447522049
 20
4990.1253927729
 10
7161.669932202
 20
4990.125976597
  0
LINE
  5
1E9
330
1F
100
AcDbEntity
  8
0
  6
Continuous
 62
     7
370
    25
100
AcDbLine
 10
7136.9912778956
 20
4996.9393571997
 30
0.0
 11
7140.7339185827
 21
4996.9419131589
 31
0.0
  0
LINE
  5
1EA
330
1F
100
AcDbEntity
  8
0
  6
Continuous
 62
     7
370
    25
100
AcDbLine
 10
7152.9792402014
 20
4996.9419131589
 30
0.0
 11
7156.7218808885
 21
4996.9393571997
 31
0.0
  0
LWPOLYLINE
  5
1EB
330
1F
100
AcDbEntity
  8
0
  6
Continuous
 62
     7
370
    25
100
AcDbPolyline
 90
        9
 70
   128
 43
0.0
 10
7135.7858672693
 20
4990.1285325562
 10
7136.735623184
 20
4990.2579546957
 10
7137.650083242
 20
4990.642708621
 10
7138.4952632895
 20
4991.2684956907
 10
7139.2397538313
 20
4992.1120597286
 10
7139.8558873045
 20
4993.1420512955
 10
7140.3207662905
 20
4994.3201927306
 10
7140.6171144536
 20
4995.6027006675
 10
7140.7339185827
 20
4996.9419131589
  0
LINE
  5
1EC
330
1F
100
AcDbEntity
  8
0
  6
Continuous
 62
     7
370
    25
100
AcDbLine
 10
7135.7858672693
 20
4990.1285325562
 30
0.0
 11
7132.0432265822
 21
4990.125976597
 31
0.0
  0
LWPOLYLINE
  5
1ED
330
1F
100
AcDbEntity
  8
0
  6
Continuous
 62
     7
370
    25
100
AcDbPolyline
 90
        9
 70
   128
 43
0.0
 10
7152.9792402014
 20
4996.9419131589
 10
7153.0960443305
 20
4995.6027006675
 10
7153.3923924936
 20
4994.3201927306
 10
7153.8572714797
 20
4993.1420512955
 10
7154.4734049529
 20
4992.1120597286
 10
7155.2178954946
 20
4991.2684956907
 10
7156.0630755421
 20
4990.642708621
 10
7156.9775356002
 20
4990.2579546957
 10
7157.9272915149
 20
4990.1285325562
  0
LINE
  5
1EE
330
1F
100
AcDbEntity
  8
0
  6
Continuous
 62
     7
370
    25
100
AcDbLine
 10
7161.669932202
 20
4990.125976597
 30
0.0
 11
7157.9272915149
 21
4990.1285325562
 31
0.0
  0
LWPOLYLINE
  5
1EF
330
1F
100
AcDbEntity
  8
0
  6
Continuous
 62
     7
370
    25
100
AcDbPolyline
 90
        9
 70
   128
 43
0.0
 10
7140.7339185827
 20
4996.9419131589
 10
7141.0799806583
 20
4996.9421273613
 10
7141.45511966
 20
4996.9423173673
 10
7141.8557227941
 20
4996.942481347
 10
7142.2779320335
 20
4996.9426177213
 10
7142.7176812724
 20
4996.9427251766
 10
7143.1707354852
 20
4996.9428026783
 10
7143.6327315123
 20
4996.9428494799
 10
7144.0992200792
 20
4996.9428651307
  0
LWPOLYLINE
  5
1F0
330
1F
100
AcDbEntity
  8
0
  6
Continuous
 62
     7
370
    25
100
AcDbPolyline
 90
        9
 70
   128
 43
0.0
 10
7149.613938705
 20
4996.9428651307
 10
7150.0804272719
 20
4996.9428494799
 10
7150.5424232989
 20
4996.9428026783
 10
7150.9954775117
 20
4996.9427251766
 10
7151.4352267506
 20
4996.9426177213
 10
7151.85743599
 20
4996.942481347
 10
7152.2580391242
 20
4996.9423173673
 10
7152.6331781258
 20
4996.9421273613
 10
7152.9792402014
 20
4996.9419131589
  0
LINE
  5
1F1
330
1F
100
AcDbEntity
  8
0
  6
Continuous
 62
     7
370
    25
100
AcDbLine
 10
7144.0992200792
 20
4990.1308842258
 30
0.0
 11
7144.0992200792
 21
4996.9428651307
 31
0.0
  0
LWPOLYLINE
  5
1F2
330
1F
100
AcDbEntity
  8
0
  6
Continuous
 62
     7
370
    25
100
AcDbPolyline
 90
        9
 70
   128
 43
0.0
 10
7144.0992200792
 20
4990.1308842258
 10
7142.9468466461
 20
4990.1308455634
 10
7141.8055711992
 20
4990.1307299488
 10
7140.6863848448
 20
4990.1305384953
 10
7139.6000659593
 20
4990.1302730467
 10
7138.5570763875
 20
4990.1299361595
 10
7137.5674606891
 20
4990.129531078
 10
7136.6407494043
 20
4990.1290617035
 10
7135.7858672693
 20
4990.1285325562
  0
LINE
  5
1F3
330
1F
100
AcDbEntity
  8
0
  6
Continuous
 62
     7
370
    25
100
AcDbLine
 10
7149.613938705
 20
4996.9428651307
 30
0.0
 11
7149.613938705
 21
4990.1308842258
 31
0.0
  0
LWPOLYLINE
  5
1F4
330
1F
100
AcDbEntity
  8
0
  6
Continuous
 62
     7
370
    25
100
AcDbPolyline
 90
        9
 70
   128
 43
0.0
 10
7157.9272915149
 20
4990.1285325562
 10
7157.0724093798
 20
4990.1290617035
 10
7156.145698095
 20
4990.129531078
 10
7155.1560823966
 20
4990.1299361595
 10
7154.1130928248
 20
4990.1302730467
 10
7153.0267739394
 20
4990.1305384953
 10
7151.907587585
 20
4990.1307299488
 10
7150.766312138
 20
4990.1308455634
 10
7149.613938705
 20
4990.1308842258
  0
LINE
  5
1F5
330
1F
100
AcDbEntity
  8
0
  6
Continuous
 62
     7
370
    25
100
AcDbLine
 10
7144.0992200792
 20
4996.9428651307
 30
0.0
 11
7149.613938705
 21
4996.9428651307
 31
0.0
  0
LINE
  5
1F6
330
1F
100
AcDbEntity
  8
0
  6
Continuous
 62
     7
370
    25
100
AcDbLine
 10
7149.613938705
 20
4990.1308842258
 30
0.0
 11
7144.0992200792
 21
4990.1308842258
 31
0.0
  0
LINE
  5
1F7
330
1F
100
AcDbEntity
  8
0
  6
Continuous
 62
     7
370
    25
100
AcDbLine
 10
7228.8565793921
 20
4980.1752953347
 30
0.0
 11
7224.0416248158
 21
4980.1695998773
 31
0.0
  0
LINE
  5
1F8
330
1F
100
AcDbEntity
  8
0
  6
Continuous
 62
     7
370
    25
100
AcDbLine
 10
7243.6715339683
 20
4980.1695998773
 30
0.0
 11
7238.8565793921
 21
4980.1752953347
 31
0.0
  0
LINE
  5
1F9
330
1F
100
AcDbEntity
  8
0
  6
Continuous
 62
     7
370
    25
100
AcDbLine
 10
7238.8565793921
 20
4980.16390442
 30
0.0
 11
7243.6715339683
 21
4980.1695998773
 31
0.0
  0
LINE
  5
1FA
330
1F
100
AcDbEntity
  8
0
  6
Continuous
 62
     7
370
    25
100
AcDbLine
 10
7224.0416248158
 20
4980.1695998773
 30
0.0
 11
7228.8565793921
 21
4980.16390442
 31
0.0
  0
LINE
  5
1FB
330
1F
100
AcDbEntity
  8
0
  6
Continuous
 62
     7
370
    25
100
AcDbLine
 10
7224.0416248158
 20
4980.1695998773
 30
0.0
 11
7224.0416248158
 21
4974.7129944779
 31
0.0
  0
LINE
  5
1FC
330
1F
100
AcDbEntity
  8
0
  6
Continuous
 62
     7
370
    25
100
AcDbLine
 10
7243.6715339683
 20
4980.1695998773
 30
0.0
 11
7243.6715339683
 21
4974.7129944779
 31
0.0
  0
LWPOLYLINE
  5
1FD
330
1F
100
AcDbEntity
  8
0
  6
Continuous
 62
     7
370
    25
100
AcDbPolyline
 90
       22
 70
   128
 43
0.0
 10
7237.8565793921
 20
5060.1695812216
 10
7237.6788706152
 20
5060.1703864095
 10
7237.1615344893
 20
5060.1711200528
 10
7236.3505385995
 20
5060.1717169643
 10
7235.3179434895
 20
5060.1721241057
 10
7234.1554997664
 20
5060.1723053006
 10
7232.9664956562
 20
5060.1722444492
 10
7231.8565793921
 20
5060.1719469583
 10
7230.9243719048
 20
5060.1714392613
 10
7230.2527039205
 20
5060.1707664694
 10
7229.9012560872
 20
5060.169988363
 10
7229.9012560872
 20
5060.1691740803
 10
7230.2527039205
 20
5060.1683959739
 10
7230.9243719048
 20
5060.1677231819
 10
7231.8565793921
 20
5060.167215485
 10
7232.9664956562
 20
5060.1669179941
 10
7234.1554997664
 20
5060.1668571427
 10
7235.3179434895
 20
5060.1670383376
 10
7236.3505385995
 20
5060.167445479
 10
7237.1615344893
 20
5060.1680423904
 10
7237.6788706152
 20
5060.1687760338
 10
7237.8565793921
 20
5060.1695812216
  0
LWPOLYLINE
  5
1FE
330
1F
100
AcDbEntity
  8
0
  6
Continuous
 62
     7
370
    25
100
AcDbPolyline
 90
        3
 70
   128
 43
0.0
 10
7238.8565793921
 20
5059.1695814548
 10
7238.6711658288
 20
5059.1686601942
 10
7238.3768477969
 20
5059.1681219702
  0
ARC
  5
1FF
330
1F
100
AcDbEntity
  8
0
  6
Continuous
 62
     7
370
    25
100
AcDbCircle
 10
7229.3483015535
 20
5141.8214095209
 30
0.0
 40
82.6532884204724
100
AcDbArc
 50
269.6591339017
 51
269.991688064
  0
LWPOLYLINE
  5
200
330
1F
100
AcDbEntity
  8
0
  6
Continuous
 62
     7
370
    25
100
AcDbPolyline
 90
       13
 70
   128
 43
0.0
 10
7081.8565793921
 20
4979.6884078552
 10
7081.9031496619
 20
4979.6879428942
 10
7082.2705228845
 20
4979.6870474562
 10
7082.9780229385
 20
4979.6862529128
 10
7083.9731777815
 20
4979.6856181916
 10
7085.1821813312
 20
4979.685190367
 10
7086.5153673252
 20
4979.6850011688
 10
7087.8738594573
 20
4979.6850646289
 10
7089.1569045807
 20
4979.6853760408
 10
7090.2693451082
 20
4979.6859123086
 10
7091.1286764148
 20
4979.6866336596
 10
7091.6711658288
 20
4979.6874865946
 10
7091.8565793921
 20
4979.6884078552
  0
LINE
  5
201
330
1F
100
AcDbEntity
  8
0
  6
Continuous
 62
     7
370
    25
100
AcDbLine
 10
7081.8565793921
 20
4979.6941033125
 30
0.0
 11
7077.0416248158
 21
4979.6884078552
 31
0.0
  0
LINE
  5
202
330
1F
100
AcDbEntity
  8
0
  6
Continuous
 62
     7
370
    25
100
AcDbLine
 10
7096.6715339683
 20
4979.6884078552
 30
0.0
 11
7091.8565793921
 21
4979.6941033125
 31
0.0
  0
LINE
  5
203
330
1F
100
AcDbEntity
  8
0
  6
Continuous
 62
     7
370
    25
100
AcDbLine
 10
7091.7640566802
 20
4979.6826029557
 30
0.0
 11
7096.6715339683
 21
4979.6884078552
 31
0.0
  0
LINE
  5
204
330
1F
100
AcDbEntity
  8
0
  6
Continuous
 62
     7
370
    25
100
AcDbLine
 10
7081.949102104
 20
4979.6826029557
 30
0.0
 11
7091.7640566802
 21
4979.6826029557
 31
0.0
  0
LINE
  5
205
330
1F
100
AcDbEntity
  8
0
  6
Continuous
 62
     7
370
    25
100
AcDbLine
 10
7077.0416248158
 20
4979.6884078552
 30
0.0
 11
7081.949102104
 21
4979.6826029557
 31
0.0
  0
LINE
  5
206
330
1F
100
AcDbEntity
  8
0
  6
Continuous
 62
     7
370
    25
100
AcDbLine
 10
7081.949102104
 20
4979.6826029557
 30
0.0
 11
7081.949102104
 21
4972.6826045881
 31
0.0
  0
LINE
  5
207
330
1F
100
AcDbEntity
  8
0
  6
Continuous
 62
     7
370
    25
100
AcDbLine
 10
7091.7640566802
 20
4979.6826029557
 30
0.0
 11
7091.7640566802
 21
4972.6826045881
 31
0.0
  0
LINE
  5
208
330
1F
100
AcDbEntity
  8
0
  6
Continuous
 62
     7
370
    25
100
AcDbLine
 10
7081.949102104
 20
4972.6826045881
 30
0.0
 11
7091.7640566802
 21
4972.6826045881
 31
0.0
  0
LINE
  5
209
330
1F
100
AcDbEntity
  8
0
  6
Continuous
 62
     7
370
    25
100
AcDbLine
 10
7077.0416248158
 20
4979.6884078552
 30
0.0
 11
7077.0416248158
 21
4972.6884094876
 31
0.0
  0
LINE
  5
20A
330
1F
100
AcDbEntity
  8
0
  6
Continuous
 62
     7
370
    25
100
AcDbLine
 10
7077.0416248158
 20
4972.6884094876
 30
0.0
 11
7081.949102104
 21
4972.6826045881
 31
0.0
  0
LINE
  5
20B
330
1F
100
AcDbEntity
  8
0
  6
Continuous
 62
     7
370
    25
100
AcDbLine
 10
7096.6715339683
 20
4979.6884078552
 30
0.0
 11
7096.6715339683
 21
4972.6884094876
 31
0.0
  0
LINE
  5
20C
330
1F
100
AcDbEntity
  8
0
  6
Continuous
 62
     7
370
    25
100
AcDbLine
 10
7091.7640566802
 20
4972.6826045881
 30
0.0
 11
7096.6715339683
 21
4972.6884094876
 31
0.0
  0
LWPOLYLINE
  5
20D
330
1F
100
AcDbEntity
  8
0
  6
Continuous
 62
     7
370
    25
100
AcDbPolyline
 90
       22
 70
   128
 43
0.0
 10
7090.8565793921
 20
5059.6883891995
 10
7090.6788706152
 20
5059.6891943874
 10
7090.1615344893
 20
5059.6899280307
 10
7089.3505385995
 20
5059.6905249422
 10
7088.3179434895
 20
5059.6909320836
 10
7087.1554997664
 20
5059.6911132785
 10
7085.9664956562
 20
5059.6910524271
 10
7084.8565793921
 20
5059.6907549362
 10
7083.9243719048
 20
5059.6902472392
 10
7083.2527039205
 20
5059.6895744473
 10
7082.9012560872
 20
5059.6887963409
 10
7082.9012560872
 20
5059.6879820582
 10
7083.2527039205
 20
5059.6872039518
 10
7083.9243719048
 20
5059.6865311598
 10
7084.8565793921
 20
5059.6860234629
 10
7085.9664956562
 20
5059.685725972
 10
7087.1554997664
 20
5059.6856651205
 10
7088.3179434895
 20
5059.6858463155
 10
7089.3505385995
 20
5059.6862534569
 10
7090.1615344893
 20
5059.6868503683
 10
7090.6788706152
 20
5059.6875840117
 10
7090.8565793921
 20
5059.6883891995
  0
LWPOLYLINE
  5
20E
330
1F
100
AcDbEntity
  8
0
  6
Continuous
 62
     7
370
    25
100
AcDbPolyline
 90
       13
 70
   128
 43
0.0
 10
7091.8565793921
 20
5058.6883894327
 10
7091.6711658288
 20
5058.6874681721
 10
7091.1286764148
 20
5058.6866152371
 10
7090.2693451082
 20
5058.6858938861
 10
7089.1569045807
 20
5058.6853576183
 10
7087.8738594573
 20
5058.6850462064
 10
7086.5153673252
 20
5058.6849827463
 10
7085.1821813312
 20
5058.6851719445
 10
7083.9731777815
 20
5058.6855997691
 10
7082.9780229385
 20
5058.6862344903
 10
7082.2705228845
 20
5058.6870290337
 10
7081.9031496619
 20
5058.6879244717
 10
7081.8565805581
 20
5058.6883917647
  0
LWPOLYLINE
  5
20F
330
1F
100
AcDbEntity
  8
0
  6
Continuous
 62
     7
370
    25
100
AcDbPolyline
 90
       13
 70
   128
 43
0.0
 10
7228.8565793921
 20
4974.6884090212
 10
7228.9031496619
 20
4974.6879440602
 10
7229.2705228845
 20
4974.6870486222
 10
7229.9780229385
 20
4974.6862540788
 10
7230.9731777815
 20
4974.6856193576
 10
7232.1821813312
 20
4974.685191533
 10
7233.5153673252
 20
4974.6850023348
 10
7234.8738594573
 20
4974.6850657949
 10
7236.1569045807
 20
4974.6853772068
 10
7237.2693451082
 20
4974.6859134745
 10
7238.1286764148
 20
4974.6866348256
 10
7238.6711658288
 20
4974.6874877605
 10
7238.8565793921
 20
4974.6884090212
  0
LINE
  5
210
330
1F
100
AcDbEntity
  8
0
  6
Continuous
 62
     7
370
    25
100
AcDbLine
 10
7248.8565793921
 20
4974.6788480103
 30
0.0
 11
7248.8565793921
 21
4974.7129944779
 31
0.0
  0
LINE
  5
211
330
1F
100
AcDbEntity
  8
0
  6
Continuous
 62
     7
370
    25
100
AcDbLine
 10
7218.8565793921
 20
4974.6788480103
 30
0.0
 11
7248.8565793921
 21
4974.6788480103
 31
0.0
  0
LINE
  5
212
330
1F
100
AcDbEntity
  8
0
  6
Continuous
 62
     7
370
    25
100
AcDbLine
 10
7218.8565793921
 20
4974.7129944779
 30
0.0
 11
7218.8565793921
 21
4974.6788480103
 31
0.0
  0
LINE
  5
213
330
1F
100
AcDbEntity
  8
0
  6
Continuous
 62
     7
370
    25
100
AcDbLine
 10
7248.8565793921
 20
4974.7129944779
 30
0.0
 11
7238.8565793921
 21
4974.7129944779
 31
0.0
  0
LINE
  5
214
330
1F
100
AcDbEntity
  8
0
  6
Continuous
 62
     7
370
    25
100
AcDbLine
 10
7228.8565793921
 20
4974.7129944779
 30
0.0
 11
7218.8565793921
 21
4974.7129944779
 31
0.0
  0
LINE
  5
215
330
1F
100
AcDbEntity
  8
0
  6
Continuous
 62
     7
370
    25
100
AcDbLine
 10
7218.8565793921
 20
4974.6788480103
 30
0.0
 11
7218.8565793921
 21
4972.6788484767
 31
0.0
  0
LINE
  5
216
330
1F
100
AcDbEntity
  8
0
  6
Continuous
 62
     7
370
    25
100
AcDbLine
 10
7248.8565793921
 20
4974.6788480103
 30
0.0
 11
7248.8565793921
 21
4972.6788484767
 31
0.0
  0
LINE
  5
217
330
1F
100
AcDbEntity
  8
0
  6
Continuous
 62
     7
370
    25
100
AcDbLine
 10
7218.8565793921
 20
4972.6788484767
 30
0.0
 11
7248.8565793921
 21
4972.6788484767
 31
0.0
  0
LWPOLYLINE
  5
218
330
1F
100
AcDbEntity
  8
0
  6
Continuous
 62
     7
370
    25
100
AcDbPolyline
 90
       22
 70
   128
 43
0.0
 10
7229.8565793921
 20
5059.6883891995
 10
7230.0342881689
 20
5059.6875840117
 10
7230.5516242948
 20
5059.6868503683
 10
7231.3626201846
 20
5059.6862534569
 10
7232.3952152946
 20
5059.6858463155
 10
7233.5576590177
 20
5059.6856651205
 10
7234.7466631279
 20
5059.685725972
 10
7235.8565793921
 20
5059.6860234629
 10
7236.7887868794
 20
5059.6865311598
 10
7237.4604548637
 20
5059.6872039518
 10
7237.811902697
 20
5059.6879820582
 10
7237.811902697
 20
5059.6887963409
 10
7237.4604548637
 20
5059.6895744473
 10
7236.7887868794
 20
5059.6902472392
 10
7235.8565793921
 20
5059.6907549362
 10
7234.7466631279
 20
5059.6910524271
 10
7233.5576590177
 20
5059.6911132785
 10
7232.3952152946
 20
5059.6909320836
 10
7231.3626201846
 20
5059.6905249422
 10
7230.5516242948
 20
5059.6899280307
 10
7230.0342881689
 20
5059.6891943874
 10
7229.8565793921
 20
5059.6883891995
  0
LWPOLYLINE
  5
219
330
1F
100
AcDbEntity
  8
0
  6
Continuous
 62
     7
370
    25
100
AcDbPolyline
 90
       14
 70
   128
 43
0.0
 10
7238.8565782261
 20
5058.6883917647
 10
7238.8100091223
 20
5058.6879244717
 10
7238.4426358996
 20
5058.6870290337
 10
7237.7351358456
 20
5058.6862344903
 10
7236.7399810026
 20
5058.6855997691
 10
7235.5309774529
 20
5058.6851719445
 10
7234.1977914589
 20
5058.6849827463
 10
7232.8392993268
 20
5058.6850462064
 10
7231.5562542034
 20
5058.6853576183
 10
7230.443813676
 20
5058.6858938861
 10
7229.5844823693
 20
5058.6866152371
 10
7229.0419929553
 20
5058.6874681721
 10
7228.8565793921
 20
5058.6883894327
 10
7228.8565793921
 20
5058.6883894327
  0
LINE
  5
21A
330
1F
100
AcDbEntity
  8
0
  6
Continuous
 62
     7
370
    25
100
AcDbLine
 10
7071.8565793921
 20
4975.1791620543
 30
0.0
 11
7071.8565793921
 21
4975.1450155866
 31
0.0
  0
LINE
  5
21B
330
1F
100
AcDbEntity
  8
0
  6
Continuous
 62
     7
370
    25
100
AcDbLine
 10
7101.8565793921
 20
4975.1791620543
 30
0.0
 11
7096.6715339683
 21
4975.1791620543
 31
0.0
  0
LINE
  5
21C
330
1F
100
AcDbEntity
  8
0
  6
Continuous
 62
     7
370
    25
100
AcDbLine
 10
7077.0416248158
 20
4975.1791620543
 30
0.0
 11
7071.8565793921
 21
4975.1791620543
 31
0.0
  0
LINE
  5
21D
330
1F
100
AcDbEntity
  8
0
  6
Continuous
 62
     7
370
    25
100
AcDbLine
 10
7101.8565793921
 20
4975.1450155866
 30
0.0
 11
7101.8565793921
 21
4975.1791620543
 31
0.0
  0
LINE
  5
21E
330
1F
100
AcDbEntity
  8
0
  6
Continuous
 62
     7
370
    25
100
AcDbLine
 10
7071.8565793921
 20
4975.1450155866
 30
0.0
 11
7077.0416248158
 21
4975.1450155866
 31
0.0
  0
LINE
  5
21F
330
1F
100
AcDbEntity
  8
0
  6
Continuous
 62
     7
370
    25
100
AcDbLine
 10
7096.6715339683
 20
4975.1450155866
 30
0.0
 11
7101.8565793921
 21
4975.1450155866
 31
0.0
  0
LINE
  5
220
330
1F
100
AcDbEntity
  8
0
  6
Continuous
 62
     7
370
    25
100
AcDbLine
 10
7071.8565793921
 20
4975.1450155866
 30
0.0
 11
7071.8565793921
 21
4973.145016053
 31
0.0
  0
LINE
  5
221
330
1F
100
AcDbEntity
  8
0
  6
Continuous
 62
     7
370
    25
100
AcDbLine
 10
7101.8565793921
 20
4975.1450155866
 30
0.0
 11
7101.8565793921
 21
4973.145016053
 31
0.0
  0
LINE
  5
222
330
1F
100
AcDbEntity
  8
0
  6
Continuous
 62
     7
370
    25
100
AcDbLine
 10
7071.8565793921
 20
4973.145016053
 30
0.0
 11
7077.0416248158
 21
4973.145016053
 31
0.0
  0
LINE
  5
223
330
1F
100
AcDbEntity
  8
0
  6
Continuous
 62
     7
370
    25
100
AcDbLine
 10
7096.6715339683
 20
4973.145016053
 30
0.0
 11
7101.8565793921
 21
4973.145016053
 31
0.0
  0
LWPOLYLINE
  5
224
330
1F
100
AcDbEntity
  8
0
  6
Continuous
 62
     7
370
    25
100
AcDbPolyline
 90
       22
 70
   128
 43
0.0
 10
7090.8565793921
 20
5060.1695812216
 10
7090.6788706152
 20
5060.1703864095
 10
7090.1615344893
 20
5060.1711200528
 10
7089.3505385995
 20
5060.1717169643
 10
7088.3179434895
 20
5060.1721241057
 10
7087.1554997664
 20
5060.1723053006
 10
7085.9664956562
 20
5060.1722444492
 10
7084.8565793921
 20
5060.1719469583
 10
7083.9243719048
 20
5060.1714392613
 10
7083.2527039205
 20
5060.1707664694
 10
7082.9012560872
 20
5060.169988363
 10
7082.9012560872
 20
5060.1691740803
 10
7083.2527039205
 20
5060.1683959739
 10
7083.9243719048
 20
5060.1677231819
 10
7084.8565793921
 20
5060.167215485
 10
7085.9664956562
 20
5060.1669179941
 10
7087.1554997664
 20
5060.1668571427
 10
7088.3179434895
 20
5060.1670383376
 10
7089.3505385995
 20
5060.167445479
 10
7090.1615344893
 20
5060.1680423904
 10
7090.6788706152
 20
5060.1687760338
 10
7090.8565793921
 20
5060.1695812216
  0
LWPOLYLINE
  5
225
330
1F
100
AcDbEntity
  8
0
  6
Continuous
 62
     7
370
    25
100
AcDbPolyline
 90
        3
 70
   128
 43
0.0
 10
7091.8565793921
 20
5059.1695814548
 10
7091.6711658288
 20
5059.1686601942
 10
7091.3768477969
 20
5059.1681219702
  0
ARC
  5
226
330
1F
100
AcDbEntity
  8
0
  6
Continuous
 62
     7
370
    25
100
AcDbCircle
 10
7082.3483015535
 20
5141.8214095216
 30
0.0
 40
82.65328842120546
100
AcDbArc
 50
269.6591339017
 51
269.991688064
  0
LWPOLYLINE
  5
227
330
1F
100
AcDbEntity
  8
0
  6
Continuous
 62
     7
370
    25
100
AcDbPolyline
 90
        9
 70
   128
 43
0.0
 10
7199.0565793921
 20
5077.6758873948
 10
7199.014307009
 20
5077.6755942824
 10
7198.8891143636
 20
5077.6753124342
 10
7198.6858125391
 20
5077.6750526814
 10
7198.4122143107
 20
5077.6748250061
 10
7198.0788339047
 20
5077.6746381578
 10
7197.6984829433
 20
5077.674499317
 10
7197.2857781005
 20
5077.6744138193
 10
7196.8565793921
 20
5077.6743849503
  0
LWPOLYLINE
  5
228
330
1F
100
AcDbEntity
  8
0
  6
Continuous
 62
     7
370
    25
100
AcDbPolyline
 90
        9
 70
   128
 43
0.0
 10
7096.8565793921
 20
5077.6743849503
 10
7096.4273806836
 20
5077.6744138193
 10
7096.0146758409
 20
5077.674499317
 10
7095.6343248794
 20
5077.6746381578
 10
7095.3009444735
 20
5077.6748250061
 10
7095.027346245
 20
5077.6750526814
 10
7094.8240444205
 20
5077.6753124342
 10
7094.6988517752
 20
5077.6755942824
 10
7094.6565793921
 20
5077.6758873948
  0
LINE
  5
229
330
1F
100
AcDbEntity
  8
0
  6
Continuous
 62
     7
370
    25
100
AcDbLine
 10
7196.8565793921
 20
5077.6743849503
 30
0.0
 11
7096.8565793921
 21
5077.6743849503
 31
0.0
  0
LINE
  5
22A
330
1F
100
AcDbEntity
  8
0
  6
Continuous
 62
     7
370
    25
100
AcDbLine
 10
7075.6565793921
 20
5078.2037234917
 30
0.0
 11
7075.6565793921
 21
5077.6542385343
 31
0.0
  0
LINE
  5
22B
330
1F
100
AcDbEntity
  8
0
  6
Continuous
 62
     7
370
    25
100
AcDbLine
 10
7218.0565793921
 20
5078.2037234917
 30
0.0
 11
7199.0565793921
 21
5078.2037234917
 31
0.0
  0
LINE
  5
22C
330
1F
100
AcDbEntity
  8
0
  6
Continuous
 62
     7
370
    25
100
AcDbLine
 10
7094.6565793921
 20
5078.2037234917
 30
0.0
 11
7075.6565793921
 21
5078.2037234917
 31
0.0
  0
LINE
  5
22D
330
1F
100
AcDbEntity
  8
0
  6
Continuous
 62
     7
370
    25
100
AcDbLine
 10
7218.0565793921
 20
5077.6542385343
 30
0.0
 11
7218.0565793921
 21
5078.2037234917
 31
0.0
  0
LINE
  5
22E
330
1F
100
AcDbEntity
  8
0
  6
Continuous
 62
     7
370
    25
100
AcDbLine
 10
7075.6565793921
 20
5077.6542385343
 30
0.0
 11
7218.0565793921
 21
5077.6542385343
 31
0.0
  0
LWPOLYLINE
  5
22F
330
1F
100
AcDbEntity
  8
0
  6
Continuous
 62
     7
370
    25
100
AcDbPolyline
 90
       22
 70
   128
 43
0.0
 10
7091.6266335065
 20
5078.1695770241
 10
7091.4378179311
 20
5078.1704325362
 10
7090.8881482974
 20
5078.1712120323
 10
7090.0264651644
 20
5078.1718462507
 10
7088.9293328601
 20
5078.1722788384
 10
7087.6942364043
 20
5078.172471358
 10
7086.4309195372
 20
5078.1724067034
 10
7085.2516335065
 20
5078.1720906193
 10
7084.2611630513
 20
5078.1715511913
 10
7083.547515818
 20
5078.1708363499
 10
7083.1741024951
 20
5078.1700096118
 10
7083.1741024951
 20
5078.1691444364
 10
7083.547515818
 20
5078.1683176984
 10
7084.2611630513
 20
5078.1676028569
 10
7085.2516335065
 20
5078.1670634289
 10
7086.4309195372
 20
5078.1667473448
 10
7087.6942364043
 20
5078.1666826902
 10
7088.9293328601
 20
5078.1668752098
 10
7090.0264651644
 20
5078.1673077975
 10
7090.8881482974
 20
5078.1679420159
 10
7091.4378179311
 20
5078.168721512
 10
7091.6266335065
 20
5078.1695770241
  0
LWPOLYLINE
  5
230
330
1F
100
AcDbEntity
  8
0
  6
Continuous
 62
     7
370
    25
100
AcDbPolyline
 90
       22
 70
   128
 43
0.0
 10
7091.6266335065
 20
5077.688385002
 10
7091.4378179311
 20
5077.6892405141
 10
7090.8881482974
 20
5077.6900200102
 10
7090.0264651644
 20
5077.6906542286
 10
7088.9293328601
 20
5077.6910868163
 10
7087.6942364043
 20
5077.6912793359
 10
7086.4309195372
 20
5077.6912146813
 10
7085.2516335065
 20
5077.6908985972
 10
7084.2611630513
 20
5077.6903591692
 10
7083.547515818
 20
5077.6896443277
 10
7083.1741024951
 20
5077.6888175897
 10
7083.1741024951
 20
5077.6879524143
 10
7083.547515818
 20
5077.6871256762
 10
7084.2611630513
 20
5077.6864108348
 10
7085.2516335065
 20
5077.6858714068
 10
7086.4309195372
 20
5077.6855553227
 10
7087.6942364043
 20
5077.6854906681
 10
7088.9293328601
 20
5077.6856831877
 10
7090.0264651644
 20
5077.6861157754
 10
7090.8881482974
 20
5077.6867499938
 10
7091.4378179311
 20
5077.6875294899
 10
7091.6266335065
 20
5077.688385002
  0
LINE
  5
231
330
1F
100
AcDbEntity
  8
0
  6
Continuous
 62
     7
370
    25
100
AcDbLine
 10
7075.6565793921
 20
5077.6542385343
 30
0.0
 11
7075.6565793921
 21
5076.4542388142
 31
0.0
  0
LINE
  5
232
330
1F
100
AcDbEntity
  8
0
  6
Continuous
 62
     7
370
    25
100
AcDbLine
 10
7218.0565793921
 20
5077.6542385343
 30
0.0
 11
7218.0565793921
 21
5076.4542388142
 31
0.0
  0
LINE
  5
233
330
1F
100
AcDbEntity
  8
0
  6
Continuous
 62
     7
370
    25
100
AcDbLine
 10
7075.6565793921
 20
5076.4542388142
 30
0.0
 11
7218.0565793921
 21
5076.4542388142
 31
0.0
  0
LWPOLYLINE
  5
234
330
1F
100
AcDbEntity
  8
0
  6
Continuous
 62
     7
370
    25
100
AcDbPolyline
 90
        9
 70
   128
 43
0.0
 10
7096.8565793921
 20
5091.6213630155
 10
7096.0053504813
 20
5091.6214202714
 10
7095.1868338201
 20
5091.6215898389
 10
7094.4324845449
 20
5091.6218652015
 10
7093.7712918753
 20
5091.6222357773
 10
7093.2286650746
 20
5091.6226873252
 10
7092.8254569866
 20
5091.6232024924
 10
7092.577162672
 20
5091.6237614815
 10
7092.493323942
 20
5091.6243428107
  0
LINE
  5
235
330
1F
100
AcDbEntity
  8
0
  6
Continuous
 62
     7
370
    25
100
AcDbLine
 10
7092.456580376
 20
5091.9777130688
 30
0.0
 11
7092.493323942
 21
5091.6243428107
 31
0.0
  0
LINE
  5
236
330
1F
100
AcDbEntity
  8
0
  6
Continuous
 62
     7
370
    25
100
AcDbLine
 10
7196.8565793921
 20
5091.6213630155
 30
0.0
 11
7096.8565793921
 21
5091.6213630155
 31
0.0
  0
LWPOLYLINE
  5
237
330
1F
100
AcDbEntity
  8
0
  6
Continuous
 62
     7
370
    25
100
AcDbPolyline
 90
        9
 70
   128
 43
0.0
 10
7201.2198348422
 20
5091.6243428107
 10
7201.1359961122
 20
5091.6237614815
 10
7200.8877017975
 20
5091.6232024924
 10
7200.4844937095
 20
5091.6226873252
 10
7199.9418669089
 20
5091.6222357773
 10
7199.2806742392
 20
5091.6218652015
 10
7198.526324964
 20
5091.6215898389
 10
7197.7078083029
 20
5091.6214202714
 10
7196.8565793921
 20
5091.6213630155
  0
LINE
  5
238
330
1F
100
AcDbEntity
  8
0
  6
Continuous
 62
     7
370
    25
100
AcDbLine
 10
7201.2565793921
 20
5091.9758840601
 30
0.0
 11
7201.2198348422
 21
5091.6243428107
 31
0.0
  0
LWPOLYLINE
  5
239
330
1F
100
AcDbEntity
  8
0
  6
Continuous
 62
     7
370
    25
100
AcDbPolyline
 90
        9
 70
   128
 43
0.0
 10
7096.8565793921
 20
5087.4149133492
 10
7096.1788233869
 20
5087.4149589369
 10
7095.527113165
 20
5087.415093948
 10
7094.9264935846
 20
5087.4153131942
 10
7094.4000461194
 20
5087.4156082499
 10
7093.9680018502
 20
5087.4159677763
 10
7093.646963996
 20
5087.416377957
 10
7093.4492698615
 20
5087.4168230291
 10
7093.3825167214
 20
5087.4172858886
  0
LINE
  5
23A
330
1F
100
AcDbEntity
  8
0
  6
Continuous
 62
     7
370
    25
100
AcDbLine
 10
7092.493323942
 20
5091.6243428107
 30
0.0
 11
7093.3825167214
 21
5087.4172858886
 31
0.0
  0
LINE
  5
23B
330
1F
100
AcDbEntity
  8
0
  6
Continuous
 62
     7
370
    25
100
AcDbLine
 10
7096.8565793921
 20
5091.6213630155
 30
0.0
 11
7096.8565793921
 21
5087.4149133492
 31
0.0
  0
LINE
  5
23C
330
1F
100
AcDbEntity
  8
0
  6
Continuous
 62
     7
370
    25
100
AcDbLine
 10
7196.8565793921
 20
5087.4149133492
 30
0.0
 11
7096.8565793921
 21
5087.4149133492
 31
0.0
  0
LINE
  5
23D
330
1F
100
AcDbEntity
  8
0
  6
Continuous
 62
     7
370
    25
100
AcDbLine
 10
7196.8565793921
 20
5091.6213630155
 30
0.0
 11
7196.8565793921
 21
5087.4149133492
 31
0.0
  0
LWPOLYLINE
  5
23E
330
1F
100
AcDbEntity
  8
0
  6
Continuous
 62
     7
370
    25
100
AcDbPolyline
 90
        9
 70
   128
 43
0.0
 10
7200.3306420627
 20
5087.4172858886
 10
7200.2638889227
 20
5087.4168230291
 10
7200.0661947882
 20
5087.416377957
 10
7199.745156934
 20
5087.4159677763
 10
7199.3131126648
 20
5087.4156082499
 10
7198.7866651995
 20
5087.4153131942
 10
7198.1860456191
 20
5087.415093948
 10
7197.5343353972
 20
5087.4149589369
 10
7196.8565793921
 20
5087.4149133492
  0
LINE
  5
23F
330
1F
100
AcDbEntity
  8
0
  6
Continuous
 62
     7
370
    25
100
AcDbLine
 10
7201.2198348422
 20
5091.6243428107
 30
0.0
 11
7200.3306420627
 21
5087.4172858886
 31
0.0
  0
LINE
  5
240
330
1F
100
AcDbEntity
  8
0
  6
Continuous
 62
     7
370
    25
100
AcDbLine
 10
7094.6565793921
 20
5087.4154969014
 30
0.0
 11
7094.6565793921
 21
5077.6758873948
 31
0.0
  0
LINE
  5
241
330
1F
100
AcDbEntity
  8
0
  6
Continuous
 62
     7
370
    25
100
AcDbLine
 10
7199.0565793921
 20
5087.4154496959
 30
0.0
 11
7199.0565793921
 21
5077.6758873948
 31
0.0
  0
LINE
  5
242
330
1F
100
AcDbEntity
  8
0
  6
Continuous
 62
     7
370
    25
100
AcDbLine
 10
7076.8564442214
 20
5051.6815617716
 30
0.0
 11
7097.8564442214
 21
5051.6815617716
 31
0.0
  0
ARC
  5
243
330
1F
100
AcDbEntity
  8
0
  6
Continuous
 62
     7
370
    25
100
AcDbCircle
 10
7097.8564443379
 20
5052.681561655
 30
0.0
 40
0.9999998834028316
100
AcDbArc
 50
269.9999933195
 51
359.9996209777
  0
LINE
  5
244
330
1F
100
AcDbEntity
  8
0
  6
Continuous
 62
     7
370
    25
100
AcDbLine
 10
7098.8564442213
 20
5052.6815550398
 30
0.0
 11
7098.8565793921
 21
5073.4815761836
 31
0.0
  0
ARC
  5
245
330
1F
100
AcDbEntity
  8
0
  6
Continuous
 62
     7
370
    25
100
AcDbCircle
 10
7101.8565789614
 20
5073.4815563707
 30
0.0
 40
2.999999569364669
100
AcDbArc
 50
97.7379271129
 51
179.9996216014
  0
ARC
  5
246
330
1F
100
AcDbEntity
  8
0
  6
Continuous
 62
     7
370
    25
100
AcDbCircle
 10
7191.8565794873
 20
5073.4815556781
 30
0.0
 40
3.000000300866493
100
AcDbArc
 50
48.6002598511
 51
82.2620683199
  0
LINE
  5
247
330
1F
100
AcDbEntity
  8
0
  6
Continuous
 62
     7
370
    25
100
AcDbLine
 10
7193.8405050763
 20
5075.7318981103
 30
0.0
 11
7220.8370628434
 21
5051.9314477309
 31
0.0
  0
ARC
  5
248
330
1F
100
AcDbEntity
  8
0
  6
Continuous
 62
     7
370
    25
100
AcDbCircle
 10
7221.4983713889
 20
5052.6815619043
 30
0.0
 40
1.00000013272197
100
AcDbArc
 50
228.6002602839
 51
270.0000009136
  0
LINE
  5
249
330
1F
100
AcDbEntity
  8
0
  6
Continuous
 62
     7
370
    25
100
AcDbLine
 10
7221.4983714048
 20
5051.6815617716
 30
0.0
 11
7242.4983714048
 21
5051.6815617716
 31
0.0
  0
LINE
  5
24A
330
1F
100
AcDbEntity
  8
0
  6
Continuous
 62
     7
370
    25
100
AcDbLine
 10
7242.4983714048
 20
5051.6815617716
 30
0.0
 11
7242.4983714048
 21
5049.681562238
 31
0.0
  0
LINE
  5
24B
330
1F
100
AcDbEntity
  8
0
  6
Continuous
 62
     7
370
    25
100
AcDbLine
 10
7242.4983714048
 20
5049.681562238
 30
0.0
 11
7221.4983714048
 21
5049.681562238
 31
0.0
  0
ARC
  5
24C
330
1F
100
AcDbEntity
  8
0
  6
Continuous
 62
     7
370
    25
100
AcDbCircle
 10
7221.498371357
 20
5052.6815626361
 30
0.0
 40
3.000000398157284
100
AcDbArc
 50
228.6002602838
 51
270.0000009137
  0
LINE
  5
24D
330
1F
100
AcDbEntity
  8
0
  6
Continuous
 62
     7
370
    25
100
AcDbLine
 10
7219.5144457205
 20
5050.4312201159
 30
0.0
 11
7192.5178879535
 21
5074.2316704954
 31
0.0
  0
ARC
  5
24E
330
1F
100
AcDbEntity
  8
0
  6
Continuous
 62
     7
370
    25
100
AcDbCircle
 10
7191.856579408
 20
5073.481556322
 30
0.0
 40
1.00000013271206
100
AcDbArc
 50
48.6002602836
 51
90.0000009139
  0
LINE
  5
24F
330
1F
100
AcDbEntity
  8
0
  6
Continuous
 62
     7
370
    25
100
AcDbLine
 10
7191.8565793921
 20
5074.4815564547
 30
0.0
 11
7101.8565793921
 21
5074.4815564547
 31
0.0
  0
ARC
  5
250
330
1F
100
AcDbEntity
  8
0
  6
Continuous
 62
     7
370
    25
100
AcDbCircle
 10
7101.8565792755
 20
5073.4815565713
 30
0.0
 40
0.999999883402786
100
AcDbArc
 50
89.9999933194
 51
179.9996209776
  0
LINE
  5
251
330
1F
100
AcDbEntity
  8
0
  6
Continuous
 62
     7
370
    25
100
AcDbLine
 10
7100.8565793921
 20
5073.4815631865
 30
0.0
 11
7100.8564442213
 21
5052.6815420426
 31
0.0
  0
ARC
  5
252
330
1F
100
AcDbEntity
  8
0
  6
Continuous
 62
     7
370
    25
100
AcDbCircle
 10
7097.8564445711
 20
5052.6815618882
 30
0.0
 40
2.999999650210314
100
AcDbArc
 50
269.9999933195
 51
359.9996209777
  0
LINE
  5
253
330
1F
100
AcDbEntity
  8
0
  6
Continuous
 62
     7
370
    25
100
AcDbLine
 10
7097.8564442214
 20
5049.681562238
 30
0.0
 11
7076.8564442214
 21
5049.681562238
 31
0.0
  0
LINE
  5
254
330
1F
100
AcDbEntity
  8
0
  6
Continuous
 62
     7
370
    25
100
AcDbLine
 10
7076.8564442214
 20
5049.681562238
 30
0.0
 11
7076.8564442214
 21
5051.6815617716
 31
0.0
  0
LINE
  5
255
330
1F
100
AcDbEntity
  8
0
  6
Continuous
 62
     7
370
    25
100
AcDbLine
 10
7098.8565793921
 20
5073.4952347707
 30
0.0
 11
7098.8565793921
 21
5073.4815761836
 31
0.0
  0
ARC
  5
256
330
1F
100
AcDbEntity
  8
0
  6
Continuous
 62
     7
370
    25
100
AcDbCircle
 10
7101.8565789428
 20
5073.4952149654
 30
0.0
 40
2.999999550715875
100
AcDbArc
 50
99.4805994652
 51
179.9996217462
  0
ARC
  5
257
330
1F
100
AcDbEntity
  8
0
  6
Continuous
 62
     7
370
    25
100
AcDbCircle
 10
7191.8565794952
 20
5073.495214277
 30
0.0
 40
3.000000286757537
100
AcDbArc
 50
48.600259816
 51
80.5193961799
  0
LINE
  5
258
330
1F
100
AcDbEntity
  8
0
  6
Continuous
 62
     7
370
    25
100
AcDbLine
 10
7193.8405050763
 20
5075.7455566974
 30
0.0
 11
7193.8405050763
 21
5075.7318981103
 31
0.0
  0
LINE
  5
259
330
1F
100
AcDbEntity
  8
0
  6
Continuous
 62
     7
370
    25
100
AcDbLine
 10
7193.8405050763
 20
5075.7455566974
 30
0.0
 11
7220.8370628434
 21
5051.945106318
 31
0.0
  0
LINE
  5
25A
330
1F
100
AcDbEntity
  8
0
  6
Continuous
 62
     7
370
    25
100
AcDbLine
 10
7220.8370628434
 20
5051.945106318
 30
0.0
 11
7220.8370628434
 21
5051.9314477309
 31
0.0
  0
LINE
  5
25B
330
1F
100
AcDbEntity
  8
0
  6
Continuous
 62
     7
370
    25
100
AcDbLine
 10
7097.8564442214
 20
5051.6952203586
 30
0.0
 11
7097.8564442214
 21
5051.6815617716
 31
0.0
  0
ARC
  5
25C
330
1F
100
AcDbEntity
  8
0
  6
Continuous
 62
     7
370
    25
100
AcDbCircle
 10
7097.8564443379
 20
5052.695220242
 30
0.0
 40
0.9999998834037411
100
AcDbArc
 50
269.9999933195
 51
359.9996209777
  0
ARC
  5
25D
330
1F
100
AcDbEntity
  8
0
  6
Continuous
 62
     7
370
    25
100
AcDbCircle
 10
7221.4983713889
 20
5052.6952204913
 30
0.0
 40
1.000000132716195
100
AcDbArc
 50
228.6002602838
 51
270.0000009138
  0
LINE
  5
25E
330
1F
100
AcDbEntity
  8
0
  6
Continuous
 62
     7
370
    25
100
AcDbLine
 10
7221.4983714048
 20
5051.6952203586
 30
0.0
 11
7221.4983714048
 21
5051.6815617716
 31
0.0
  0
LINE
  5
25F
330
1F
100
AcDbEntity
  8
0
  6
Continuous
 62
     7
370
    25
100
AcDbLine
 10
7076.8564442214
 20
5051.6952203586
 30
0.0
 11
7077.0416248158
 21
5051.6952203586
 31
0.0
  0
LINE
  5
260
330
1F
100
AcDbEntity
  8
0
  6
Continuous
 62
     7
370
    25
100
AcDbLine
 10
7096.6715339683
 20
5051.6952203586
 30
0.0
 11
7097.8564442214
 21
5051.6952203586
 31
0.0
  0
LINE
  5
261
330
1F
100
AcDbEntity
  8
0
  6
Continuous
 62
     7
370
    25
100
AcDbLine
 10
7081.949102104
 20
5051.6825861656
 30
0.0
 11
7077.0416248158
 21
5051.6883910651
 31
0.0
  0
LINE
  5
262
330
1F
100
AcDbEntity
  8
0
  6
Continuous
 62
     7
370
    25
100
AcDbLine
 10
7091.7640566802
 20
5051.6825861656
 30
0.0
 11
7081.949102104
 21
5051.6825861656
 31
0.0
  0
LINE
  5
263
330
1F
100
AcDbEntity
  8
0
  6
Continuous
 62
     7
370
    25
100
AcDbLine
 10
7096.6715339683
 20
5051.6883910651
 30
0.0
 11
7091.7640566802
 21
5051.6825861656
 31
0.0
  0
LINE
  5
264
330
1F
100
AcDbEntity
  8
0
  6
Continuous
 62
     7
370
    25
100
AcDbLine
 10
7076.8564442214
 20
5051.6952203586
 30
0.0
 11
7076.8564442214
 21
5051.6815617716
 31
0.0
  0
LINE
  5
265
330
1F
100
AcDbEntity
  8
0
  6
Continuous
 62
     7
370
    25
100
AcDbLine
 10
7221.4983714048
 20
5051.6952203586
 30
0.0
 11
7224.0416248158
 21
5051.6952203586
 31
0.0
  0
LINE
  5
266
330
1F
100
AcDbEntity
  8
0
  6
Continuous
 62
     7
370
    25
100
AcDbLine
 10
7228.949102104
 20
5051.6825861656
 30
0.0
 11
7224.0416248158
 21
5051.6883910651
 31
0.0
  0
LINE
  5
267
330
1F
100
AcDbEntity
  8
0
  6
Continuous
 62
     7
370
    25
100
AcDbLine
 10
7238.7640566802
 20
5051.6825861656
 30
0.0
 11
7228.949102104
 21
5051.6825861656
 31
0.0
  0
LINE
  5
268
330
1F
100
AcDbEntity
  8
0
  6
Continuous
 62
     7
370
    25
100
AcDbLine
 10
7242.4983714048
 20
5051.6870033682
 30
0.0
 11
7238.7640566802
 21
5051.6825861656
 31
0.0
  0
LINE
  5
269
330
1F
100
AcDbEntity
  8
0
  6
Continuous
 62
     7
370
    25
100
AcDbLine
 10
7242.4983714048
 20
5051.6870033682
 30
0.0
 11
7242.4983714048
 21
5051.6815617716
 31
0.0
  0
LINE
  5
26A
330
1F
100
AcDbEntity
  8
0
  6
Continuous
 62
     7
370
    25
100
AcDbLine
 10
7081.949102104
 20
5058.6825845332
 30
0.0
 11
7081.949102104
 21
5051.6825861656
 31
0.0
  0
LINE
  5
26B
330
1F
100
AcDbEntity
  8
0
  6
Continuous
 62
     7
370
    25
100
AcDbLine
 10
7091.7640566802
 20
5058.6825845332
 30
0.0
 11
7081.949102104
 21
5058.6825845332
 31
0.0
  0
LINE
  5
26C
330
1F
100
AcDbEntity
  8
0
  6
Continuous
 62
     7
370
    25
100
AcDbLine
 10
7091.7640566802
 20
5058.6825845332
 30
0.0
 11
7091.7640566802
 21
5051.6825861656
 31
0.0
  0
LINE
  5
26D
330
1F
100
AcDbEntity
  8
0
  6
Continuous
 62
     7
370
    25
100
AcDbLine
 10
7091.8508783545
 20
5058.6940916336
 30
0.0
 11
7096.6715339683
 21
5058.6883894327
 31
0.0
  0
LINE
  5
26E
330
1F
100
AcDbEntity
  8
0
  6
Continuous
 62
     7
370
    25
100
AcDbLine
 10
7096.6715339683
 20
5058.6883894327
 30
0.0
 11
7091.7640566802
 21
5058.6825845332
 31
0.0
  0
LINE
  5
26F
330
1F
100
AcDbEntity
  8
0
  6
Continuous
 62
     7
370
    25
100
AcDbLine
 10
7081.949102104
 20
5058.6825845332
 30
0.0
 11
7077.0416248158
 21
5058.6883894327
 31
0.0
  0
LINE
  5
270
330
1F
100
AcDbEntity
  8
0
  6
Continuous
 62
     7
370
    25
100
AcDbLine
 10
7077.0416248158
 20
5058.6883894327
 30
0.0
 11
7081.8622804296
 21
5058.6940916336
 31
0.0
  0
LINE
  5
271
330
1F
100
AcDbEntity
  8
0
  6
Continuous
 62
     7
370
    25
100
AcDbLine
 10
7077.0416248158
 20
5058.6883894327
 30
0.0
 11
7077.0416248158
 21
5051.6883910651
 31
0.0
  0
LINE
  5
272
330
1F
100
AcDbEntity
  8
0
  6
Continuous
 62
     7
370
    25
100
AcDbLine
 10
7096.6715339683
 20
5058.6883894327
 30
0.0
 11
7096.6715339683
 21
5051.6883910651
 31
0.0
  0
LINE
  5
273
330
1F
100
AcDbEntity
  8
0
  6
Continuous
 62
     7
370
    25
100
AcDbLine
 10
7224.0416248158
 20
5058.6883894327
 30
0.0
 11
7224.0416248158
 21
5051.6883910651
 31
0.0
  0
LINE
  5
274
330
1F
100
AcDbEntity
  8
0
  6
Continuous
 62
     7
370
    25
100
AcDbLine
 10
7228.949102104
 20
5058.6825845332
 30
0.0
 11
7224.0416248158
 21
5058.6883894327
 31
0.0
  0
LINE
  5
275
330
1F
100
AcDbEntity
  8
0
  6
Continuous
 62
     7
370
    25
100
AcDbLine
 10
7228.949102104
 20
5058.6825845332
 30
0.0
 11
7228.949102104
 21
5051.6825861656
 31
0.0
  0
LINE
  5
276
330
1F
100
AcDbEntity
  8
0
  6
Continuous
 62
     7
370
    25
100
AcDbLine
 10
7238.8508783545
 20
5058.6940916336
 30
0.0
 11
7243.6715339683
 21
5058.6883894327
 31
0.0
  0
LINE
  5
277
330
1F
100
AcDbEntity
  8
0
  6
Continuous
 62
     7
370
    25
100
AcDbLine
 10
7243.6715339683
 20
5058.6883894327
 30
0.0
 11
7238.7640566802
 21
5058.6825845332
 31
0.0
  0
LINE
  5
278
330
1F
100
AcDbEntity
  8
0
  6
Continuous
 62
     7
370
    25
100
AcDbLine
 10
7238.7640566802
 20
5058.6825845332
 30
0.0
 11
7228.949102104
 21
5058.6825845332
 31
0.0
  0
LINE
  5
279
330
1F
100
AcDbEntity
  8
0
  6
Continuous
 62
     7
370
    25
100
AcDbLine
 10
7224.0416248158
 20
5058.6883894327
 30
0.0
 11
7228.8622804296
 21
5058.6940916336
 31
0.0
  0
LINE
  5
27A
330
1F
100
AcDbEntity
  8
0
  6
Continuous
 62
     7
370
    25
100
AcDbLine
 10
7238.7640566802
 20
5058.6825845332
 30
0.0
 11
7238.7640566802
 21
5051.6825861656
 31
0.0
  0
LINE
  5
27B
330
1F
100
AcDbEntity
  8
0
  6
Continuous
 62
     7
370
    25
100
AcDbLine
 10
7243.6715339683
 20
5058.6883894327
 30
0.0
 11
7243.6715339683
 21
5051.6883910651
 31
0.0
  0
LINE
  5
27C
330
1F
100
AcDbEntity
  8
0
  6
Continuous
 62
     7
370
    25
100
AcDbLine
 10
7243.6715339683
 20
5051.6883910651
 30
0.0
 11
7242.4983714048
 21
5051.6870033682
 31
0.0
  0
LINE
  5
27D
330
1F
100
AcDbEntity
  8
0
  6
Continuous
 62
     7
370
    25
100
AcDbLine
 10
7076.8564442214
 20
5052.1627537937
 30
0.0
 11
7077.0416248158
 21
5052.1627537937
 31
0.0
  0
LINE
  5
27E
330
1F
100
AcDbEntity
  8
0
  6
Continuous
 62
     7
370
    25
100
AcDbLine
 10
7096.6715339683
 20
5052.1627537937
 30
0.0
 11
7097.8564442214
 21
5052.1627537937
 31
0.0
  0
ARC
  5
27F
330
1F
100
AcDbEntity
  8
0
  6
Continuous
 62
     7
370
    25
100
AcDbCircle
 10
7097.8564443379
 20
5053.1627536771
 30
0.0
 40
0.999999883404605
100
AcDbArc
 50
269.9999933195
 51
359.9996209776
  0
LINE
  5
280
330
1F
100
AcDbEntity
  8
0
  6
Continuous
 62
     7
370
    25
100
AcDbLine
 10
7098.8565762651
 20
5073.4815761837
 30
0.0
 11
7098.8565793921
 21
5073.9627682058
 31
0.0
  0
ARC
  5
281
330
1F
100
AcDbEntity
  8
0
  6
Continuous
 62
     7
370
    25
100
AcDbCircle
 10
7101.8565785312
 20
5073.9627485882
 30
0.0
 40
2.999999139152828
100
AcDbArc
 50
123.8501762107
 51
179.9996253313
  0
LWPOLYLINE
  5
282
330
1F
100
AcDbEntity
  8
0
  6
Continuous
 62
     7
370
    25
100
AcDbPolyline
 90
        3
 70
   128
 43
0.0
 10
7193.5276491589
 20
5076.4542388142
 10
7193.6294432078
 20
5076.3828625832
 10
7193.8405050763
 20
5076.2130901324
  0
LINE
  5
283
330
1F
100
AcDbEntity
  8
0
  6
Continuous
 62
     7
370
    25
100
AcDbLine
 10
7193.8405050763
 20
5076.2130901324
 30
0.0
 11
7220.8370628434
 21
5052.412639753
 31
0.0
  0
ARC
  5
284
330
1F
100
AcDbEntity
  8
0
  6
Continuous
 62
     7
370
    25
100
AcDbCircle
 10
7221.4983713889
 20
5053.1627539264
 30
0.0
 40
1.000000132719923
100
AcDbArc
 50
228.6002602838
 51
270.0000009136
  0
LINE
  5
285
330
1F
100
AcDbEntity
  8
0
  6
Continuous
 62
     7
370
    25
100
AcDbLine
 10
7221.4983714048
 20
5052.1627537937
 30
0.0
 11
7224.0416248158
 21
5052.1627537937
 31
0.0
  0
LINE
  5
286
330
1F
100
AcDbEntity
  8
0
  6
Continuous
 62
     7
370
    25
100
AcDbLine
 10
7076.8564442214
 20
5051.6952203586
 30
0.0
 11
7076.8564442214
 21
5052.1627537937
 31
0.0
  0
LINE
  5
287
330
1F
100
AcDbEntity
  8
0
  6
Continuous
 62
     7
370
    25
100
AcDbLine
 10
7098.8565793921
 20
5073.9627682058
 30
0.0
 11
7098.8565793921
 21
5073.9764267928
 31
0.0
  0
ARC
  5
288
330
1F
100
AcDbEntity
  8
0
  6
Continuous
 62
     7
370
    25
100
AcDbCircle
 10
7101.8565785261
 20
5073.9764071766
 30
0.0
 40
2.999999134046006
100
AcDbArc
 50
124.3156725938
 51
179.999625358
  0
LINE
  5
289
330
1F
100
AcDbEntity
  8
0
  6
Continuous
 62
     7
370
    25
100
AcDbLine
 10
7193.8405050763
 20
5076.2130901324
 30
0.0
 11
7193.8405050763
 21
5076.2267487195
 31
0.0
  0
LWPOLYLINE
  5
28A
330
1F
100
AcDbEntity
  8
0
  6
Continuous
 62
     7
370
    25
100
AcDbPolyline
 90
        3
 70
   128
 43
0.0
 10
7193.5478357621
 20
5076.4542388142
 10
7193.6294432078
 20
5076.3965211703
 10
7193.8405050763
 20
5076.2267487195
  0
LINE
  5
28B
330
1F
100
AcDbEntity
  8
0
  6
Continuous
 62
     7
370
    25
100
AcDbLine
 10
7220.8370628434
 20
5052.412639753
 30
0.0
 11
7220.8370628434
 21
5052.4262983401
 31
0.0
  0
LINE
  5
28C
330
1F
100
AcDbEntity
  8
0
  6
Continuous
 62
     7
370
    25
100
AcDbLine
 10
7193.8405050763
 20
5076.2267487195
 30
0.0
 11
7220.8370628434
 21
5052.4262983401
 31
0.0
  0
LINE
  5
28D
330
1F
100
AcDbEntity
  8
0
  6
Continuous
 62
     7
370
    25
100
AcDbLine
 10
7097.8564442214
 20
5052.1627537937
 30
0.0
 11
7097.8564442214
 21
5052.1764123807
 31
0.0
  0
ARC
  5
28E
330
1F
100
AcDbEntity
  8
0
  6
Continuous
 62
     7
370
    25
100
AcDbCircle
 10
7097.8564443379
 20
5053.1764122641
 30
0.0
 40
0.999999883404605
100
AcDbArc
 50
269.9999933195
 51
359.9996209776
  0
LINE
  5
28F
330
1F
100
AcDbEntity
  8
0
  6
Continuous
 62
     7
370
    25
100
AcDbLine
 10
7221.4983714048
 20
5052.1627537937
 30
0.0
 11
7221.4983714048
 21
5052.1764123807
 31
0.0
  0
ARC
  5
290
330
1F
100
AcDbEntity
  8
0
  6
Continuous
 62
     7
370
    25
100
AcDbCircle
 10
7221.4983713889
 20
5053.1764125135
 30
0.0
 40
1.000000132719923
100
AcDbArc
 50
228.6002602838
 51
270.0000009136
  0
LINE
  5
291
330
1F
100
AcDbEntity
  8
0
  6
Continuous
 62
     7
370
    25
100
AcDbLine
 10
7076.8564442214
 20
5052.1764123807
 30
0.0
 11
7077.0416248158
 21
5052.1764123807
 31
0.0
  0
LINE
  5
292
330
1F
100
AcDbEntity
  8
0
  6
Continuous
 62
     7
370
    25
100
AcDbLine
 10
7096.6715339683
 20
5052.1764123807
 30
0.0
 11
7097.8564442214
 21
5052.1764123807
 31
0.0
  0
LINE
  5
293
330
1F
100
AcDbEntity
  8
0
  6
Continuous
 62
     7
370
    25
100
AcDbLine
 10
7076.8564442214
 20
5052.1627537937
 30
0.0
 11
7076.8564442214
 21
5052.1764123807
 31
0.0
  0
LINE
  5
294
330
1F
100
AcDbEntity
  8
0
  6
Continuous
 62
     7
370
    25
100
AcDbLine
 10
7221.4983714048
 20
5052.1764123807
 30
0.0
 11
7224.0416248158
 21
5052.1764123807
 31
0.0
  0
LINE
  5
295
330
1F
100
AcDbEntity
  8
0
  6
Continuous
 62
     7
370
    25
100
AcDbLine
 10
7077.0416248158
 20
5059.1695814548
 30
0.0
 11
7081.949102104
 21
5059.1637765553
 31
0.0
  0
LINE
  5
296
330
1F
100
AcDbEntity
  8
0
  6
Continuous
 62
     7
370
    25
100
AcDbLine
 10
7081.8622804296
 20
5059.1752836557
 30
0.0
 11
7077.0416248158
 21
5059.1695814548
 31
0.0
  0
LINE
  5
297
330
1F
100
AcDbEntity
  8
0
  6
Continuous
 62
     7
370
    25
100
AcDbLine
 10
7096.6715339683
 20
5059.1695814548
 30
0.0
 11
7091.8508783545
 21
5059.1752836557
 31
0.0
  0
LINE
  5
298
330
1F
100
AcDbEntity
  8
0
  6
Continuous
 62
     7
370
    25
100
AcDbLine
 10
7091.7640566802
 20
5059.1637765553
 30
0.0
 11
7096.6715339683
 21
5059.1695814548
 31
0.0
  0
LINE
  5
299
330
1F
100
AcDbEntity
  8
0
  6
Continuous
 62
     7
370
    25
100
AcDbLine
 10
7081.949102104
 20
5059.1637765553
 30
0.0
 11
7082.3319655704
 21
5059.1637765553
 31
0.0
  0
LINE
  5
29A
330
1F
100
AcDbEntity
  8
0
  6
Continuous
 62
     7
370
    25
100
AcDbLine
 10
7091.3811932137
 20
5059.1637765553
 30
0.0
 11
7091.7640566802
 21
5059.1637765553
 31
0.0
  0
LINE
  5
29B
330
1F
100
AcDbEntity
  8
0
  6
Continuous
 62
     7
370
    25
100
AcDbLine
 10
7081.949102104
 20
5059.1637765553
 30
0.0
 11
7081.949102104
 21
5058.7809132674
 31
0.0
  0
LINE
  5
29C
330
1F
100
AcDbEntity
  8
0
  6
Continuous
 62
     7
370
    25
100
AcDbLine
 10
7091.7640566802
 20
5059.1637765553
 30
0.0
 11
7091.7640566802
 21
5058.7809132674
 31
0.0
  0
LINE
  5
29D
330
1F
100
AcDbEntity
  8
0
  6
Continuous
 62
     7
370
    25
100
AcDbLine
 10
7077.0416248158
 20
5059.1695814548
 30
0.0
 11
7077.0416248158
 21
5058.6883894327
 31
0.0
  0
LINE
  5
29E
330
1F
100
AcDbEntity
  8
0
  6
Continuous
 62
     7
370
    25
100
AcDbLine
 10
7096.6715339683
 20
5059.1695814548
 30
0.0
 11
7096.6715339683
 21
5058.6883894327
 31
0.0
  0
LINE
  5
29F
330
1F
100
AcDbEntity
  8
0
  6
Continuous
 62
     7
370
    25
100
AcDbLine
 10
7224.0416248158
 20
5059.1695814548
 30
0.0
 11
7228.949102104
 21
5059.1637765553
 31
0.0
  0
LINE
  5
2A0
330
1F
100
AcDbEntity
  8
0
  6
Continuous
 62
     7
370
    25
100
AcDbLine
 10
7228.8622804296
 20
5059.1752836557
 30
0.0
 11
7224.0416248158
 21
5059.1695814548
 31
0.0
  0
LINE
  5
2A1
330
1F
100
AcDbEntity
  8
0
  6
Continuous
 62
     7
370
    25
100
AcDbLine
 10
7243.6715339683
 20
5059.1695814548
 30
0.0
 11
7238.8508783545
 21
5059.1752836557
 31
0.0
  0
LINE
  5
2A2
330
1F
100
AcDbEntity
  8
0
  6
Continuous
 62
     7
370
    25
100
AcDbLine
 10
7238.7640566802
 20
5059.1637765553
 30
0.0
 11
7243.6715339683
 21
5059.1695814548
 31
0.0
  0
LINE
  5
2A3
330
1F
100
AcDbEntity
  8
0
  6
Continuous
 62
     7
370
    25
100
AcDbLine
 10
7228.949102104
 20
5059.1637765553
 30
0.0
 11
7229.3319655704
 21
5059.1637765553
 31
0.0
  0
LINE
  5
2A4
330
1F
100
AcDbEntity
  8
0
  6
Continuous
 62
     7
370
    25
100
AcDbLine
 10
7238.3811932137
 20
5059.1637765553
 30
0.0
 11
7238.7640566802
 21
5059.1637765553
 31
0.0
  0
LINE
  5
2A5
330
1F
100
AcDbEntity
  8
0
  6
Continuous
 62
     7
370
    25
100
AcDbLine
 10
7224.0416248158
 20
5059.1695814548
 30
0.0
 11
7224.0416248158
 21
5058.6883894327
 31
0.0
  0
LINE
  5
2A6
330
1F
100
AcDbEntity
  8
0
  6
Continuous
 62
     7
370
    25
100
AcDbLine
 10
7228.949102104
 20
5059.1637765553
 30
0.0
 11
7228.949102104
 21
5058.7809132674
 31
0.0
  0
LINE
  5
2A7
330
1F
100
AcDbEntity
  8
0
  6
Continuous
 62
     7
370
    25
100
AcDbLine
 10
7238.7640566802
 20
5059.1637765553
 30
0.0
 11
7238.7640566802
 21
5058.7809132674
 31
0.0
  0
LINE
  5
2A8
330
1F
100
AcDbEntity
  8
0
  6
Continuous
 62
     7
370
    25
100
AcDbLine
 10
7243.6715339683
 20
5059.1695814548
 30
0.0
 11
7243.6715339683
 21
5058.6883894327
 31
0.0
  0
ARC
  5
2A9
330
1F
100
AcDbEntity
  8
0
  6
Continuous
 62
     8
370
    25
100
AcDbCircle
 10
7146.8569667436
 20
5037.0578672383
 30
0.0
 40
17.49961265272032
100
AcDbArc
 50
269.9987317656
 51
359.9987317095
  0
ARC
  5
2AA
330
1F
100
AcDbEntity
  8
0
  6
Continuous
 62
     8
370
    25
100
AcDbCircle
 10
7146.8561911355
 20
5037.0578654189
 30
0.0
 40
17.49961083331298
100
AcDbArc
 50
180.0012927355
 51
270.0012711975
  0
LINE
  5
2AB
330
1F
100
AcDbEntity
  8
0
  6
Continuous
 62
     8
370
    25
100
AcDbLine
 10
7168.6841160796
 20
5052.7820865502
 30
0.0
 11
7168.7813755073
 21
5064.0899868751
 31
0.0
  0
LINE
  5
2AC
330
1F
100
AcDbEntity
  8
0
  6
Continuous
 62
     8
370
    25
100
AcDbLine
 10
7162.8679400939
 20
5058.6301935967
 30
0.0
 11
7162.8679400939
 21
5064.0886913993
 31
0.0
  0
LINE
  5
2AD
330
1F
100
AcDbEntity
  8
0
  6
Continuous
 62
     8
370
    25
100
AcDbLine
 10
7125.0290427045
 20
5052.7820865502
 30
0.0
 11
7124.9317832768
 21
5064.0899868751
 31
0.0
  0
LINE
  5
2AE
330
1F
100
AcDbEntity
  8
0
  6
Continuous
 62
     8
370
    25
100
AcDbLine
 10
7130.8452186902
 20
5058.6301935967
 30
0.0
 11
7130.8452186902
 21
5064.0886913993
 31
0.0
  0
LINE
  5
2AF
330
1F
100
AcDbEntity
  8
0
  6
Continuous
 62
     8
370
    25
100
AcDbLine
 10
7193.856329676
 20
5069.1288784337
 30
0.0
 11
7193.8556216839
 21
5069.1291879709
 31
0.0
  0
ARC
  5
2B0
330
1F
100
AcDbEntity
  8
0
  6
Continuous
 62
     8
370
    25
100
AcDbCircle
 10
7162.585956089
 20
5021.743052327
 30
0.0
 40
5.627191452646421
100
AcDbArc
 50
291.4506728871
 51
343.2459858635
  0
ARC
  5
2B1
330
1F
100
AcDbEntity
  8
0
  6
Continuous
 62
     8
370
    25
100
AcDbCircle
 10
7131.2663985807
 20
5021.873952693
 30
0.0
 40
5.800503829605322
100
AcDbArc
 50
193.9867985817
 51
247.7424494136
  0
ARC
  5
2B2
330
1F
100
AcDbEntity
  8
0
  6
Continuous
 62
     8
370
    25
100
AcDbCircle
 10
7187.9795327548
 20
4978.2119948174
 30
0.0
 40
48.62986908736801
100
AcDbArc
 50
101.8925120562
 51
111.6218948761
  0
LWPOLYLINE
  5
2B3
330
1F
100
AcDbEntity
  8
0
  6
Continuous
 62
     8
370
    25
100
AcDbPolyline
 90
        8
 70
   128
 43
0.0
 10
7177.9580691176
 20
5025.7980687679
 10
7177.9938604291
 20
5024.3257390276
 10
7177.8148341286
 20
5022.9236443165
 10
7177.4291711443
 20
5021.6558558685
 10
7176.8544950383
 20
5020.5803075521
 10
7176.1170666666
 20
5019.7461484776
 10
7175.250584142
 20
5019.191497041
 10
7174.5804029745
 20
5018.982162706
  0
ARC
  5
2B4
330
1F
100
AcDbEntity
  8
0
  6
Continuous
 62
     8
370
    25
100
AcDbCircle
 10
7105.8898343016
 20
4978.7492676706
 30
0.0
 40
48.0719559422635
100
AcDbArc
 50
68.5905776397
 51
78.1577090521
  0
LWPOLYLINE
  5
2B5
330
1F
100
AcDbEntity
  8
0
  6
Continuous
 62
     8
370
    25
100
AcDbPolyline
 90
        8
 70
   128
 43
0.0
 10
7115.7550896666
 20
5025.7980687679
 10
7115.7192983551
 20
5024.3257390276
 10
7115.8983246555
 20
5022.9236443165
 10
7116.2839876399
 20
5021.6558558685
 10
7116.8586637459
 20
5020.5803075521
 10
7117.5960921176
 20
5019.7461484776
 10
7118.4625746422
 20
5019.191497041
 10
7119.1274853938
 20
5018.9831705406
  0
LINE
  5
2B6
330
1F
100
AcDbEntity
  8
0
  6
Continuous
 62
     8
370
    25
100
AcDbLine
 10
7115.7550896666
 20
5025.7980687679
 30
0.0
 11
7115.5322981481
 21
5064.1030103554
 31
0.0
  0
LINE
  5
2B7
330
1F
100
AcDbEntity
  8
0
  6
Continuous
 62
     8
370
    25
100
AcDbLine
 10
7177.9580691176
 20
5025.7980687679
 30
0.0
 11
7178.180860636
 21
5064.1030103554
 31
0.0
  0
LWPOLYLINE
  5
2B8
330
1F
100
AcDbEntity
  8
0
  6
Continuous
 62
     8
370
    25
100
AcDbPolyline
 90
        7
 70
   128
 43
0.0
 10
7177.9580691176
 20
5025.7980687679
 10
7183.2692286014
 20
5026.8449948211
 10
7187.6771988821
 20
5028.23146116
 10
7190.8108031223
 20
5029.8798748701
 10
7192.8214284967
 20
5031.8852925572
 10
7193.5878735518
 20
5034.1694019047
 10
7193.5371770581
 20
5034.4463180049
  0
LWPOLYLINE
  5
2B9
330
1F
100
AcDbEntity
  8
0
  6
Continuous
 62
     8
370
    25
100
AcDbPolyline
 90
       11
 70
   128
 43
0.0
 10
7100.1423726766
 20
5034.4400947191
 10
7100.1230830492
 20
5034.2130184771
 10
7100.3954517888
 20
5032.8778672855
 10
7101.09699739
 20
5031.588963115
 10
7102.2249651431
 20
5030.401262548
 10
7103.6061314852
 20
5029.4228377418
 10
7105.3255581284
 20
5028.5335383033
 10
7107.4491062223
 20
5027.709531085
 10
7109.9094040101
 20
5026.9804184706
 10
7112.6714949248
 20
5026.3476184841
 10
7115.7550896666
 20
5025.7980687679
  0
LWPOLYLINE
  5
2BA
330
1F
100
AcDbEntity
  8
0
  6
Continuous
 62
     8
370
    25
100
AcDbPolyline
 90
        7
 70
   128
 43
0.0
 10
7113.3123727376
 20
5067.1045905589
 10
7110.3922381109
 20
5067.1066302219
 10
7107.7370766124
 20
5067.1088323183
 10
7105.3661823366
 20
5067.1111808463
 10
7103.2967837114
 20
5067.1136587399
 10
7101.5439183051
 20
5067.1162479932
 10
7100.8565380344
 20
5067.1174544341
  0
ARC
  5
2BB
330
1F
100
AcDbEntity
  8
0
  6
Continuous
 62
     8
370
    25
100
AcDbCircle
 10
7098.7069250573
 20
5119.2125234174
 30
0.0
 40
52.09048068024651
100
AcDbArc
 50
269.0646394288
 51
270.1645637668
  0
LWPOLYLINE
  5
2BC
330
1F
100
AcDbEntity
  8
0
  6
Continuous
 62
     8
370
    25
100
AcDbPolyline
 90
       11
 70
   128
 43
0.0
 10
7195.8565793835
 20
5067.1289841582
 10
7195.7969446357
 20
5067.1273330664
 10
7195.4133016424
 20
5067.1244925389
 10
7194.6768145791
 20
5067.1216846458
 10
7193.5928352298
 20
5067.1189297911
 10
7192.169240479
 20
5067.1162479932
 10
7190.4163750727
 20
5067.1136587399
 10
7188.3469764475
 20
5067.1111808463
 10
7185.9760821717
 20
5067.1088323183
 10
7183.3209206732
 20
5067.1066302219
 10
7180.4007860466
 20
5067.1045905589
  0
LINE
  5
2BD
330
1F
100
AcDbEntity
  8
0
  6
Continuous
 62
     8
370
    25
100
AcDbLine
 10
7125.1560779617
 20
4996.9294772412
 30
0.0
 11
7124.7889658993
 21
5017.7580852081
 31
0.0
  0
LWPOLYLINE
  5
2BE
330
1F
100
AcDbEntity
  8
0
  6
Continuous
 62
     8
370
    25
100
AcDbPolyline
 90
        9
 70
   128
 43
0.0
 10
7168.5570808224
 20
4996.9294772412
 10
7170.9256543947
 20
4996.9311117445
 10
7173.0316854137
 20
4996.9329060429
 10
7174.8522015483
 20
4996.9348405644
 10
7176.3673448291
 20
4996.9368942076
 10
7177.560588257
 20
4996.9390445715
 10
7178.4189160771
 20
4996.9412682002
 10
7178.9329657536
 20
4996.9435408387
 10
7179.0973243692
 20
4996.9457608661
  0
LWPOLYLINE
  5
2BF
330
1F
100
AcDbEntity
  8
0
  6
Continuous
 62
     8
370
    25
100
AcDbPolyline
 90
        9
 70
   128
 43
0.0
 10
7114.615834415
 20
4996.9457608661
 10
7114.7801930305
 20
4996.9435408387
 10
7115.294242707
 20
4996.9412682002
 10
7116.1525705272
 20
4996.9390445715
 10
7117.345813955
 20
4996.9368942076
 10
7118.8609572359
 20
4996.9348405644
 10
7120.6814733705
 20
4996.9329060429
 10
7122.7875043895
 20
4996.9311117445
 10
7125.1560779617
 20
4996.9294772412
  0
LINE
  5
2C0
330
1F
100
AcDbEntity
  8
0
  6
Continuous
 62
     8
370
    25
100
AcDbLine
 10
7168.5570808224
 20
4996.9294772412
 30
0.0
 11
7168.9242546288
 21
5017.7615883384
 31
0.0
  0
LINE
  5
2C1
330
1F
100
AcDbEntity
  8
0
  6
Continuous
 62
     8
370
    25
100
AcDbLine
 10
7136.9912778956
 20
4996.9393571997
 30
0.0
 11
7137.2636968148
 21
5011.6515974211
 31
0.0
  0
LINE
  5
2C2
330
1F
100
AcDbEntity
  8
0
  6
Continuous
 62
     8
370
    25
100
AcDbLine
 10
7156.7218808885
 20
4996.9393571997
 30
0.0
 11
7156.4494619694
 21
5011.6515974211
 31
0.0
  0
LINE
  5
2C3
330
1F
100
AcDbEntity
  8
0
  6
Continuous
 62
     8
370
    25
100
AcDbLine
 10
7137.175599061
 20
5023.0349206656
 30
0.0
 11
7137.8072691903
 21
5048.6157198342
 31
0.0
  0
LINE
  5
2C4
330
1F
100
AcDbEntity
  8
0
  6
Continuous
 62
     8
370
    25
100
AcDbLine
 10
7156.5375597232
 20
5023.0349206656
 30
0.0
 11
7155.9058895938
 21
5048.6157198342
 31
0.0
  0
LINE
  5
2C5
330
1F
100
AcDbEntity
  8
0
  6
Continuous
 62
     8
370
    25
100
AcDbLine
 10
7141.2827457714
 20
5021.0247490482
 30
0.0
 11
7141.964029086
 21
5048.6147376191
 31
0.0
  0
LINE
  5
2C6
330
1F
100
AcDbEntity
  8
0
  6
Continuous
 62
     8
370
    25
100
AcDbLine
 10
7152.4304130128
 20
5021.0247490482
 30
0.0
 11
7151.7491296981
 21
5048.6147376191
 31
0.0
  0
LINE
  5
2C7
330
1F
100
AcDbEntity
  8
0
  6
Continuous
 62
     8
370
    25
100
AcDbLine
 10
7140.7339185827
 20
4996.9419131589
 30
0.0
 11
7140.9856335675
 21
5010.5360179109
 31
0.0
  0
LINE
  5
2C8
330
1F
100
AcDbEntity
  8
0
  6
Continuous
 62
     8
370
    25
100
AcDbLine
 10
7152.9792402014
 20
4996.9419131589
 30
0.0
 11
7152.7275252166
 21
5010.5360179109
 31
0.0
  0
LINE
  5
2C9
330
1F
100
AcDbEntity
  8
0
  6
Continuous
 62
     8
370
    25
100
AcDbLine
 10
7143.5134336416
 20
5020.435697117
 30
0.0
 11
7143.5134336416
 21
5048.6145303105
 31
0.0
  0
LINE
  5
2CA
330
1F
100
AcDbEntity
  8
0
  6
Continuous
 62
     8
370
    25
100
AcDbLine
 10
7150.1997251426
 20
5020.435697117
 30
0.0
 11
7150.1997251426
 21
5048.6145303105
 31
0.0
  0
LINE
  5
2CB
330
1F
100
AcDbEntity
  8
0
  6
Continuous
 62
     8
370
    25
100
AcDbLine
 10
7144.0992200792
 20
4996.9428651307
 30
0.0
 11
7144.0992200792
 21
5010.0311587431
 31
0.0
  0
LINE
  5
2CC
330
1F
100
AcDbEntity
  8
0
  6
Continuous
 62
     8
370
    25
100
AcDbLine
 10
7149.613938705
 20
4996.9428651307
 30
0.0
 11
7149.613938705
 21
5010.0311587431
 31
0.0
  0
ARC
  5
2CD
330
1F
100
AcDbEntity
  8
0
  6
Continuous
 62
     8
370
    25
100
AcDbCircle
 10
7094.1560108148
 20
5091.9761892639
 30
0.0
 40
1.699431121968974
100
AcDbArc
 50
84.0558692686
 51
179.9486253941
  0
LINE
  5
2CE
330
1F
100
AcDbEntity
  8
0
  6
Continuous
 62
     8
370
    25
100
AcDbLine
 10
7096.8565793921
 20
5093.6740182934
 30
0.0
 11
7096.8565793921
 21
5091.6213630155
 31
0.0
  0
LINE
  5
2CF
330
1F
100
AcDbEntity
  8
0
  6
Continuous
 62
     8
370
    25
100
AcDbLine
 10
7196.8565793921
 20
5093.6740401509
 30
0.0
 11
7196.8565793921
 21
5091.6213630155
 31
0.0
  0
ARC
  5
2D0
330
1F
100
AcDbEntity
  8
0
  6
Continuous
 62
     8
370
    25
100
AcDbCircle
 10
7199.5565795914
 20
5091.9758838665
 30
0.0
 40
1.699999800650019
100
AcDbArc
 50
0.0000065278
 51
90.9555840069
  0
LINE
  5
2D1
330
1F
100
AcDbEntity
  8
0
  6
Continuous
 62
     8
370
    25
100
AcDbLine
 10
7096.8565793921
 20
5087.4149133492
 30
0.0
 11
7096.8565793921
 21
5077.6743849503
 31
0.0
  0
LINE
  5
2D2
330
1F
100
AcDbEntity
  8
0
  6
Continuous
 62
     8
370
    25
100
AcDbLine
 10
7196.8565793921
 20
5087.4149133492
 30
0.0
 11
7196.8565793921
 21
5077.6743849503
 31
0.0
  0
ARC
  5
2D3
330
1F
100
AcDbEntity
  8
0
  6
Continuous
 62
     8
370
    25
100
AcDbCircle
 10
7094.1565794065
 20
5092.4820709824
 30
0.0
 40
1.700000014477827
100
AcDbArc
 50
44.7290142898
 51
179.9999894115
  0
ARC
  5
2D4
330
1F
100
AcDbEntity
  8
0
  6
Continuous
 62
     8
370
    25
100
AcDbCircle
 10
7199.5565793776
 20
5092.4820709824
 30
0.0
 40
1.700000014478978
100
AcDbArc
 50
0.0000105891
 51
135.2717139008
  0
LINE
  5
2D5
330
1F
100
AcDbEntity
  8
0
  6
Continuous
 62
     8
370
    25
100
AcDbLine
 10
7096.8565793921
 20
5093.6782970376
 30
0.0
 11
7096.8565793921
 21
5094.1838932949
 31
0.0
  0
LINE
  5
2D6
330
1F
100
AcDbEntity
  8
0
  6
Continuous
 62
     8
370
    25
100
AcDbLine
 10
7196.8565793921
 20
5093.6782970376
 30
0.0
 11
7196.8565793921
 21
5094.1838875655
 31
0.0
  0
LINE
  5
2D7
330
1F
100
AcDbEntity
  8
0
  6
CENTERX2
 62
     7
100
AcDbLine
 10
6443.2973775057
 20
4667.126812005
 30
0.0
 11
6443.3438466865
 21
4667.126812005
 31
0.0
  0
ARC
  5
2D8
330
1F
100
AcDbEntity
  8
0
  6
Continuous
 62
     7
370
    25
100
AcDbCircle
 10
6443.3260001655
 20
4667.0876061297
 30
0.0
 40
19.46048560598858
100
AcDbArc
 50
225.7336401812
 51
5.588468559
  0
LINE
  5
2D9
330
1F
100
AcDbEntity
  8
0
  6
Continuous
 62
     7
370
    25
100
AcDbLine
 10
6457.0505667135
 20
4670.1931825791
 30
0.0
 11
6457.0369497422
 21
4670.1568610233
 31
0.0
  0
LWPOLYLINE
  5
2DA
330
1F
100
AcDbEntity
  8
0
  6
Continuous
 62
     7
370
    25
100
AcDbPolyline
 90
        3
 70
   128
 43
0.0
 10
6457.0371038053
 20
4664.0963051806
 10
6457.0417007368
 20
4664.0771555035
 10
6457.0428288852
 20
4664.0751310295
  0
LINE
  5
2DB
330
1F
100
AcDbEntity
  8
0
  6
Continuous
 62
     7
370
    25
100
AcDbLine
 10
6425.4424952815
 20
4670.1698163039
 30
0.0
 11
6425.4376383397
 21
4670.1568610233
 31
0.0
  0
LWPOLYLINE
  5
2DC
330
1F
100
AcDbEntity
  8
0
  6
Continuous
 62
     7
370
    25
100
AcDbPolyline
 90
        3
 70
   128
 43
0.0
 10
6425.4377924027
 20
4664.0963051806
 10
6425.4423893342
 20
4664.0771555035
 10
6425.4435174826
 20
4664.0751310295
  0
ARC
  5
2DD
330
1F
100
AcDbEntity
  8
0
  6
Continuous
 62
     7
370
    25
100
AcDbCircle
 10
6461.3687033666
 20
4668.1268118877
 30
0.0
 40
0.0499998826691174
100
AcDbArc
 50
270.0001247198
 51
3.1672814047
  0
ARC
  5
2DE
330
1F
100
AcDbEntity
  8
0
  6
Continuous
 62
     7
370
    25
100
AcDbCircle
 10
6461.3687033348
 20
4668.1268119177
 30
0.0
 40
1.949999912734661
100
AcDbArc
 50
270.0000041316
 51
3.1671276541
  0
ARC
  5
2DF
330
1F
100
AcDbEntity
  8
0
  6
Continuous
 62
     7
370
    25
100
AcDbCircle
 10
6443.2963531117
 20
4667.1268158212
 30
0.0
 40
18.14999534870377
100
AcDbArc
 50
3.1671140889
 51
176.8328859111
  0
ARC
  5
2E0
330
1F
100
AcDbEntity
  8
0
  6
Continuous
 62
     7
370
    25
100
AcDbCircle
 10
6443.2963531117
 20
4667.1268157667
 30
0.0
 40
20.04999535171661
100
AcDbArc
 50
3.1671152373
 51
176.8328847627
  0
LINE
  5
2E1
330
1F
100
AcDbEntity
  8
0
  6
Continuous
 62
     7
370
    25
100
AcDbLine
 10
6456.8687045248
 20
4666.176812005
 30
0.0
 11
6456.9938699116
 21
4666.176812005
 31
0.0
  0
LINE
  5
2E2
330
1F
100
AcDbEntity
  8
0
  6
Continuous
 62
     7
370
    25
100
AcDbLine
 10
6461.1954544644
 20
4666.176812005
 30
0.0
 11
6461.3687034754
 21
4666.176812005
 31
0.0
  0
LINE
  5
2E3
330
1F
100
AcDbEntity
  8
0
  6
Continuous
 62
     7
370
    25
100
AcDbLine
 10
6461.3687034754
 20
4668.076812005
 30
0.0
 11
6461.1954544644
 21
4668.076812005
 31
0.0
  0
LINE
  5
2E4
330
1F
100
AcDbEntity
  8
0
  6
Continuous
 62
     7
370
    25
100
AcDbLine
 10
6456.9938699116
 20
4668.076812005
 30
0.0
 11
6456.8687045248
 21
4668.076812005
 31
0.0
  0
LINE
  5
2E5
330
1F
100
AcDbEntity
  8
0
  6
Continuous
 62
     7
370
    25
100
AcDbLine
 10
6425.2240027479
 20
4666.176812005
 30
0.0
 11
6425.3945585091
 21
4666.176812005
 31
0.0
  0
LINE
  5
2E6
330
1F
100
AcDbEntity
  8
0
  6
Continuous
 62
     7
370
    25
100
AcDbLine
 10
6429.5961430618
 20
4666.176812005
 30
0.0
 11
6429.7240016985
 21
4666.176812005
 31
0.0
  0
LINE
  5
2E7
330
1F
100
AcDbEntity
  8
0
  6
Continuous
 62
     7
370
    25
100
AcDbLine
 10
6429.7240016985
 20
4668.076812005
 30
0.0
 11
6429.5961430618
 21
4668.076812005
 31
0.0
  0
LINE
  5
2E8
330
1F
100
AcDbEntity
  8
0
  6
Continuous
 62
     7
370
    25
100
AcDbLine
 10
6425.3945585091
 20
4668.076812005
 30
0.0
 11
6425.2240027479
 21
4668.076812005
 31
0.0
  0
ARC
  5
2E9
330
1F
100
AcDbEntity
  8
0
  6
Continuous
 62
     7
370
    25
100
AcDbCircle
 10
6425.2240028885
 20
4668.1268119177
 30
0.0
 40
0.04999991273982
100
AcDbArc
 50
176.8327550132
 51
269.9998388625
  0
ARC
  5
2EA
330
1F
100
AcDbEntity
  8
0
  6
Continuous
 62
     7
370
    25
100
AcDbCircle
 10
6425.2240028567
 20
4668.1268118877
 30
0.0
 40
1.94999988266843
100
AcDbArc
 50
176.8328714122
 51
269.9999968021
  0
LINE
  5
2EB
330
1F
100
AcDbEntity
  8
0
  6
Continuous
 62
     7
370
    25
100
AcDbLine
 10
6443.2973775058
 20
4647.176812005
 30
0.0
 11
6443.2988116574
 21
4647.176812005
 31
0.0
  0
LINE
  5
2EC
330
1F
100
AcDbEntity
  8
0
  6
Continuous
 62
     7
370
    25
100
AcDbLine
 10
6443.2946457884
 20
4632.226812005
 30
0.0
 11
6443.2956939819
 21
4632.226812005
 31
0.0
  0
LINE
  5
2ED
330
1F
100
AcDbEntity
  8
0
  6
Continuous
 62
     7
370
    25
100
AcDbLine
 10
6443.2956939816
 20
4702.026812005
 30
0.0
 11
6443.2946457881
 21
4702.026812005
 31
0.0
  0
ARC
  5
2EE
330
1F
100
AcDbEntity
  8
0
  6
Continuous
 62
     7
370
    25
100
AcDbCircle
 10
6813.885612754
 20
4717.1268123974
 30
0.0
 40
4.399999607589968
100
AcDbArc
 50
359.9999948901
 51
89.999996911
  0
LINE
  5
2EF
330
1F
100
AcDbEntity
  8
0
  6
Continuous
 62
     7
370
    25
100
AcDbLine
 10
6818.2856123616
 20
4617.126812005
 30
0.0
 11
6818.2856123616
 21
4717.126812005
 31
0.0
  0
ARC
  5
2F0
330
1F
100
AcDbEntity
  8
0
  6
Continuous
 62
     7
370
    25
100
AcDbCircle
 10
6813.8856125988
 20
4617.1268117678
 30
0.0
 40
4.399999762779789
100
AcDbArc
 50
270.0000051099
 51
0.000003089
  0
LINE
  5
2F1
330
1F
100
AcDbEntity
  8
0
  6
Continuous
 62
     7
370
    25
100
AcDbLine
 10
6813.8856129912
 20
4721.526812005
 30
0.0
 11
6072.6857358363
 21
4721.526812005
 31
0.0
  0
LINE
  5
2F2
330
1F
100
AcDbEntity
  8
0
  6
Continuous
 62
     7
370
    25
100
AcDbLine
 10
6072.6857858363
 20
4612.726812005
 30
0.0
 11
6813.8856129912
 21
4612.726812005
 31
0.0
  0
ARC
  5
2F3
330
1F
100
AcDbEntity
  8
0
  6
Continuous
 62
     7
370
    25
100
AcDbCircle
 10
6072.6857862287
 20
4717.1268122422
 30
0.0
 40
4.399999762781608
100
AcDbArc
 50
90.0000051099
 51
180.000003089
  0
ARC
  5
2F4
330
1F
100
AcDbEntity
  8
0
  6
Continuous
 62
     7
370
    25
100
AcDbCircle
 10
6072.6857860735
 20
4617.1268116126
 30
0.0
 40
4.399999607579974
100
AcDbArc
 50
179.99999489
 51
269.9999969111
  0
LINE
  5
2F5
330
1F
100
AcDbEntity
  8
0
  6
Continuous
 62
     7
370
    25
100
AcDbLine
 10
6068.2857864659
 20
4717.126812005
 30
0.0
 11
6068.2857864659
 21
4617.126812005
 31
0.0
  0
LWPOLYLINE
  5
2F6
330
1F
100
AcDbEntity
  8
0
  6
Continuous
 62
     7
370
    25
100
AcDbPolyline
 90
        9
 70
   128
 43
0.0
 10
6460.4932776195
 20
4667.126812005
 10
6460.4933235475
 20
4667.809628132
 10
6460.4934595667
 20
4668.4662040183
 10
6460.4936804497
 20
4669.0713078206
 10
6460.4939777083
 20
4669.6016857391
 10
6460.494339919
 20
4670.036955648
 10
6460.4947531621
 20
4670.3603903688
 10
6460.4952015571
 20
4670.5595604864
 10
6460.4956678722
 20
4670.626812005
  0
ARC
  5
2F7
330
1F
100
AcDbEntity
  8
0
  6
Continuous
 62
     7
370
    25
100
AcDbCircle
 10
6460.4956677906
 20
4669.9268120866
 30
0.0
 40
0.6999999183835873
100
AcDbArc
 50
359.9999933195
 51
89.9999933193
  0
LWPOLYLINE
  5
2F8
330
1F
100
AcDbEntity
  8
0
  6
Continuous
 62
     7
370
    25
100
AcDbPolyline
 90
        9
 70
   128
 43
0.0
 10
6461.195667709
 20
4669.926812005
 10
6461.1952946569
 20
4669.8730107901
 10
6461.1949359409
 20
4669.713674696
 10
6461.1946053464
 20
4669.4549269194
 10
6461.1943155779
 20
4669.1067109923
 10
6461.194077771
 20
4668.6824086574
 10
6461.1939010645
 20
4668.1983256156
 10
6461.1937922493
 20
4667.6730649066
 10
6461.1937555068
 20
4667.126812005
  0
LINE
  5
2F9
330
1F
100
AcDbEntity
  8
0
  6
Continuous
 62
     7
370
    25
100
AcDbLine
 10
6460.4932776195
 20
4667.126812005
 30
0.0
 11
6461.1937555068
 21
4667.126812005
 31
0.0
  0
LWPOLYLINE
  5
2FA
330
1F
100
AcDbEntity
  8
0
  6
Continuous
 62
     7
370
    25
100
AcDbPolyline
 90
        9
 70
   128
 43
0.0
 10
6460.4956678722
 20
4663.626812005
 10
6460.4952015571
 20
4663.6940635236
 10
6460.4947531621
 20
4663.8932336412
 10
6460.494339919
 20
4664.2166683619
 10
6460.4939777083
 20
4664.6519382708
 10
6460.4936804497
 20
4665.1823161894
 10
6460.4934595667
 20
4665.7874199917
 10
6460.4933235475
 20
4666.4439958779
 10
6460.4932776195
 20
4667.126812005
  0
LWPOLYLINE
  5
2FB
330
1F
100
AcDbEntity
  8
0
  6
Continuous
 62
     7
370
    25
100
AcDbPolyline
 90
        9
 70
   128
 43
0.0
 10
6461.1937555068
 20
4667.126812005
 10
6461.1937922493
 20
4666.5805591033
 10
6461.1939010645
 20
4666.0552983944
 10
6461.194077771
 20
4665.5712153525
 10
6461.1943155779
 20
4665.1469130177
 10
6461.1946053464
 20
4664.7986970905
 10
6461.1949359409
 20
4664.539949314
 10
6461.1952946569
 20
4664.3806132199
 10
6461.195667709
 20
4664.326812005
  0
ARC
  5
2FC
330
1F
100
AcDbEntity
  8
0
  6
Continuous
 62
     7
370
    25
100
AcDbCircle
 10
6460.4956677906
 20
4664.3268119234
 30
0.0
 40
0.6999999183835873
100
AcDbArc
 50
270.0000066807
 51
0.0000066805
  0
LINE
  5
2FD
330
1F
100
AcDbEntity
  8
0
  6
Continuous
 62
     7
370
    25
100
AcDbLine
 10
6457.6932782725
 20
4667.126812005
 30
0.0
 11
6460.4932776195
 21
4667.126812005
 31
0.0
  0
LWPOLYLINE
  5
2FE
330
1F
100
AcDbEntity
  8
0
  6
Continuous
 62
     7
370
    25
100
AcDbPolyline
 90
        9
 70
   128
 43
0.0
 10
6457.6956685252
 20
4670.626812005
 10
6457.69520221
 20
4670.5595604864
 10
6457.6947538151
 20
4670.3603903688
 10
6457.6943405719
 20
4670.036955648
 10
6457.6939783613
 20
4669.6016857391
 10
6457.6936811027
 20
4669.0713078206
 10
6457.6934602196
 20
4668.4662040183
 10
6457.6933242005
 20
4667.809628132
 10
6457.6932782725
 20
4667.126812005
  0
LINE
  5
2FF
330
1F
100
AcDbEntity
  8
0
  6
Continuous
 62
     7
370
    25
100
AcDbLine
 10
6457.6956685252
 20
4670.626812005
 30
0.0
 11
6460.4956678722
 21
4670.626812005
 31
0.0
  0
LINE
  5
300
330
1F
100
AcDbEntity
  8
0
  6
Continuous
 62
     7
370
    25
100
AcDbLine
 10
6460.4956678722
 20
4663.626812005
 30
0.0
 11
6457.6956685252
 21
4663.626812005
 31
0.0
  0
LWPOLYLINE
  5
301
330
1F
100
AcDbEntity
  8
0
  6
Continuous
 62
     7
370
    25
100
AcDbPolyline
 90
        9
 70
   128
 43
0.0
 10
6457.6932782725
 20
4667.126812005
 10
6457.6933242005
 20
4666.4439958779
 10
6457.6934602196
 20
4665.7874199917
 10
6457.6936811027
 20
4665.1823161894
 10
6457.6939783613
 20
4664.6519382708
 10
6457.6943405719
 20
4664.2166683619
 10
6457.6947538151
 20
4663.8932336412
 10
6457.69520221
 20
4663.6940635236
 10
6457.6956685252
 20
4663.626812005
  0
LWPOLYLINE
  5
302
330
1F
100
AcDbEntity
  8
0
  6
Continuous
 62
     7
370
    25
100
AcDbPolyline
 90
        9
 70
   128
 43
0.0
 10
6456.9937564862
 20
4667.126812005
 10
6456.9937932287
 20
4667.6730649066
 10
6456.993902044
 20
4668.1983256156
 10
6456.9940787504
 20
4668.6824086574
 10
6456.9943165573
 20
4669.1067109923
 10
6456.9946063258
 20
4669.4549269194
 10
6456.9949369203
 20
4669.713674696
 10
6456.9952956363
 20
4669.8730107901
 10
6456.9956686884
 20
4669.926812005
  0
ARC
  5
303
330
1F
100
AcDbEntity
  8
0
  6
Continuous
 62
     7
370
    25
100
AcDbCircle
 10
6457.6956685677
 20
4669.9268121669
 30
0.0
 40
0.699999838080845
100
AcDbArc
 50
90.0000034816
 51
157.5894842447
  0
LINE
  5
304
330
1F
100
AcDbEntity
  8
0
  6
Continuous
 62
     7
370
    25
100
AcDbLine
 10
6457.6932782725
 20
4667.126812005
 30
0.0
 11
6456.9937564862
 21
4667.126812005
 31
0.0
  0
ARC
  5
305
330
1F
100
AcDbEntity
  8
0
  6
Continuous
 62
     7
370
    25
100
AcDbCircle
 10
6457.6956685853
 20
4664.3268118707
 30
0.0
 40
0.6999998656792766
100
AcDbArc
 50
201.0781884844
 51
269.999995078
  0
LWPOLYLINE
  5
306
330
1F
100
AcDbEntity
  8
0
  6
Continuous
 62
     7
370
    25
100
AcDbPolyline
 90
        9
 70
   128
 43
0.0
 10
6456.9956686884
 20
4664.326812005
 10
6456.9952956363
 20
4664.3806132199
 10
6456.9949369203
 20
4664.539949314
 10
6456.9946063258
 20
4664.7986970905
 10
6456.9943165573
 20
4665.1469130177
 10
6456.9940787504
 20
4665.5712153525
 10
6456.993902044
 20
4666.0552983944
 10
6456.9937932287
 20
4666.5805591033
 10
6456.9937564862
 20
4667.126812005
  0
LWPOLYLINE
  5
307
330
1F
100
AcDbEntity
  8
0
  6
Continuous
 62
     7
370
    25
100
AcDbPolyline
 90
        9
 70
   128
 43
0.0
 10
6428.8939662169
 20
4667.126812005
 10
6428.894012145
 20
4667.809628132
 10
6428.8941481641
 20
4668.4662040183
 10
6428.8943690472
 20
4669.0713078206
 10
6428.8946663058
 20
4669.6016857391
 10
6428.8950285164
 20
4670.036955648
 10
6428.8954417596
 20
4670.3603903688
 10
6428.8958901545
 20
4670.5595604864
 10
6428.8963564697
 20
4670.626812005
  0
ARC
  5
308
330
1F
100
AcDbEntity
  8
0
  6
Continuous
 62
     7
370
    25
100
AcDbCircle
 10
6428.8963563881
 20
4669.9268120866
 30
0.0
 40
0.6999999183835873
100
AcDbArc
 50
359.9999933195
 51
89.9999933192
  0
LWPOLYLINE
  5
309
330
1F
100
AcDbEntity
  8
0
  6
Continuous
 62
     7
370
    25
100
AcDbPolyline
 90
        9
 70
   128
 43
0.0
 10
6429.5963563064
 20
4669.926812005
 10
6429.5959832543
 20
4669.8730107901
 10
6429.5956245383
 20
4669.713674696
 10
6429.5952939438
 20
4669.4549269194
 10
6429.5950041753
 20
4669.1067109923
 10
6429.5947663684
 20
4668.6824086574
 10
6429.594589662
 20
4668.1983256156
 10
6429.5944808467
 20
4667.6730649066
 10
6429.5944441043
 20
4667.126812005
  0
LINE
  5
30A
330
1F
100
AcDbEntity
  8
0
  6
Continuous
 62
     7
370
    25
100
AcDbLine
 10
6429.5944441043
 20
4667.126812005
 30
0.0
 11
6428.8939662169
 21
4667.126812005
 31
0.0
  0
LWPOLYLINE
  5
30B
330
1F
100
AcDbEntity
  8
0
  6
Continuous
 62
     7
370
    25
100
AcDbPolyline
 90
        9
 70
   128
 43
0.0
 10
6429.5944441043
 20
4667.126812005
 10
6429.5944808467
 20
4666.5805591033
 10
6429.594589662
 20
4666.0552983944
 10
6429.5947663684
 20
4665.5712153525
 10
6429.5950041753
 20
4665.1469130177
 10
6429.5952939438
 20
4664.7986970905
 10
6429.5956245383
 20
4664.539949314
 10
6429.5959832543
 20
4664.3806132199
 10
6429.5963563064
 20
4664.326812005
  0
ARC
  5
30C
330
1F
100
AcDbEntity
  8
0
  6
Continuous
 62
     7
370
    25
100
AcDbCircle
 10
6428.8963563881
 20
4664.3268119234
 30
0.0
 40
0.6999999183844968
100
AcDbArc
 50
270.0000066808
 51
0.0000066804
  0
LWPOLYLINE
  5
30D
330
1F
100
AcDbEntity
  8
0
  6
Continuous
 62
     7
370
    25
100
AcDbPolyline
 90
        9
 70
   128
 43
0.0
 10
6428.8963564697
 20
4663.626812005
 10
6428.8958901545
 20
4663.6940635236
 10
6428.8954417596
 20
4663.8932336412
 10
6428.8950285164
 20
4664.2166683619
 10
6428.8946663058
 20
4664.6519382708
 10
6428.8943690472
 20
4665.1823161894
 10
6428.8941481641
 20
4665.7874199917
 10
6428.894012145
 20
4666.4439958779
 10
6428.8939662169
 20
4667.126812005
  0
LWPOLYLINE
  5
30E
330
1F
100
AcDbEntity
  8
0
  6
Continuous
 62
     7
370
    25
100
AcDbPolyline
 90
        9
 70
   128
 43
0.0
 10
6426.0963571226
 20
4670.626812005
 10
6426.0958908075
 20
4670.5595604864
 10
6426.0954424125
 20
4670.3603903688
 10
6426.0950291694
 20
4670.036955648
 10
6426.0946669587
 20
4669.6016857391
 10
6426.0943697001
 20
4669.0713078206
 10
6426.094148817
 20
4668.4662040183
 10
6426.0940127979
 20
4667.809628132
 10
6426.0939668699
 20
4667.126812005
  0
LINE
  5
30F
330
1F
100
AcDbEntity
  8
0
  6
Continuous
 62
     7
370
    25
100
AcDbLine
 10
6426.0963571226
 20
4670.626812005
 30
0.0
 11
6428.8963564697
 21
4670.626812005
 31
0.0
  0
LINE
  5
310
330
1F
100
AcDbEntity
  8
0
  6
Continuous
 62
     7
370
    25
100
AcDbLine
 10
6426.0939668699
 20
4667.126812005
 30
0.0
 11
6428.8939662169
 21
4667.126812005
 31
0.0
  0
LWPOLYLINE
  5
311
330
1F
100
AcDbEntity
  8
0
  6
Continuous
 62
     7
370
    25
100
AcDbPolyline
 90
        9
 70
   128
 43
0.0
 10
6426.0939668699
 20
4667.126812005
 10
6426.0940127979
 20
4666.4439958779
 10
6426.094148817
 20
4665.7874199917
 10
6426.0943697001
 20
4665.1823161894
 10
6426.0946669587
 20
4664.6519382708
 10
6426.0950291694
 20
4664.2166683619
 10
6426.0954424125
 20
4663.8932336412
 10
6426.0958908075
 20
4663.6940635236
 10
6426.0963571226
 20
4663.626812005
  0
LINE
  5
312
330
1F
100
AcDbEntity
  8
0
  6
Continuous
 62
     7
370
    25
100
AcDbLine
 10
6428.8963564697
 20
4663.626812005
 30
0.0
 11
6426.0963571226
 21
4663.626812005
 31
0.0
  0
LINE
  5
313
330
1F
100
AcDbEntity
  8
0
  6
Continuous
 62
     7
370
    25
100
AcDbLine
 10
6426.0939668699
 20
4667.126812005
 30
0.0
 11
6425.3944450837
 21
4667.126812005
 31
0.0
  0
LWPOLYLINE
  5
314
330
1F
100
AcDbEntity
  8
0
  6
Continuous
 62
     7
370
    25
100
AcDbPolyline
 90
        9
 70
   128
 43
0.0
 10
6425.3944450837
 20
4667.126812005
 10
6425.3944818261
 20
4667.6730649066
 10
6425.3945906414
 20
4668.1983256156
 10
6425.3947673479
 20
4668.6824086574
 10
6425.3950051547
 20
4669.1067109923
 10
6425.3952949232
 20
4669.4549269194
 10
6425.3956255178
 20
4669.713674696
 10
6425.3959842337
 20
4669.8730107901
 10
6425.3963572859
 20
4669.926812005
  0
ARC
  5
315
330
1F
100
AcDbEntity
  8
0
  6
Continuous
 62
     7
370
    25
100
AcDbCircle
 10
6426.0963571835
 20
4669.9268121375
 30
0.0
 40
0.6999998675000318
100
AcDbArc
 50
90.0000049832
 51
159.639362749
  0
ARC
  5
316
330
1F
100
AcDbEntity
  8
0
  6
Continuous
 62
     7
370
    25
100
AcDbCircle
 10
6426.0963571828
 20
4664.3268118706
 30
0.0
 40
0.6999998656640899
100
AcDbArc
 50
201.0781884836
 51
269.9999950788
  0
LWPOLYLINE
  5
317
330
1F
100
AcDbEntity
  8
0
  6
Continuous
 62
     7
370
    25
100
AcDbPolyline
 90
        9
 70
   128
 43
0.0
 10
6425.3963572859
 20
4664.326812005
 10
6425.3959842337
 20
4664.3806132199
 10
6425.3956255178
 20
4664.539949314
 10
6425.3952949232
 20
4664.7986970905
 10
6425.3950051547
 20
4665.1469130177
 10
6425.3947673479
 20
4665.5712153525
 10
6425.3945906414
 20
4666.0552983944
 10
6425.3944818261
 20
4666.5805591033
 10
6425.3944450837
 20
4667.126812005
  0
LINE
  5
318
330
1F
100
AcDbEntity
  8
0
  6
Continuous
 62
     7
370
    25
100
AcDbLine
 10
6461.195667709
 20
4664.326812005
 30
0.0
 11
6461.1962140525
 21
4664.326812005
 31
0.0
  0
LINE
  5
319
330
1F
100
AcDbEntity
  8
0
  6
Continuous
 62
     7
370
    25
100
AcDbLine
 10
6461.1962140525
 20
4669.926812005
 30
0.0
 11
6461.195667709
 21
4669.926812005
 31
0.0
  0
LINE
  5
31A
330
1F
100
AcDbEntity
  8
0
  6
Continuous
 62
     7
370
    25
100
AcDbLine
 10
6461.1962140525
 20
4668.076812005
 30
0.0
 11
6461.1962140525
 21
4669.926812005
 31
0.0
  0
LWPOLYLINE
  5
31B
330
1F
100
AcDbEntity
  8
0
  6
Continuous
 62
     7
370
    25
100
AcDbPolyline
 90
       11
 70
   128
 43
0.0
 10
6461.1958809536
 20
4666.176812005
 10
6461.1957322165
 20
4666.1312830635
 10
6461.1954517478
 20
4666.1781287069
 10
6461.1952081775
 20
4666.3870630577
 10
6461.1950431211
 20
4666.7223883242
 10
6461.1949847797
 20
4667.126812005
 10
6461.1950431211
 20
4667.5312356858
 10
6461.1952081775
 20
4667.8665609522
 10
6461.1954517478
 20
4668.075495303
 10
6461.1957322165
 20
4668.1223409464
 10
6461.1958809536
 20
4668.076812005
  0
LINE
  5
31C
330
1F
100
AcDbEntity
  8
0
  6
Continuous
 62
     7
370
    25
100
AcDbLine
 10
6461.1962140525
 20
4664.326812005
 30
0.0
 11
6461.1962140525
 21
4666.176812005
 31
0.0
  0
LINE
  5
31D
330
1F
100
AcDbEntity
  8
0
  6
Continuous
 62
     7
370
    25
100
AcDbLine
 10
6429.5998612479
 20
4669.926812005
 30
0.0
 11
6429.5963563064
 21
4669.926812005
 31
0.0
  0
LINE
  5
31E
330
1F
100
AcDbEntity
  8
0
  6
Continuous
 62
     7
370
    25
100
AcDbLine
 10
6429.5963563064
 20
4664.326812005
 30
0.0
 11
6429.5998612479
 21
4664.326812005
 31
0.0
  0
LWPOLYLINE
  5
31F
330
1F
100
AcDbEntity
  8
0
  6
Continuous
 62
     7
370
    25
100
AcDbPolyline
 90
       11
 70
   128
 43
0.0
 10
6429.5965695511
 20
4666.176812005
 10
6429.5963563064
 20
4666.126812005
 10
6429.5960949607
 20
4666.2029324725
 10
6429.5958734025
 20
4666.4197052238
 10
6429.595725362
 20
4666.7441285726
 10
6429.5956733771
 20
4667.126812005
 10
6429.595725362
 20
4667.5094954373
 10
6429.5958734025
 20
4667.8339187862
 10
6429.5960949607
 20
4668.0506915375
 10
6429.5963563064
 20
4668.126812005
 10
6429.5965695511
 20
4668.076812005
  0
LWPOLYLINE
  5
320
330
1F
100
AcDbEntity
  8
0
  6
Continuous
 62
     7
370
    25
100
AcDbPolyline
 90
        9
 70
   128
 43
0.0
 10
6456.8687045248
 20
4668.076812005
 10
6456.8684562464
 20
4668.0044975609
 10
6456.868245766
 20
4667.7985634471
 10
6456.8681051276
 20
4667.4903612657
 10
6456.8680557419
 20
4667.126812005
 10
6456.8681051276
 20
4666.7632627442
 10
6456.868245766
 20
4666.4550605629
 10
6456.8684562464
 20
4666.2491264491
 10
6456.8687045248
 20
4666.176812005
  0
LWPOLYLINE
  5
321
330
1F
100
AcDbEntity
  8
0
  6
Continuous
 62
     7
370
    25
100
AcDbPolyline
 90
       17
 70
   128
 43
0.0
 10
6429.7240016985
 20
4668.076812005
 10
6429.72375342
 20
4668.0044975609
 10
6429.7235429397
 20
4667.7985634471
 10
6429.7234023013
 20
4667.4903612657
 10
6429.7233529156
 20
4667.126812005
 10
6429.7234023013
 20
4666.7632627442
 10
6429.7235429397
 20
4666.4550605629
 10
6429.72375342
 20
4666.2491264491
 10
6429.7240016985
 20
4666.176812005
 10
6429.7242499769
 20
4666.2491264491
 10
6429.7244604573
 20
4666.4550605629
 10
6429.7246010957
 20
4666.7632627442
 10
6429.7246504814
 20
4667.126812005
 10
6429.7246010957
 20
4667.4903612657
 10
6429.7244604573
 20
4667.7985634471
 10
6429.7242499769
 20
4668.0044975609
 10
6429.7240016985
 20
4668.076812005
  0
LINE
  5
322
330
1F
100
AcDbEntity
  8
0
  6
Continuous
 62
     7
370
    25
100
AcDbLine
 10
6460.4956678722
 20
4670.626812005
 30
0.0
 11
6460.4962142157
 21
4670.626812005
 31
0.0
  0
ARC
  5
323
330
1F
100
AcDbEntity
  8
0
  6
Continuous
 62
     7
370
    25
100
AcDbCircle
 10
6460.4962141341
 20
4669.9268120866
 30
0.0
 40
0.6999999183817683
100
AcDbArc
 50
359.9999933194
 51
89.9999933194
  0
LINE
  5
324
330
1F
100
AcDbEntity
  8
0
  6
Continuous
 62
     7
370
    25
100
AcDbLine
 10
6460.4962142157
 20
4663.626812005
 30
0.0
 11
6460.4956678722
 21
4663.626812005
 31
0.0
  0
ARC
  5
325
330
1F
100
AcDbEntity
  8
0
  6
Continuous
 62
     7
370
    25
100
AcDbCircle
 10
6460.4962141341
 20
4664.3268119234
 30
0.0
 40
0.6999999183826778
100
AcDbArc
 50
270.0000066805
 51
0.0000066805
  0
LINE
  5
326
330
1F
100
AcDbEntity
  8
0
  6
Continuous
 62
     7
370
    25
100
AcDbLine
 10
6428.8963564697
 20
4670.626812005
 30
0.0
 11
6428.8989853059
 21
4670.626812005
 31
0.0
  0
LINE
  5
327
330
1F
100
AcDbEntity
  8
0
  6
Continuous
 62
     7
370
    25
100
AcDbLine
 10
6428.8989853059
 20
4663.626812005
 30
0.0
 11
6428.8963564697
 21
4663.626812005
 31
0.0
  0
LINE
  5
328
330
1F
100
AcDbEntity
  8
0
  6
Continuous
 62
     7
370
    25
100
AcDbLine
 10
6461.1962140525
 20
4664.326812005
 30
0.0
 11
6461.8966919398
 21
4664.326812005
 31
0.0
  0
ARC
  5
329
330
1F
100
AcDbEntity
  8
0
  6
Continuous
 62
     7
370
    25
100
AcDbCircle
 10
6204.2472811739
 20
4663.1018119238
 30
0.0
 40
256.2494708485751
100
AcDbArc
 50
359.9608711093
 51
0.1173868178
  0
LINE
  5
32A
330
1F
100
AcDbEntity
  8
0
  6
Continuous
 62
     7
370
    25
100
AcDbLine
 10
6460.4966922663
 20
4662.926812005
 30
0.0
 11
6459.0243576385
 21
4662.926812005
 31
0.0
  0
ARC
  5
32B
330
1F
100
AcDbEntity
  8
0
  6
Continuous
 62
     7
370
    25
100
AcDbCircle
 10
6454.3490912118
 20
4664.3461101935
 30
0.0
 40
4.885951648209878
100
AcDbArc
 50
343.1129745771
 51
351.5342819973
  0
LINE
  5
32C
330
1F
100
AcDbEntity
  8
0
  6
Continuous
 62
     7
370
    25
100
AcDbLine
 10
6459.0243576385
 20
4671.326812005
 30
0.0
 11
6460.4966922663
 21
4671.326812005
 31
0.0
  0
ARC
  5
32D
330
1F
100
AcDbEntity
  8
0
  6
Continuous
 62
     7
370
    25
100
AcDbCircle
 10
6204.2472811718
 20
4671.1518120862
 30
0.0
 40
256.2494708506769
100
AcDbArc
 50
359.8826131822
 51
0.0391288907
  0
ARC
  5
32E
330
1F
100
AcDbEntity
  8
0
  6
Continuous
 62
     7
370
    25
100
AcDbCircle
 10
6453.045814225
 20
4669.6143723665
 30
0.0
 40
6.218957377511091
100
AcDbArc
 50
9.3693939297
 51
15.983349496
  0
ARC
  5
32F
330
1F
100
AcDbEntity
  8
0
  6
Continuous
 62
     7
370
    25
100
AcDbCircle
 10
6444.0964372773
 20
4667.9192910737
 30
0.0
 40
17.28814314529357
100
AcDbArc
 50
168.6324796969
 51
170.9897337473
  0
ARC
  5
330
330
1F
100
AcDbEntity
  8
0
  6
Continuous
 62
     7
370
    25
100
AcDbCircle
 10
6442.3727576175
 20
4667.2673610485
 30
0.0
 40
15.75720805009514
100
AcDbArc
 50
112.2407101076
 51
165.0708145372
  0
ARC
  5
331
330
1F
100
AcDbEntity
  8
0
  6
Continuous
 62
     7
370
    25
100
AcDbCircle
 10
6443.6876847444
 20
4667.737391398
 30
0.0
 40
16.9731260733262
100
AcDbArc
 50
196.4646246359
 51
244.5405775906
  0
ARC
  5
332
330
1F
100
AcDbEntity
  8
0
  6
Continuous
 62
     7
370
    25
100
AcDbCircle
 10
6442.8351942979
 20
4667.3643063126
 30
0.0
 40
16.0502714957481
100
AcDbArc
 50
193.4656136966
 51
196.049917101
  0
ARC
  5
333
330
1F
100
AcDbEntity
  8
0
  6
Continuous
 62
     7
370
    25
100
AcDbCircle
 10
6169.8479689674
 20
4671.1518120875
 30
0.0
 40
256.2494723054606
100
AcDbArc
 50
359.8826131826
 51
0.0391288902
  0
LINE
  5
334
330
1F
100
AcDbEntity
  8
0
  6
Continuous
 62
     7
370
    25
100
AcDbLine
 10
6426.0973815167
 20
4671.326812005
 30
0.0
 11
6427.1474345186
 21
4671.326812005
 31
0.0
  0
LINE
  5
335
330
1F
100
AcDbEntity
  8
0
  6
Continuous
 62
     7
370
    25
100
AcDbLine
 10
6427.4105432692
 20
4662.926812005
 30
0.0
 11
6426.0973815167
 21
4662.926812005
 31
0.0
  0
ARC
  5
336
330
1F
100
AcDbEntity
  8
0
  6
Continuous
 62
     7
370
    25
100
AcDbCircle
 10
6169.8479697861
 20
4663.101811923
 30
0.0
 40
256.2494714867141
100
AcDbArc
 50
359.9608711096
 51
0.1173868177
  0
ARC
  5
337
330
1F
100
AcDbEntity
  8
0
  6
Continuous
 62
     7
370
    25
100
AcDbCircle
 10
6460.496692103
 20
4664.3268118417
 30
0.0
 40
1.399999836763537
100
AcDbArc
 50
270.0000066806
 51
0.0000066806
  0
ARC
  5
338
330
1F
100
AcDbEntity
  8
0
  6
Continuous
 62
     7
370
    25
100
AcDbCircle
 10
6426.0973816799
 20
4664.3268118417
 30
0.0
 40
1.399999836761718
100
AcDbArc
 50
179.9999933194
 51
269.9999933195
  0
ARC
  5
339
330
1F
100
AcDbEntity
  8
0
  6
Continuous
 62
     7
370
    25
100
AcDbCircle
 10
6443.2973750874
 20
4667.1268098286
 30
0.0
 40
19.94999782365783
100
AcDbArc
 50
270.0000069452
 51
1.4592889353
  0
ARC
  5
33A
330
1F
100
AcDbEntity
  8
0
  6
Continuous
 62
     7
370
    25
100
AcDbCircle
 10
6443.2973799001
 20
4667.1268097704
 30
0.0
 40
19.94999776546677
100
AcDbArc
 50
179.411531365
 51
269.9999931233
  0
ARC
  5
33B
330
1F
100
AcDbEntity
  8
0
  6
Continuous
 62
     7
370
    25
100
AcDbCircle
 10
6437.5487400245
 20
4680.0708809036
 30
0.0
 40
2.114961834896472
100
AcDbArc
 50
113.9466709079
 51
122.6187524979
  0
ARC
  5
33C
330
1F
100
AcDbEntity
  8
0
  6
Continuous
 62
     7
370
    25
100
AcDbCircle
 10
6437.5487400273
 20
4654.1827431118
 30
0.0
 40
2.114961840980259
100
AcDbArc
 50
236.8243543277
 51
246.0533290833
  0
ARC
  5
33D
330
1F
100
AcDbEntity
  8
0
  6
Continuous
 62
     7
370
    25
100
AcDbCircle
 10
6443.2973774855
 20
4667.1268164114
 30
0.0
 40
16.27814079430924
100
AcDbArc
 50
14.9522793676
 51
113.9466671633
  0
ARC
  5
33E
330
1F
100
AcDbEntity
  8
0
  6
Continuous
 62
     7
370
    25
100
AcDbCircle
 10
6443.2973773001
 20
4667.1268079864
 30
0.0
 40
16.27814107350373
100
AcDbArc
 50
246.0533339872
 51
345.0477194819
  0
ARC
  5
33F
330
1F
100
AcDbEntity
  8
0
  6
Continuous
 62
     7
370
    25
100
AcDbCircle
 10
6443.300312081
 20
4667.1268091251
 30
0.0
 40
19.94999712013588
100
AcDbArc
 50
270.0000058044
 51
354.3422244649
  0
ARC
  5
340
330
1F
100
AcDbEntity
  8
0
  6
Continuous
 62
     7
370
    25
100
AcDbCircle
 10
6443.3017458346
 20
4667.1268098303
 30
0.0
 40
19.94999782531355
100
AcDbArc
 50
270.0000069471
 51
1.4841168007
  0
ARC
  5
341
330
1F
100
AcDbEntity
  8
0
  6
Continuous
 62
     7
370
    25
100
AcDbCircle
 10
6470.2960056363
 20
4667.1268117193
 30
0.0
 40
2.449999714335734
100
AcDbArc
 50
179.9999933194
 51
269.9999933194
  0
ARC
  5
342
330
1F
100
AcDbEntity
  8
0
  6
Continuous
 62
     7
370
    25
100
AcDbCircle
 10
6470.2960056363
 20
4667.1268122907
 30
0.0
 40
2.449999714335734
100
AcDbArc
 50
90.0000066809
 51
180.0000066806
  0
ARC
  5
343
330
1F
100
AcDbEntity
  8
0
  6
Continuous
 62
     7
370
    25
100
AcDbCircle
 10
6470.2946395317
 20
4667.126812005
 30
0.0
 40
2.449999805285779
100
AcDbArc
 50
231.7106994049
 51
128.289300595
  0
ARC
  5
344
330
1F
100
AcDbEntity
  8
0
  6
Continuous
 62
     7
370
    25
100
AcDbCircle
 10
6470.2947240761
 20
4667.126812005
 30
0.0
 40
2.450052192609061
100
AcDbArc
 50
128.2908524168
 51
231.7091475832
  0
CIRCLE
  5
345
330
1F
100
AcDbEntity
  8
0
  6
Continuous
 62
     7
370
    25
100
AcDbCircle
 10
6443.2970392526
 20
4667.1268124147
 30
0.0
 40
20.09999852434703
  0
ARC
  5
346
330
1F
100
AcDbEntity
  8
0
  6
Continuous
 62
     7
370
    25
100
AcDbCircle
 10
6443.2946425929
 20
4667.1268152003
 30
0.0
 40
25.55435307772922
100
AcDbArc
 50
4.3156255469
 51
85.684361092
  0
ARC
  5
347
330
1F
100
AcDbEntity
  8
0
  6
Continuous
 62
     7
370
    25
100
AcDbCircle
 10
6443.2946425929
 20
4667.1268088096
 30
0.0
 40
25.55435307773179
100
AcDbArc
 50
274.315638908
 51
355.6843744531
  0
ARC
  5
348
330
1F
100
AcDbEntity
  8
0
  6
Continuous
 62
     7
370
    25
100
AcDbCircle
 10
6443.2946457883
 20
4640.126813861
 30
0.0
 40
2.449998497983357
100
AcDbArc
 50
38.2892787932
 51
141.7107212068
  0
ARC
  5
349
330
1F
100
AcDbEntity
  8
0
  6
Continuous
 62
     7
370
    25
100
AcDbCircle
 10
6443.2946489836
 20
4667.1268088096
 30
0.0
 40
25.554353077729
100
AcDbArc
 50
184.3156255469
 51
265.684361092
  0
ARC
  5
34A
330
1F
100
AcDbEntity
  8
0
  6
Continuous
 62
     7
370
    25
100
AcDbCircle
 10
6416.2947349777
 20
4667.126812005
 30
0.0
 40
2.449948418228108
100
AcDbArc
 50
308.287778287
 51
51.712221713
  0
ARC
  5
34B
330
1F
100
AcDbEntity
  8
0
  6
Continuous
 62
     7
370
    25
100
AcDbCircle
 10
6443.2946489836
 20
4667.1268152003
 30
0.0
 40
25.55435307772845
100
AcDbArc
 50
94.315638908
 51
175.6843744531
  0
ARC
  5
34C
330
1F
100
AcDbEntity
  8
0
  6
Continuous
 62
     7
370
    25
100
AcDbCircle
 10
6443.2946457883
 20
4694.1268121753
 30
0.0
 40
2.449999753558252
100
AcDbArc
 50
218.2893159874
 51
321.7106840126
  0
ARC
  5
34D
330
1F
100
AcDbEntity
  8
0
  6
Continuous
 62
     7
370
    25
100
AcDbCircle
 10
6443.2960121067
 20
4694.126812005
 30
0.0
 40
2.450000000000771
100
AcDbArc
 50
90.0000107525
 51
269.9999892477
  0
ARC
  5
34E
330
1F
100
AcDbEntity
  8
0
  6
Continuous
 62
     7
370
    25
100
AcDbCircle
 10
6443.2946457883
 20
4694.1268119652
 30
0.0
 40
2.44999962338267
100
AcDbArc
 50
321.7106878688
 51
218.2893121312
  0
ARC
  5
34F
330
1F
100
AcDbEntity
  8
0
  6
Continuous
 62
     7
370
    25
100
AcDbCircle
 10
6443.2960120305
 20
4640.126812005
 30
0.0
 40
2.450000000000758
100
AcDbArc
 50
90.0000089684
 51
269.9999910319
  0
ARC
  5
350
330
1F
100
AcDbEntity
  8
0
  6
Continuous
 62
     7
370
    25
100
AcDbCircle
 10
6443.2946457883
 20
4640.1268120448
 30
0.0
 40
2.449999623383384
100
AcDbArc
 50
141.7106878688
 51
38.2893121312
  0
ARC
  5
351
330
1F
100
AcDbEntity
  8
0
  6
Continuous
 62
     7
370
    25
100
AcDbCircle
 10
6416.2960183268
 20
4667.126812005
 30
0.0
 40
2.449999999999848
100
AcDbArc
 50
90.0000089683
 51
269.999991032
  0
ARC
  5
352
330
1F
100
AcDbEntity
  8
0
  6
Continuous
 62
     7
370
    25
100
AcDbCircle
 10
6416.2946520448
 20
4667.126812005
 30
0.0
 40
2.449999805286343
100
AcDbArc
 50
51.7106994049
 51
308.2893005951
  0
CIRCLE
  5
353
330
1F
100
AcDbEntity
  8
0
  6
Continuous
 62
     7
370
    25
100
AcDbCircle
 10
6443.2946514742
 20
4667.12681254
 30
0.0
 40
34.89999754733345
  0
CIRCLE
  5
354
330
1F
100
AcDbEntity
  8
0
  6
Continuous
 62
     7
370
    25
100
AcDbCircle
 10
6795.6076760538
 20
4580.1268113549
 30
0.0
 40
3.999999349953218
  0
CIRCLE
  5
355
330
1F
100
AcDbEntity
  8
0
  6
Continuous
 62
     7
370
    25
100
AcDbCircle
 10
6795.6083586032
 20
4580.1268111931
 30
0.0
 40
4.999999188127735
  0
LINE
  5
356
330
1F
100
AcDbEntity
  8
0
  6
Continuous
 62
     7
370
    25
100
AcDbLine
 10
6795.662310225
 20
4570.3118574288
 30
0.0
 11
6797.6942869167
 21
4571.4850199922
 31
0.0
  0
LINE
  5
357
330
1F
100
AcDbEntity
  8
0
  6
Continuous
 62
     7
370
    25
100
AcDbLine
 10
6795.6377247683
 20
4570.3260518521
 30
0.0
 11
6795.662310225
 21
4570.3118574288
 31
0.0
  0
LINE
  5
358
330
1F
100
AcDbEntity
  8
0
  6
Continuous
 62
     7
370
    25
100
AcDbLine
 10
6795.662310225
 20
4570.3118574288
 30
0.0
 11
6795.6670907305
 21
4570.3118574288
 31
0.0
  0
LINE
  5
359
330
1F
100
AcDbEntity
  8
0
  6
Continuous
 62
     7
370
    25
100
AcDbLine
 10
6795.6670907305
 20
4570.3118574288
 30
0.0
 11
6797.6990674221
 21
4571.4850199922
 31
0.0
  0
ARC
  5
35A
330
1F
100
AcDbEntity
  8
0
  6
Continuous
 62
     7
370
    25
100
AcDbCircle
 10
6091.0078393579
 20
4727.1268119907
 30
0.0
 40
3.999999985668268
100
AcDbArc
 50
270.0000118747
 51
24.150154874
  0
ARC
  5
35B
330
1F
100
AcDbEntity
  8
0
  6
Continuous
 62
     7
370
    25
100
AcDbCircle
 10
6091.0078408414
 20
4727.1268118952
 30
0.0
 40
3.999999890214039
100
AcDbArc
 50
153.2306051921
 51
269.9999906255
  0
CIRCLE
  5
35C
330
1F
100
AcDbEntity
  8
0
  6
Continuous
 62
     7
370
    25
100
AcDbCircle
 10
6091.0078400099
 20
4580.126812655
 30
0.0
 40
3.999999349952308
  0
CIRCLE
  5
35D
330
1F
100
AcDbEntity
  8
0
  6
Continuous
 62
     7
370
    25
100
AcDbCircle
 10
6091.0085233192
 20
4580.1268128169
 30
0.0
 40
4.999999188124097
  0
LINE
  5
35E
330
1F
100
AcDbEntity
  8
0
  6
Continuous
 62
     7
370
    25
100
AcDbLine
 10
6127.0658807868
 20
4565.126812005
 30
0.0
 11
6127.0672466455
 21
4565.126812005
 31
0.0
  0
LINE
  5
35F
330
1F
100
AcDbEntity
  8
0
  6
Continuous
 62
     7
370
    25
100
AcDbLine
 10
6127.0658807868
 20
4565.126812005
 30
0.0
 11
6127.0658807868
 21
4595.126812005
 31
0.0
  0
LINE
  5
360
330
1F
100
AcDbEntity
  8
0
  6
Continuous
 62
     7
370
    25
100
AcDbLine
 10
6127.0658807868
 20
4595.126812005
 30
0.0
 11
6127.0672466455
 21
4595.126812005
 31
0.0
  0
LINE
  5
361
330
1F
100
AcDbEntity
  8
0
  6
Continuous
 62
     7
370
    25
100
AcDbLine
 10
6127.0672466455
 20
4565.126812005
 30
0.0
 11
6127.0672466455
 21
4595.126812005
 31
0.0
  0
LINE
  5
362
330
1F
100
AcDbEntity
  8
0
  6
Continuous
 62
     7
370
    25
100
AcDbLine
 10
6077.0658924466
 20
4565.126812005
 30
0.0
 11
6127.0658807868
 21
4565.126812005
 31
0.0
  0
LINE
  5
363
330
1F
100
AcDbEntity
  8
0
  6
Continuous
 62
     7
370
    25
100
AcDbLine
 10
6077.0658924466
 20
4595.126812005
 30
0.0
 11
6077.0658924466
 21
4565.126812005
 31
0.0
  0
LINE
  5
364
330
1F
100
AcDbEntity
  8
0
  6
Continuous
 62
     7
370
    25
100
AcDbLine
 10
6127.0658807868
 20
4595.126812005
 30
0.0
 11
6101.0137590982
 21
4595.126812005
 31
0.0
  0
LINE
  5
365
330
1F
100
AcDbEntity
  8
0
  6
Continuous
 62
     7
370
    25
100
AcDbLine
 10
6081.0119428939
 20
4595.126812005
 30
0.0
 11
6077.0658924466
 21
4595.126812005
 31
0.0
  0
CIRCLE
  5
366
330
1F
100
AcDbEntity
  8
0
  6
Continuous
 62
     7
370
    25
100
AcDbCircle
 10
6113.0658839036
 20
4580.1268124526
 30
0.0
 40
2.749999552372178
  0
ARC
  5
367
330
1F
100
AcDbEntity
  8
0
  6
Continuous
 62
     7
370
    25
100
AcDbCircle
 10
6113.0672503724
 20
4580.126812005
 30
0.0
 40
2.750000000000039
100
AcDbArc
 50
90.000009629
 51
269.9999903713
  0
ARC
  5
368
330
1F
100
AcDbEntity
  8
0
  6
Continuous
 62
     7
370
    25
100
AcDbCircle
 10
6795.6076750478
 20
4727.1268119907
 30
0.0
 40
3.999999985670087
100
AcDbArc
 50
270.0000118748
 51
24.1501225481
  0
ARC
  5
369
330
1F
100
AcDbEntity
  8
0
  6
Continuous
 62
     7
370
    25
100
AcDbCircle
 10
6795.6076765313
 20
4727.1268118952
 30
0.0
 40
3.999999890213653
100
AcDbArc
 50
153.2307665711
 51
269.9999906255
  0
LINE
  5
36A
330
1F
100
AcDbEntity
  8
0
  6
Continuous
 62
     7
370
    25
100
AcDbLine
 10
6809.6657216071
 20
4738.326812005
 30
0.0
 11
6809.6657216071
 21
4742.126812005
 31
0.0
  0
LINE
  5
36B
330
1F
100
AcDbEntity
  8
0
  6
Continuous
 62
     7
370
    25
100
AcDbLine
 10
6809.6670874658
 20
4738.326812005
 30
0.0
 11
6809.6670874658
 21
4742.126812005
 31
0.0
  0
LINE
  5
36C
330
1F
100
AcDbEntity
  8
0
  6
Continuous
 62
     7
370
    25
100
AcDbLine
 10
6809.6657216071
 20
4742.126812005
 30
0.0
 11
6809.6670874658
 21
4742.126812005
 31
0.0
  0
LINE
  5
36D
330
1F
100
AcDbEntity
  8
0
  6
Continuous
 62
     7
370
    25
100
AcDbLine
 10
6759.6657332669
 20
4742.126812005
 30
0.0
 11
6759.6657332669
 21
4738.326812005
 31
0.0
  0
LINE
  5
36E
330
1F
100
AcDbEntity
  8
0
  6
Continuous
 62
     7
370
    25
100
AcDbLine
 10
6809.6657216071
 20
4742.126812005
 30
0.0
 11
6759.6657332669
 21
4742.126812005
 31
0.0
  0
ARC
  5
36F
330
1F
100
AcDbEntity
  8
0
  6
Continuous
 62
     7
370
    25
100
AcDbCircle
 10
6813.8856128746
 20
4717.1268121216
 30
0.0
 40
0.999999883402786
100
AcDbArc
 50
359.9999933195
 51
89.9999933194
  0
LINE
  5
370
330
1F
100
AcDbEntity
  8
0
  6
Continuous
 62
     7
370
    25
100
AcDbLine
 10
6814.885612758
 20
4717.126812005
 30
0.0
 11
6814.885612758
 21
4617.126812005
 31
0.0
  0
ARC
  5
371
330
1F
100
AcDbEntity
  8
0
  6
Continuous
 62
     7
370
    25
100
AcDbCircle
 10
6813.8856128746
 20
4617.1268118884
 30
0.0
 40
0.999999883402786
100
AcDbArc
 50
270.0000066806
 51
0.0000066805
  0
LINE
  5
372
330
1F
100
AcDbEntity
  8
0
  6
Continuous
 62
     7
370
    25
100
AcDbLine
 10
6813.8856129912
 20
4718.126812005
 30
0.0
 11
6072.6857858363
 21
4718.126812005
 31
0.0
  0
LINE
  5
373
330
1F
100
AcDbEntity
  8
0
  6
Continuous
 62
     7
370
    25
100
AcDbLine
 10
6813.8856129912
 20
4616.126812005
 30
0.0
 11
6072.6857858363
 21
4616.126812005
 31
0.0
  0
ARC
  5
374
330
1F
100
AcDbEntity
  8
0
  6
Continuous
 62
     7
370
    25
100
AcDbCircle
 10
6072.6857859529
 20
4717.1268121216
 30
0.0
 40
0.999999883400967
100
AcDbArc
 50
90.0000066805
 51
180.0000066806
  0
ARC
  5
375
330
1F
100
AcDbEntity
  8
0
  6
Continuous
 62
     7
370
    25
100
AcDbCircle
 10
6072.6857859529
 20
4617.1268118884
 30
0.0
 40
0.999999883402786
100
AcDbArc
 50
179.9999933195
 51
269.9999933194
  0
LINE
  5
376
330
1F
100
AcDbEntity
  8
0
  6
Continuous
 62
     7
370
    25
100
AcDbLine
 10
6071.6857860695
 20
4617.126812005
 30
0.0
 11
6071.6857860695
 21
4717.126812005
 31
0.0
  0
ARC
  5
377
330
1F
100
AcDbEntity
  8
0
  6
Continuous
 62
     7
370
    25
100
AcDbCircle
 10
6072.6947323274
 20
4717.1268121216
 30
0.0
 40
0.999999883399148
100
AcDbArc
 50
90.0000066804
 51
180.0000066807
  0
LINE
  5
378
330
1F
100
AcDbEntity
  8
0
  6
Continuous
 62
     7
370
    25
100
AcDbLine
 10
6071.694732444
 20
4717.126812005
 30
0.0
 11
6071.6857860695
 21
4717.126812005
 31
0.0
  0
LINE
  5
379
330
1F
100
AcDbEntity
  8
0
  6
Continuous
 62
     7
370
    25
100
AcDbLine
 10
6071.694732444
 20
4617.126812005
 30
0.0
 11
6071.6857860695
 21
4617.126812005
 31
0.0
  0
ARC
  5
37A
330
1F
100
AcDbEntity
  8
0
  6
Continuous
 62
     7
370
    25
100
AcDbCircle
 10
6072.6947323274
 20
4617.1268118884
 30
0.0
 40
0.9999998834000575
100
AcDbArc
 50
179.9999933193
 51
269.9999933195
  0
LINE
  5
37B
330
1F
100
AcDbEntity
  8
0
  6
Continuous
 62
     7
370
    25
100
AcDbLine
 10
6071.694732444
 20
4717.126812005
 30
0.0
 11
6071.694732444
 21
4617.126812005
 31
0.0
  0
CIRCLE
  5
37C
330
1F
100
AcDbEntity
  8
0
  6
Continuous
 62
     7
370
    25
100
AcDbCircle
 10
6443.2946463639
 20
4667.1268056579
 30
0.0
 40
39.99999365289386
  0
CIRCLE
  5
37D
330
1F
100
AcDbEntity
  8
0
  6
Continuous
 62
     7
370
    25
100
AcDbCircle
 10
6443.2955688073
 20
4667.12680627
 30
0.0
 40
35.20108153821911
  0
LINE
  5
37E
330
1F
100
AcDbEntity
  8
0
  6
Continuous
 62
     7
370
    25
100
AcDbLine
 10
6845.5953714886
 20
4738.326812005
 30
0.0
 11
6040.9955591184
 21
4738.326812005
 31
0.0
  0
LINE
  5
37F
330
1F
100
AcDbEntity
  8
0
  6
Continuous
 62
     7
370
    25
100
AcDbLine
 10
6845.5953714886
 20
4595.926812005
 30
0.0
 11
6845.5953714886
 21
4738.326812005
 31
0.0
  0
LINE
  5
380
330
1F
100
AcDbEntity
  8
0
  6
Continuous
 62
     7
370
    25
100
AcDbLine
 10
6040.9955591184
 20
4595.926812005
 30
0.0
 11
6845.5953714886
 21
4595.926812005
 31
0.0
  0
LINE
  5
381
330
1F
100
AcDbEntity
  8
0
  6
Continuous
 62
     7
370
    25
100
AcDbLine
 10
6040.9955591184
 20
4738.326812005
 30
0.0
 11
6040.9955591184
 21
4595.926812005
 31
0.0
  0
CIRCLE
  5
382
330
1F
100
AcDbEntity
  8
0
  6
Continuous
 62
     7
370
    25
100
AcDbCircle
 10
6795.5953833365
 20
4726.6067571998
 30
0.0
 40
4.249999309324271
  0
CIRCLE
  5
383
330
1F
100
AcDbEntity
  8
0
  6
Continuous
 62
     7
370
    25
100
AcDbCircle
 10
6090.9955476466
 20
4726.6067571998
 30
0.0
 40
4.249999309323361
  0
LINE
  5
384
330
1F
100
AcDbEntity
  8
0
  6
Continuous
 62
     7
370
    25
100
AcDbLine
 10
6845.5953714886
 20
4595.926812005
 30
0.0
 11
6845.5961910039
 21
4595.926812005
 31
0.0
  0
LINE
  5
385
330
1F
100
AcDbEntity
  8
0
  6
Continuous
 62
     7
370
    25
100
AcDbLine
 10
6845.5961910039
 20
4595.926812005
 30
0.0
 11
6845.5961910039
 21
4738.326812005
 31
0.0
  0
LINE
  5
386
330
1F
100
AcDbEntity
  8
0
  6
Continuous
 62
     7
370
    25
100
AcDbLine
 10
6845.5953714886
 20
4738.326812005
 30
0.0
 11
6845.5961910039
 21
4738.326812005
 31
0.0
  0
ARC
  5
387
330
1F
100
AcDbEntity
  8
0
  6
Continuous
 62
     7
370
    25
100
AcDbCircle
 10
6795.5962034039
 20
4726.6067578905
 30
0.0
 40
4.250000000000064
100
AcDbArc
 50
90.0000099797
 51
269.9999900206
  0
ARC
  5
388
330
1F
100
AcDbEntity
  8
0
  6
Continuous
 62
     7
370
    25
100
AcDbCircle
 10
6090.996367714
 20
4726.6067578905
 30
0.0
 40
4.250000000000064
100
AcDbArc
 50
90.0000099797
 51
269.9999900206
  0
LINE
  5
389
330
1F
100
AcDbEntity
  8
0
  6
Continuous
 62
     7
370
    25
100
AcDbLine
 10
6805.6139908749
 20
4594.4689456765
 30
0.0
 11
6805.6131131258
 21
4595.926812005
 31
0.0
  0
LWPOLYLINE
  5
38A
330
1F
100
AcDbEntity
  8
0
  6
Continuous
 62
     7
370
    25
100
AcDbPolyline
 90
        9
 70
   128
 43
0.0
 10
6805.6145028384
 20
4592.4850199922
 10
6805.6144944873
 20
4592.7556124524
 10
6805.6144695022
 20
4593.0239989884
 10
6805.6144280867
 20
4593.2879916591
 10
6805.6143705785
 20
4593.5454383433
 10
6805.6142974463
 20
4593.7942402837
 10
6805.6142092864
 20
4594.0323691968
 10
6805.6141068175
 20
4594.2578838079
 10
6805.6139908749
 20
4594.4689456765
  0
LINE
  5
38B
330
1F
100
AcDbEntity
  8
0
  6
Continuous
 62
     7
370
    25
100
AcDbLine
 10
6805.6145028384
 20
4571.4850199922
 30
0.0
 11
6805.6145028384
 21
4592.4850199922
 31
0.0
  0
LINE
  5
38C
330
1F
100
AcDbEntity
  8
0
  6
Continuous
 62
     7
370
    25
100
AcDbLine
 10
6805.6131369797
 20
4571.4850199922
 30
0.0
 11
6805.6145028384
 21
4571.4850199922
 31
0.0
  0
LINE
  5
38D
330
1F
100
AcDbEntity
  8
0
  6
Continuous
 62
     7
370
    25
100
AcDbLine
 10
6805.6131369797
 20
4592.4850199922
 30
0.0
 11
6805.6131369797
 21
4571.4850199922
 31
0.0
  0
LWPOLYLINE
  5
38E
330
1F
100
AcDbEntity
  8
0
  6
Continuous
 62
     7
370
    25
100
AcDbPolyline
 90
        9
 70
   128
 43
0.0
 10
6805.6129663252
 20
4593.1463285537
 10
6805.6130049727
 20
4593.0759745975
 10
6805.613039129
 20
4593.0008030604
 10
6805.6130685156
 20
4592.9214267561
 10
6805.613092893
 20
4592.8384927759
 10
6805.6131120624
 20
4592.7526772145
 10
6805.6131258676
 20
4592.6646796576
 10
6805.613134196
 20
4592.575217479
 10
6805.6131369797
 20
4592.4850199922
  0
LINE
  5
38F
330
1F
100
AcDbEntity
  8
0
  6
Continuous
 62
     7
370
    25
100
AcDbLine
 10
6805.6112922576
 20
4595.926812005
 30
0.0
 11
6805.6129663252
 21
4593.1463285537
 31
0.0
  0
LINE
  5
390
330
1F
100
AcDbEntity
  8
0
  6
Continuous
 62
     7
370
    25
100
AcDbLine
 10
6101.014155185
 20
4594.4689456765
 30
0.0
 11
6101.0132774359
 21
4595.926812005
 31
0.0
  0
LWPOLYLINE
  5
391
330
1F
100
AcDbEntity
  8
0
  6
Continuous
 62
     7
370
    25
100
AcDbPolyline
 90
        9
 70
   128
 43
0.0
 10
6101.0146671485
 20
4592.4850199922
 10
6101.0146587974
 20
4592.7556124524
 10
6101.0146338123
 20
4593.0239989884
 10
6101.0145923968
 20
4593.2879916591
 10
6101.0145348886
 20
4593.5454383433
 10
6101.0144617564
 20
4593.7942402837
 10
6101.0143735965
 20
4594.0323691968
 10
6101.0142711276
 20
4594.2578838079
 10
6101.014155185
 20
4594.4689456765
  0
LINE
  5
392
330
1F
100
AcDbEntity
  8
0
  6
Continuous
 62
     7
370
    25
100
AcDbLine
 10
6101.0146671485
 20
4571.4850199922
 30
0.0
 11
6101.0146671485
 21
4592.4850199922
 31
0.0
  0
LINE
  5
393
330
1F
100
AcDbEntity
  8
0
  6
Continuous
 62
     7
370
    25
100
AcDbLine
 10
6101.0133012898
 20
4571.4850199922
 30
0.0
 11
6101.0146671485
 21
4571.4850199922
 31
0.0
  0
LINE
  5
394
330
1F
100
AcDbEntity
  8
0
  6
Continuous
 62
     7
370
    25
100
AcDbLine
 10
6101.0133012898
 20
4592.4850199922
 30
0.0
 11
6101.0133012898
 21
4571.4850199922
 31
0.0
  0
LWPOLYLINE
  5
395
330
1F
100
AcDbEntity
  8
0
  6
Continuous
 62
     7
370
    25
100
AcDbPolyline
 90
        9
 70
   128
 43
0.0
 10
6101.0131306353
 20
4593.1463285537
 10
6101.0131692828
 20
4593.0759745975
 10
6101.0132034391
 20
4593.0008030604
 10
6101.0132328257
 20
4592.9214267561
 10
6101.0132572031
 20
4592.8384927759
 10
6101.0132763725
 20
4592.7526772145
 10
6101.0132901777
 20
4592.6646796576
 10
6101.0132985061
 20
4592.575217479
 10
6101.0133012898
 20
4592.4850199922
  0
LINE
  5
396
330
1F
100
AcDbEntity
  8
0
  6
Continuous
 62
     7
370
    25
100
AcDbLine
 10
6101.0114565677
 20
4595.926812005
 30
0.0
 11
6101.0131306353
 21
4593.1463285537
 31
0.0
  0
LINE
  5
397
330
1F
100
AcDbEntity
  8
0
  6
Continuous
 62
     7
370
    25
100
AcDbLine
 10
6785.6129709891
 20
4593.1463285537
 30
0.0
 11
6805.6129663252
 21
4593.1463285537
 31
0.0
  0
LINE
  5
398
330
1F
100
AcDbEntity
  8
0
  6
Continuous
 62
     7
370
    25
100
AcDbLine
 10
6785.6112969215
 20
4595.926812005
 30
0.0
 11
6785.6129709891
 21
4593.1463285537
 31
0.0
  0
LINE
  5
399
330
1F
100
AcDbEntity
  8
0
  6
Continuous
 62
     7
370
    25
100
AcDbLine
 10
6101.0131306353
 20
4593.1463285537
 30
0.0
 11
6081.0131352992
 21
4593.1463285537
 31
0.0
  0
LINE
  5
39A
330
1F
100
AcDbEntity
  8
0
  6
Continuous
 62
     7
370
    25
100
AcDbLine
 10
6081.0114612316
 20
4595.926812005
 30
0.0
 11
6081.0131352992
 21
4593.1463285537
 31
0.0
  0
LINE
  5
39B
330
1F
100
AcDbEntity
  8
0
  6
Continuous
 62
     7
370
    25
100
AcDbLine
 10
6804.108356824
 20
4585.0342892931
 30
0.0
 11
6804.1131373295
 21
4585.0342892931
 31
0.0
  0
LINE
  5
39C
330
1F
100
AcDbEntity
  8
0
  6
Continuous
 62
     7
370
    25
100
AcDbLine
 10
6804.108356824
 20
4585.0342892931
 30
0.0
 11
6795.6083588062
 21
4589.9417665812
 31
0.0
  0
LINE
  5
39D
330
1F
100
AcDbEntity
  8
0
  6
Continuous
 62
     7
370
    25
100
AcDbLine
 10
6795.6083588062
 20
4589.9417665812
 30
0.0
 11
6795.6131393116
 21
4589.9417665812
 31
0.0
  0
LINE
  5
39E
330
1F
100
AcDbEntity
  8
0
  6
Continuous
 62
     7
370
    25
100
AcDbLine
 10
6804.1131373295
 20
4585.0342892931
 30
0.0
 11
6795.6131393116
 21
4589.9417665812
 31
0.0
  0
LINE
  5
39F
330
1F
100
AcDbEntity
  8
0
  6
Continuous
 62
     7
370
    25
100
AcDbLine
 10
6795.6083588062
 20
4589.9417665812
 30
0.0
 11
6787.1083607883
 21
4585.0342892931
 31
0.0
  0
LINE
  5
3A0
330
1F
100
AcDbEntity
  8
0
  6
Continuous
 62
     7
370
    25
100
AcDbLine
 10
6804.108356824
 20
4575.2193347169
 30
0.0
 11
6804.108356824
 21
4585.0342892931
 31
0.0
  0
LINE
  5
3A1
330
1F
100
AcDbEntity
  8
0
  6
Continuous
 62
     7
370
    25
100
AcDbLine
 10
6795.6083588062
 20
4570.3118574288
 30
0.0
 11
6804.108356824
 21
4575.2193347169
 31
0.0
  0
LINE
  5
3A2
330
1F
100
AcDbEntity
  8
0
  6
Continuous
 62
     7
370
    25
100
AcDbLine
 10
6787.1083607883
 20
4575.2193347169
 30
0.0
 11
6795.6083588062
 21
4570.3118574288
 31
0.0
  0
LINE
  5
3A3
330
1F
100
AcDbEntity
  8
0
  6
Continuous
 62
     7
370
    25
100
AcDbLine
 10
6787.1083607883
 20
4585.0342892931
 30
0.0
 11
6787.1083607883
 21
4575.2193347169
 31
0.0
  0
LINE
  5
3A4
330
1F
100
AcDbEntity
  8
0
  6
Continuous
 62
     7
370
    25
100
AcDbLine
 10
6804.108356824
 20
4575.2193347169
 30
0.0
 11
6804.1131373295
 21
4575.2193347169
 31
0.0
  0
LINE
  5
3A5
330
1F
100
AcDbEntity
  8
0
  6
Continuous
 62
     7
370
    25
100
AcDbLine
 10
6804.1131373295
 20
4575.2193347169
 30
0.0
 11
6804.1131373295
 21
4585.0342892931
 31
0.0
  0
LINE
  5
3A6
330
1F
100
AcDbEntity
  8
0
  6
Continuous
 62
     7
370
    25
100
AcDbLine
 10
6795.6083588062
 20
4570.3118574288
 30
0.0
 11
6795.6131393116
 21
4570.3118574288
 31
0.0
  0
LINE
  5
3A7
330
1F
100
AcDbEntity
  8
0
  6
Continuous
 62
     7
370
    25
100
AcDbLine
 10
6797.6451160033
 20
4571.4850199922
 30
0.0
 11
6804.1131373295
 21
4575.2193347169
 31
0.0
  0
LINE
  5
3A8
330
1F
100
AcDbEntity
  8
0
  6
Continuous
 62
     7
370
    25
100
AcDbLine
 10
6795.6131393116
 20
4570.3118574288
 30
0.0
 11
6797.6451160033
 21
4571.4850199922
 31
0.0
  0
LINE
  5
3A9
330
1F
100
AcDbEntity
  8
0
  6
Continuous
 62
     7
370
    25
100
AcDbLine
 10
6099.5085211341
 20
4575.2193347169
 30
0.0
 11
6091.0085231162
 21
4570.3118574288
 31
0.0
  0
LINE
  5
3AA
330
1F
100
AcDbEntity
  8
0
  6
Continuous
 62
     7
370
    25
100
AcDbLine
 10
6091.0085231162
 20
4570.3118574288
 30
0.0
 11
6082.5085250984
 21
4575.2193347169
 31
0.0
  0
LINE
  5
3AB
330
1F
100
AcDbEntity
  8
0
  6
Continuous
 62
     7
370
    25
100
AcDbLine
 10
6082.5085250984
 20
4575.2193347169
 30
0.0
 11
6082.5085250984
 21
4585.0342892931
 31
0.0
  0
LINE
  5
3AC
330
1F
100
AcDbEntity
  8
0
  6
Continuous
 62
     7
370
    25
100
AcDbLine
 10
6082.5085250984
 20
4585.0342892931
 30
0.0
 11
6091.0085231162
 21
4589.9417665812
 31
0.0
  0
LINE
  5
3AD
330
1F
100
AcDbEntity
  8
0
  6
Continuous
 62
     7
370
    25
100
AcDbLine
 10
6091.0085231162
 20
4589.9417665812
 30
0.0
 11
6099.5085211341
 21
4585.0342892931
 31
0.0
  0
LINE
  5
3AE
330
1F
100
AcDbEntity
  8
0
  6
Continuous
 62
     7
370
    25
100
AcDbLine
 10
6099.5085211341
 20
4585.0342892931
 30
0.0
 11
6099.5085211341
 21
4575.2193347169
 31
0.0
  0
LINE
  5
3AF
330
1F
100
AcDbEntity
  8
0
  6
Continuous
 62
     7
370
    25
100
AcDbLine
 10
6099.5085211341
 20
4585.0342892931
 30
0.0
 11
6099.5133016395
 21
4585.0342892931
 31
0.0
  0
LINE
  5
3B0
330
1F
100
AcDbEntity
  8
0
  6
Continuous
 62
     7
370
    25
100
AcDbLine
 10
6091.0085231162
 20
4589.9417665812
 30
0.0
 11
6091.0133036217
 21
4589.9417665812
 31
0.0
  0
LINE
  5
3B1
330
1F
100
AcDbEntity
  8
0
  6
Continuous
 62
     7
370
    25
100
AcDbLine
 10
6091.0133036217
 20
4589.9417665812
 30
0.0
 11
6099.5133016395
 21
4585.0342892931
 31
0.0
  0
LINE
  5
3B2
330
1F
100
AcDbEntity
  8
0
  6
Continuous
 62
     7
370
    25
100
AcDbLine
 10
6099.5085211341
 20
4575.2193347169
 30
0.0
 11
6099.5133016395
 21
4575.2193347169
 31
0.0
  0
LINE
  5
3B3
330
1F
100
AcDbEntity
  8
0
  6
Continuous
 62
     7
370
    25
100
AcDbLine
 10
6099.5133016395
 20
4585.0342892931
 30
0.0
 11
6099.5133016395
 21
4575.2193347169
 31
0.0
  0
LINE
  5
3B4
330
1F
100
AcDbEntity
  8
0
  6
Continuous
 62
     7
370
    25
100
AcDbLine
 10
6093.0452803134
 20
4571.4850199922
 30
0.0
 11
6091.0133036217
 21
4570.3118574288
 31
0.0
  0
LINE
  5
3B5
330
1F
100
AcDbEntity
  8
0
  6
Continuous
 62
     7
370
    25
100
AcDbLine
 10
6091.0085231162
 20
4570.3118574288
 30
0.0
 11
6091.0133036217
 21
4570.3118574288
 31
0.0
  0
LINE
  5
3B6
330
1F
100
AcDbEntity
  8
0
  6
Continuous
 62
     7
370
    25
100
AcDbLine
 10
6099.5133016395
 20
4575.2193347169
 30
0.0
 11
6093.0452803134
 21
4571.4850199922
 31
0.0
  0
LINE
  5
3B7
330
1F
100
AcDbEntity
  8
0
  6
Continuous
 62
     7
370
    25
100
AcDbLine
 10
6785.6131416436
 20
4592.4850199922
 30
0.0
 11
6805.6131369797
 21
4592.4850199922
 31
0.0
  0
LWPOLYLINE
  5
3B8
330
1F
100
AcDbEntity
  8
0
  6
Continuous
 62
     7
370
    25
100
AcDbPolyline
 90
        9
 70
   128
 43
0.0
 10
6785.6129709891
 20
4593.1463285537
 10
6785.6130096366
 20
4593.0759745975
 10
6785.6130437929
 20
4593.0008030604
 10
6785.6130731796
 20
4592.9214267561
 10
6785.6130975569
 20
4592.8384927759
 10
6785.6131167264
 20
4592.7526772145
 10
6785.6131305315
 20
4592.6646796576
 10
6785.6131388599
 20
4592.575217479
 10
6785.6131416436
 20
4592.4850199922
  0
LINE
  5
3B9
330
1F
100
AcDbEntity
  8
0
  6
Continuous
 62
     7
370
    25
100
AcDbLine
 10
6797.6451160033
 20
4571.4850199922
 30
0.0
 11
6805.6131369797
 21
4571.4850199922
 31
0.0
  0
LINE
  5
3BA
330
1F
100
AcDbEntity
  8
0
  6
Continuous
 62
     7
370
    25
100
AcDbLine
 10
6785.6131416436
 20
4571.4850199922
 30
0.0
 11
6793.5763821145
 21
4571.4850199922
 31
0.0
  0
LINE
  5
3BB
330
1F
100
AcDbEntity
  8
0
  6
Continuous
 62
     7
370
    25
100
AcDbLine
 10
6785.6131416436
 20
4592.4850199922
 30
0.0
 11
6785.6131416436
 21
4571.4850199922
 31
0.0
  0
LINE
  5
3BC
330
1F
100
AcDbEntity
  8
0
  6
Continuous
 62
     7
370
    25
100
AcDbLine
 10
6101.0133012898
 20
4592.4850199922
 30
0.0
 11
6081.0133059537
 21
4592.4850199922
 31
0.0
  0
LWPOLYLINE
  5
3BD
330
1F
100
AcDbEntity
  8
0
  6
Continuous
 62
     7
370
    25
100
AcDbPolyline
 90
        9
 70
   128
 43
0.0
 10
6081.0131352992
 20
4593.1463285537
 10
6081.0131739467
 20
4593.0759745975
 10
6081.013208103
 20
4593.0008030604
 10
6081.0132374897
 20
4592.9214267561
 10
6081.013261867
 20
4592.8384927759
 10
6081.0132810365
 20
4592.7526772145
 10
6081.0132948416
 20
4592.6646796576
 10
6081.01330317
 20
4592.575217479
 10
6081.0133059537
 20
4592.4850199922
  0
LINE
  5
3BE
330
1F
100
AcDbEntity
  8
0
  6
Continuous
 62
     7
370
    25
100
AcDbLine
 10
6101.0133012898
 20
4571.4850199922
 30
0.0
 11
6093.0452803134
 21
4571.4850199922
 31
0.0
  0
LINE
  5
3BF
330
1F
100
AcDbEntity
  8
0
  6
Continuous
 62
     7
370
    25
100
AcDbLine
 10
6088.9765464246
 20
4571.4850199922
 30
0.0
 11
6081.0133059537
 21
4571.4850199922
 31
0.0
  0
LINE
  5
3C0
330
1F
100
AcDbEntity
  8
0
  6
Continuous
 62
     7
370
    25
100
AcDbLine
 10
6081.0133059537
 20
4592.4850199922
 30
0.0
 11
6081.0133059537
 21
4571.4850199922
 31
0.0
  0
LWPOLYLINE
  5
3C1
330
1F
100
AcDbEntity
  8
0
  6
Continuous
 62
     8
370
    25
100
AcDbPolyline
 90
       10
 70
   128
 43
0.0
 10
6461.4186270952
 20
4668.1295744359
 10
6461.490582793
 20
4668.1335697091
 10
6461.6959918407
 20
4668.1449472844
 10
6462.0035825726
 20
4668.1619750293
 10
6462.3665270883
 20
4668.1820606238
 10
6462.7295703754
 20
4668.2021462183
 10
6463.0374423842
 20
4668.2191739631
 10
6463.2432723925
 20
4668.2305515385
 10
6463.3157246472
 20
4668.2345468116
 10
6463.3157247639
 20
4668.2345467766
  0
LWPOLYLINE
  5
3C2
330
1F
100
AcDbEntity
  8
0
  6
Continuous
 62
     8
370
    25
100
AcDbPolyline
 90
       10
 70
   128
 43
0.0
 10
6461.3687034754
 20
4668.076812005
 10
6461.368455197
 20
4668.0044975609
 10
6461.3682447167
 20
4667.7985634471
 10
6461.3681040782
 20
4667.4903612657
 10
6461.3680546926
 20
4667.126812005
 10
6461.3681040782
 20
4666.7632627442
 10
6461.3682447167
 20
4666.4550605629
 10
6461.368455197
 20
4666.2491264491
 10
6461.3687034754
 20
4666.176812005
 10
6461.3687037755
 20
4666.1768121066
  0
LWPOLYLINE
  5
3C3
330
1F
100
AcDbEntity
  8
0
  6
Continuous
 62
     8
370
    25
100
AcDbPolyline
 90
        9
 70
   128
 43
0.0
 10
6425.1740791281
 20
4668.1295744359
 10
6425.1016268733
 20
4668.1335697091
 10
6424.8957968651
 20
4668.1449472844
 10
6424.5879248562
 20
4668.1619750293
 10
6424.2248815692
 20
4668.1820606238
 10
6423.8619370535
 20
4668.2021462183
 10
6423.5543463215
 20
4668.2191739631
 10
6423.3489372739
 20
4668.2305515385
 10
6423.2769814693
 20
4668.2345468107
  0
LWPOLYLINE
  5
3C4
330
1F
100
AcDbEntity
  8
0
  6
Continuous
 62
     8
370
    25
100
AcDbPolyline
 90
        9
 70
   128
 43
0.0
 10
6425.2240027479
 20
4668.076812005
 10
6425.2237544694
 20
4668.0044975609
 10
6425.2235439891
 20
4667.7985634471
 10
6425.2234033506
 20
4667.4903612657
 10
6425.223353965
 20
4667.126812005
 10
6425.2234033506
 20
4666.7632627442
 10
6425.2235439891
 20
4666.4550605629
 10
6425.2237544694
 20
4666.2491264491
 10
6425.2240027479
 20
4666.176812005
  0
LINE
  5
3C5
330
1F
100
AcDbEntity
  8
0
  6
Continuous
 62
     8
370
    25
100
AcDbLine
 10
6461.8966919398
 20
4666.2519082423
 30
0.0
 11
6461.8966919398
 21
4664.326812005
 31
0.0
  0
LINE
  5
3C6
330
1F
100
AcDbEntity
  8
0
  6
Continuous
 62
     8
370
    25
100
AcDbLine
 10
6425.3963572859
 20
4664.326812005
 30
0.0
 11
6424.6973818431
 21
4664.326812005
 31
0.0
  0
LINE
  5
3C7
330
1F
100
AcDbEntity
  8
0
  6
Continuous
 62
     8
370
    25
100
AcDbLine
 10
6424.6973818431
 20
4664.326812005
 30
0.0
 11
6424.6973818431
 21
4666.270135254
 31
0.0
  0
LWPOLYLINE
  5
3C8
330
1F
100
AcDbEntity
  8
0
  6
Continuous
 62
     8
370
    25
100
AcDbPolyline
 90
        3
 70
   128
 43
0.0
 10
6460.9569347804
 20
4671.2489983494
 10
6460.7698186534
 20
4671.2999113975
 10
6460.4966922663
 20
4671.326812005
  0
LWPOLYLINE
  5
3C9
330
1F
100
AcDbEntity
  8
0
  6
Continuous
 62
     8
370
    25
100
AcDbPolyline
 90
        3
 70
   128
 43
0.0
 10
6426.0973815167
 20
4671.326812005
 10
6425.8242551295
 20
4671.2999113975
 10
6425.6392841341
 20
4671.2497431031
  0
LINE
  5
3CA
330
1F
100
AcDbEntity
  8
0
  6
Continuous
 62
     8
370
    25
100
AcDbLine
 10
6428.4491579707
 20
4653.5989699399
 30
0.0
 11
6428.6345029994
 21
4653.5989699399
 31
0.0
  0
ARC
  5
3CB
330
1F
100
AcDbEntity
  8
0
  6
Continuous
 62
     8
370
    25
100
AcDbCircle
 10
6431.1958424804
 20
4659.6268102079
 30
0.0
 40
8.026622140638217
100
AcDbArc
 50
303.4944229096
 51
315.0000068742
  0
LINE
  5
3CC
330
1F
100
AcDbEntity
  8
0
  6
Continuous
 62
     8
370
    25
100
AcDbLine
 10
6430.7703514142
 20
4651.6001882859
 30
0.0
 11
6430.5509195246
 21
4651.6001882859
 31
0.0
  0
LINE
  5
3CD
330
1F
100
AcDbEntity
  8
0
  6
Continuous
 62
     8
370
    25
100
AcDbLine
 10
6814.885612758
 20
4717.126812005
 30
0.0
 11
6818.2856121676
 21
4717.126812005
 31
0.0
  0
LWPOLYLINE
  5
3CE
330
1F
100
AcDbEntity
  8
0
  6
Continuous
 62
     8
370
    25
100
AcDbPolyline
 90
        9
 70
   128
 43
0.0
 10
6813.8856129912
 20
4718.126812005
 10
6813.8851409303
 20
4718.2736855529
 10
6813.8847504379
 20
4718.6889275626
 10
6813.8845089882
 20
4719.3007873667
 10
6813.8844583018
 20
4720.0035402354
 10
6813.884607137
 20
4720.6757558073
 10
6813.8849297762
 20
4721.2012803343
 10
6813.8853704697
 20
4721.489307167
 10
6813.8856135594
 20
4721.5268118014
  0
LINE
  5
3CF
330
1F
100
AcDbEntity
  8
0
  6
Continuous
 62
     8
370
    25
100
AcDbLine
 10
6814.885612758
 20
4617.126812005
 30
0.0
 11
6818.2856123616
 21
4617.126812005
 31
0.0
  0
LWPOLYLINE
  5
3D0
330
1F
100
AcDbEntity
  8
0
  6
Continuous
 62
     8
370
    25
100
AcDbPolyline
 90
        9
 70
   128
 43
0.0
 10
6813.8856129912
 20
4616.126812005
 10
6813.8851409303
 20
4615.979938457
 10
6813.8847504379
 20
4615.5646964474
 10
6813.8845089882
 20
4614.9528366433
 10
6813.8844583018
 20
4614.2500837746
 10
6813.884607137
 20
4613.5778682027
 10
6813.8849297762
 20
4613.0523436757
 10
6813.8853704697
 20
4612.764316843
 10
6813.8856135481
 20
4612.7268122006
  0
LWPOLYLINE
  5
3D1
330
1F
100
AcDbEntity
  8
0
  6
Continuous
 62
     8
370
    25
100
AcDbPolyline
 90
       17
 70
   128
 43
0.0
 10
6072.6857858363
 20
4718.126812005
 10
6072.6855445364
 20
4718.1639357365
 10
6072.6853137754
 20
4718.2736855529
 10
6072.6851036315
 20
4718.4512681334
 10
6072.684923283
 20
4718.6889275626
 10
6072.6847806064
 20
4718.9762840701
 10
6072.6846818333
 20
4719.3007873667
 10
6072.6846312774
 20
4719.6482647779
 10
6072.6846311469
 20
4720.0035402354
 10
6072.6846814474
 20
4720.3510970912
 10
6072.6847799821
 20
4720.6757558073
 10
6072.6849224474
 20
4720.9633369213
 10
6072.6851026212
 20
4721.2012803343
 10
6072.6853126345
 20
4721.3791938728
 10
6072.6855433148
 20
4721.489307167
 10
6072.6857845872
 20
4721.5268110211
 10
6072.6857858229
 20
4721.5266228848
  0
LWPOLYLINE
  5
3D2
330
1F
100
AcDbEntity
  8
0
  6
Continuous
 62
     8
370
    25
100
AcDbPolyline
 90
        9
 70
   128
 43
0.0
 10
6072.6857858363
 20
4616.126812005
 10
6072.6853137754
 20
4615.979938457
 10
6072.684923283
 20
4615.5646964474
 10
6072.6846818333
 20
4614.9528366433
 10
6072.6846311469
 20
4614.2500837746
 10
6072.6847799821
 20
4613.5778682027
 10
6072.6851026212
 20
4613.0523436757
 10
6072.6855433148
 20
4612.764316843
 10
6072.6857858363
 20
4612.726812005
  0
LINE
  5
3D3
330
1F
100
AcDbEntity
  8
0
  6
Continuous
 62
     8
370
    25
100
AcDbLine
 10
6071.6857860695
 20
4717.126812005
 30
0.0
 11
6068.2857866709
 21
4717.126812005
 31
0.0
  0
LINE
  5
3D4
330
1F
100
AcDbEntity
  8
0
  6
Continuous
 62
     8
370
    25
100
AcDbLine
 10
6071.6857860695
 20
4617.126812005
 30
0.0
 11
6068.2857866627
 21
4617.126812005
 31
0.0
  0
ENDSEC
  0
SECTION
  2
OBJECTS
  0
DICTIONARY
  5
C
330
0
100
AcDbDictionary
281
     1
  3
ACAD_GROUP
350
D
  3
ACAD_LAYOUT
350
1A
  3
ACAD_MLINESTYLE
350
17
  3
ACAD_PLOTSETTINGS
350
19
  3
ACAD_PLOTSTYLENAME
350
E
  3
ACAD_SCALELIST
350
47
  3
DWGPROPS
350
3D5
  0
DICTIONARY
  5
D
102
{ACAD_REACTORS
330
C
102
}
330
C
100
AcDbDictionary
281
     1
  0
DICTIONARY
  5
1A
102
{ACAD_REACTORS
330
C
102
}
330
C
100
AcDbDictionary
281
     1
  3
Layout1
350
1E
  3
Layout2
350
26
  3
Model
350
22
  0
DICTIONARY
  5
17
102
{ACAD_REACTORS
330
C
102
}
330
C
100
AcDbDictionary
281
     1
  3
Standard
350
18
  0
DICTIONARY
  5
19
102
{ACAD_REACTORS
330
C
102
}
330
C
100
AcDbDictionary
281
     1
  0
ACDBDICTIONARYWDFLT
  5
E
102
{ACAD_REACTORS
330
C
102
}
330
C
100
AcDbDictionary
281
     1
  3
Normal
350
F
100
AcDbDictionaryWithDefault
340
F
  0
DICTIONARY
  5
47
102
{ACAD_REACTORS
330
C
102
}
330
C
100
AcDbDictionary
281
     1
  3
A0
350
48
  3
A1
350
49
  3
A2
350
4A
  3
A3
350
4B
  3
A4
350
4C
  3
A5
350
4D
  3
A6
350
4E
  3
A7
350
4F
  3
A8
350
50
  3
A9
350
51
  3
B0
350
52
  3
B1
350
53
  3
B2
350
54
  3
B3
350
55
  3
B4
350
56
  3
B5
350
57
  3
B6
350
58
  3
B7
350
59
  3
B8
350
5A
  3
B9
350
5B
  3
C0
350
5C
  3
C1
350
5D
  3
C2
350
5E
  3
C3
350
5F
  3
C4
350
60
  3
C5
350
61
  3
C6
350
62
  3
C7
350
63
  3
C8
350
64
  3
C9
350
65
  3
D0
350
66
  3
D1
350
67
  3
D2
350
68
  0
XRECORD
  5
3D5
102
{ACAD_REACTORS
330
C
102
}
330
C
100
AcDbXrecord
280
     1
  1
DWGPROPS COOKIE
  2

  3

  4

  6

  7

  8
radek.stransky
  9

300
=
301
=
302
=
303
=
304
=
305
=
306
=
307
=
308
=
309
=
 40
0.0
 41
2459157.40510066
 42
2459157.405100833
  1

 90
        0
  0
LAYOUT
  5
1E
102
{ACAD_REACTORS
330
1A
102
}
330
1A
100
AcDbPlotSettings
  1

  2
none_device
  4

  6

 40
0.0
 41
0.0
 42
0.0
 43
0.0
 44
0.0
 45
0.0
 46
0.0
 47
0.0
 48
0.0
 49
0.0
140
0.0
141
0.0
142
1.0
143
1.0
 70
   688
 72
     1
 73
     0
 74
     5
  7

 75
    16
147
1.0
148
0.0
149
0.0
100
AcDbLayout
  1
Layout1
 70
     1
 71
     1
 10
0.0
 20
0.0
 11
420.0
 21
297.0
 12
0.0
 22
0.0
 32
0.0
 14
1.0000000000E+20
 24
1.0000000000E+20
 34
1.0000000000E+20
 15
-1.0000000000E+20
 25
-1.0000000000E+20
 35
-1.0000000000E+20
146
0.0
 13
0.0
 23
0.0
 33
0.0
 16
1.0
 26
0.0
 36
0.0
 17
0.0
 27
1.0
 37
0.0
 76
     0
330
1B
  0
LAYOUT
  5
26
102
{ACAD_REACTORS
330
1A
102
}
330
1A
100
AcDbPlotSettings
  1

  2
none_device
  4

  6

 40
0.0
 41
0.0
 42
0.0
 43
0.0
 44
0.0
 45
0.0
 46
0.0
 47
0.0
 48
0.0
 49
0.0
140
0.0
141
0.0
142
1.0
143
1.0
 70
   688
 72
     1
 73
     0
 74
     5
  7

 75
    16
147
1.0
148
0.0
149
0.0
100
AcDbLayout
  1
Layout2
 70
     1
 71
     2
 10
0.0
 20
0.0
 11
0.0
 21
0.0
 12
0.0
 22
0.0
 32
0.0
 14
0.0
 24
0.0
 34
0.0
 15
0.0
 25
0.0
 35
0.0
146
0.0
 13
0.0
 23
0.0
 33
0.0
 16
1.0
 26
0.0
 36
0.0
 17
0.0
 27
1.0
 37
0.0
 76
     0
330
23
  0
LAYOUT
  5
22
102
{ACAD_REACTORS
330
1A
102
}
330
1A
100
AcDbPlotSettings
  1

  2
none_device
  4
Letter_(8.50_x_11.00_Inches)
  6

 40
6.35
 41
6.35
 42
6.35000508
 43
6.35000508
 44
215.9
 45
279.4
 46
0.0
 47
0.0
 48
0.0
 49
0.0
140
0.0
141
0.0
142
1.0
143
1.0
 70
  1712
 72
     1
 73
     0
 74
     0
  7

 75
     0
147
1.0
148
0.0
149
0.0
100
AcDbLayout
  1
Model
 70
     1
 71
     0
 10
0.0
 20
0.0
 11
20000.0
 21
10000.0
 12
0.0
 22
0.0
 32
0.0
 14
0.0
 24
0.0
 34
0.0
 15
20000.0
 25
10000.0
 35
0.0
146
0.0
 13
0.0
 23
0.0
 33
0.0
 16
1.0
 26
0.0
 36
0.0
 17
0.0
 27
1.0
 37
0.0
 76
     0
330
1F
331
29
  0
MLINESTYLE
  5
18
102
{ACAD_REACTORS
330
17
102
}
330
17
100
AcDbMlineStyle
  2
Standard
 70
     0
  3

 62
   256
 51
90.0
 52
90.0
 71
     2
 49
0.5
 62
   256
  6
BYLAYER
 49
-0.5
 62
   256
  6
BYLAYER
  0
ACDBPLACEHOLDER
  5
F
102
{ACAD_REACTORS
330
E
102
}
330
E
  0
SCALE
  5
48
102
{ACAD_REACTORS
330
47
102
}
330
47
100
AcDbScale
 70
     0
300
1:1
140
1.0
141
1.0
290
     1
  0
SCALE
  5
49
102
{ACAD_REACTORS
330
47
102
}
330
47
100
AcDbScale
 70
     0
300
1:2
140
1.0
141
2.0
290
     0
  0
SCALE
  5
4A
102
{ACAD_REACTORS
330
47
102
}
330
47
100
AcDbScale
 70
     0
300
1:4
140
1.0
141
4.0
290
     0
  0
SCALE
  5
4B
102
{ACAD_REACTORS
330
47
102
}
330
47
100
AcDbScale
 70
     0
300
1:5
140
1.0
141
5.0
290
     0
  0
SCALE
  5
4C
102
{ACAD_REACTORS
330
47
102
}
330
47
100
AcDbScale
 70
     0
300
1:8
140
1.0
141
8.0
290
     0
  0
SCALE
  5
4D
102
{ACAD_REACTORS
330
47
102
}
330
47
100
AcDbScale
 70
     0
300
1:10
140
1.0
141
10.0
290
     0
  0
SCALE
  5
4E
102
{ACAD_REACTORS
330
47
102
}
330
47
100
AcDbScale
 70
     0
300
1:16
140
1.0
141
16.0
290
     0
  0
SCALE
  5
4F
102
{ACAD_REACTORS
330
47
102
}
330
47
100
AcDbScale
 70
     0
300
1:20
140
1.0
141
20.0
290
     0
  0
SCALE
  5
50
102
{ACAD_REACTORS
330
47
102
}
330
47
100
AcDbScale
 70
     0
300
1:30
140
1.0
141
30.0
290
     0
  0
SCALE
  5
51
102
{ACAD_REACTORS
330
47
102
}
330
47
100
AcDbScale
 70
     0
300
1:40
140
1.0
141
40.0
290
     0
  0
SCALE
  5
52
102
{ACAD_REACTORS
330
47
102
}
330
47
100
AcDbScale
 70
     0
300
1:50
140
1.0
141
50.0
290
     0
  0
SCALE
  5
53
102
{ACAD_REACTORS
330
47
102
}
330
47
100
AcDbScale
 70
     0
300
1:100
140
1.0
141
100.0
290
     0
  0
SCALE
  5
54
102
{ACAD_REACTORS
330
47
102
}
330
47
100
AcDbScale
 70
     0
300
2:1
140
2.0
141
1.0
290
     0
  0
SCALE
  5
55
102
{ACAD_REACTORS
330
47
102
}
330
47
100
AcDbScale
 70
     0
300
4:1
140
4.0
141
1.0
290
     0
  0
SCALE
  5
56
102
{ACAD_REACTORS
330
47
102
}
330
47
100
AcDbScale
 70
     0
300
8:1
140
8.0
141
1.0
290
     0
  0
SCALE
  5
57
102
{ACAD_REACTORS
330
47
102
}
330
47
100
AcDbScale
 70
     0
300
10:1
140
10.0
141
1.0
290
     0
  0
SCALE
  5
58
102
{ACAD_REACTORS
330
47
102
}
330
47
100
AcDbScale
 70
     0
300
100:1
140
100.0
141
1.0
290
     0
  0
SCALE
  5
59
102
{ACAD_REACTORS
330
47
102
}
330
47
100
AcDbScale
 70
     0
300
1/128" = 1'-0"
140
0.0078125
141
12.0
290
     0
  0
SCALE
  5
5A
102
{ACAD_REACTORS
330
47
102
}
330
47
100
AcDbScale
 70
     0
300
1/64" = 1'-0"
140
0.015625
141
12.0
290
     0
  0
SCALE
  5
5B
102
{ACAD_REACTORS
330
47
102
}
330
47
100
AcDbScale
 70
     0
300
1/32" = 1'-0"
140
0.03125
141
12.0
290
     0
  0
SCALE
  5
5C
102
{ACAD_REACTORS
330
47
102
}
330
47
100
AcDbScale
 70
     0
300
1/16" = 1'-0"
140
0.0625
141
12.0
290
     0
  0
SCALE
  5
5D
102
{ACAD_REACTORS
330
47
102
}
330
47
100
AcDbScale
 70
     0
300
3/32" = 1'-0"
140
0.09375
141
12.0
290
     0
  0
SCALE
  5
5E
102
{ACAD_REACTORS
330
47
102
}
330
47
100
AcDbScale
 70
     0
300
1/8" = 1'-0"
140
0.125
141
12.0
290
     0
  0
SCALE
  5
5F
102
{ACAD_REACTORS
330
47
102
}
330
47
100
AcDbScale
 70
     0
300
3/16" = 1'-0"
140
0.1875
141
12.0
290
     0
  0
SCALE
  5
60
102
{ACAD_REACTORS
330
47
102
}
330
47
100
AcDbScale
 70
     0
300
1/4" = 1'-0"
140
0.25
141
12.0
290
     0
  0
SCALE
  5
61
102
{ACAD_REACTORS
330
47
102
}
330
47
100
AcDbScale
 70
     0
300
3/8" = 1'-0"
140
0.375
141
12.0
290
     0
  0
SCALE
  5
62
102
{ACAD_REACTORS
330
47
102
}
330
47
100
AcDbScale
 70
     0
300
1/2" = 1'-0"
140
0.5
141
12.0
290
     0
  0
SCALE
  5
63
102
{ACAD_REACTORS
330
47
102
}
330
47
100
AcDbScale
 70
     0
300
3/4" = 1'-0"
140
0.75
141
12.0
290
     0
  0
SCALE
  5
64
102
{ACAD_REACTORS
330
47
102
}
330
47
100
AcDbScale
 70
     0
300
1" = 1'-0"
140
1.0
141
12.0
290
     0
  0
SCALE
  5
65
102
{ACAD_REACTORS
330
47
102
}
330
47
100
AcDbScale
 70
     0
300
1-1/2" = 1'-0"
140
1.5
141
12.0
290
     0
  0
SCALE
  5
66
102
{ACAD_REACTORS
330
47
102
}
330
47
100
AcDbScale
 70
     0
300
3" = 1'-0"
140
3.0
141
12.0
290
     0
  0
SCALE
  5
67
102
{ACAD_REACTORS
330
47
102
}
330
47
100
AcDbScale
 70
     0
300
6" = 1'-0"
140
6.0
141
12.0
290
     0
  0
SCALE
  5
68
102
{ACAD_REACTORS
330
47
102
}
330
47
100
AcDbScale
 70
     0
300
1'-0" = 1'-0"
140
12.0
141
12.0
290
     0
  0
ENDSEC
  0
EOF
