  0
SECTION
  2
HEADER
  9
$ACADVER
  1
AC1015
  9
$ACADMAINTVER
 70
     6
  9
$DWGCODEPAGE
  3
ANSI_1250
  9
$INSBASE
 10
0.0
 20
0.0
 30
0.0
  9
$EXTMIN
 10
0.0
 20
0.0
 30
0.0
  9
$EXTMAX
 10
20000.0
 20
10000.0
 30
0.0
  9
$LIMMIN
 10
0.0
 20
0.0
  9
$LIMMAX
 10
20000.0
 20
10000.0
  9
$ORTHOMODE
 70
     0
  9
$REGENMODE
 70
     1
  9
$FILLMODE
 70
     1
  9
$QTEXTMODE
 70
     0
  9
$MIRRTEXT
 70
     1
  9
$LTSCALE
 40
1.0
  9
$ATTMODE
 70
     1
  9
$TEXTSIZE
 40
2.0
  9
$TRACEWID
 40
1.0
  9
$TEXTSTYLE
  7
Standard
  9
$CLAYER
  8
0
  9
$CELTYPE
  6
ByLayer
  9
$CECOLOR
 62
   256
  9
$CELTSCALE
 40
1.0
  9
$DISPSILH
 70
     0
  9
$DIMSCALE
 40
1.0
  9
$DIMASZ
 40
2.0
  9
$DIMEXO
 40
1.0
  9
$DIMDLI
 40
3.75
  9
$DIMRND
 40
0.0
  9
$DIMDLE
 40
0.0
  9
$DIMEXE
 40
1.0
  9
$DIMTP
 40
0.0
  9
$DIMTM
 40
0.0
  9
$DIMTXT
 40
2.0
  9
$DIMCEN
 40
2.5
  9
$DIMTSZ
 40
0.0
  9
$DIMTOL
 70
     0
  9
$DIMLIM
 70
     0
  9
$DIMTIH
 70
     1
  9
$DIMTOH
 70
     1
  9
$DIMSE1
 70
     0
  9
$DIMSE2
 70
     0
  9
$DIMTAD
 70
     1
  9
$DIMZIN
 70
     0
  9
$DIMBLK
  1

  9
$DIMASO
 70
     1
  9
$DIMSHO
 70
     1
  9
$DIMPOST
  1

  9
$DIMAPOST
  1

  9
$DIMALT
 70
     0
  9
$DIMALTD
 70
     3
  9
$DIMALTF
 40
0.0393700787
  9
$DIMLFAC
 40
1.0
  9
$DIMTOFL
 70
     1
  9
$DIMTVP
 40
0.0
  9
$DIMTIX
 70
     0
  9
$DIMSOXD
 70
     0
  9
$DIMSAH
 70
     0
  9
$DIMBLK1
  1

  9
$DIMBLK2
  1

  9
$DIMSTYLE
  2
ISO-25
  9
$DIMCLRD
 70
     0
  9
$DIMCLRE
 70
     0
  9
$DIMCLRT
 70
     0
  9
$DIMTFAC
 40
1.0
  9
$DIMGAP
 40
1.524
  9
$DIMJUST
 70
     0
  9
$DIMSD1
 70
     0
  9
$DIMSD2
 70
     0
  9
$DIMTOLJ
 70
     0
  9
$DIMTZIN
 70
     0
  9
$DIMALTZ
 70
     0
  9
$DIMALTTZ
 70
     0
  9
$DIMUPT
 70
     0
  9
$DIMDEC
 70
     2
  9
$DIMTDEC
 70
     0
  9
$DIMALTU
 70
     2
  9
$DIMALTTD
 70
     3
  9
$DIMTXSTY
  7
Standard
  9
$DIMAUNIT
 70
     0
  9
$DIMADEC
 70
     2
  9
$DIMALTRND
 40
0.0
  9
$DIMAZIN
 70
     0
  9
$DIMDSEP
 70
    44
  9
$DIMATFIT
 70
     3
  9
$DIMFRAC
 70
     0
  9
$DIMLDRBLK
  1

  9
$DIMLUNIT
 70
     2
  9
$DIMLWD
 70
    -2
  9
$DIMLWE
 70
    -2
  9
$DIMTMOVE
 70
     0
  9
$LUNITS
 70
     2
  9
$LUPREC
 70
     3
  9
$SKETCHINC
 40
1.0
  9
$FILLETRAD
 40
10.0
  9
$AUNITS
 70
     0
  9
$AUPREC
 70
     2
  9
$MENU
  1
.
  9
$ELEVATION
 40
0.0
  9
$PELEVATION
 40
0.0
  9
$THICKNESS
 40
0.0
  9
$LIMCHECK
 70
     0
  9
$CHAMFERA
 40
0.0
  9
$CHAMFERB
 40
0.0
  9
$CHAMFERC
 40
0.0
  9
$CHAMFERD
 40
0.0
  9
$SKPOLY
 70
     0
  9
$TDCREATE
 40
2459157.456146111
  9
$TDUCREATE
 40
2459157.414479444
  9
$TDUPDATE
 40
2459157.456146458
  9
$TDUUPDATE
 40
2459157.414479792
  9
$TDINDWG
 40
0.0000000116
  9
$TDUSRTIMER
 40
0.0000000116
  9
$USRTIMER
 70
     1
  9
$ANGBASE
 50
0.0
  9
$ANGDIR
 70
     0
  9
$PDMODE
 70
     0
  9
$PDSIZE
 40
-1.0
  9
$PLINEWID
 40
0.0
  9
$SPLFRAME
 70
     0
  9
$SPLINETYPE
 70
     6
  9
$SPLINESEGS
 70
     8
  9
$HANDSEED
  5
354
  9
$SURFTAB1
 70
     6
  9
$SURFTAB2
 70
     6
  9
$SURFTYPE
 70
     6
  9
$SURFU
 70
     6
  9
$SURFV
 70
     6
  9
$UCSBASE
  2

  9
$UCSNAME
  2

  9
$UCSORG
 10
0.0
 20
0.0
 30
0.0
  9
$UCSXDIR
 10
1.0
 20
0.0
 30
0.0
  9
$UCSYDIR
 10
0.0
 20
1.0
 30
0.0
  9
$UCSORTHOREF
  2

  9
$UCSORTHOVIEW
 70
     0
  9
$UCSORGTOP
 10
0.0
 20
0.0
 30
0.0
  9
$UCSORGBOTTOM
 10
0.0
 20
0.0
 30
0.0
  9
$UCSORGLEFT
 10
0.0
 20
0.0
 30
0.0
  9
$UCSORGRIGHT
 10
0.0
 20
0.0
 30
0.0
  9
$UCSORGFRONT
 10
0.0
 20
0.0
 30
0.0
  9
$UCSORGBACK
 10
0.0
 20
0.0
 30
0.0
  9
$PUCSBASE
  2

  9
$PUCSNAME
  2

  9
$PUCSORG
 10
0.0
 20
0.0
 30
0.0
  9
$PUCSXDIR
 10
1.0
 20
0.0
 30
0.0
  9
$PUCSYDIR
 10
0.0
 20
1.0
 30
0.0
  9
$PUCSORTHOREF
  2

  9
$PUCSORTHOVIEW
 70
     0
  9
$PUCSORGTOP
 10
0.0
 20
0.0
 30
0.0
  9
$PUCSORGBOTTOM
 10
0.0
 20
0.0
 30
0.0
  9
$PUCSORGLEFT
 10
0.0
 20
0.0
 30
0.0
  9
$PUCSORGRIGHT
 10
0.0
 20
0.0
 30
0.0
  9
$PUCSORGFRONT
 10
0.0
 20
0.0
 30
0.0
  9
$PUCSORGBACK
 10
0.0
 20
0.0
 30
0.0
  9
$USERI1
 70
     0
  9
$USERI2
 70
     0
  9
$USERI3
 70
     0
  9
$USERI4
 70
     0
  9
$USERI5
 70
     0
  9
$USERR1
 40
0.0
  9
$USERR2
 40
0.0
  9
$USERR3
 40
0.0
  9
$USERR4
 40
0.0
  9
$USERR5
 40
0.0
  9
$WORLDVIEW
 70
     1
  9
$SHADEDGE
 70
     3
  9
$SHADEDIF
 70
    70
  9
$TILEMODE
 70
     1
  9
$MAXACTVP
 70
    64
  9
$PINSBASE
 10
0.0
 20
0.0
 30
0.0
  9
$PLIMCHECK
 70
     0
  9
$PEXTMIN
 10
1.0000000000E+20
 20
1.0000000000E+20
 30
1.0000000000E+20
  9
$PEXTMAX
 10
-1.0000000000E+20
 20
-1.0000000000E+20
 30
-1.0000000000E+20
  9
$PLIMMIN
 10
0.0
 20
0.0
  9
$PLIMMAX
 10
420.0
 20
297.0
  9
$UNITMODE
 70
     0
  9
$VISRETAIN
 70
     1
  9
$PLINEGEN
 70
     0
  9
$PSLTSCALE
 70
     1
  9
$TREEDEPTH
 70
  3020
  9
$CMLSTYLE
  2
Standard
  9
$CMLJUST
 70
     0
  9
$CMLSCALE
 40
20.0
  9
$PROXYGRAPHICS
 70
     1
  9
$MEASUREMENT
 70
     1
  9
$CELWEIGHT
370
    -1
  9
$ENDCAPS
280
     0
  9
$JOINSTYLE
280
     0
  9
$LWDISPLAY
290
     1
  9
$INSUNITS
 70
     4
  9
$HYPERLINKBASE
  1

  9
$STYLESHEET
  1

  9
$XEDIT
290
     1
  9
$CEPSNTYPE
380
     0
  9
$PSTYLEMODE
290
     1
  9
$FINGERPRINTGUID
  2
{db4701f1-065f-4414-a80d-326c63d6f305}
  9
$VERSIONGUID
  2
{FAEB1C32-E019-11D5-929B-00C0DF256EC4}
  9
$EXTNAMES
290
     1
  9
$PSVPSCALE
 40
0.0
  9
$OLESTARTUP
290
     0
  0
ENDSEC
  0
SECTION
  2
CLASSES
  0
CLASS
  1
ACDBDICTIONARYWDFLT
  2
AcDbDictionaryWithDefault
  3
ObjectDBX Classes
 90
        0
280
     0
281
     0
  0
CLASS
  1
VISUALSTYLE
  2
AcDbVisualStyle
  3
ObjectDBX Classes
 90
     4095
280
     0
281
     0
  0
CLASS
  1
MATERIAL
  2
AcDbMaterial
  3
ObjectDBX Classes
 90
     1153
280
     0
281
     0
  0
CLASS
  1
SCALE
  2
AcDbScale
  3
ObjectDBX Classes
 90
     1153
280
     0
281
     0
  0
CLASS
  1
TABLESTYLE
  2
AcDbTableStyle
  3
ObjectDBX Classes
 90
     4095
280
     0
281
     0
  0
CLASS
  1
MLEADERSTYLE
  2
AcDbMLeaderStyle
  3
ACDB_MLEADERSTYLE_CLASS
 90
     4095
280
     0
281
     0
  0
CLASS
  1
SUN
  2
AcDbSun
  3
SCENEOE
 90
     1153
280
     0
281
     0
  0
CLASS
  1
ACDBPLACEHOLDER
  2
AcDbPlaceHolder
  3
ObjectDBX Classes
 90
        0
280
     0
281
     0
  0
CLASS
  1
LAYOUT
  2
AcDbLayout
  3
ObjectDBX Classes
 90
        0
280
     0
281
     0
  0
ENDSEC
  0
SECTION
  2
TABLES
  0
TABLE
  2
VPORT
  5
8
330
0
100
AcDbSymbolTable
 70
     1
  0
VPORT
  5
29
330
8
100
AcDbSymbolTableRecord
100
AcDbViewportTableRecord
  2
*Active
 70
     0
 10
0.0
 20
0.0
 11
1.0
 21
1.0
 12
10000.0
 22
5000.0
 13
0.0
 23
0.0
 14
10.0
 24
10.0
 15
10.0
 25
10.0
 16
0.0
 26
0.0
 36
1.0
 17
0.0
 27
0.0
 37
0.0
 40
10000.0
 41
2.0
 42
50.0
 43
0.0
 44
0.0
 50
0.0
 51
0.0
 71
     0
 72
  2000
 73
     1
 74
     3
 75
     0
 76
     0
 77
     0
 78
     0
281
     0
 65
     1
110
0.0
120
0.0
130
0.0
111
1.0
121
0.0
131
0.0
112
0.0
122
1.0
132
0.0
 79
     0
146
0.0
  0
ENDTAB
  0
TABLE
  2
LTYPE
  5
5
330
0
100
AcDbSymbolTable
 70
     6
  0
LTYPE
  5
14
330
5
100
AcDbSymbolTableRecord
100
AcDbLinetypeTableRecord
  2
ByBlock
 70
     0
  3

 72
    65
 73
     0
 40
0.0
  0
LTYPE
  5
15
330
5
100
AcDbSymbolTableRecord
100
AcDbLinetypeTableRecord
  2
ByLayer
 70
     0
  3

 72
    65
 73
     0
 40
0.0
  0
LTYPE
  5
16
330
5
100
AcDbSymbolTableRecord
100
AcDbLinetypeTableRecord
  2
Continuous
 70
     0
  3
Solid line
 72
    65
 73
     0
 40
0.0
  0
LTYPE
  5
6E
330
5
100
AcDbSymbolTableRecord
100
AcDbLinetypeTableRecord
  2
HIDDEN
 70
     0
  3
Hidden __ __ __ __ __ __ __ __ __ __ __ __ __ __
 72
    65
 73
     2
 40
1.905
 49
1.27
 74
     0
 49
-0.635
 74
     0
  0
LTYPE
  5
6F
330
5
100
AcDbSymbolTableRecord
100
AcDbLinetypeTableRecord
  2
PHANTOM
 70
     0
  3
Phantom ______  __  __  ______  __  __  ______
 72
    65
 73
     6
 40
12.7
 49
6.35
 74
     0
 49
-1.27
 74
     0
 49
1.27
 74
     0
 49
-1.27
 74
     0
 49
1.27
 74
     0
 49
-1.27
 74
     0
  0
LTYPE
  5
70
330
5
100
AcDbSymbolTableRecord
100
AcDbLinetypeTableRecord
  2
CENTER
 70
     0
  3
Center ____ _ ____ _ ____ _ ____ _ ____ _ ____
 72
    65
 73
     4
 40
10.16
 49
6.35
 74
     0
 49
-1.27
 74
     0
 49
1.27
 74
     0
 49
-1.27
 74
     0
  0
LTYPE
  5
71
330
5
100
AcDbSymbolTableRecord
100
AcDbLinetypeTableRecord
  2
CENTERX2
 70
     0
  3
Center (2x) ________  __  ________  __  _____
 72
    65
 73
     4
 40
20.32
 49
12.7
 74
     0
 49
-2.54
 74
     0
 49
2.54
 74
     0
 49
-2.54
 74
     0
  0
LTYPE
  5
72
330
5
100
AcDbSymbolTableRecord
100
AcDbLinetypeTableRecord
  2
DOT2
 70
     0
  3
Dot (.5x) ........................................
 72
    65
 73
     2
 40
0.635
 49
0.0
 74
     0
 49
-0.635
 74
     0
  0
ENDTAB
  0
TABLE
  2
LAYER
  5
2
330
0
100
AcDbSymbolTable
 70
    13
  0
LAYER
  5
10
330
2
100
AcDbSymbolTableRecord
100
AcDbLayerTableRecord
  2
0
 70
     0
 62
     7
  6
Continuous
370
    -3
390
F
  0
LAYER
  5
73
330
2
100
AcDbSymbolTableRecord
100
AcDbLayerTableRecord
  2
FORMAT
 70
     0
 62
     7
  6
Continuous
370
    -3
390
F
  0
LAYER
  5
74
330
2
100
AcDbSymbolTableRecord
100
AcDbLayerTableRecord
  2
OSA
 70
     0
 62
     7
  6
CENTER
370
    -3
390
F
  0
LAYER
  5
75
330
2
100
AcDbSymbolTableRecord
100
AcDbLayerTableRecord
  2
0_35
 70
     0
 62
     7
  6
Continuous
370
    35
390
F
  0
LAYER
  5
76
330
2
100
AcDbSymbolTableRecord
100
AcDbLayerTableRecord
  2
0_5
 70
     0
 62
     7
  6
Continuous
370
    50
390
F
  0
LAYER
  5
77
330
2
100
AcDbSymbolTableRecord
100
AcDbLayerTableRecord
  2
0_25
 70
     0
 62
     7
  6
Continuous
370
    25
390
F
  0
LAYER
  5
78
330
2
100
AcDbSymbolTableRecord
100
AcDbLayerTableRecord
  2
0_18
 70
     0
 62
     7
  6
Continuous
370
    -3
390
F
  0
LAYER
  5
79
330
2
100
AcDbSymbolTableRecord
100
AcDbLayerTableRecord
  2
SLD-0
 70
     0
 62
   179
  6
Continuous
370
    -3
390
F
  0
LAYER
  5
7A
330
2
100
AcDbSymbolTableRecord
100
AcDbLayerTableRecord
  2
KOTY
 70
     0
 62
     7
  6
Continuous
370
    -3
390
F
  0
LAYER
  5
7B
330
2
100
AcDbSymbolTableRecord
100
AcDbLayerTableRecord
  2
SILNA
 70
     0
 62
   179
  6
Continuous
370
    -3
390
F
  0
LAYER
  5
7C
330
2
100
AcDbSymbolTableRecord
100
AcDbLayerTableRecord
  2
0_18_1
 70
     0
 62
   179
  6
Continuous
370
    -3
390
F
  0
LAYER
  5
7D
330
2
100
AcDbSymbolTableRecord
100
AcDbLayerTableRecord
  2
0_35_1
 70
     0
 62
   179
  6
Continuous
370
    35
390
F
  0
LAYER
  5
7E
330
2
100
AcDbSymbolTableRecord
100
AcDbLayerTableRecord
  2
0_5_1
 70
     0
 62
   179
  6
Continuous
370
    50
390
F
  0
ENDTAB
  0
TABLE
  2
STYLE
  5
3
330
0
100
AcDbSymbolTable
 70
     1
  0
STYLE
  5
11
330
3
100
AcDbSymbolTableRecord
100
AcDbTextStyleTableRecord
  2
Standard
 70
     0
 40
0.0
 41
1.0
 50
0.0
 71
     0
 42
2.0
  3
txt
  4

  0
ENDTAB
  0
TABLE
  2
VIEW
  5
6
330
0
100
AcDbSymbolTable
 70
     0
  0
ENDTAB
  0
TABLE
  2
UCS
  5
7
330
0
100
AcDbSymbolTable
 70
     0
  0
ENDTAB
  0
TABLE
  2
APPID
  5
9
330
0
100
AcDbSymbolTable
 70
     1
  0
APPID
  5
12
330
9
100
AcDbSymbolTableRecord
100
AcDbRegAppTableRecord
  2
ACAD
 70
     0
  0
ENDTAB
  0
TABLE
  2
DIMSTYLE
  5
A
330
0
100
AcDbSymbolTable
 70
     1
100
AcDbDimStyleTable
  0
DIMSTYLE
105
27
330
A
100
AcDbSymbolTableRecord
100
AcDbDimStyleTableRecord
  2
ISO-25
 70
     0
 41
2.5
 42
0.625
 43
3.75
 44
1.25
 73
     0
 74
     0
 77
     1
 78
     8
140
2.5
141
2.5
143
0.0393700787
147
0.625
171
     3
172
     1
178
     0
271
     2
272
     2
274
     3
278
    44
283
     0
284
     8
340
11
  0
ENDTAB
  0
TABLE
  2
BLOCK_RECORD
  5
1
330
0
100
AcDbSymbolTable
 70
     1
  0
BLOCK_RECORD
  5
1F
330
1
100
AcDbSymbolTableRecord
100
AcDbBlockTableRecord
  2
*Model_Space
340
22
  0
BLOCK_RECORD
  5
1B
330
1
100
AcDbSymbolTableRecord
100
AcDbBlockTableRecord
  2
*Paper_Space
340
1E
  0
BLOCK_RECORD
  5
23
330
1
100
AcDbSymbolTableRecord
100
AcDbBlockTableRecord
  2
*Paper_Space0
340
26
  0
ENDTAB
  0
ENDSEC
  0
SECTION
  2
BLOCKS
  0
BLOCK
  5
20
330
1F
100
AcDbEntity
  8
0
100
AcDbBlockBegin
  2
*Model_Space
 70
     0
 10
0.0
 20
0.0
 30
0.0
  3
*Model_Space
  1

  0
ENDBLK
  5
21
330
1F
100
AcDbEntity
  8
0
100
AcDbBlockEnd
  0
BLOCK
  5
1C
330
1B
100
AcDbEntity
 67
     1
  8
0
100
AcDbBlockBegin
  2
*Paper_Space
 70
     0
 10
0.0
 20
0.0
 30
0.0
  3
*Paper_Space
  1

  0
ENDBLK
  5
1D
330
1B
100
AcDbEntity
 67
     1
  8
0
100
AcDbBlockEnd
  0
BLOCK
  5
24
330
23
100
AcDbEntity
  8
0
100
AcDbBlockBegin
  2
*Paper_Space0
 70
     0
 10
0.0
 20
0.0
 30
0.0
  3
*Paper_Space0
  1

  0
ENDBLK
  5
25
330
23
100
AcDbEntity
  8
0
100
AcDbBlockEnd
  0
ENDSEC
  0
SECTION
  2
ENTITIES
  0
LINE
  5
7F
330
1F
100
AcDbEntity
  8
0
  6
Continuous
 62
     7
370
    25
100
AcDbLine
 10
6719.0130001208
 20
4958.2878135519
 30
0.0
 11
6719.0130001208
 21
4957.2423208714
 31
0.0
  0
LINE
  5
80
330
1F
100
AcDbEntity
  8
0
  6
Continuous
 62
     7
370
    25
100
AcDbLine
 10
6785.5130001208
 20
4957.2423208714
 30
0.0
 11
6785.5130001208
 21
4958.2878135519
 31
0.0
  0
LINE
  5
81
330
1F
100
AcDbEntity
  8
0
  6
Continuous
 62
     7
370
    25
100
AcDbLine
 10
6712.2630001208
 20
4955.7342462575
 30
0.0
 11
6712.2630001208
 21
4955.2379571052
 31
0.0
  0
LINE
  5
82
330
1F
100
AcDbEntity
  8
0
  6
Continuous
 62
     7
370
    25
100
AcDbLine
 10
6792.2630001208
 20
4955.2379571052
 30
0.0
 11
6792.2630001208
 21
4955.7342462575
 31
0.0
  0
ARC
  5
83
330
1F
100
AcDbEntity
  8
0
  6
Continuous
 62
     7
370
    25
100
AcDbCircle
 10
6712.9133421682
 20
4955.7890158054
 30
0.0
 40
0.054769547994682
100
AcDbArc
 50
270.0
 51
329.999999999
  0
ARC
  5
84
330
1F
100
AcDbEntity
  8
0
  6
Continuous
 62
     7
370
    25
100
AcDbCircle
 10
6791.6126580733
 20
4955.7890158054
 30
0.0
 40
0.0547695479945105
100
AcDbArc
 50
210.0000000002
 51
270.0
  0
LINE
  5
85
330
1F
100
AcDbEntity
  8
0
  6
Continuous
 62
     7
370
    25
100
AcDbLine
 10
6791.5652262534
 20
4955.7616310315
 30
0.0
 11
6791.3261148682
 21
4956.1757840993
 31
0.0
  0
LINE
  5
86
330
1F
100
AcDbEntity
  8
0
  6
Continuous
 62
     7
370
    25
100
AcDbLine
 10
6713.1998853734
 20
4956.1757840993
 30
0.0
 11
6712.9607739882
 21
4955.7616310314
 31
0.0
  0
ARC
  5
87
330
1F
100
AcDbEntity
  8
0
  6
Continuous
 62
     7
370
    25
100
AcDbCircle
 10
6713.2947174249
 20
4956.1210327888
 30
0.0
 40
0.1095026209371498
100
AcDbArc
 50
90.0
 51
150.0000000001
  0
ARC
  5
88
330
1F
100
AcDbEntity
  8
0
  6
Continuous
 62
     7
370
    25
100
AcDbCircle
 10
6791.2312828167
 20
4956.1210327888
 30
0.0
 40
0.1095026209377465
100
AcDbArc
 50
29.9999999999
 51
90.0
  0
LINE
  5
89
330
1F
100
AcDbEntity
  8
0
  6
Continuous
 62
     7
370
    25
100
AcDbLine
 10
6791.2312828167
 20
4956.2305354098
 30
0.0
 11
6713.2947174249
 21
4956.2305354098
 31
0.0
  0
ARC
  5
8A
330
1F
100
AcDbEntity
  8
0
  6
Continuous
 62
     7
370
    25
100
AcDbCircle
 10
6792.3015583398
 20
4938.2998863846
 30
0.0
 40
6.853085275295198
100
AcDbArc
 50
305.7382565022
 51
359.7686518055
  0
LINE
  5
8B
330
1F
100
AcDbEntity
  8
0
  6
Continuous
 62
     7
370
    25
100
AcDbLine
 10
6799.1847483437
 20
4938.2711916007
 30
0.0
 11
6799.2630001208
 21
4947.2379571052
 31
0.0
  0
LINE
  5
8C
330
1F
100
AcDbEntity
  8
0
  6
Continuous
 62
     7
370
    25
100
AcDbLine
 10
6801.2630001208
 20
4947.2379571052
 30
0.0
 11
6801.2630001208
 21
4950.2379571052
 31
0.0
  0
ARC
  5
8D
330
1F
100
AcDbEntity
  8
0
  6
Continuous
 62
     7
370
    25
100
AcDbCircle
 10
6799.2630001208
 20
4950.2379571052
 30
0.0
 40
2.000000000000909
100
AcDbArc
 50
0.0
 51
90.0
  0
LINE
  5
8E
330
1F
100
AcDbEntity
  8
0
  6
Continuous
 62
     7
370
    25
100
AcDbLine
 10
6794.0130001208
 20
4952.2379571052
 30
0.0
 11
6794.0130001208
 21
4955.2379571052
 31
0.0
  0
LINE
  5
8F
330
1F
100
AcDbEntity
  8
0
  6
Continuous
 62
     7
370
    25
100
AcDbLine
 10
6710.5130001208
 20
4955.2379571052
 30
0.0
 11
6710.5130001208
 21
4952.2379571052
 31
0.0
  0
LINE
  5
90
330
1F
100
AcDbEntity
  8
0
  6
Continuous
 62
     7
370
    25
100
AcDbLine
 10
6784.503745103
 20
4880.054718467
 30
0.0
 11
6785.7056084418
 21
4925.9520276607
 31
0.0
  0
ARC
  5
91
330
1F
100
AcDbEntity
  8
0
  6
Continuous
 62
     7
370
    25
100
AcDbCircle
 10
6777.5061438282
 20
4880.2379571052
 30
0.0
 40
6.999999999999502
100
AcDbArc
 50
270.0
 51
358.5
  0
ARC
  5
92
330
1F
100
AcDbEntity
  8
0
  6
Continuous
 62
     7
370
    25
100
AcDbCircle
 10
6620.6971805173
 20
4920.0888095537
 30
0.0
 40
26.99999999999994
100
AcDbArc
 50
228.2942528904
 51
287.8227912466
  0
ARC
  5
93
330
1F
100
AcDbEntity
  8
0
  6
Continuous
 62
     7
370
    25
100
AcDbCircle
 10
6620.6971805173
 20
4920.0888095537
 30
0.0
 40
27.0000000000006
100
AcDbArc
 50
73.1772087534
 51
132.7057471096
  0
ARC
  5
94
330
1F
100
AcDbEntity
  8
0
  6
Continuous
 62
     7
370
    25
100
AcDbCircle
 10
6685.2630001208
 20
4945.1663360079
 30
0.0
 40
2.000000000000357
100
AcDbArc
 50
0.5
 51
92.0154937467
  0
ARC
  5
95
330
1F
100
AcDbEntity
  8
0
  6
Continuous
 62
     7
370
    25
100
AcDbCircle
 10
6685.6908296178
 20
4896.1419314538
 30
0.0
 40
2.000000000000349
100
AcDbArc
 50
268.9845062533
 51
0.5
  0
LINE
  5
96
330
1F
100
AcDbEntity
  8
0
  6
Continuous
 62
     7
370
    25
100
AcDbLine
 10
6687.690753464
 20
4896.1593845248
 30
0.0
 11
6687.2629239669
 21
4945.1837890789
 31
0.0
  0
LINE
  5
97
330
1F
100
AcDbEntity
  8
0
  6
Continuous
 62
     7
370
    25
100
AcDbLine
 10
6685.1926606256
 20
4947.1650987141
 30
0.0
 11
6660.1926606256
 21
4946.2853107463
 31
0.0
  0
LINE
  5
98
330
1F
100
AcDbEntity
  8
0
  6
Continuous
 62
     7
370
    25
100
AcDbLine
 10
6660.6438372587
 20
4894.5855893864
 30
0.0
 11
6685.6553840548
 21
4894.1422455755
 31
0.0
  0
ARC
  5
99
330
1F
100
AcDbEntity
  8
0
  6
Continuous
 62
     7
370
    25
100
AcDbCircle
 10
6660.2630001208
 20
4944.2865480401
 30
0.0
 40
2.000000000000909
100
AcDbArc
 50
92.0154937467
 51
180.0
  0
ARC
  5
9A
330
1F
100
AcDbEntity
  8
0
  6
Continuous
 62
     7
370
    25
100
AcDbCircle
 10
6660.6792828217
 20
4896.5852752647
 30
0.0
 40
2.000000000000027
100
AcDbArc
 50
181.0
 51
268.9845062533
  0
LINE
  5
9B
330
1F
100
AcDbEntity
  8
0
  6
Continuous
 62
     7
370
    25
100
AcDbLine
 10
6658.2630001208
 20
4944.2865480401
 30
0.0
 11
6658.2630001208
 21
4940.4174030625
 31
0.0
  0
LINE
  5
9C
330
1F
100
AcDbEntity
  8
0
  6
Continuous
 62
     7
370
    25
100
AcDbLine
 10
6658.6120615407
 20
4900.4189261399
 30
0.0
 11
6658.6795874314
 21
4896.5503704518
 31
0.0
  0
ARC
  5
9D
330
1F
100
AcDbEntity
  8
0
  6
Continuous
 62
     7
370
    25
100
AcDbCircle
 10
6636.6830440308
 20
4943.1933794599
 30
0.0
 40
0.2500000000009252
100
AcDbArc
 50
90.0
 51
168.5000000001
  0
ARC
  5
9E
330
1F
100
AcDbEntity
  8
0
  6
Continuous
 62
     7
370
    25
100
AcDbCircle
 10
6637.0838396509
 20
4897.2667503726
 30
0.0
 40
0.2499999999996842
100
AcDbArc
 50
192.5
 51
271.0000000003
  0
LINE
  5
9F
330
1F
100
AcDbEntity
  8
0
  6
Continuous
 62
     7
370
    25
100
AcDbLine
 10
6637.0882027526
 20
4897.0167884488
 30
0.0
 11
6637.925893776
 21
4897.0314104
 31
0.0
  0
LINE
  5
A0
330
1F
100
AcDbEntity
  8
0
  6
Continuous
 62
     7
370
    25
100
AcDbLine
 10
6637.5208626581
 20
4943.4433794599
 30
0.0
 11
6636.6830440308
 21
4943.4433794599
 31
0.0
  0
ARC
  5
A1
330
1F
100
AcDbEntity
  8
0
  6
Continuous
 62
     7
370
    25
100
AcDbCircle
 10
6637.5208626581
 20
4943.1933794599
 30
0.0
 40
0.2500000000012354
100
AcDbArc
 50
10.4999999999
 51
90.0
  0
ARC
  5
A2
330
1F
100
AcDbEntity
  8
0
  6
Continuous
 62
     7
370
    25
100
AcDbCircle
 10
6637.9215306744
 20
4897.2813723238
 30
0.0
 40
0.2500000000005312
100
AcDbArc
 50
271.0000000001
 51
350.4999999998
  0
LINE
  5
A3
330
1F
100
AcDbEntity
  8
0
  6
Continuous
 62
     7
370
    25
100
AcDbLine
 10
6636.4380628547
 20
4943.2432214435
 30
0.0
 11
6636.0218704071
 21
4941.1975702087
 31
0.0
  0
LINE
  5
A4
330
1F
100
AcDbEntity
  8
0
  6
Continuous
 62
     7
370
    25
100
AcDbLine
 10
6636.387935053
 20
4899.2507165816
 30
0.0
 11
6636.8397656492
 21
4897.2126404691
 31
0.0
  0
LINE
  5
A5
330
1F
100
AcDbEntity
  8
0
  6
Continuous
 62
     7
370
    25
100
AcDbLine
 10
6638.1681020748
 20
4897.2401104224
 30
0.0
 11
6638.6709318271
 21
4900.2449025373
 31
0.0
  0
LINE
  5
A6
330
1F
100
AcDbEntity
  8
0
  6
Continuous
 62
     7
370
    25
100
AcDbLine
 10
6638.3218704071
 20
4940.2433794599
 30
0.0
 11
6637.766676385
 21
4943.2389383413
 31
0.0
  0
ARC
  5
A7
330
1F
100
AcDbEntity
  8
0
  6
Continuous
 62
     7
370
    25
100
AcDbCircle
 10
6620.6971805173
 20
4920.0888095537
 30
0.0
 40
23.99999999999967
100
AcDbArc
 50
290.0012723466
 51
303.9103151897
  0
ARC
  5
A8
330
1F
100
AcDbEntity
  8
0
  6
Continuous
 62
     7
370
    25
100
AcDbCircle
 10
6620.6971805173
 20
4920.0888095537
 30
0.0
 40
24.00000000000051
100
AcDbArc
 50
57.0896848103
 51
70.9987276534
  0
LINE
  5
A9
330
1F
100
AcDbEntity
  8
0
  6
Continuous
 62
     7
370
    25
100
AcDbLine
 10
6726.2030325512
 20
4902.5988196077
 30
0.0
 11
6726.7997959415
 21
4879.8093451641
 31
0.0
  0
LWPOLYLINE
  5
AA
330
1F
100
AcDbEntity
  8
0
  6
Continuous
 62
     7
370
    25
100
AcDbPolyline
 90
        7
 70
   128
 43
0.0
 10
6726.7988740144
 20
4879.8487702747
 10
6726.9740975774
 20
4878.6898979024
 10
6727.9265977436
 20
4876.7904855218
 10
6729.6788399014
 20
4875.051816757
 10
6731.6167507517
 20
4873.9327810812
 10
6732.797916886
 20
4873.5156250868
 10
6734.8301718205
 20
4873.2379571052
  0
LINE
  5
AB
330
1F
100
AcDbEntity
  8
0
  6
Continuous
 62
     7
370
    25
100
AcDbLine
 10
6693.3197761757
 20
4940.7233389123
 30
0.0
 11
6687.3023080055
 21
4940.6708252632
 31
0.0
  0
LINE
  5
AC
330
1F
100
AcDbEntity
  8
0
  6
Continuous
 62
     7
370
    25
100
AcDbLine
 10
6687.6513694254
 20
4900.6723483406
 30
0.0
 11
6694.8941121103
 21
4900.7355547984
 31
0.0
  0
ARC
  5
AD
330
1F
100
AcDbEntity
  8
0
  6
Continuous
 62
     7
370
    25
100
AcDbCircle
 10
6634.5519833502
 20
4941.4966221103
 30
0.0
 40
1.500000000000566
100
AcDbArc
 50
237.0896848103
 51
348.5
  0
ARC
  5
AE
330
1F
100
AcDbEntity
  8
0
  6
Continuous
 62
     7
370
    25
100
AcDbCircle
 10
6634.9234910423
 20
4898.9260571607
 30
0.0
 40
1.500000000000144
100
AcDbArc
 50
12.5
 51
123.9103151897
  0
LINE
  5
AF
330
1F
100
AcDbEntity
  8
0
  6
Continuous
 62
     7
370
    25
100
AcDbLine
 10
6658.2630001208
 20
4940.4174030625
 30
0.0
 11
6638.3218704071
 21
4940.2433794599
 31
0.0
  0
LINE
  5
B0
330
1F
100
AcDbEntity
  8
0
  6
Continuous
 62
     7
370
    25
100
AcDbLine
 10
6638.6709318271
 20
4900.2449025373
 30
0.0
 11
6658.6120615407
 21
4900.4189261399
 31
0.0
  0
LINE
  5
B1
330
1F
100
AcDbEntity
  8
0
  6
Continuous
 62
     7
370
    25
100
AcDbLine
 10
6602.384879182
 20
4939.9296668891
 30
0.0
 11
6533.8335300585
 21
4939.3314283284
 31
0.0
  0
LINE
  5
B2
330
1F
100
AcDbEntity
  8
0
  6
Continuous
 62
     7
370
    25
100
AcDbLine
 10
6534.182589817
 20
4899.3331417905
 30
0.0
 11
6602.7339389405
 21
4899.9313803512
 31
0.0
  0
LINE
  5
B3
330
1F
100
AcDbEntity
  8
0
  6
Continuous
 62
     7
370
    25
100
AcDbLine
 10
6533.8335300585
 20
4939.3314283284
 30
0.0
 11
6530.3477998857
 21
4939.015698757
 31
0.0
  0
LINE
  5
B4
330
1F
100
AcDbEntity
  8
0
  6
Continuous
 62
     7
370
    25
100
AcDbLine
 10
6530.6918802969
 20
4899.5879888951
 30
0.0
 11
6534.182589817
 21
4899.3331417905
 31
0.0
  0
LINE
  5
B5
330
1F
100
AcDbEntity
  8
0
  6
Continuous
 62
     7
370
    25
100
AcDbLine
 10
6530.3477998857
 20
4939.015698757
 30
0.0
 11
6530.3477998857
 21
4936.8009136261
 31
0.0
  0
LINE
  5
B6
330
1F
100
AcDbEntity
  8
0
  6
Continuous
 62
     7
370
    25
100
AcDbLine
 10
6530.6532269667
 20
4901.8024367035
 30
0.0
 11
6530.6918802969
 21
4899.5879888951
 31
0.0
  0
ARC
  5
B7
330
1F
100
AcDbEntity
  8
0
  6
Continuous
 62
     7
370
    25
100
AcDbCircle
 10
6693.3023231047
 20
4942.7232627584
 30
0.0
 40
2.000000000000349
100
AcDbArc
 50
270.5
 51
0.5
  0
ARC
  5
B8
330
1F
100
AcDbEntity
  8
0
  6
Continuous
 62
     7
370
    25
100
AcDbCircle
 10
6701.2092962072
 20
4907.5774477712
 30
0.0
 40
8.836610070284008
100
AcDbArc
 50
235.009226554
 51
282.7578591474
  0
LWPOLYLINE
  5
B9
330
1F
100
AcDbEntity
  8
0
  6
Continuous
 62
     7
370
    25
100
AcDbPolyline
 90
        3
 70
   128
 43
0.0
 10
6703.20761658
 20
4898.9633450473
 10
6703.2130824052
 20
4898.9638517155
 10
6703.2027282144
 20
4898.9629893966
  0
ARC
  5
BA
330
1F
100
AcDbEntity
  8
0
  6
Continuous
 62
     7
370
    25
100
AcDbCircle
 10
6695.0748836823
 20
4899.1052530415
 30
0.0
 40
1.612651671818494
100
AcDbArc
 50
48.4360533128
 51
96.2068831882
  0
LINE
  5
BB
330
1F
100
AcDbEntity
  8
0
  6
Continuous
 62
     7
370
    25
100
AcDbLine
 10
7309.5630001208
 20
4942.0379571052
 30
0.0
 11
7308.5630001208
 21
4943.0379571052
 31
0.0
  0
LINE
  5
BC
330
1F
100
AcDbEntity
  8
0
  6
Continuous
 62
     7
370
    25
100
AcDbLine
 10
7300.5630001208
 20
4943.0379571052
 30
0.0
 11
7299.5630001208
 21
4942.0379571052
 31
0.0
  0
LINE
  5
BD
330
1F
100
AcDbEntity
  8
0
  6
Continuous
 62
     7
370
    25
100
AcDbLine
 10
7309.5630001208
 20
4863.0379571052
 30
0.0
 11
7309.5630001208
 21
4933.0379571052
 31
0.0
  0
LINE
  5
BE
330
1F
100
AcDbEntity
  8
0
  6
Continuous
 62
     7
370
    25
100
AcDbLine
 10
7299.5630001208
 20
4933.0379571052
 30
0.0
 11
7299.5630001208
 21
4863.0379571052
 31
0.0
  0
LINE
  5
BF
330
1F
100
AcDbEntity
  8
0
  6
Continuous
 62
     7
370
    25
100
AcDbLine
 10
6204.9630001208
 20
4942.0379571052
 30
0.0
 11
6203.9630001208
 21
4943.0379571052
 31
0.0
  0
LINE
  5
C0
330
1F
100
AcDbEntity
  8
0
  6
Continuous
 62
     7
370
    25
100
AcDbLine
 10
6195.9630001208
 20
4943.0379571052
 30
0.0
 11
6194.9630001208
 21
4942.0379571052
 31
0.0
  0
LINE
  5
C1
330
1F
100
AcDbEntity
  8
0
  6
Continuous
 62
     7
370
    25
100
AcDbLine
 10
6204.9630001208
 20
4858.0379571052
 30
0.0
 11
6204.9630001208
 21
4933.0379571052
 31
0.0
  0
LINE
  5
C2
330
1F
100
AcDbEntity
  8
0
  6
Continuous
 62
     7
370
    25
100
AcDbLine
 10
6194.9630001208
 20
4933.0379571052
 30
0.0
 11
6194.9630001208
 21
4858.0379571052
 31
0.0
  0
LINE
  5
C3
330
1F
100
AcDbEntity
  8
0
  6
Continuous
 62
     7
370
    25
100
AcDbLine
 10
6181.6630001208
 20
4977.0379571052
 30
0.0
 11
6178.9630001208
 21
4977.0379571052
 31
0.0
  0
LINE
  5
C4
330
1F
100
AcDbEntity
  8
0
  6
Continuous
 62
     7
370
    25
100
AcDbLine
 10
7325.5630001208
 20
4977.0379571052
 30
0.0
 11
7322.8630001208
 21
4977.0379571052
 31
0.0
  0
LINE
  5
C5
330
1F
100
AcDbEntity
  8
0
  6
Continuous
 62
     7
370
    25
100
AcDbLine
 10
7322.8630001208
 20
4977.0379571052
 30
0.0
 11
6181.6630001208
 21
4977.0379571052
 31
0.0
  0
LINE
  5
C6
330
1F
100
AcDbEntity
  8
0
  6
Continuous
 62
     7
370
    25
100
AcDbLine
 10
6716.4775433521
 20
4959.8379571052
 30
0.0
 11
6719.0130001208
 21
4958.2878135519
 31
0.0
  0
LINE
  5
C7
330
1F
100
AcDbEntity
  8
0
  6
Continuous
 62
     7
370
    25
100
AcDbLine
 10
6720.7230362577
 20
4957.2423208714
 30
0.0
 11
6722.3779399547
 21
4956.2305354098
 31
0.0
  0
LINE
  5
C8
330
1F
100
AcDbEntity
  8
0
  6
Continuous
 62
     7
370
    25
100
AcDbLine
 10
6782.1480602868
 20
4956.2305354098
 30
0.0
 11
6783.8029639838
 21
4957.2423208714
 31
0.0
  0
LINE
  5
C9
330
1F
100
AcDbEntity
  8
0
  6
Continuous
 62
     7
370
    25
100
AcDbLine
 10
6785.5130001208
 20
4958.2878135519
 30
0.0
 11
6788.0484568895
 21
4959.8379571052
 31
0.0
  0
LINE
  5
CA
330
1F
100
AcDbEntity
  8
0
  6
Continuous
 62
     7
370
    25
100
AcDbLine
 10
6785.5130001208
 20
4957.2423208714
 30
0.0
 11
6719.0130001208
 21
4957.2423208714
 31
0.0
  0
LINE
  5
CB
330
1F
100
AcDbEntity
  8
0
  6
Continuous
 62
     7
370
    25
100
AcDbLine
 10
6712.2630001208
 20
4955.7342462575
 30
0.0
 11
6792.2630001208
 21
4955.7342462575
 31
0.0
  0
LWPOLYLINE
  5
CC
330
1F
100
AcDbEntity
  8
0
  6
Continuous
 62
     7
370
    25
100
AcDbPolyline
 90
       18
 70
   128
 43
0.0
 10
6796.0171149755
 20
4932.5374299876
 10
6796.0621921958
 20
4932.5683098245
 10
6795.3188879521
 20
4932.065296663
 10
6793.7774331155
 20
4931.0391411987
 10
6791.695600622
 20
4929.6854000288
 10
6789.0577783137
 20
4928.0217087589
 10
6785.9588227626
 20
4926.1386461478
 10
6782.3742388422
 20
4924.0568418644
 10
6778.4108371156
 20
4921.8671476824
 10
6774.1455724907
 20
4919.6376139652
 10
6767.6638935192
 20
4916.4973303151
 10
6760.7878935359
 20
4913.4697451417
 10
6754.1220713013
 20
4910.8254062227
 10
6747.3864537682
 20
4908.4256606742
 10
6740.9557699247
 20
4906.3862030074
 10
6734.7918348243
 20
4904.6494249839
 10
6729.130189308
 20
4903.2417718795
 10
6724.105794535
 20
4902.1363611665
  0
LWPOLYLINE
  5
CD
330
1F
100
AcDbEntity
  8
0
  6
Continuous
 62
     7
370
    25
100
AcDbPolyline
 90
        9
 70
   128
 43
0.0
 10
6717.472415943
 20
4908.93079222
 10
6717.736187749
 20
4907.4582819988
 10
6718.2263746233
 20
4906.0558521976
 10
6718.9205765968
 20
4904.787589363
 10
6719.7870708647
 20
4903.7114490412
 10
6720.7862614163
 20
4902.8766073955
 10
6721.8724884462
 20
4902.3212140131
 10
6722.9961148609
 20
4902.0706485912
 10
6724.105794535
 20
4902.1363611665
  0
LINE
  5
CE
330
1F
100
AcDbEntity
  8
0
  6
Continuous
 62
     7
370
    25
100
AcDbLine
 10
6717.472415943
 20
4908.93079222
 30
0.0
 11
6717.2231847717
 21
4947.2379571052
 31
0.0
  0
LINE
  5
CF
330
1F
100
AcDbEntity
  8
0
  6
Continuous
 62
     7
370
    25
100
AcDbLine
 10
6716.5448506737
 20
4947.2379571052
 30
0.0
 11
6801.2630001208
 21
4947.2379571052
 31
0.0
  0
LINE
  5
D0
330
1F
100
AcDbEntity
  8
0
  6
Continuous
 62
     7
370
    25
100
AcDbLine
 10
6716.5448506737
 20
4950.2379571052
 30
0.0
 11
6716.5448506737
 21
4947.2379571052
 31
0.0
  0
ARC
  5
D1
330
1F
100
AcDbEntity
  8
0
  6
Continuous
 62
     7
370
    25
100
AcDbCircle
 10
6718.3206919447
 20
4950.4753065216
 30
0.0
 40
1.791632486066503
100
AcDbArc
 50
100.3196220904
 51
187.6127302624
  0
LINE
  5
D2
330
1F
100
AcDbEntity
  8
0
  6
Continuous
 62
     7
370
    25
100
AcDbLine
 10
6717.9997404136
 20
4952.2379571052
 30
0.0
 11
6799.2630001208
 21
4952.2379571052
 31
0.0
  0
LINE
  5
D3
330
1F
100
AcDbEntity
  8
0
  6
Continuous
 62
     7
370
    25
100
AcDbLine
 10
6710.5130001208
 20
4955.2379571052
 30
0.0
 11
6794.0130001208
 21
4955.2379571052
 31
0.0
  0
LINE
  5
D4
330
1F
100
AcDbEntity
  8
0
  6
Continuous
 62
     7
370
    25
100
AcDbLine
 10
6728.4186323438
 20
4880.054718467
 30
0.0
 11
6727.9747519236
 21
4902.9748646089
 31
0.0
  0
LINE
  5
D5
330
1F
100
AcDbEntity
  8
0
  6
Continuous
 62
     7
370
    25
100
AcDbLine
 10
6716.5448506737
 20
4950.2379571052
 30
0.0
 11
6699.0067525004
 21
4950.2379571052
 31
0.0
  0
ARC
  5
D6
330
1F
100
AcDbEntity
  8
0
  6
Continuous
 62
     7
370
    25
100
AcDbCircle
 10
6702.0620233484
 20
4950.7218534512
 30
0.0
 40
3.093353459923293
100
AcDbArc
 50
150.6517591702
 51
188.9997984492
  0
LINE
  5
D7
330
1F
100
AcDbEntity
  8
0
  6
Continuous
 62
     7
370
    25
100
AcDbLine
 10
6699.365680392
 20
4952.2379571052
 30
0.0
 11
6717.9997404136
 21
4952.2379571052
 31
0.0
  0
LINE
  5
D8
330
1F
100
AcDbEntity
  8
0
  6
Continuous
 62
     7
370
    25
100
AcDbLine
 10
6699.0067525004
 20
4950.2379571052
 30
0.0
 11
6699.0067525004
 21
4947.2379571052
 31
0.0
  0
LINE
  5
D9
330
1F
100
AcDbEntity
  8
0
  6
Continuous
 62
     7
370
    25
100
AcDbLine
 10
6699.0067525004
 20
4947.2379571052
 30
0.0
 11
6716.5448506737
 21
4947.2379571052
 31
0.0
  0
ARC
  5
DA
330
1F
100
AcDbEntity
  8
0
  6
Continuous
 62
     7
370
    25
100
AcDbCircle
 10
6685.6378746469
 20
5033.6546340447
 30
0.0
 40
128.7224717718188
100
AcDbArc
 50
276.5444516408
 51
284.318474563
  0
LINE
  5
DB
330
1F
100
AcDbEntity
  8
0
  6
Continuous
 62
     7
370
    25
100
AcDbLine
 10
6700.3088922166
 20
4905.7709525895
 30
0.0
 11
6700.2476537914
 21
4947.2379571052
 31
0.0
  0
LWPOLYLINE
  5
DC
330
1F
100
AcDbEntity
  8
0
  6
Continuous
 62
     7
370
    25
100
AcDbPolyline
 90
        6
 70
   128
 43
0.0
 10
6700.3088922166
 20
4905.7709525895
 10
6700.4820618916
 20
4904.4274880334
 10
6700.7485533426
 20
4903.0870527981
 10
6701.4750015717
 20
4900.8609464459
 10
6702.3746359499
 20
4899.4189140023
 10
6703.3107209524
 20
4898.9739541361
  0
ARC
  5
DD
330
1F
100
AcDbEntity
  8
0
  6
Continuous
 62
     7
370
    25
100
AcDbCircle
 10
6683.6806116508
 20
5098.008269793
 30
0.0
 40
200.0000000005216
100
AcDbArc
 50
275.6326806459
 51
281.6613043232
  0
LINE
  5
DE
330
1F
100
AcDbEntity
  8
0
  6
Continuous
 62
     7
370
    25
100
AcDbLine
 10
6777.5061438282
 20
4873.2379571052
 30
0.0
 11
6734.8301718205
 21
4873.2379571052
 31
0.0
  0
ARC
  5
DF
330
1F
100
AcDbEntity
  8
0
  6
Continuous
 62
     7
370
    25
100
AcDbCircle
 10
6735.1297220244
 20
4879.9432842384
 30
0.0
 40
6.712014771169311
100
AcDbArc
 50
179.0487201604
 51
267.4420996518
  0
LINE
  5
E0
330
1F
100
AcDbEntity
  8
0
  6
Continuous
 62
     7
370
    25
100
AcDbLine
 10
6628.5113201453
 20
4945.9333297054
 30
0.0
 11
6628.9611790838
 21
4894.3846011882
 31
0.0
  0
LINE
  5
E1
330
1F
100
AcDbEntity
  8
0
  6
Continuous
 62
     7
370
    25
100
AcDbLine
 10
6602.384879182
 20
4939.9296668891
 30
0.0
 11
6602.7339389405
 21
4899.9313803512
 31
0.0
  0
LINE
  5
E2
330
1F
100
AcDbEntity
  8
0
  6
Continuous
 62
     7
370
    25
100
AcDbLine
 10
6699.0067525004
 20
4950.2379571052
 30
0.0
 11
6693.2630001208
 21
4950.2379571052
 31
0.0
  0
ARC
  5
E3
330
1F
100
AcDbEntity
  8
0
  6
Continuous
 62
     7
370
    25
100
AcDbCircle
 10
6695.2630001208
 20
4950.2379571052
 30
0.0
 40
2.0
100
AcDbArc
 50
90.0
 51
180.0
  0
LINE
  5
E4
330
1F
100
AcDbEntity
  8
0
  6
Continuous
 62
     7
370
    25
100
AcDbLine
 10
6695.2630001208
 20
4952.2379571052
 30
0.0
 11
6699.365680392
 21
4952.2379571052
 31
0.0
  0
LINE
  5
E5
330
1F
100
AcDbEntity
  8
0
  6
Continuous
 62
     7
370
    25
100
AcDbLine
 10
6693.2630001208
 20
4950.2379571052
 30
0.0
 11
6693.2630001208
 21
4947.2379571052
 31
0.0
  0
LINE
  5
E6
330
1F
100
AcDbEntity
  8
0
  6
Continuous
 62
     7
370
    25
100
AcDbLine
 10
6693.2630001208
 20
4947.2379571052
 30
0.0
 11
6699.0067525004
 21
4947.2379571052
 31
0.0
  0
LINE
  5
E7
330
1F
100
AcDbEntity
  8
0
  6
Continuous
 62
     7
370
    25
100
AcDbLine
 10
6658.6120615407
 20
4900.4189261399
 30
0.0
 11
6658.2630001208
 21
4940.4174030625
 31
0.0
  0
LINE
  5
E8
330
1F
100
AcDbEntity
  8
0
  6
Continuous
 62
     7
370
    25
100
AcDbLine
 10
6638.3218704071
 20
4940.2433794599
 30
0.0
 11
6638.6709318271
 21
4900.2449025373
 31
0.0
  0
ARC
  5
E9
330
1F
100
AcDbEntity
  8
0
  6
Continuous
 62
     7
370
    25
100
AcDbCircle
 10
6698.9384924734
 20
4949.5110504398
 30
0.0
 40
43.76156024871388
100
AcDbArc
 50
265.6588877915
 51
271.794519202
  0
LWPOLYLINE
  5
EA
330
1F
100
AcDbEntity
  8
0
  6
Continuous
 62
     7
370
    25
100
AcDbPolyline
 90
       11
 70
   128
 43
0.0
 10
6695.3625680654
 20
4935.8286007288
 10
6695.5198642743
 20
4933.7844834589
 10
6695.8839313698
 20
4931.5922793381
 10
6696.5953054188
 20
4928.1772130607
 10
6697.2681159356
 20
4924.5616289247
 10
6697.5412019629
 20
4922.027564439
 10
6697.5671869333
 20
4919.4281276553
 10
6696.949111949
 20
4914.4268301524
 10
6696.2985008138
 20
4911.0666604041
 10
6695.7609974622
 20
4907.793367306
 10
6695.6259990111
 20
4905.8750346585
  0
LINE
  5
EB
330
1F
100
AcDbEntity
  8
0
  6
Continuous
 62
     7
370
    25
100
AcDbLine
 10
6695.3625680654
 20
4935.8286007288
 30
0.0
 11
6695.2630001208
 21
4947.2379571052
 31
0.0
  0
ARC
  5
EC
330
1F
100
AcDbEntity
  8
0
  6
Continuous
 62
     7
370
    25
100
AcDbCircle
 10
6702.6236671269
 20
4905.9401551841
 30
0.0
 40
7.000000000002865
100
AcDbArc
 50
181.914945567
 51
275.6326806458
  0
LWPOLYLINE
  5
ED
330
1F
100
AcDbEntity
  8
0
  6
Continuous
 62
     7
370
    25
100
AcDbPolyline
 90
        4
 70
   128
 43
0.0
 10
6695.6260076895
 20
4905.8750388405
 10
6695.6260070219
 20
4905.8749935864
 10
6695.6275795341
 20
4905.7063259507
 10
6695.6275810314
 20
4905.7062812454
  0
LWPOLYLINE
  5
EE
330
1F
100
AcDbEntity
  8
0
  6
Continuous
 62
     7
370
    25
100
AcDbPolyline
 90
       12
 70
   128
 43
0.0
 10
6693.6150007713
 20
4907.209085484
 10
6693.8051738114
 20
4908.9531871914
 10
6694.5251503711
 20
4911.8598957398
 10
6695.4341207912
 20
4914.9849419477
 10
6695.9689718971
 20
4917.2177491635
 10
6696.2823059261
 20
4919.5322803801
 10
6696.2490074142
 20
4921.8847496792
 10
6695.8941361098
 20
4924.1988240904
 10
6695.0010065394
 20
4927.4980790746
 10
6694.0578295667
 20
4930.5889119786
 10
6693.5767458932
 20
4932.5849747248
 10
6693.3746135526
 20
4934.4395979117
  0
ARC
  5
EF
330
1F
100
AcDbEntity
  8
0
  6
Continuous
 62
     7
370
    25
100
AcDbCircle
 10
6693.6241026777
 20
4936.1996180667
 30
0.0
 40
1.777615191626757
100
AcDbArc
 50
261.9318731471
 51
347.952862863
  0
ARC
  5
F0
330
1F
100
AcDbEntity
  8
0
  6
Continuous
 62
     7
370
    25
100
AcDbCircle
 10
6693.8678842047
 20
4905.4075389632
 30
0.0
 40
1.81920859098918
100
AcDbArc
 50
14.8907936099
 51
97.9904121159
  0
LINE
  5
F1
330
1F
100
AcDbEntity
  8
0
  6
Continuous
 62
     7
370
    25
100
AcDbLine
 10
6693.6167340223
 20
4907.0106859224
 30
0.0
 11
6693.6150178357
 21
4907.2090853807
 31
0.0
  0
LINE
  5
F2
330
1F
100
AcDbEntity
  8
0
  6
Continuous
 62
     7
370
    25
100
AcDbLine
 10
6694.0161424416
 20
4904.8537957511
 30
0.0
 11
6693.6167281405
 21
4907.0106857863
 31
0.0
  0
LINE
  5
F3
330
1F
100
AcDbEntity
  8
0
  6
Continuous
 62
     7
370
    25
100
AcDbLine
 10
6533.8335300585
 20
4939.3314283284
 30
0.0
 11
6534.182589817
 21
4899.3331417905
 31
0.0
  0
LINE
  5
F4
330
1F
100
AcDbEntity
  8
0
  6
Continuous
 62
     7
370
    25
100
AcDbLine
 10
6530.3477998857
 20
4939.015698757
 30
0.0
 11
6530.6918802969
 21
4899.5879888951
 31
0.0
  0
LINE
  5
F5
330
1F
100
AcDbEntity
  8
0
  6
Continuous
 62
     7
370
    25
100
AcDbLine
 10
6530.3477998857
 20
4936.8009136261
 30
0.0
 11
6530.6532269667
 21
4901.8024367035
 31
0.0
  0
ARC
  5
F6
330
1F
100
AcDbEntity
  8
0
  6
Continuous
 62
     7
370
    25
100
AcDbCircle
 10
6693.9167105302
 20
4905.2710380381
 30
0.0
 40
1.765353851702735
100
AcDbArc
 50
14.2723990243
 51
99.7836484596
  0
ARC
  5
F7
330
1F
100
AcDbEntity
  8
0
  6
Continuous
 62
     7
370
    25
100
AcDbCircle
 10
6694.3756568059
 20
4903.1907764381
 30
0.0
 40
1.701435809412514
100
AcDbArc
 50
23.1834570491
 51
102.198580133
  0
LINE
  5
F8
330
1F
100
AcDbEntity
  8
0
  6
Continuous
 62
     7
370
    25
100
AcDbLine
 10
6696.1776957033
 20
4900.3754664851
 30
0.0
 11
6696.1772328838
 21
4900.364919242
 31
0.0
  0
LINE
  5
F9
330
1F
100
AcDbEntity
  8
0
  6
Continuous
 62
     7
370
    25
100
AcDbLine
 10
6204.9630001208
 20
4863.0379571052
 30
0.0
 11
6208.4630001208
 21
4863.0379571052
 31
0.0
  0
LINE
  5
FA
330
1F
100
AcDbEntity
  8
0
  6
Continuous
 62
     7
370
    25
100
AcDbLine
 10
6208.4630001208
 20
4863.0379571052
 30
0.0
 11
6208.4630001208
 21
4858.0379571052
 31
0.0
  0
LINE
  5
FB
330
1F
100
AcDbEntity
  8
0
  6
Continuous
 62
     7
370
    25
100
AcDbLine
 10
6191.4630001208
 20
4863.0379571052
 30
0.0
 11
6191.4630001208
 21
4858.0379571052
 31
0.0
  0
LINE
  5
FC
330
1F
100
AcDbEntity
  8
0
  6
Continuous
 62
     7
370
    25
100
AcDbLine
 10
6191.4630001208
 20
4863.0379571052
 30
0.0
 11
6194.9630001208
 21
4863.0379571052
 31
0.0
  0
LINE
  5
FD
330
1F
100
AcDbEntity
  8
0
  6
Continuous
 62
     7
370
    25
100
AcDbLine
 10
7296.0630001208
 20
4863.0379571052
 30
0.0
 11
7296.0630001208
 21
4856.0379571052
 31
0.0
  0
LINE
  5
FE
330
1F
100
AcDbEntity
  8
0
  6
Continuous
 62
     7
370
    25
100
AcDbLine
 10
7296.0630001208
 20
4863.0379571052
 30
0.0
 11
7304.5630001208
 21
4863.0379571052
 31
0.0
  0
LINE
  5
FF
330
1F
100
AcDbEntity
  8
0
  6
Continuous
 62
     7
370
    25
100
AcDbLine
 10
7304.5630001208
 20
4863.0379571052
 30
0.0
 11
7304.5630001208
 21
4856.0379571052
 31
0.0
  0
LINE
  5
100
330
1F
100
AcDbEntity
  8
0
  6
Continuous
 62
     7
370
    25
100
AcDbLine
 10
7296.0630001208
 20
4856.0379571052
 30
0.0
 11
7304.5630001208
 21
4856.0379571052
 31
0.0
  0
LINE
  5
101
330
1F
100
AcDbEntity
  8
0
  6
Continuous
 62
     7
370
    25
100
AcDbLine
 10
7304.5630001208
 20
4863.0379571052
 30
0.0
 11
7313.0630001208
 21
4863.0379571052
 31
0.0
  0
LINE
  5
102
330
1F
100
AcDbEntity
  8
0
  6
Continuous
 62
     7
370
    25
100
AcDbLine
 10
7313.0630001208
 20
4863.0379571052
 30
0.0
 11
7313.0630001208
 21
4856.0379571052
 31
0.0
  0
LINE
  5
103
330
1F
100
AcDbEntity
  8
0
  6
Continuous
 62
     7
370
    25
100
AcDbLine
 10
7304.5630001208
 20
4856.0379571052
 30
0.0
 11
7313.0630001208
 21
4856.0379571052
 31
0.0
  0
LINE
  5
104
330
1F
100
AcDbEntity
  8
0
  6
Continuous
 62
     7
370
    25
100
AcDbLine
 10
7304.5630001208
 20
4943.0379571052
 30
0.0
 11
7308.5630001208
 21
4943.0379571052
 31
0.0
  0
LINE
  5
105
330
1F
100
AcDbEntity
  8
0
  6
Continuous
 62
     7
370
    25
100
AcDbLine
 10
7300.5630001208
 20
4943.0379571052
 30
0.0
 11
7304.5630001208
 21
4943.0379571052
 31
0.0
  0
LINE
  5
106
330
1F
100
AcDbEntity
  8
0
  6
Continuous
 62
     7
370
    25
100
AcDbLine
 10
6185.9630001208
 20
4858.0379571052
 30
0.0
 11
6185.9630001208
 21
4856.0379571052
 31
0.0
  0
LINE
  5
107
330
1F
100
AcDbEntity
  8
0
  6
Continuous
 62
     7
370
    25
100
AcDbLine
 10
6185.9630001208
 20
4858.0379571052
 30
0.0
 11
6235.9630001208
 21
4858.0379571052
 31
0.0
  0
LINE
  5
108
330
1F
100
AcDbEntity
  8
0
  6
Continuous
 62
     7
370
    25
100
AcDbLine
 10
6235.9630001208
 20
4858.0379571052
 30
0.0
 11
6235.9630001208
 21
4856.0379571052
 31
0.0
  0
LINE
  5
109
330
1F
100
AcDbEntity
  8
0
  6
Continuous
 62
     7
370
    25
100
AcDbLine
 10
6185.9630001208
 20
4856.0379571052
 30
0.0
 11
6235.9630001208
 21
4856.0379571052
 31
0.0
  0
LINE
  5
10A
330
1F
100
AcDbEntity
  8
0
  6
Continuous
 62
     7
370
    25
100
AcDbLine
 10
6195.9630001208
 20
4943.0379571052
 30
0.0
 11
6203.9630001208
 21
4943.0379571052
 31
0.0
  0
LINE
  5
10B
330
1F
100
AcDbEntity
  8
0
  6
Continuous
 62
     7
370
    25
100
AcDbLine
 10
7268.5630001208
 20
4858.0379571052
 30
0.0
 11
7268.5630001208
 21
4856.0379571052
 31
0.0
  0
LINE
  5
10C
330
1F
100
AcDbEntity
  8
0
  6
Continuous
 62
     7
370
    25
100
AcDbLine
 10
7268.5630001208
 20
4858.0379571052
 30
0.0
 11
7296.0630001208
 21
4858.0379571052
 31
0.0
  0
LINE
  5
10D
330
1F
100
AcDbEntity
  8
0
  6
Continuous
 62
     7
370
    25
100
AcDbLine
 10
7313.0630001208
 20
4858.0379571052
 30
0.0
 11
7318.5630001208
 21
4858.0379571052
 31
0.0
  0
LINE
  5
10E
330
1F
100
AcDbEntity
  8
0
  6
Continuous
 62
     7
370
    25
100
AcDbLine
 10
7318.5630001208
 20
4858.0379571052
 30
0.0
 11
7318.5630001208
 21
4856.0379571052
 31
0.0
  0
LINE
  5
10F
330
1F
100
AcDbEntity
  8
0
  6
Continuous
 62
     7
370
    25
100
AcDbLine
 10
7268.5630001208
 20
4856.0379571052
 30
0.0
 11
7296.0630001208
 21
4856.0379571052
 31
0.0
  0
LINE
  5
110
330
1F
100
AcDbEntity
  8
0
  6
Continuous
 62
     7
370
    25
100
AcDbLine
 10
7313.0630001208
 20
4856.0379571052
 30
0.0
 11
7318.5630001208
 21
4856.0379571052
 31
0.0
  0
LINE
  5
111
330
1F
100
AcDbEntity
  8
0
  6
Continuous
 62
     7
370
    25
100
AcDbLine
 10
6199.9630001208
 20
4942.0379571052
 30
0.0
 11
6199.9630001208
 21
4935.0379571052
 31
0.0
  0
LINE
  5
112
330
1F
100
AcDbEntity
  8
0
  6
Continuous
 62
     7
370
    25
100
AcDbLine
 10
6208.4630001208
 20
4942.0379571052
 30
0.0
 11
6199.9630001208
 21
4942.0379571052
 31
0.0
  0
LINE
  5
113
330
1F
100
AcDbEntity
  8
0
  6
Continuous
 62
     7
370
    25
100
AcDbLine
 10
6208.4630001208
 20
4942.0379571052
 30
0.0
 11
6208.4630001208
 21
4935.0379571052
 31
0.0
  0
LINE
  5
114
330
1F
100
AcDbEntity
  8
0
  6
Continuous
 62
     7
370
    25
100
AcDbLine
 10
6201.9949772863
 20
4935.0379571052
 30
0.0
 11
6199.9630001208
 21
4935.0379571052
 31
0.0
  0
LINE
  5
115
330
1F
100
AcDbEntity
  8
0
  6
Continuous
 62
     7
370
    25
100
AcDbLine
 10
7304.5630001208
 20
4942.0379571052
 30
0.0
 11
7304.5630001208
 21
4935.0379571052
 31
0.0
  0
LINE
  5
116
330
1F
100
AcDbEntity
  8
0
  6
Continuous
 62
     7
370
    25
100
AcDbLine
 10
7313.0630001208
 20
4942.0379571052
 30
0.0
 11
7313.0630001208
 21
4935.0379571052
 31
0.0
  0
LINE
  5
117
330
1F
100
AcDbEntity
  8
0
  6
Continuous
 62
     7
370
    25
100
AcDbLine
 10
7304.5630001208
 20
4935.0379571052
 30
0.0
 11
7306.5949772863
 21
4935.0379571052
 31
0.0
  0
LINE
  5
118
330
1F
100
AcDbEntity
  8
0
  6
Continuous
 62
     7
370
    25
100
AcDbLine
 10
7304.5630001208
 20
4942.0379571052
 30
0.0
 11
7313.0630001208
 21
4942.0379571052
 31
0.0
  0
LINE
  5
119
330
1F
100
AcDbEntity
  8
0
  6
Continuous
 62
     7
370
    25
100
AcDbLine
 10
6191.4630001208
 20
4942.0379571052
 30
0.0
 11
6191.4630001208
 21
4935.0379571052
 31
0.0
  0
LINE
  5
11A
330
1F
100
AcDbEntity
  8
0
  6
Continuous
 62
     7
370
    25
100
AcDbLine
 10
6199.9630001208
 20
4942.0379571052
 30
0.0
 11
6191.4630001208
 21
4942.0379571052
 31
0.0
  0
LINE
  5
11B
330
1F
100
AcDbEntity
  8
0
  6
Continuous
 62
     7
370
    25
100
AcDbLine
 10
6199.9630001208
 20
4935.0379571052
 30
0.0
 11
6197.9310229553
 21
4935.0379571052
 31
0.0
  0
LINE
  5
11C
330
1F
100
AcDbEntity
  8
0
  6
Continuous
 62
     7
370
    25
100
AcDbLine
 10
7296.0630001208
 20
4942.0379571052
 30
0.0
 11
7296.0630001208
 21
4935.0379571052
 31
0.0
  0
LINE
  5
11D
330
1F
100
AcDbEntity
  8
0
  6
Continuous
 62
     7
370
    25
100
AcDbLine
 10
7302.5310229553
 20
4935.0379571052
 30
0.0
 11
7304.5630001208
 21
4935.0379571052
 31
0.0
  0
LINE
  5
11E
330
1F
100
AcDbEntity
  8
0
  6
Continuous
 62
     7
370
    25
100
AcDbLine
 10
7296.0630001208
 20
4942.0379571052
 30
0.0
 11
7304.5630001208
 21
4942.0379571052
 31
0.0
  0
LINE
  5
11F
330
1F
100
AcDbEntity
  8
0
  6
Continuous
 62
     7
370
    25
100
AcDbLine
 10
6197.9310229553
 20
4935.0379571052
 30
0.0
 11
6189.9630001208
 21
4935.0379571052
 31
0.0
  0
LINE
  5
120
330
1F
100
AcDbEntity
  8
0
  6
Continuous
 62
     7
370
    25
100
AcDbLine
 10
6209.9630001208
 20
4935.0379571052
 30
0.0
 11
6201.9949772863
 21
4935.0379571052
 31
0.0
  0
LINE
  5
121
330
1F
100
AcDbEntity
  8
0
  6
Continuous
 62
     7
370
    25
100
AcDbLine
 10
6209.9630001208
 20
4935.0379571052
 30
0.0
 11
6209.9630001208
 21
4933.0379571052
 31
0.0
  0
LINE
  5
122
330
1F
100
AcDbEntity
  8
0
  6
Continuous
 62
     7
370
    25
100
AcDbLine
 10
6209.9630001208
 20
4933.0379571052
 30
0.0
 11
6189.9630001208
 21
4933.0379571052
 31
0.0
  0
LINE
  5
123
330
1F
100
AcDbEntity
  8
0
  6
Continuous
 62
     7
370
    25
100
AcDbLine
 10
6189.9630001208
 20
4935.0379571052
 30
0.0
 11
6189.9630001208
 21
4933.0379571052
 31
0.0
  0
LINE
  5
124
330
1F
100
AcDbEntity
  8
0
  6
Continuous
 62
     7
370
    25
100
AcDbLine
 10
7294.5630001208
 20
4933.0379571052
 30
0.0
 11
7314.5630001208
 21
4933.0379571052
 31
0.0
  0
LINE
  5
125
330
1F
100
AcDbEntity
  8
0
  6
Continuous
 62
     7
370
    25
100
AcDbLine
 10
7314.5630001208
 20
4935.0379571052
 30
0.0
 11
7314.5630001208
 21
4933.0379571052
 31
0.0
  0
LINE
  5
126
330
1F
100
AcDbEntity
  8
0
  6
Continuous
 62
     7
370
    25
100
AcDbLine
 10
7294.5630001208
 20
4935.0379571052
 30
0.0
 11
7294.5630001208
 21
4933.0379571052
 31
0.0
  0
LINE
  5
127
330
1F
100
AcDbEntity
  8
0
  6
Continuous
 62
     7
370
    25
100
AcDbLine
 10
7306.5949772863
 20
4935.0379571052
 30
0.0
 11
7314.5630001208
 21
4935.0379571052
 31
0.0
  0
LINE
  5
128
330
1F
100
AcDbEntity
  8
0
  6
Continuous
 62
     7
370
    25
100
AcDbLine
 10
7294.5630001208
 20
4935.0379571052
 30
0.0
 11
7302.5310229553
 21
4935.0379571052
 31
0.0
  0
LINE
  5
129
330
1F
100
AcDbEntity
  8
0
  6
Continuous
 62
     7
370
    25
100
AcDbLine
 10
7314.5630001208
 20
4935.2878431228
 30
0.0
 11
7314.5630001208
 21
4935.0379571052
 31
0.0
  0
LINE
  5
12A
330
1F
100
AcDbEntity
  8
0
  6
Continuous
 62
     7
370
    25
100
AcDbLine
 10
7294.5630001208
 20
4935.2878431228
 30
0.0
 11
7294.5630001208
 21
4935.0379571052
 31
0.0
  0
LINE
  5
12B
330
1F
100
AcDbEntity
  8
0
  6
Continuous
 62
     7
370
    25
100
AcDbLine
 10
6209.9630001208
 20
4935.2878431228
 30
0.0
 11
6209.9630001208
 21
4935.0379571052
 31
0.0
  0
LINE
  5
12C
330
1F
100
AcDbEntity
  8
0
  6
Continuous
 62
     7
370
    25
100
AcDbLine
 10
6189.9630001208
 20
4935.2878431228
 30
0.0
 11
6189.9630001208
 21
4935.0379571052
 31
0.0
  0
LINE
  5
12D
330
1F
100
AcDbEntity
  8
0
  6
Continuous
 62
     7
370
    25
100
AcDbLine
 10
6209.9630001208
 20
4959.0882990524
 30
0.0
 11
6189.9630001208
 21
4959.0882990524
 31
0.0
  0
LINE
  5
12E
330
1F
100
AcDbEntity
  8
0
  6
Continuous
 62
     7
370
    25
100
AcDbLine
 10
6209.9630001208
 20
4959.0882990524
 30
0.0
 11
6209.9630001208
 21
4935.2878431228
 31
0.0
  0
LINE
  5
12F
330
1F
100
AcDbEntity
  8
0
  6
Continuous
 62
     7
370
    25
100
AcDbLine
 10
6189.9630001208
 20
4959.0882990524
 30
0.0
 11
6189.9630001208
 21
4935.2878431228
 31
0.0
  0
LINE
  5
130
330
1F
100
AcDbEntity
  8
0
  6
Continuous
 62
     7
370
    25
100
AcDbLine
 10
7294.5630001208
 20
4959.0882990524
 30
0.0
 11
7314.5630001208
 21
4959.0882990524
 31
0.0
  0
LINE
  5
131
330
1F
100
AcDbEntity
  8
0
  6
Continuous
 62
     7
370
    25
100
AcDbLine
 10
7314.5630001208
 20
4959.0882990524
 30
0.0
 11
7314.5630001208
 21
4935.2878431228
 31
0.0
  0
LINE
  5
132
330
1F
100
AcDbEntity
  8
0
  6
Continuous
 62
     7
370
    25
100
AcDbLine
 10
7294.5630001208
 20
4959.0882990524
 30
0.0
 11
7294.5630001208
 21
4935.2878431228
 31
0.0
  0
LINE
  5
133
330
1F
100
AcDbEntity
  8
0
  6
Continuous
 62
     7
370
    25
100
AcDbLine
 10
6149.9630001208
 20
4961.0379571052
 30
0.0
 11
7354.5630001208
 21
4961.0379571052
 31
0.0
  0
LINE
  5
134
330
1F
100
AcDbEntity
  8
0
  6
Continuous
 62
     7
370
    25
100
AcDbLine
 10
7354.5630001208
 20
4961.0379571052
 30
0.0
 11
7354.5630001208
 21
4959.8379571052
 31
0.0
  0
LINE
  5
135
330
1F
100
AcDbEntity
  8
0
  6
Continuous
 62
     7
370
    25
100
AcDbLine
 10
6149.9630001208
 20
4961.0379571052
 30
0.0
 11
6149.9630001208
 21
4959.8379571052
 31
0.0
  0
LINE
  5
136
330
1F
100
AcDbEntity
  8
0
  6
Continuous
 62
     7
370
    25
100
AcDbLine
 10
6149.9630001208
 20
4959.8379571052
 30
0.0
 11
7354.5630001208
 21
4959.8379571052
 31
0.0
  0
LINE
  5
137
330
1F
100
AcDbEntity
  8
0
  6
Continuous
 62
     7
370
    25
100
AcDbLine
 10
6181.6630001208
 20
4974.9864157737
 30
0.0
 11
6177.2997446707
 21
4974.9864157737
 31
0.0
  0
ARC
  5
138
330
1F
100
AcDbEntity
  8
0
  6
Continuous
 62
     7
370
    25
100
AcDbCircle
 10
6178.9630001208
 20
4975.3379571052
 30
0.0
 40
1.700000000000129
100
AcDbArc
 50
90.0
 51
191.9342465732
  0
LINE
  5
139
330
1F
100
AcDbEntity
  8
0
  6
Continuous
 62
     7
370
    25
100
AcDbLine
 10
7327.2262555709
 20
4974.9864157737
 30
0.0
 11
7322.8630001208
 21
4974.9864157737
 31
0.0
  0
ARC
  5
13A
330
1F
100
AcDbEntity
  8
0
  6
Continuous
 62
     7
370
    25
100
AcDbCircle
 10
7325.5630001208
 20
4975.3379571052
 30
0.0
 40
1.700000000000129
100
AcDbArc
 50
348.0657534268
 51
90.0
  0
LINE
  5
13B
330
1F
100
AcDbEntity
  8
0
  6
Continuous
 62
     7
370
    25
100
AcDbLine
 10
7322.8630001208
 20
4974.9864157737
 30
0.0
 11
6181.6630001208
 21
4974.9864157737
 31
0.0
  0
LINE
  5
13C
330
1F
100
AcDbEntity
  8
0
  6
Continuous
 62
     7
370
    25
100
AcDbLine
 10
7326.3370627914
 20
4970.7793578705
 30
0.0
 11
7322.8630001208
 21
4970.7793578705
 31
0.0
  0
LINE
  5
13D
330
1F
100
AcDbEntity
  8
0
  6
Continuous
 62
     7
370
    25
100
AcDbLine
 10
7322.8630001208
 20
4974.9864157737
 30
0.0
 11
7322.8630001208
 21
4970.7793578705
 31
0.0
  0
LINE
  5
13E
330
1F
100
AcDbEntity
  8
0
  6
Continuous
 62
     7
370
    25
100
AcDbLine
 10
7327.2262555709
 20
4974.9864157737
 30
0.0
 11
7326.3370627914
 21
4970.7793578705
 31
0.0
  0
LINE
  5
13F
330
1F
100
AcDbEntity
  8
0
  6
Continuous
 62
     7
370
    25
100
AcDbLine
 10
7322.8630001208
 20
4970.7793578705
 30
0.0
 11
6181.6630001208
 21
4970.7793578705
 31
0.0
  0
LINE
  5
140
330
1F
100
AcDbEntity
  8
0
  6
Continuous
 62
     7
370
    25
100
AcDbLine
 10
6181.6630001208
 20
4974.9864157737
 30
0.0
 11
6181.6630001208
 21
4970.7793578705
 31
0.0
  0
LINE
  5
141
330
1F
100
AcDbEntity
  8
0
  6
Continuous
 62
     7
370
    25
100
AcDbLine
 10
6181.6630001208
 20
4970.7793578705
 30
0.0
 11
6178.1889374501
 21
4970.7793578705
 31
0.0
  0
LINE
  5
142
330
1F
100
AcDbEntity
  8
0
  6
Continuous
 62
     7
370
    25
100
AcDbLine
 10
6177.2997446707
 20
4974.9864157737
 30
0.0
 11
6178.1889374501
 21
4970.7793578705
 31
0.0
  0
LINE
  5
143
330
1F
100
AcDbEntity
  8
0
  6
Continuous
 62
     7
370
    25
100
AcDbLine
 10
7325.0630001208
 20
4970.7793578705
 30
0.0
 11
7325.0630001208
 21
4961.0379571052
 31
0.0
  0
LINE
  5
144
330
1F
100
AcDbEntity
  8
0
  6
Continuous
 62
     7
370
    25
100
AcDbLine
 10
6179.4630001208
 20
4970.7793578705
 30
0.0
 11
6179.4630001208
 21
4961.0379571052
 31
0.0
  0
LINE
  5
145
330
1F
100
AcDbEntity
  8
0
  6
Continuous
 62
     7
370
    25
100
AcDbLine
 10
7314.5630001208
 20
4959.8379571052
 30
0.0
 11
7314.5630001208
 21
4959.0882990524
 31
0.0
  0
LINE
  5
146
330
1F
100
AcDbEntity
  8
0
  6
Continuous
 62
     7
370
    25
100
AcDbLine
 10
7294.5630001208
 20
4959.8379571052
 30
0.0
 11
7294.5630001208
 21
4959.0882990524
 31
0.0
  0
LINE
  5
147
330
1F
100
AcDbEntity
  8
0
  6
Continuous
 62
     7
370
    25
100
AcDbLine
 10
6209.9630001208
 20
4959.8379571052
 30
0.0
 11
6209.9630001208
 21
4959.0882990524
 31
0.0
  0
LINE
  5
148
330
1F
100
AcDbEntity
  8
0
  6
Continuous
 62
     7
370
    25
100
AcDbLine
 10
6189.9630001208
 20
4959.8379571052
 30
0.0
 11
6189.9630001208
 21
4959.0882990524
 31
0.0
  0
LINE
  5
149
330
1F
100
AcDbEntity
  8
0
  6
Continuous
 62
     8
370
    25
100
AcDbLine
 10
6712.9607739882
 20
4955.7616310314
 30
0.0
 11
6791.5652262534
 21
4955.7616310315
 31
0.0
  0
LINE
  5
14A
330
1F
100
AcDbEntity
  8
0
  6
Continuous
 62
     8
370
    25
100
AcDbLine
 10
6713.1998853734
 20
4956.1757840993
 30
0.0
 11
6791.3261148682
 21
4956.1757840993
 31
0.0
  0
LWPOLYLINE
  5
14B
330
1F
100
AcDbEntity
  8
0
  6
Continuous
 62
     8
370
    25
100
AcDbPolyline
 90
       21
 70
   128
 43
0.0
 10
6717.472415943
 20
4908.93079222
 10
6723.0627248953
 20
4909.9739007303
 10
6729.605989951
 20
4911.3558988037
 10
6736.4823503329
 20
4912.9996168288
 10
6743.9044028215
 20
4914.9999662448
 10
6751.4393827233
 20
4917.2789302649
 10
6759.1147919039
 20
4919.867507756
 10
6766.8232797787
 20
4922.7507710978
 10
6770.6168201731
 20
4924.2784551203
 10
6774.2698810631
 20
4925.8195011707
 10
6777.8989792291
 20
4927.4207005963
 10
6781.328683328
 20
4928.9997000163
 10
6784.6294263418
 20
4930.5818371896
 10
6787.6666355136
 20
4932.0929972269
 10
6790.3296683276
 20
4933.4631275791
 10
6792.6937625366
 20
4934.7154952408
 10
6794.8024147263
 20
4935.8619370873
 10
6796.529442725
 20
4936.821974951
 10
6798.2672187265
 20
4937.8074909956
 10
6799.118679972
 20
4938.2976226749
 10
6799.0747008921
 20
4938.2721995064
  0
LINE
  5
14C
330
1F
100
AcDbEntity
  8
0
  6
Continuous
 62
     8
370
    25
100
AcDbLine
 10
6801.2630001208
 20
4950.2379571052
 30
0.0
 11
6716.5448506737
 21
4950.2379571052
 31
0.0
  0
LINE
  5
14D
330
1F
100
AcDbEntity
  8
0
  6
Continuous
 62
     8
370
    25
100
AcDbLine
 10
6728.4186323438
 20
4880.054718467
 30
0.0
 11
6784.503745103
 21
4880.054718467
 31
0.0
  0
LINE
  5
14E
330
1F
100
AcDbEntity
  8
0
  6
Continuous
 62
     8
370
    25
100
AcDbLine
 10
6685.6553840548
 20
4894.1422455755
 30
0.0
 11
6685.1926606256
 21
4947.1650987141
 31
0.0
  0
LINE
  5
14F
330
1F
100
AcDbEntity
  8
0
  6
Continuous
 62
     8
370
    25
100
AcDbLine
 10
6660.1926606256
 20
4946.2853107463
 30
0.0
 11
6660.6438372587
 21
4894.5855893864
 31
0.0
  0
LINE
  5
150
330
1F
100
AcDbEntity
  8
0
  6
Continuous
 62
     8
370
    25
100
AcDbLine
 10
6658.6795874314
 20
4896.5503704518
 30
0.0
 11
6658.2630001208
 21
4944.2865480401
 31
0.0
  0
LINE
  5
151
330
1F
100
AcDbEntity
  8
0
  6
Continuous
 62
     8
370
    25
100
AcDbLine
 10
6636.6830440308
 20
4943.4433794599
 30
0.0
 11
6637.0882027526
 21
4897.0167884488
 31
0.0
  0
LINE
  5
152
330
1F
100
AcDbEntity
  8
0
  6
Continuous
 62
     8
370
    25
100
AcDbLine
 10
6636.4380628547
 20
4943.2432214435
 30
0.0
 11
6636.8397656492
 21
4897.2126404691
 31
0.0
  0
LINE
  5
153
330
1F
100
AcDbEntity
  8
0
  6
Continuous
 62
     8
370
    25
100
AcDbLine
 10
6637.5208626581
 20
4943.4433794599
 30
0.0
 11
6637.925893776
 21
4897.0314104
 31
0.0
  0
LINE
  5
154
330
1F
100
AcDbEntity
  8
0
  6
Continuous
 62
     8
370
    25
100
AcDbLine
 10
6637.766676385
 20
4943.2389383413
 30
0.0
 11
6638.1681020748
 21
4897.2401104224
 31
0.0
  0
LINE
  5
155
330
1F
100
AcDbEntity
  8
0
  6
Continuous
 62
     8
370
    25
100
AcDbLine
 10
6636.0218704071
 20
4941.1975702087
 30
0.0
 11
6636.387935053
 21
4899.2507165816
 31
0.0
  0
LINE
  5
156
330
1F
100
AcDbEntity
  8
0
  6
Continuous
 62
     8
370
    25
100
AcDbLine
 10
6633.7369949483
 20
4940.2373390188
 30
0.0
 11
6634.0866492467
 21
4900.1709249485
 31
0.0
  0
ARC
  5
157
330
1F
100
AcDbEntity
  8
0
  6
Continuous
 62
     8
370
    25
100
AcDbCircle
 10
6728.2126607733
 20
4875.5614495525
 30
0.0
 40
4.497987308321009
100
AcDbArc
 50
87.3753972295
 51
107.4379694265
  0
LINE
  5
158
330
1F
100
AcDbEntity
  8
0
  6
Continuous
 62
     8
370
    25
100
AcDbLine
 10
6693.3746135526
 20
4934.4395979117
 30
0.0
 11
6693.3197761757
 21
4940.7233389123
 31
0.0
  0
LWPOLYLINE
  5
159
330
1F
100
AcDbEntity
  8
0
  6
Continuous
 62
     8
370
    25
100
AcDbPolyline
 90
        6
 70
   128
 43
0.0
 10
6694.8936308967
 20
4900.7906964126
 10
6694.8996098024
 20
4900.755070906
 10
6694.8374046882
 20
4901.1241400252
 10
6694.6881033221
 20
4901.9791447769
 10
6694.4483856523
 20
4903.2082944213
 10
6694.0161424416
 20
4904.8537957511
  0
ARC
  5
15A
330
1F
100
AcDbEntity
  8
0
  6
Continuous
 62
     8
370
    25
100
AcDbCircle
 10
6682.1603084373
 20
4901.1689222509
 30
0.0
 40
14.039826132051
100
AcDbArc
 50
356.7602233054
 51
11.052987354
  0
LINE
  5
15B
330
1F
100
AcDbEntity
  8
0
  6
Continuous
 62
     8
370
    25
100
AcDbLine
 10
7294.5630001208
 20
4935.2878431228
 30
0.0
 11
7296.0630001208
 21
4935.2878431228
 31
0.0
  0
LINE
  5
15C
330
1F
100
AcDbEntity
  8
0
  6
Continuous
 62
     8
370
    25
100
AcDbLine
 10
7313.0630001208
 20
4935.2878431228
 30
0.0
 11
7314.5630001208
 21
4935.2878431228
 31
0.0
  0
LINE
  5
15D
330
1F
100
AcDbEntity
  8
0
  6
Continuous
 62
     8
370
    25
100
AcDbLine
 10
6209.9630001208
 20
4935.2878431228
 30
0.0
 11
6208.4630001208
 21
4935.2878431228
 31
0.0
  0
LINE
  5
15E
330
1F
100
AcDbEntity
  8
0
  6
Continuous
 62
     8
370
    25
100
AcDbLine
 10
6191.4630001208
 20
4935.2878431228
 30
0.0
 11
6189.9630001208
 21
4935.2878431228
 31
0.0
  0
LINE
  5
15F
330
1F
100
AcDbEntity
  8
0
  6
Continuous
 62
     8
370
    25
100
AcDbLine
 10
6181.6630001208
 20
4977.0379571052
 30
0.0
 11
6181.6630001208
 21
4974.9864157737
 31
0.0
  0
LINE
  5
160
330
1F
100
AcDbEntity
  8
0
  6
Continuous
 62
     8
370
    25
100
AcDbLine
 10
7322.8630001208
 20
4977.0379571052
 30
0.0
 11
7322.8630001208
 21
4974.9864157737
 31
0.0
  0
LINE
  5
161
330
1F
100
AcDbEntity
  8
0
  6
Continuous
 62
     8
370
    25
100
AcDbLine
 10
7322.8630001208
 20
4970.7793578705
 30
0.0
 11
7322.8630001208
 21
4961.0379571052
 31
0.0
  0
LINE
  5
162
330
1F
100
AcDbEntity
  8
0
  6
Continuous
 62
     8
370
    25
100
AcDbLine
 10
6181.6630001208
 20
4970.7793578705
 30
0.0
 11
6181.6630001208
 21
4961.0379571052
 31
0.0
  0
ARC
  5
163
330
1F
100
AcDbEntity
  8
0
  6
Continuous
 62
     7
370
    25
100
AcDbCircle
 10
6752.2630001208
 20
4529.2451923077
 30
0.0
 40
18.14999999999964
100
AcDbArc
 50
90.0
 51
176.8328746966
  0
ARC
  5
164
330
1F
100
AcDbEntity
  8
0
  6
Continuous
 62
     7
370
    25
100
AcDbCircle
 10
6752.2630001208
 20
4529.2451923077
 30
0.0
 40
18.15000000000018
100
AcDbArc
 50
3.1671253034
 51
90.0
  0
ARC
  5
165
330
1F
100
AcDbEntity
  8
0
  6
Continuous
 62
     7
370
    25
100
AcDbCircle
 10
6752.2630001208
 20
4529.2451923077
 30
0.0
 40
20.05000000000015
100
AcDbArc
 50
3.1671253034
 51
176.8328746966
  0
ARC
  5
166
330
1F
100
AcDbEntity
  8
0
  6
Continuous
 62
     7
370
    25
100
AcDbCircle
 10
6734.1906455426
 20
4530.2451923077
 30
0.0
 40
0.0500000000002805
100
AcDbArc
 50
176.8328746962
 51
270.0
  0
ARC
  5
167
330
1F
100
AcDbEntity
  8
0
  6
Continuous
 62
     7
370
    25
100
AcDbCircle
 10
6734.1906455426
 20
4530.2451923077
 30
0.0
 40
1.950000000000246
100
AcDbArc
 50
176.8328746966
 51
270.0
  0
ARC
  5
168
330
1F
100
AcDbEntity
  8
0
  6
Continuous
 62
     7
370
    25
100
AcDbCircle
 10
6770.335354699
 20
4530.2451923077
 30
0.0
 40
0.0500000000002805
100
AcDbArc
 50
270.0
 51
3.1671253038
  0
ARC
  5
169
330
1F
100
AcDbEntity
  8
0
  6
Continuous
 62
     7
370
    25
100
AcDbCircle
 10
6770.335354699
 20
4530.2451923077
 30
0.0
 40
1.950000000000246
100
AcDbArc
 50
270.0
 51
3.1671253034
  0
LINE
  5
16A
330
1F
100
AcDbEntity
  8
0
  6
Continuous
 62
     7
370
    25
100
AcDbLine
 10
6734.1906455426
 20
4528.2951923077
 30
0.0
 11
6734.3630001208
 21
4528.2951923077
 31
0.0
  0
LINE
  5
16B
330
1F
100
AcDbEntity
  8
0
  6
Continuous
 62
     7
370
    25
100
AcDbLine
 10
6738.5630001208
 20
4528.2951923077
 30
0.0
 11
6738.6906455426
 21
4528.2951923077
 31
0.0
  0
LINE
  5
16C
330
1F
100
AcDbEntity
  8
0
  6
Continuous
 62
     7
370
    25
100
AcDbLine
 10
6738.6906455426
 20
4530.1951923077
 30
0.0
 11
6738.5630001208
 21
4530.1951923077
 31
0.0
  0
LINE
  5
16D
330
1F
100
AcDbEntity
  8
0
  6
Continuous
 62
     7
370
    25
100
AcDbLine
 10
6734.3630001208
 20
4530.1951923077
 30
0.0
 11
6734.1906455426
 21
4530.1951923077
 31
0.0
  0
LINE
  5
16E
330
1F
100
AcDbEntity
  8
0
  6
Continuous
 62
     7
370
    25
100
AcDbLine
 10
6765.835354699
 20
4528.2951923077
 30
0.0
 11
6765.9623188922
 21
4528.2951923077
 31
0.0
  0
LINE
  5
16F
330
1F
100
AcDbEntity
  8
0
  6
Continuous
 62
     7
370
    25
100
AcDbLine
 10
6770.1623188922
 20
4528.2951923077
 30
0.0
 11
6770.335354699
 21
4528.2951923077
 31
0.0
  0
LINE
  5
170
330
1F
100
AcDbEntity
  8
0
  6
Continuous
 62
     7
370
    25
100
AcDbLine
 10
6770.335354699
 20
4530.1951923077
 30
0.0
 11
6770.1623188922
 21
4530.1951923077
 31
0.0
  0
LINE
  5
171
330
1F
100
AcDbEntity
  8
0
  6
Continuous
 62
     7
370
    25
100
AcDbLine
 10
6765.9623188922
 20
4530.1951923077
 30
0.0
 11
6765.835354699
 21
4530.1951923077
 31
0.0
  0
LINE
  5
172
330
1F
100
AcDbEntity
  8
0
  6
Continuous
 62
     7
370
    25
100
AcDbLine
 10
6734.5963317126
 20
4538.831579915
 30
0.0
 11
6734.6532394
 21
4538.831579915
 31
0.0
  0
LINE
  5
173
330
1F
100
AcDbEntity
  8
0
  6
Continuous
 62
     7
370
    25
100
AcDbLine
 10
6734.7671814019
 20
4519.6588047004
 30
0.0
 11
6734.5963317126
 21
4519.6588047004
 31
0.0
  0
ARC
  5
174
330
1F
100
AcDbEntity
  8
0
  6
Continuous
 62
     7
370
    25
100
AcDbCircle
 10
6181.6630001208
 20
4579.2451923077
 30
0.0
 40
4.400000000000546
100
AcDbArc
 50
90.0
 51
180.0
  0
LINE
  5
175
330
1F
100
AcDbEntity
  8
0
  6
Continuous
 62
     7
370
    25
100
AcDbLine
 10
7322.8630001208
 20
4583.6451923077
 30
0.0
 11
6181.6629501208
 21
4583.6451923077
 31
0.0
  0
ARC
  5
176
330
1F
100
AcDbEntity
  8
0
  6
Continuous
 62
     7
370
    25
100
AcDbCircle
 10
7322.8630001208
 20
4579.2451923077
 30
0.0
 40
4.400000000000546
100
AcDbArc
 50
0.0
 51
90.0
  0
LINE
  5
177
330
1F
100
AcDbEntity
  8
0
  6
Continuous
 62
     7
370
    25
100
AcDbLine
 10
6177.2630001208
 20
4579.2451923077
 30
0.0
 11
6177.2630001208
 21
4479.2451923077
 31
0.0
  0
LINE
  5
178
330
1F
100
AcDbEntity
  8
0
  6
Continuous
 62
     7
370
    25
100
AcDbLine
 10
7327.2630001208
 20
4479.2451923077
 30
0.0
 11
7327.2630001208
 21
4579.2451923077
 31
0.0
  0
ARC
  5
179
330
1F
100
AcDbEntity
  8
0
  6
Continuous
 62
     7
370
    25
100
AcDbCircle
 10
7322.8630001208
 20
4479.2451923077
 30
0.0
 40
4.400000000000546
100
AcDbArc
 50
270.0
 51
0.0
  0
ARC
  5
17A
330
1F
100
AcDbEntity
  8
0
  6
Continuous
 62
     7
370
    25
100
AcDbCircle
 10
6181.6630001208
 20
4479.2451923077
 30
0.0
 40
4.400000000000546
100
AcDbArc
 50
180.0
 51
270.0
  0
LINE
  5
17B
330
1F
100
AcDbEntity
  8
0
  6
Continuous
 62
     7
370
    25
100
AcDbLine
 10
6181.6630001208
 20
4474.8451923077
 30
0.0
 11
7322.8630001208
 21
4474.8451923077
 31
0.0
  0
LINE
  5
17C
330
1F
100
AcDbEntity
  8
0
  6
Continuous
 62
     7
370
    25
100
AcDbLine
 10
6769.4623188922
 20
4529.2451923077
 30
0.0
 11
6769.4623188922
 21
4532.7451923077
 31
0.0
  0
ARC
  5
17D
330
1F
100
AcDbEntity
  8
0
  6
Continuous
 62
     7
370
    25
100
AcDbCircle
 10
6769.4623188922
 20
4532.0451923077
 30
0.0
 40
0.7000000000007276
100
AcDbArc
 50
0.0
 51
90.0
  0
LINE
  5
17E
330
1F
100
AcDbEntity
  8
0
  6
Continuous
 62
     7
370
    25
100
AcDbLine
 10
6770.1623188922
 20
4532.0451923077
 30
0.0
 11
6770.1623188922
 21
4529.2451923077
 31
0.0
  0
LINE
  5
17F
330
1F
100
AcDbEntity
  8
0
  6
Continuous
 62
     7
370
    25
100
AcDbLine
 10
6769.4623188922
 20
4529.2451923077
 30
0.0
 11
6770.1623188922
 21
4529.2451923077
 31
0.0
  0
LINE
  5
180
330
1F
100
AcDbEntity
  8
0
  6
Continuous
 62
     7
370
    25
100
AcDbLine
 10
6735.0630001208
 20
4532.7451923077
 30
0.0
 11
6735.0630001208
 21
4529.2451923077
 31
0.0
  0
LINE
  5
181
330
1F
100
AcDbEntity
  8
0
  6
Continuous
 62
     7
370
    25
100
AcDbLine
 10
6735.0630001208
 20
4529.2451923077
 30
0.0
 11
6734.3630001208
 21
4529.2451923077
 31
0.0
  0
LINE
  5
182
330
1F
100
AcDbEntity
  8
0
  6
Continuous
 62
     7
370
    25
100
AcDbLine
 10
6734.3630001208
 20
4529.2451923077
 30
0.0
 11
6734.3630001208
 21
4532.0451923077
 31
0.0
  0
ARC
  5
183
330
1F
100
AcDbEntity
  8
0
  6
Continuous
 62
     7
370
    25
100
AcDbCircle
 10
6735.0630001208
 20
4532.0451923077
 30
0.0
 40
0.7000000000007276
100
AcDbArc
 50
90.0
 51
180.0
  0
LINE
  5
184
330
1F
100
AcDbEntity
  8
0
  6
Continuous
 62
     7
370
    25
100
AcDbLine
 10
6766.6623188922
 20
4529.2451923077
 30
0.0
 11
6769.4623188922
 21
4529.2451923077
 31
0.0
  0
LINE
  5
185
330
1F
100
AcDbEntity
  8
0
  6
Continuous
 62
     7
370
    25
100
AcDbLine
 10
6766.6623188922
 20
4532.7451923077
 30
0.0
 11
6766.6623188922
 21
4529.2451923077
 31
0.0
  0
LINE
  5
186
330
1F
100
AcDbEntity
  8
0
  6
Continuous
 62
     7
370
    25
100
AcDbLine
 10
6766.6623188922
 20
4532.7451923077
 30
0.0
 11
6769.4623188922
 21
4532.7451923077
 31
0.0
  0
LINE
  5
187
330
1F
100
AcDbEntity
  8
0
  6
Continuous
 62
     7
370
    25
100
AcDbLine
 10
6735.0630001208
 20
4532.7451923077
 30
0.0
 11
6737.8630001208
 21
4532.7451923077
 31
0.0
  0
LINE
  5
188
330
1F
100
AcDbEntity
  8
0
  6
Continuous
 62
     7
370
    25
100
AcDbLine
 10
6737.8630001208
 20
4529.2451923077
 30
0.0
 11
6737.8630001208
 21
4532.7451923077
 31
0.0
  0
LINE
  5
189
330
1F
100
AcDbEntity
  8
0
  6
Continuous
 62
     7
370
    25
100
AcDbLine
 10
6735.0630001208
 20
4529.2451923077
 30
0.0
 11
6737.8630001208
 21
4529.2451923077
 31
0.0
  0
ARC
  5
18A
330
1F
100
AcDbEntity
  8
0
  6
Continuous
 62
     7
370
    25
100
AcDbCircle
 10
6737.8630001208
 20
4532.0451923077
 30
0.0
 40
0.7000000000007276
100
AcDbArc
 50
0.0
 51
90.0
  0
LINE
  5
18B
330
1F
100
AcDbEntity
  8
0
  6
Continuous
 62
     7
370
    25
100
AcDbLine
 10
6738.5630001208
 20
4532.0451923077
 30
0.0
 11
6738.5630001208
 21
4529.2451923077
 31
0.0
  0
LINE
  5
18C
330
1F
100
AcDbEntity
  8
0
  6
Continuous
 62
     7
370
    25
100
AcDbLine
 10
6738.5630001208
 20
4529.2451923077
 30
0.0
 11
6737.8630001208
 21
4529.2451923077
 31
0.0
  0
LINE
  5
18D
330
1F
100
AcDbEntity
  8
0
  6
Continuous
 62
     7
370
    25
100
AcDbLine
 10
6765.9623188922
 20
4529.2451923077
 30
0.0
 11
6765.9623188922
 21
4532.0451923077
 31
0.0
  0
ARC
  5
18E
330
1F
100
AcDbEntity
  8
0
  6
Continuous
 62
     7
370
    25
100
AcDbCircle
 10
6766.6623188922
 20
4532.0451923077
 30
0.0
 40
0.7000000000007276
100
AcDbArc
 50
90.0
 51
180.0
  0
LINE
  5
18F
330
1F
100
AcDbEntity
  8
0
  6
Continuous
 62
     7
370
    25
100
AcDbLine
 10
6766.6623188922
 20
4529.2451923077
 30
0.0
 11
6765.9623188922
 21
4529.2451923077
 31
0.0
  0
LINE
  5
190
330
1F
100
AcDbEntity
  8
0
  6
Continuous
 62
     7
370
    25
100
AcDbLine
 10
6735.0630001208
 20
4529.2451923077
 30
0.0
 11
6735.0630001208
 21
4525.7451923077
 31
0.0
  0
LINE
  5
191
330
1F
100
AcDbEntity
  8
0
  6
Continuous
 62
     7
370
    25
100
AcDbLine
 10
6737.8630001208
 20
4525.7451923077
 30
0.0
 11
6737.8630001208
 21
4529.2451923077
 31
0.0
  0
LINE
  5
192
330
1F
100
AcDbEntity
  8
0
  6
Continuous
 62
     7
370
    25
100
AcDbLine
 10
6737.8630001208
 20
4525.7451923077
 30
0.0
 11
6735.0630001208
 21
4525.7451923077
 31
0.0
  0
LINE
  5
193
330
1F
100
AcDbEntity
  8
0
  6
Continuous
 62
     7
370
    25
100
AcDbLine
 10
6769.4623188922
 20
4525.7451923077
 30
0.0
 11
6769.4623188922
 21
4529.2451923077
 31
0.0
  0
LINE
  5
194
330
1F
100
AcDbEntity
  8
0
  6
Continuous
 62
     7
370
    25
100
AcDbLine
 10
6770.1623188922
 20
4529.2451923077
 30
0.0
 11
6770.1623188922
 21
4526.4451923077
 31
0.0
  0
ARC
  5
195
330
1F
100
AcDbEntity
  8
0
  6
Continuous
 62
     7
370
    25
100
AcDbCircle
 10
6769.4623188922
 20
4526.4451923077
 30
0.0
 40
0.6999999999989086
100
AcDbArc
 50
270.0
 51
0.0
  0
LINE
  5
196
330
1F
100
AcDbEntity
  8
0
  6
Continuous
 62
     7
370
    25
100
AcDbLine
 10
6769.4623188922
 20
4525.7451923077
 30
0.0
 11
6766.6623188922
 21
4525.7451923077
 31
0.0
  0
LINE
  5
197
330
1F
100
AcDbEntity
  8
0
  6
Continuous
 62
     7
370
    25
100
AcDbLine
 10
6766.6623188922
 20
4529.2451923077
 30
0.0
 11
6766.6623188922
 21
4525.7451923077
 31
0.0
  0
LINE
  5
198
330
1F
100
AcDbEntity
  8
0
  6
Continuous
 62
     7
370
    25
100
AcDbLine
 10
6738.5630001208
 20
4529.2451923077
 30
0.0
 11
6738.5630001208
 21
4526.4451923077
 31
0.0
  0
ARC
  5
199
330
1F
100
AcDbEntity
  8
0
  6
Continuous
 62
     7
370
    25
100
AcDbCircle
 10
6737.8630001208
 20
4526.4451923077
 30
0.0
 40
0.6999999999998181
100
AcDbArc
 50
270.0
 51
0.0
  0
ARC
  5
19A
330
1F
100
AcDbEntity
  8
0
  6
Continuous
 62
     7
370
    25
100
AcDbCircle
 10
6735.0630001208
 20
4526.4451923077
 30
0.0
 40
0.6999999999998181
100
AcDbArc
 50
180.0
 51
270.0
  0
LINE
  5
19B
330
1F
100
AcDbEntity
  8
0
  6
Continuous
 62
     7
370
    25
100
AcDbLine
 10
6734.3630001208
 20
4526.4451923077
 30
0.0
 11
6734.3630001208
 21
4529.2451923077
 31
0.0
  0
ARC
  5
19C
330
1F
100
AcDbEntity
  8
0
  6
Continuous
 62
     7
370
    25
100
AcDbCircle
 10
6766.6623188922
 20
4526.4451923077
 30
0.0
 40
0.6999999999998181
100
AcDbArc
 50
180.0
 51
270.0
  0
LINE
  5
19D
330
1F
100
AcDbEntity
  8
0
  6
Continuous
 62
     7
370
    25
100
AcDbLine
 10
6765.9623188922
 20
4526.4451923077
 30
0.0
 11
6765.9623188922
 21
4529.2451923077
 31
0.0
  0
LINE
  5
19E
330
1F
100
AcDbEntity
  8
0
  6
Continuous
 62
     7
370
    25
100
AcDbLine
 10
6738.6906455426
 20
4530.1951923077
 30
0.0
 11
6738.6906455426
 21
4528.2951923077
 31
0.0
  0
LINE
  5
19F
330
1F
100
AcDbEntity
  8
0
  6
Continuous
 62
     7
370
    25
100
AcDbLine
 10
6765.835354699
 20
4530.1951923077
 30
0.0
 11
6765.835354699
 21
4528.2951923077
 31
0.0
  0
LINE
  5
1A0
330
1F
100
AcDbEntity
  8
0
  6
Continuous
 62
     7
370
    25
100
AcDbLine
 10
6734.3630001208
 20
4526.4451923077
 30
0.0
 11
6733.6630001208
 21
4526.4451923077
 31
0.0
  0
LINE
  5
1A1
330
1F
100
AcDbEntity
  8
0
  6
Continuous
 62
     7
370
    25
100
AcDbLine
 10
6770.1623188922
 20
4526.4451923077
 30
0.0
 11
6770.8623188922
 21
4526.4451923077
 31
0.0
  0
LINE
  5
1A2
330
1F
100
AcDbEntity
  8
0
  6
Continuous
 62
     7
370
    25
100
AcDbLine
 10
6769.4623188922
 20
4525.7451923077
 30
0.0
 11
6769.4623188922
 21
4525.0451923077
 31
0.0
  0
LINE
  5
1A3
330
1F
100
AcDbEntity
  8
0
  6
Continuous
 62
     7
370
    25
100
AcDbLine
 10
6769.4623188922
 20
4525.0451923077
 30
0.0
 11
6767.9899839211
 21
4525.0451923077
 31
0.0
  0
ARC
  5
1A4
330
1F
100
AcDbEntity
  8
0
  6
Continuous
 62
     7
370
    25
100
AcDbCircle
 10
6763.2023755714
 20
4526.4931367126
 30
0.0
 40
5.001773356495476
100
AcDbArc
 50
343.1728014173
 51
351.3999709409
  0
LINE
  5
1A5
330
1F
100
AcDbEntity
  8
0
  6
Continuous
 62
     7
370
    25
100
AcDbLine
 10
6735.0630001208
 20
4532.7451923077
 30
0.0
 11
6735.0630001208
 21
4533.4451923077
 31
0.0
  0
LINE
  5
1A6
330
1F
100
AcDbEntity
  8
0
  6
Continuous
 62
     7
370
    25
100
AcDbLine
 10
6735.0630001208
 20
4533.4451923077
 30
0.0
 11
6736.1130533676
 21
4533.4451923077
 31
0.0
  0
ARC
  5
1A7
330
1F
100
AcDbEntity
  8
0
  6
Continuous
 62
     7
370
    25
100
AcDbCircle
 10
6750.7884623241
 20
4530.4564078892
 30
0.0
 40
14.97666385885161
100
AcDbArc
 50
168.488608232
 51
171.2094187133
  0
LINE
  5
1A8
330
1F
100
AcDbEntity
  8
0
  6
Continuous
 62
     7
370
    25
100
AcDbLine
 10
6736.3761621795
 20
4525.0451923077
 30
0.0
 11
6735.0630001208
 21
4525.0451923077
 31
0.0
  0
LINE
  5
1A9
330
1F
100
AcDbEntity
  8
0
  6
Continuous
 62
     7
370
    25
100
AcDbLine
 10
6735.0630001208
 20
4525.7451923077
 30
0.0
 11
6735.0630001208
 21
4525.0451923077
 31
0.0
  0
ARC
  5
1AA
330
1F
100
AcDbEntity
  8
0
  6
Continuous
 62
     7
370
    25
100
AcDbCircle
 10
6750.6580045784
 20
4529.1717662142
 30
0.0
 40
14.86605645469939
100
AcDbArc
 50
193.3263042333
 51
196.1160409619
  0
LINE
  5
1AB
330
1F
100
AcDbEntity
  8
0
  6
Continuous
 62
     7
370
    25
100
AcDbLine
 10
6767.9899839211
 20
4533.4451923077
 30
0.0
 11
6769.4623188922
 21
4533.4451923077
 31
0.0
  0
LINE
  5
1AC
330
1F
100
AcDbEntity
  8
0
  6
Continuous
 62
     7
370
    25
100
AcDbLine
 10
6769.4623188922
 20
4532.7451923077
 30
0.0
 11
6769.4623188922
 21
4533.4451923077
 31
0.0
  0
ARC
  5
1AD
330
1F
100
AcDbEntity
  8
0
  6
Continuous
 62
     7
370
    25
100
AcDbCircle
 10
6761.8813571362
 20
4531.6992137002
 30
0.0
 40
6.353248184594005
100
AcDbArc
 50
9.476137532
 51
15.9510901099
  0
ARC
  5
1AE
330
1F
100
AcDbEntity
  8
0
  6
Continuous
 62
     7
370
    25
100
AcDbCircle
 10
6735.0630001208
 20
4526.4451923077
 30
0.0
 40
1.399999999999636
100
AcDbArc
 50
180.0
 51
270.0
  0
ARC
  5
1AF
330
1F
100
AcDbEntity
  8
0
  6
Continuous
 62
     7
370
    25
100
AcDbCircle
 10
6769.4623188922
 20
4526.4451923077
 30
0.0
 40
1.399999999998727
100
AcDbArc
 50
270.0
 51
0.0
  0
ARC
  5
1B0
330
1F
100
AcDbEntity
  8
0
  6
Continuous
 62
     7
370
    25
100
AcDbCircle
 10
6752.2630001208
 20
4529.2451923077
 30
0.0
 40
19.95000000000073
100
AcDbArc
 50
270.0
 51
1.3083677853
  0
ARC
  5
1B1
330
1F
100
AcDbEntity
  8
0
  6
Continuous
 62
     7
370
    25
100
AcDbCircle
 10
6752.2630001208
 20
4529.2451923077
 30
0.0
 40
19.95000000000073
100
AcDbArc
 50
178.6916322147
 51
270.0
  0
ARC
  5
1B2
330
1F
100
AcDbEntity
  8
0
  6
Continuous
 62
     7
370
    25
100
AcDbCircle
 10
6746.5143611947
 20
4542.1892605341
 30
0.0
 40
2.11496248815785
100
AcDbArc
 50
113.9466658893
 51
122.6187463668
  0
ARC
  5
1B3
330
1F
100
AcDbEntity
  8
0
  6
Continuous
 62
     7
370
    25
100
AcDbCircle
 10
6746.5143611947
 20
4516.3011240813
 30
0.0
 40
2.114962488157019
100
AcDbArc
 50
236.8243605215
 51
246.0533341107
  0
ARC
  5
1B4
330
1F
100
AcDbEntity
  8
0
  6
Continuous
 62
     7
370
    25
100
AcDbCircle
 10
6752.653303997
 20
4529.8557734463
 30
0.0
 40
16.97312689632893
100
AcDbArc
 50
196.4646299596
 51
244.5405854637
  0
ARC
  5
1B5
330
1F
100
AcDbEntity
  8
0
  6
Continuous
 62
     7
370
    25
100
AcDbCircle
 10
6751.3383771426
 20
4529.3857395325
 30
0.0
 40
15.75720917196204
100
AcDbArc
 50
112.2407026115
 51
165.0708087807
  0
ARC
  5
1B6
330
1F
100
AcDbEntity
  8
0
  6
Continuous
 62
     7
370
    25
100
AcDbCircle
 10
6752.2630001208
 20
4529.2451923077
 30
0.0
 40
16.27814545502542
100
AcDbArc
 50
14.95229104
 51
113.9466658893
  0
ARC
  5
1B7
330
1F
100
AcDbEntity
  8
0
  6
Continuous
 62
     7
370
    25
100
AcDbCircle
 10
6752.2630001208
 20
4529.2451923077
 30
0.0
 40
16.27814545502542
100
AcDbArc
 50
246.0533341107
 51
345.04770896
  0
LINE
  5
1B8
330
1F
100
AcDbEntity
  8
0
  6
Continuous
 62
     7
370
    25
100
AcDbLine
 10
6736.1130533674
 20
4533.445192307
 30
0.0
 11
6737.3900869754
 21
4533.4451923077
 31
0.0
  0
ARC
  5
1B9
330
1F
100
AcDbEntity
  8
0
  6
Continuous
 62
     7
370
    25
100
AcDbCircle
 10
6738.0038046002
 20
4533.3500661802
 30
0.0
 40
0.6210461360250207
100
AcDbArc
 50
171.1892765272
 51
256.8958738101
  0
ARC
  5
1BA
330
1F
100
AcDbEntity
  8
0
  6
Continuous
 62
     7
370
    25
100
AcDbCircle
 10
6738.0038046002
 20
4525.1403184352
 30
0.0
 40
0.6210461360269258
100
AcDbArc
 50
103.1041261899
 51
188.8107234726
  0
LINE
  5
1BB
330
1F
100
AcDbEntity
  8
0
  6
Continuous
 62
     7
370
    25
100
AcDbLine
 10
6737.3900869754
 20
4525.0451923077
 30
0.0
 11
6736.3761621795
 21
4525.0451923077
 31
0.0
  0
LINE
  5
1BC
330
1F
100
AcDbEntity
  8
0
  6
Continuous
 62
     7
370
    25
100
AcDbLine
 10
6738.7900869754
 20
4532.0451923077
 30
0.0
 11
6738.7900869754
 21
4526.4451923077
 31
0.0
  0
ARC
  5
1BD
330
1F
100
AcDbEntity
  8
0
  6
Continuous
 62
     7
370
    25
100
AcDbCircle
 10
6737.3900869754
 20
4532.0451923077
 30
0.0
 40
1.400000000000546
100
AcDbArc
 50
0.0
 51
90.0
  0
ELLIPSE
  5
1BE
330
1F
100
AcDbEntity
  8
0
  6
Continuous
 62
     7
370
    25
100
AcDbEllipse
 10
6750.0111835532
 20
4542.1892605341
 30
0.0
 11
7.431956459166031
 21
0.0
 31
0.0
210
0.0
220
0.0
230
1.0
 40
0.9998720779
 41
3.118775151141913
 42
4.187842385738605
  0
ELLIPSE
  5
1BF
330
1F
100
AcDbEntity
  8
0
  6
Continuous
 62
     7
370
    25
100
AcDbEllipse
 10
6742.5205969259
 20
4529.2451923077
 30
0.0
 11
7.524669661681401
 21
0.0
 31
0.0
210
0.0
220
0.0
230
1.0
 40
0.9998720779
 41
5.236935575030667
 42
7.329435039328457
  0
ELLIPSE
  5
1C0
330
1F
100
AcDbEntity
  8
0
  6
Continuous
 62
     7
370
    25
100
AcDbEllipse
 10
6750.0111835532
 20
4516.3011240813
 30
0.0
 11
7.431956459166031
 21
0.0
 31
0.0
210
0.0
220
0.0
230
1.0
 40
0.9998720779
 41
2.095342921440987
 42
3.159634691503427
  0
ARC
  5
1C1
330
1F
100
AcDbEntity
  8
0
  6
Continuous
 62
     7
370
    25
100
AcDbCircle
 10
6737.3900869754
 20
4526.4451923077
 30
0.0
 40
1.400000000000546
100
AcDbArc
 50
270.0
 51
0.0
  0
LINE
  5
1C2
330
1F
100
AcDbEntity
  8
0
  6
Continuous
 62
     7
370
    25
100
AcDbLine
 10
6738.7900869754
 20
4532.0451923077
 30
0.0
 11
6738.5630001208
 21
4532.0451923077
 31
0.0
  0
LINE
  5
1C3
330
1F
100
AcDbEntity
  8
0
  6
Continuous
 62
     7
370
    25
100
AcDbLine
 10
6738.7900869754
 20
4526.4451923077
 30
0.0
 11
6738.5630001208
 21
4526.4451923077
 31
0.0
  0
ARC
  5
1C4
330
1F
100
AcDbEntity
  8
0
  6
Continuous
 62
     7
370
    25
100
AcDbCircle
 10
6743.0842065042
 20
4537.351449198
 30
0.0
 40
3.579462494998743
100
AcDbArc
 50
333.5544399289
 51
50.6354567783
  0
ARC
  5
1C5
330
1F
100
AcDbEntity
  8
0
  6
Continuous
 62
     7
370
    25
100
AcDbCircle
 10
6746.6349043686
 20
4542.1893183634
 30
0.0
 40
2.434420996737859
100
AcDbArc
 50
143.8775101151
 51
238.2668902283
  0
ARC
  5
1C6
330
1F
100
AcDbEntity
  8
0
  6
Continuous
 62
     7
370
    25
100
AcDbCircle
 10
6743.0842065042
 20
4521.1389354174
 30
0.0
 40
3.579462494997929
100
AcDbArc
 50
309.3645432217
 51
26.4455600711
  0
ARC
  5
1C7
330
1F
100
AcDbEntity
  8
0
  6
Continuous
 62
     7
370
    25
100
AcDbCircle
 10
6746.6349554174
 20
4516.3010562472
 30
0.0
 40
2.434456355959309
100
AcDbArc
 50
121.7340077699
 51
216.0920467523
  0
ARC
  5
1C8
330
1F
100
AcDbEntity
  8
0
  6
Continuous
 62
     7
370
    25
100
AcDbCircle
 10
6739.1444723666
 20
4529.2451923077
 30
0.0
 40
12.52198860922701
100
AcDbArc
 50
299.7310219646
 51
60.2689780354
  0
CIRCLE
  5
1C9
330
1F
100
AcDbEntity
  8
0
  6
Continuous
 62
     7
370
    25
100
AcDbCircle
 10
6752.2630001208
 20
4529.2451923077
 30
0.0
 40
20.09999999999945
  0
ARC
  5
1CA
330
1F
100
AcDbEntity
  8
0
  6
Continuous
 62
     7
370
    25
100
AcDbCircle
 10
6752.2630001208
 20
4529.2451923077
 30
0.0
 40
25.55435605731853
100
AcDbArc
 50
4.3156322274
 51
85.6843677726
  0
ARC
  5
1CB
330
1F
100
AcDbEntity
  8
0
  6
Continuous
 62
     7
370
    25
100
AcDbCircle
 10
6779.2630001208
 20
4529.2451923077
 30
0.0
 40
2.449999999997672
100
AcDbArc
 50
128.289306363
 51
231.710693637
  0
ARC
  5
1CC
330
1F
100
AcDbEntity
  8
0
  6
Continuous
 62
     7
370
    25
100
AcDbCircle
 10
6752.2630001208
 20
4529.2451923077
 30
0.0
 40
25.55435605731859
100
AcDbArc
 50
274.3156322274
 51
355.6843677726
  0
ARC
  5
1CD
330
1F
100
AcDbEntity
  8
0
  6
Continuous
 62
     7
370
    25
100
AcDbCircle
 10
6752.2630001208
 20
4502.2451923077
 30
0.0
 40
2.450000000002744
100
AcDbArc
 50
38.2893063632
 51
141.7106936368
  0
ARC
  5
1CE
330
1F
100
AcDbEntity
  8
0
  6
Continuous
 62
     7
370
    25
100
AcDbCircle
 10
6752.2630001208
 20
4529.2451923077
 30
0.0
 40
25.55435605731768
100
AcDbArc
 50
184.3156322274
 51
265.6843677726
  0
ARC
  5
1CF
330
1F
100
AcDbEntity
  8
0
  6
Continuous
 62
     7
370
    25
100
AcDbCircle
 10
6725.2630001208
 20
4529.2451923077
 30
0.0
 40
2.449999999999926
100
AcDbArc
 50
308.2893063631
 51
51.7106936369
  0
ARC
  5
1D0
330
1F
100
AcDbEntity
  8
0
  6
Continuous
 62
     7
370
    25
100
AcDbCircle
 10
6752.2630001208
 20
4529.2451923077
 30
0.0
 40
25.55435605731762
100
AcDbArc
 50
94.3156322274
 51
175.6843677726
  0
ARC
  5
1D1
330
1F
100
AcDbEntity
  8
0
  6
Continuous
 62
     7
370
    25
100
AcDbCircle
 10
6752.2630001208
 20
4556.2451923077
 30
0.0
 40
2.45000000000049
100
AcDbArc
 50
218.2893063631
 51
321.7106936369
  0
CIRCLE
  5
1D2
330
1F
100
AcDbEntity
  8
0
  6
Continuous
 62
     7
370
    25
100
AcDbCircle
 10
6752.2630001208
 20
4529.2451923077
 30
0.0
 40
34.89999999999964
  0
ARC
  5
1D3
330
1F
100
AcDbEntity
  8
0
  6
Continuous
 62
     7
370
    25
100
AcDbCircle
 10
6752.2630001208
 20
4502.2451923077
 30
0.0
 40
2.45000000000049
100
AcDbArc
 50
141.7106936369
 51
38.2893063631
  0
ARC
  5
1D4
330
1F
100
AcDbEntity
  8
0
  6
Continuous
 62
     7
370
    25
100
AcDbCircle
 10
6779.2630001208
 20
4529.2451923077
 30
0.0
 40
2.45000000000049
100
AcDbArc
 50
231.7106936369
 51
128.2893063631
  0
ARC
  5
1D5
330
1F
100
AcDbEntity
  8
0
  6
Continuous
 62
     7
370
    25
100
AcDbCircle
 10
6725.2630001208
 20
4529.2451923077
 30
0.0
 40
2.45000000000049
100
AcDbArc
 50
51.7106936369
 51
308.2893063631
  0
ARC
  5
1D6
330
1F
100
AcDbEntity
  8
0
  6
Continuous
 62
     7
370
    25
100
AcDbCircle
 10
6752.2630001208
 20
4556.2451923077
 30
0.0
 40
2.45000000000049
100
AcDbArc
 50
321.7106936369
 51
218.2893063631
  0
ELLIPSE
  5
1D7
330
1F
100
AcDbEntity
  8
0
  6
Continuous
 62
     7
370
    25
100
AcDbEllipse
 10
6683.6806116509
 20
4521.6925663057
 30
0.0
 11
198.0000000000009
 21
0.0
 31
0.0
210
0.0
220
0.0
230
1.0
 40
0.0261859216
 41
4.982746857090194
 42
4.983749892019328
  0
LINE
  5
1D8
330
1F
100
AcDbEntity
  8
0
  6
Continuous
 62
     7
370
    25
100
AcDbLine
 10
6744.3684738714
 20
4541.0075203078
 30
0.0
 11
6745.7818259331
 21
4542.4208723695
 31
0.0
  0
LINE
  5
1D9
330
1F
100
AcDbEntity
  8
0
  6
Continuous
 62
     7
370
    25
100
AcDbLine
 10
6745.7818259331
 20
4542.4208723695
 30
0.0
 11
6749.9386801826
 21
4538.26401812
 31
0.0
  0
ARC
  5
1DA
330
1F
100
AcDbEntity
  8
0
  6
Continuous
 62
     7
370
    25
100
AcDbCircle
 10
6744.2630001208
 20
4532.5883380582
 30
0.0
 40
8.026623719119925
100
AcDbArc
 50
0.0
 51
45.0
  0
LINE
  5
1DB
330
1F
100
AcDbEntity
  8
0
  6
Continuous
 62
     7
370
    25
100
AcDbLine
 10
6752.2896238399
 20
4532.5883380582
 30
0.0
 11
6752.2896238399
 21
4525.9020465572
 31
0.0
  0
ARC
  5
1DC
330
1F
100
AcDbEntity
  8
0
  6
Continuous
 62
     7
370
    25
100
AcDbCircle
 10
6744.2630001208
 20
4525.9020465572
 30
0.0
 40
8.026623719119925
100
AcDbArc
 50
315.0
 51
0.0
  0
LINE
  5
1DD
330
1F
100
AcDbEntity
  8
0
  6
Continuous
 62
     7
370
    25
100
AcDbLine
 10
6745.7818259331
 20
4516.0695122459
 30
0.0
 11
6744.3684738714
 21
4517.4828643075
 31
0.0
  0
LINE
  5
1DE
330
1F
100
AcDbEntity
  8
0
  6
Continuous
 62
     7
370
    25
100
AcDbLine
 10
6749.9386801826
 20
4520.2263664954
 30
0.0
 11
6745.7818259331
 21
4516.0695122459
 31
0.0
  0
ARC
  5
1DF
330
1F
100
AcDbEntity
  8
0
  6
Continuous
 62
     7
370
    25
100
AcDbCircle
 10
6199.9630001208
 20
4589.2451923077
 30
0.0
 40
4.000000000000389
100
AcDbArc
 50
270.0
 51
25.5142085468
  0
ARC
  5
1E0
330
1F
100
AcDbEntity
  8
0
  6
Continuous
 62
     7
370
    25
100
AcDbCircle
 10
6199.9630001208
 20
4589.2451923077
 30
0.0
 40
4.000000000000518
100
AcDbArc
 50
154.4857914581
 51
270.0
  0
CIRCLE
  5
1E1
330
1F
100
AcDbEntity
  8
0
  6
Continuous
 62
     7
370
    25
100
AcDbCircle
 10
7304.5630001208
 20
4442.2451923077
 30
0.0
 40
3.999999999999091
  0
CIRCLE
  5
1E2
330
1F
100
AcDbEntity
  8
0
  6
Continuous
 62
     7
370
    25
100
AcDbCircle
 10
7304.5630001208
 20
4442.2451923077
 30
0.0
 40
5.0
  0
CIRCLE
  5
1E3
330
1F
100
AcDbEntity
  8
0
  6
Continuous
 62
     7
370
    25
100
AcDbCircle
 10
6199.9630001208
 20
4442.2451923077
 30
0.0
 40
3.999999999999091
  0
CIRCLE
  5
1E4
330
1F
100
AcDbEntity
  8
0
  6
Continuous
 62
     7
370
    25
100
AcDbCircle
 10
6199.9630001208
 20
4442.2451923077
 30
0.0
 40
4.999999999999091
  0
LINE
  5
1E5
330
1F
100
AcDbEntity
  8
0
  6
Continuous
 62
     7
370
    25
100
AcDbLine
 10
6185.9630001208
 20
4427.2451923077
 30
0.0
 11
6235.9630001208
 21
4427.2451923077
 31
0.0
  0
CIRCLE
  5
1E6
330
1F
100
AcDbEntity
  8
0
  6
Continuous
 62
     7
370
    25
100
AcDbCircle
 10
6221.9630001208
 20
4442.2451923077
 30
0.0
 40
2.749999999999091
  0
LINE
  5
1E7
330
1F
100
AcDbEntity
  8
0
  6
Continuous
 62
     7
370
    25
100
AcDbLine
 10
6235.9630001208
 20
4457.2451923077
 30
0.0
 11
6209.9630001208
 21
4457.2451923077
 31
0.0
  0
LINE
  5
1E8
330
1F
100
AcDbEntity
  8
0
  6
Continuous
 62
     7
370
    25
100
AcDbLine
 10
6189.9630001208
 20
4457.2451923077
 30
0.0
 11
6185.9630001208
 21
4457.2451923077
 31
0.0
  0
LINE
  5
1E9
330
1F
100
AcDbEntity
  8
0
  6
Continuous
 62
     7
370
    25
100
AcDbLine
 10
6185.9630001208
 20
4457.2451923077
 30
0.0
 11
6185.9630001208
 21
4427.2451923077
 31
0.0
  0
LINE
  5
1EA
330
1F
100
AcDbEntity
  8
0
  6
Continuous
 62
     7
370
    25
100
AcDbLine
 10
6235.9630001208
 20
4427.2451923077
 30
0.0
 11
6235.9630001208
 21
4457.2451923077
 31
0.0
  0
ARC
  5
1EB
330
1F
100
AcDbEntity
  8
0
  6
Continuous
 62
     7
370
    25
100
AcDbCircle
 10
7304.5630001208
 20
4589.2451923077
 30
0.0
 40
4.000000000000518
100
AcDbArc
 50
270.0
 51
25.5142085419
  0
ARC
  5
1EC
330
1F
100
AcDbEntity
  8
0
  6
Continuous
 62
     7
370
    25
100
AcDbCircle
 10
7304.5630001208
 20
4589.2451923077
 30
0.0
 40
4.000000000000389
100
AcDbArc
 50
154.4857914532
 51
270.0
  0
LINE
  5
1ED
330
1F
100
AcDbEntity
  8
0
  6
Continuous
 62
     7
370
    25
100
AcDbLine
 10
7318.5630001208
 20
4600.4451923077
 30
0.0
 11
7318.5630001208
 21
4604.2451923077
 31
0.0
  0
LINE
  5
1EE
330
1F
100
AcDbEntity
  8
0
  6
Continuous
 62
     7
370
    25
100
AcDbLine
 10
7268.5630001208
 20
4604.2451923077
 30
0.0
 11
7268.5630001208
 21
4600.4451923077
 31
0.0
  0
LINE
  5
1EF
330
1F
100
AcDbEntity
  8
0
  6
Continuous
 62
     7
370
    25
100
AcDbLine
 10
7318.5630001208
 20
4604.2451923077
 30
0.0
 11
7268.5630001208
 21
4604.2451923077
 31
0.0
  0
ARC
  5
1F0
330
1F
100
AcDbEntity
  8
0
  6
Continuous
 62
     7
370
    25
100
AcDbCircle
 10
6181.6630001208
 20
4579.2451923077
 30
0.0
 40
1.0
100
AcDbArc
 50
90.0
 51
180.0
  0
LINE
  5
1F1
330
1F
100
AcDbEntity
  8
0
  6
Continuous
 62
     7
370
    25
100
AcDbLine
 10
7322.8630001208
 20
4580.2451923077
 30
0.0
 11
6181.6630001208
 21
4580.2451923077
 31
0.0
  0
ARC
  5
1F2
330
1F
100
AcDbEntity
  8
0
  6
Continuous
 62
     7
370
    25
100
AcDbCircle
 10
7322.8630001208
 20
4579.2451923077
 30
0.0
 40
1.0
100
AcDbArc
 50
0.0
 51
90.0
  0
LINE
  5
1F3
330
1F
100
AcDbEntity
  8
0
  6
Continuous
 62
     7
370
    25
100
AcDbLine
 10
6180.6630001208
 20
4479.2451923077
 30
0.0
 11
6180.6630001208
 21
4579.2451923077
 31
0.0
  0
LINE
  5
1F4
330
1F
100
AcDbEntity
  8
0
  6
Continuous
 62
     7
370
    25
100
AcDbLine
 10
7323.8630001208
 20
4579.2451923077
 30
0.0
 11
7323.8630001208
 21
4479.2451923077
 31
0.0
  0
ARC
  5
1F5
330
1F
100
AcDbEntity
  8
0
  6
Continuous
 62
     7
370
    25
100
AcDbCircle
 10
7322.8630001208
 20
4479.2451923077
 30
0.0
 40
1.0
100
AcDbArc
 50
270.0
 51
0.0
  0
ARC
  5
1F6
330
1F
100
AcDbEntity
  8
0
  6
Continuous
 62
     7
370
    25
100
AcDbCircle
 10
6181.6630001208
 20
4479.2451923077
 30
0.0
 40
1.0
100
AcDbArc
 50
180.0000000001
 51
270.0
  0
LINE
  5
1F7
330
1F
100
AcDbEntity
  8
0
  6
Continuous
 62
     7
370
    25
100
AcDbLine
 10
7322.8630001208
 20
4478.2451923077
 30
0.0
 11
6181.6630001208
 21
4478.2451923077
 31
0.0
  0
CIRCLE
  5
1F8
330
1F
100
AcDbEntity
  8
0
  6
Continuous
 62
     7
370
    25
100
AcDbCircle
 10
6752.2630001208
 20
4529.2451923077
 30
0.0
 40
40.0
  0
CIRCLE
  5
1F9
330
1F
100
AcDbEntity
  8
0
  6
Continuous
 62
     7
370
    25
100
AcDbCircle
 10
6752.2630001208
 20
4529.2451923077
 30
0.0
 40
35.20108727315801
  0
LINE
  5
1FA
330
1F
100
AcDbEntity
  8
0
  6
Continuous
 62
     7
370
    25
100
AcDbLine
 10
7354.5630001208
 20
4600.4451923077
 30
0.0
 11
6149.9630001208
 21
4600.4451923077
 31
0.0
  0
LINE
  5
1FB
330
1F
100
AcDbEntity
  8
0
  6
Continuous
 62
     7
370
    25
100
AcDbLine
 10
7354.5630001208
 20
4458.0451923077
 30
0.0
 11
7354.5630001208
 21
4600.4451923077
 31
0.0
  0
LINE
  5
1FC
330
1F
100
AcDbEntity
  8
0
  6
Continuous
 62
     7
370
    25
100
AcDbLine
 10
6149.9630001208
 20
4458.0451923077
 30
0.0
 11
7354.5630001208
 21
4458.0451923077
 31
0.0
  0
LINE
  5
1FD
330
1F
100
AcDbEntity
  8
0
  6
Continuous
 62
     7
370
    25
100
AcDbLine
 10
6149.9630001208
 20
4600.4451923077
 30
0.0
 11
6149.9630001208
 21
4458.0451923077
 31
0.0
  0
CIRCLE
  5
1FE
330
1F
100
AcDbEntity
  8
0
  6
Continuous
 62
     7
370
    25
100
AcDbCircle
 10
7304.5630001208
 20
4588.7251381932
 30
0.0
 40
4.25
  0
CIRCLE
  5
1FF
330
1F
100
AcDbEntity
  8
0
  6
Continuous
 62
     7
370
    25
100
AcDbCircle
 10
6199.9630001208
 20
4588.7251381932
 30
0.0
 40
4.25
  0
LINE
  5
200
330
1F
100
AcDbEntity
  8
0
  6
Continuous
 62
     7
370
    25
100
AcDbLine
 10
7294.5630001208
 20
4455.2647088564
 30
0.0
 11
7314.5630001208
 21
4455.2647088564
 31
0.0
  0
LINE
  5
201
330
1F
100
AcDbEntity
  8
0
  6
Continuous
 62
     7
370
    25
100
AcDbLine
 10
7294.5630001208
 20
4458.0451923077
 30
0.0
 11
7294.5630001208
 21
4455.2647088564
 31
0.0
  0
LINE
  5
202
330
1F
100
AcDbEntity
  8
0
  6
Continuous
 62
     7
370
    25
100
AcDbLine
 10
7314.5630001208
 20
4458.0451923077
 30
0.0
 11
7314.5630001208
 21
4455.2647088564
 31
0.0
  0
LINE
  5
203
330
1F
100
AcDbEntity
  8
0
  6
Continuous
 62
     7
370
    25
100
AcDbLine
 10
6209.9630001208
 20
4455.2647088564
 30
0.0
 11
6189.9630001208
 21
4455.2647088564
 31
0.0
  0
LINE
  5
204
330
1F
100
AcDbEntity
  8
0
  6
Continuous
 62
     7
370
    25
100
AcDbLine
 10
6189.9630001208
 20
4458.0451923077
 30
0.0
 11
6189.9630001208
 21
4455.2647088564
 31
0.0
  0
LINE
  5
205
330
1F
100
AcDbEntity
  8
0
  6
Continuous
 62
     7
370
    25
100
AcDbLine
 10
6209.9630001208
 20
4458.0451923077
 30
0.0
 11
6209.9630001208
 21
4455.2647088564
 31
0.0
  0
LINE
  5
206
330
1F
100
AcDbEntity
  8
0
  6
Continuous
 62
     7
370
    25
100
AcDbLine
 10
7304.5630001208
 20
4452.0601468839
 30
0.0
 11
7296.0630001208
 21
4447.1526695958
 31
0.0
  0
LINE
  5
207
330
1F
100
AcDbEntity
  8
0
  6
Continuous
 62
     7
370
    25
100
AcDbLine
 10
7313.0630001208
 20
4447.1526695958
 30
0.0
 11
7304.5630001208
 21
4452.0601468839
 31
0.0
  0
LINE
  5
208
330
1F
100
AcDbEntity
  8
0
  6
Continuous
 62
     7
370
    25
100
AcDbLine
 10
7313.0630001208
 20
4437.3377150196
 30
0.0
 11
7313.0630001208
 21
4447.1526695958
 31
0.0
  0
LINE
  5
209
330
1F
100
AcDbEntity
  8
0
  6
Continuous
 62
     7
370
    25
100
AcDbLine
 10
7304.5630001208
 20
4432.4302377315
 30
0.0
 11
7313.0630001208
 21
4437.3377150196
 31
0.0
  0
LINE
  5
20A
330
1F
100
AcDbEntity
  8
0
  6
Continuous
 62
     7
370
    25
100
AcDbLine
 10
7296.0630001208
 20
4437.3377150196
 30
0.0
 11
7304.5630001208
 21
4432.4302377315
 31
0.0
  0
LINE
  5
20B
330
1F
100
AcDbEntity
  8
0
  6
Continuous
 62
     7
370
    25
100
AcDbLine
 10
7296.0630001208
 20
4447.1526695958
 30
0.0
 11
7296.0630001208
 21
4437.3377150196
 31
0.0
  0
LINE
  5
20C
330
1F
100
AcDbEntity
  8
0
  6
Continuous
 62
     7
370
    25
100
AcDbLine
 10
6208.4630001208
 20
4437.3377150196
 30
0.0
 11
6199.9630001208
 21
4432.4302377315
 31
0.0
  0
LINE
  5
20D
330
1F
100
AcDbEntity
  8
0
  6
Continuous
 62
     7
370
    25
100
AcDbLine
 10
6199.9630001208
 20
4432.4302377315
 30
0.0
 11
6191.4630001208
 21
4437.3377150196
 31
0.0
  0
LINE
  5
20E
330
1F
100
AcDbEntity
  8
0
  6
Continuous
 62
     7
370
    25
100
AcDbLine
 10
6191.4630001208
 20
4437.3377150196
 30
0.0
 11
6191.4630001208
 21
4447.1526695958
 31
0.0
  0
LINE
  5
20F
330
1F
100
AcDbEntity
  8
0
  6
Continuous
 62
     7
370
    25
100
AcDbLine
 10
6191.4630001208
 20
4447.1526695958
 30
0.0
 11
6199.9630001208
 21
4452.0601468839
 31
0.0
  0
LINE
  5
210
330
1F
100
AcDbEntity
  8
0
  6
Continuous
 62
     7
370
    25
100
AcDbLine
 10
6199.9630001208
 20
4452.0601468839
 30
0.0
 11
6208.4630001208
 21
4447.1526695958
 31
0.0
  0
LINE
  5
211
330
1F
100
AcDbEntity
  8
0
  6
Continuous
 62
     7
370
    25
100
AcDbLine
 10
6208.4630001208
 20
4447.1526695958
 30
0.0
 11
6208.4630001208
 21
4437.3377150196
 31
0.0
  0
LINE
  5
212
330
1F
100
AcDbEntity
  8
0
  6
Continuous
 62
     7
370
    25
100
AcDbLine
 10
7294.5630001208
 20
4454.6034002949
 30
0.0
 11
7314.5630001208
 21
4454.6034002949
 31
0.0
  0
LINE
  5
213
330
1F
100
AcDbEntity
  8
0
  6
Continuous
 62
     7
370
    25
100
AcDbLine
 10
7294.5630001208
 20
4455.2647088564
 30
0.0
 11
7294.5630001208
 21
4454.6034002949
 31
0.0
  0
LINE
  5
214
330
1F
100
AcDbEntity
  8
0
  6
Continuous
 62
     7
370
    25
100
AcDbLine
 10
7314.5630001208
 20
4455.2647088564
 30
0.0
 11
7314.5630001208
 21
4454.6034002949
 31
0.0
  0
LINE
  5
215
330
1F
100
AcDbEntity
  8
0
  6
Continuous
 62
     7
370
    25
100
AcDbLine
 10
6209.9630001208
 20
4454.6034002949
 30
0.0
 11
6189.9630001208
 21
4454.6034002949
 31
0.0
  0
LINE
  5
216
330
1F
100
AcDbEntity
  8
0
  6
Continuous
 62
     7
370
    25
100
AcDbLine
 10
6189.9630001208
 20
4455.2647088564
 30
0.0
 11
6189.9630001208
 21
4454.6034002949
 31
0.0
  0
LINE
  5
217
330
1F
100
AcDbEntity
  8
0
  6
Continuous
 62
     7
370
    25
100
AcDbLine
 10
6209.9630001208
 20
4455.2647088564
 30
0.0
 11
6209.9630001208
 21
4454.6034002949
 31
0.0
  0
LINE
  5
218
330
1F
100
AcDbEntity
  8
0
  6
Continuous
 62
     7
370
    25
100
AcDbLine
 10
6209.9630001208
 20
4433.6034002949
 30
0.0
 11
6201.9949772863
 21
4433.6034002949
 31
0.0
  0
LINE
  5
219
330
1F
100
AcDbEntity
  8
0
  6
Continuous
 62
     7
370
    25
100
AcDbLine
 10
6197.9310229553
 20
4433.6034002949
 30
0.0
 11
6189.9630001208
 21
4433.6034002949
 31
0.0
  0
LINE
  5
21A
330
1F
100
AcDbEntity
  8
0
  6
Continuous
 62
     7
370
    25
100
AcDbLine
 10
6189.9630001208
 20
4454.6034002949
 30
0.0
 11
6189.9630001208
 21
4433.6034002949
 31
0.0
  0
LINE
  5
21B
330
1F
100
AcDbEntity
  8
0
  6
Continuous
 62
     7
370
    25
100
AcDbLine
 10
6209.9630001208
 20
4454.6034002949
 30
0.0
 11
6209.9630001208
 21
4433.6034002949
 31
0.0
  0
LINE
  5
21C
330
1F
100
AcDbEntity
  8
0
  6
Continuous
 62
     7
370
    25
100
AcDbLine
 10
7306.5949772863
 20
4433.6034002949
 30
0.0
 11
7314.5630001208
 21
4433.6034002949
 31
0.0
  0
LINE
  5
21D
330
1F
100
AcDbEntity
  8
0
  6
Continuous
 62
     7
370
    25
100
AcDbLine
 10
7294.5630001208
 20
4433.6034002949
 30
0.0
 11
7302.5310229553
 21
4433.6034002949
 31
0.0
  0
LINE
  5
21E
330
1F
100
AcDbEntity
  8
0
  6
Continuous
 62
     7
370
    25
100
AcDbLine
 10
7294.5630001208
 20
4454.6034002949
 30
0.0
 11
7294.5630001208
 21
4433.6034002949
 31
0.0
  0
LINE
  5
21F
330
1F
100
AcDbEntity
  8
0
  6
Continuous
 62
     7
370
    25
100
AcDbLine
 10
7314.5630001208
 20
4454.6034002949
 30
0.0
 11
7314.5630001208
 21
4433.6034002949
 31
0.0
  0
LINE
  5
220
330
1F
100
AcDbEntity
  8
0
  6
Continuous
 62
     8
370
    25
100
AcDbLine
 10
6734.1407219111
 20
4530.2479547386
 30
0.0
 11
6732.2436239167
 21
4530.3529271143
 31
0.0
  0
LINE
  5
221
330
1F
100
AcDbEntity
  8
0
  6
Continuous
 62
     8
370
    25
100
AcDbLine
 10
6770.3852783304
 20
4530.2479547386
 30
0.0
 11
6772.2823763248
 21
4530.3529271143
 31
0.0
  0
LINE
  5
222
330
1F
100
AcDbEntity
  8
0
  6
Continuous
 62
     8
370
    25
100
AcDbLine
 10
6734.1906455426
 20
4530.1951923077
 30
0.0
 11
6734.1906455426
 21
4528.2951923077
 31
0.0
  0
LINE
  5
223
330
1F
100
AcDbEntity
  8
0
  6
Continuous
 62
     8
370
    25
100
AcDbLine
 10
6770.335354699
 20
4530.1951923077
 30
0.0
 11
6770.335354699
 21
4528.2951923077
 31
0.0
  0
LINE
  5
224
330
1F
100
AcDbEntity
  8
0
  6
Continuous
 62
     8
370
    25
100
AcDbLine
 10
6733.6630001208
 20
4526.4451923077
 30
0.0
 11
6733.6630001208
 21
4528.3679362493
 31
0.0
  0
LINE
  5
225
330
1F
100
AcDbEntity
  8
0
  6
Continuous
 62
     8
370
    25
100
AcDbLine
 10
6734.3630001208
 20
4532.0451923077
 30
0.0
 11
6734.3302786318
 21
4532.0451923077
 31
0.0
  0
LINE
  5
226
330
1F
100
AcDbEntity
  8
0
  6
Continuous
 62
     8
370
    25
100
AcDbLine
 10
6770.1623188922
 20
4532.0451923077
 30
0.0
 11
6770.1957216097
 21
4532.0451923077
 31
0.0
  0
LINE
  5
227
330
1F
100
AcDbEntity
  8
0
  6
Continuous
 62
     8
370
    25
100
AcDbLine
 10
6770.8623188922
 20
4528.3677449079
 30
0.0
 11
6770.8623188922
 21
4526.4451923077
 31
0.0
  0
LWPOLYLINE
  5
228
330
1F
100
AcDbEntity
  8
0
  6
Continuous
 62
     8
370
    25
100
AcDbPolyline
 90
        3
 70
   128
 43
0.0
 10
6769.9401492169
 20
4533.3611247454
 10
6769.735445343
 20
4533.4182917002
 10
6769.4623188922
 20
4533.4451923077
  0
LWPOLYLINE
  5
229
330
1F
100
AcDbEntity
  8
0
  6
Continuous
 62
     8
370
    25
100
AcDbPolyline
 90
        3
 70
   128
 43
0.0
 10
6735.0630001208
 20
4533.4451923077
 10
6734.7898736699
 20
4533.4182917002
 10
6734.5859138812
 20
4533.3613946934
  0
LINE
  5
22A
330
1F
100
AcDbEntity
  8
0
  6
Continuous
 62
     8
370
    25
100
AcDbLine
 10
6735.5572827114
 20
4540.3321894593
 30
0.0
 11
6735.4973061548
 21
4540.3321894593
 31
0.0
  0
LINE
  5
22B
330
1F
100
AcDbEntity
  8
0
  6
Continuous
 62
     8
370
    25
100
AcDbLine
 10
6735.4973061548
 20
4518.1581951561
 30
0.0
 11
6735.6774342829
 21
4518.1581951561
 31
0.0
  0
LINE
  5
22C
330
1F
100
AcDbEntity
  8
0
  6
Continuous
 62
     8
370
    25
100
AcDbLine
 10
6735.0505835259
 20
4519.1588047004
 30
0.0
 11
6734.8769486704
 21
4519.1588047004
 31
0.0
  0
LINE
  5
22D
330
1F
100
AcDbEntity
  8
0
  6
Continuous
 62
     8
370
    25
100
AcDbLine
 10
6734.8769486704
 20
4539.331579915
 30
0.0
 11
6734.9347779086
 21
4539.331579915
 31
0.0
  0
LINE
  5
22E
330
1F
100
AcDbEntity
  8
0
  6
Continuous
 62
     8
370
    25
100
AcDbLine
 10
6735.838671964
 20
4540.8318848728
 30
0.0
 11
6735.8998996993
 21
4540.8318848728
 31
0.0
  0
LINE
  5
22F
330
1F
100
AcDbEntity
  8
0
  6
Continuous
 62
     8
370
    25
100
AcDbLine
 10
6736.0225858587
 20
4517.6584997426
 30
0.0
 11
6735.838671964
 21
4517.6584997426
 31
0.0
  0
LINE
  5
230
330
1F
100
AcDbEntity
  8
0
  6
Continuous
 62
     8
370
    25
100
AcDbLine
 10
6737.4643519034
 20
4542.7730343728
 30
0.0
 11
6737.3966794912
 21
4542.7730343728
 31
0.0
  0
LINE
  5
231
330
1F
100
AcDbEntity
  8
0
  6
Continuous
 62
     8
370
    25
100
AcDbLine
 10
6745.4591272698
 20
4539.9168669094
 30
0.0
 11
6744.3684738714
 21
4541.0075203078
 31
0.0
  0
LINE
  5
232
330
1F
100
AcDbEntity
  8
0
  6
Continuous
 62
     8
370
    25
100
AcDbLine
 10
6744.3684738714
 20
4517.4828643075
 30
0.0
 11
6745.4504863878
 21
4518.5648768239
 31
0.0
  0
LINE
  5
233
330
1F
100
AcDbEntity
  8
0
  6
Continuous
 62
     8
370
    25
100
AcDbLine
 10
6737.3966794912
 20
4515.7173502426
 30
0.0
 11
6737.6001221951
 21
4515.7173502426
 31
0.0
  0
LWPOLYLINE
  5
234
330
1F
100
AcDbEntity
  8
0
  6
Continuous
 62
     8
370
    25
100
AcDbPolyline
 90
        3
 70
   128
 43
0.0
 10
6744.5726464028
 20
4543.4143047921
 10
6745.1981820532
 20
4542.9498563478
 10
6745.7818259331
 20
4542.4208723695
  0
LINE
  5
235
330
1F
100
AcDbEntity
  8
0
  6
Continuous
 62
     8
370
    25
100
AcDbLine
 10
6739.4984415352
 20
4544.7718160268
 30
0.0
 11
6739.5773209555
 21
4544.7718160268
 31
0.0
  0
LINE
  5
236
330
1F
100
AcDbEntity
  8
0
  6
Continuous
 62
     8
370
    25
100
AcDbLine
 10
6748.8134008358
 20
4537.1387387732
 30
0.0
 11
6749.9386801826
 21
4538.26401812
 31
0.0
  0
LINE
  5
237
330
1F
100
AcDbEntity
  8
0
  6
Continuous
 62
     8
370
    25
100
AcDbLine
 10
6752.2896238399
 20
4532.5883380582
 30
0.0
 11
6751.1511756362
 21
4532.5883380582
 31
0.0
  0
LINE
  5
238
330
1F
100
AcDbEntity
  8
0
  6
Continuous
 62
     8
370
    25
100
AcDbLine
 10
6752.2896238399
 20
4525.9020465572
 30
0.0
 11
6751.1372275025
 21
4525.9020465572
 31
0.0
  0
LINE
  5
239
330
1F
100
AcDbEntity
  8
0
  6
Continuous
 62
     8
370
    25
100
AcDbLine
 10
6749.9386801826
 20
4520.2263664954
 30
0.0
 11
6748.7330709933
 21
4521.4319756846
 31
0.0
  0
ARC
  5
23A
330
1F
100
AcDbEntity
  8
0
  6
Continuous
 62
     8
370
    25
100
AcDbCircle
 10
6740.1061458713
 20
4521.7451923077
 30
0.0
 40
8.02662371911963
100
AcDbArc
 50
303.715507283
 51
315.0
  0
LINE
  5
23B
330
1F
100
AcDbEntity
  8
0
  6
Continuous
 62
     8
370
    25
100
AcDbLine
 10
6739.7359711081
 20
4513.7185685886
 30
0.0
 11
6739.4984415352
 21
4513.7185685886
 31
0.0
  0
LINE
  5
23C
330
1F
100
AcDbEntity
  8
0
  6
Continuous
 62
     8
370
    25
100
AcDbLine
 10
6181.6630001208
 20
4580.2451923077
 30
0.0
 11
6181.6630001208
 21
4583.6451913238
 31
0.0
  0
LINE
  5
23D
330
1F
100
AcDbEntity
  8
0
  6
Continuous
 62
     8
370
    25
100
AcDbLine
 10
6180.6630001208
 20
4579.2451923077
 30
0.0
 11
6177.2630001208
 21
4579.2451923077
 31
0.0
  0
LINE
  5
23E
330
1F
100
AcDbEntity
  8
0
  6
Continuous
 62
     8
370
    25
100
AcDbLine
 10
7322.8630001208
 20
4580.2451923077
 30
0.0
 11
7322.8630001208
 21
4583.6451923077
 31
0.0
  0
LINE
  5
23F
330
1F
100
AcDbEntity
  8
0
  6
Continuous
 62
     8
370
    25
100
AcDbLine
 10
7323.8630001208
 20
4579.2451923077
 30
0.0
 11
7327.2630001208
 21
4579.2451923077
 31
0.0
  0
LINE
  5
240
330
1F
100
AcDbEntity
  8
0
  6
Continuous
 62
     8
370
    25
100
AcDbLine
 10
6180.6630001208
 20
4479.2451923077
 30
0.0
 11
6177.2630001208
 21
4479.2451923077
 31
0.0
  0
LINE
  5
241
330
1F
100
AcDbEntity
  8
0
  6
Continuous
 62
     8
370
    25
100
AcDbLine
 10
7323.8630001208
 20
4479.2451923077
 30
0.0
 11
7327.2630001208
 21
4479.2451923077
 31
0.0
  0
LINE
  5
242
330
1F
100
AcDbEntity
  8
0
  6
Continuous
 62
     8
370
    25
100
AcDbLine
 10
7322.8630001208
 20
4478.2451923077
 30
0.0
 11
7322.8630001208
 21
4474.8451923077
 31
0.0
  0
LINE
  5
243
330
1F
100
AcDbEntity
  8
0
  6
Continuous
 62
     8
370
    25
100
AcDbLine
 10
6181.6630001208
 20
4478.2451923077
 30
0.0
 11
6181.6630001208
 21
4474.8451923077
 31
0.0
  0
LINE
  5
244
330
1F
100
AcDbEntity
  8
0
  6
Continuous
 62
     7
370
    25
100
AcDbLine
 10
7623.9230769231
 20
4957.8379571052
 30
0.0
 11
7623.9230769231
 21
4957.2423208714
 31
0.0
  0
LINE
  5
245
330
1F
100
AcDbEntity
  8
0
  6
Continuous
 62
     7
370
    25
100
AcDbLine
 10
7690.4230769231
 20
4957.2423208714
 30
0.0
 11
7690.4230769231
 21
4957.8379571052
 31
0.0
  0
LINE
  5
246
330
1F
100
AcDbEntity
  8
0
  6
Continuous
 62
     7
370
    25
100
AcDbLine
 10
7617.1730769231
 20
4955.7342462575
 30
0.0
 11
7617.1730769231
 21
4955.2379571052
 31
0.0
  0
LINE
  5
247
330
1F
100
AcDbEntity
  8
0
  6
Continuous
 62
     7
370
    25
100
AcDbLine
 10
7697.1730769231
 20
4955.2379571052
 30
0.0
 11
7697.1730769231
 21
4955.7342462575
 31
0.0
  0
ARC
  5
248
330
1F
100
AcDbEntity
  8
0
  6
Continuous
 62
     7
370
    25
100
AcDbCircle
 10
7617.8234189706
 20
4955.7890158054
 30
0.0
 40
0.054769547994682
100
AcDbArc
 50
270.0
 51
329.999999999
  0
ARC
  5
249
330
1F
100
AcDbEntity
  8
0
  6
Continuous
 62
     7
370
    25
100
AcDbCircle
 10
7696.5227348756
 20
4955.7890158054
 30
0.0
 40
0.054769547994682
100
AcDbArc
 50
210.000000001
 51
270.0
  0
LINE
  5
24A
330
1F
100
AcDbEntity
  8
0
  6
Continuous
 62
     7
370
    25
100
AcDbLine
 10
7696.4753030557
 20
4955.7616310314
 30
0.0
 11
7696.2361916705
 21
4956.1757840993
 31
0.0
  0
LINE
  5
24B
330
1F
100
AcDbEntity
  8
0
  6
Continuous
 62
     7
370
    25
100
AcDbLine
 10
7618.1099621757
 20
4956.1757840993
 30
0.0
 11
7617.8708507905
 21
4955.7616310314
 31
0.0
  0
ARC
  5
24C
330
1F
100
AcDbEntity
  8
0
  6
Continuous
 62
     7
370
    25
100
AcDbCircle
 10
7618.2047942272
 20
4956.1210327888
 30
0.0
 40
0.1095026209371498
100
AcDbArc
 50
90.0
 51
150.0000000001
  0
ARC
  5
24D
330
1F
100
AcDbEntity
  8
0
  6
Continuous
 62
     7
370
    25
100
AcDbCircle
 10
7696.141359619
 20
4956.1210327888
 30
0.0
 40
0.1095026209371498
100
AcDbArc
 50
29.9999999999
 51
90.0
  0
LINE
  5
24E
330
1F
100
AcDbEntity
  8
0
  6
Continuous
 62
     7
370
    25
100
AcDbLine
 10
7696.141359619
 20
4956.2305354098
 30
0.0
 11
7662.946579615
 21
4956.2305354098
 31
0.0
  0
LINE
  5
24F
330
1F
100
AcDbEntity
  8
0
  6
Continuous
 62
     7
370
    25
100
AcDbLine
 10
7651.3995742312
 20
4956.2305354098
 30
0.0
 11
7618.2047942272
 21
4956.2305354098
 31
0.0
  0
LINE
  5
250
330
1F
100
AcDbEntity
  8
0
  6
Continuous
 62
     7
370
    25
100
AcDbLine
 10
7637.1731721191
 20
4919.9305236201
 30
0.0
 11
7637.1731721191
 21
4919.3322850595
 31
0.0
  0
LINE
  5
251
330
1F
100
AcDbEntity
  8
0
  6
Continuous
 62
     7
370
    25
100
AcDbLine
 10
7677.1729817271
 20
4919.3322850595
 30
0.0
 11
7677.1729817271
 21
4919.9305236202
 31
0.0
  0
ARC
  5
252
330
1F
100
AcDbEntity
  8
0
  6
Continuous
 62
     7
370
    25
100
AcDbCircle
 10
7657.1730769231
 20
4920.0888095537
 30
0.0
 40
27.00000000000112
100
AcDbArc
 50
0.0
 51
83.6206297916
  0
ARC
  5
253
330
1F
100
AcDbEntity
  8
0
  6
Continuous
 62
     7
370
    25
100
AcDbCircle
 10
7657.1730769231
 20
4920.0888095537
 30
0.0
 40
27.00000000000082
100
AcDbArc
 50
96.3793702084
 51
0.0
  0
ARC
  5
254
330
1F
100
AcDbEntity
  8
0
  6
Continuous
 62
     7
370
    25
100
AcDbCircle
 10
7692.7973795142
 20
4849.9070086564
 30
0.0
 40
52.79442234772546
100
AcDbArc
 50
98.6113344955
 51
109.5792512048
  0
ARC
  5
255
330
1F
100
AcDbEntity
  8
0
  6
Continuous
 62
     7
370
    25
100
AcDbCircle
 10
7621.821582894
 20
4850.9476646643
 30
0.0
 40
51.72268379437985
100
AcDbArc
 50
70.3260562123
 51
81.523490746
  0
LINE
  5
256
330
1F
100
AcDbEntity
  8
0
  6
Continuous
 62
     7
370
    25
100
AcDbLine
 10
7698.9230769231
 20
4952.2379571052
 30
0.0
 11
7698.9230769231
 21
4955.2379571052
 31
0.0
  0
LINE
  5
257
330
1F
100
AcDbEntity
  8
0
  6
Continuous
 62
     7
370
    25
100
AcDbLine
 10
7615.4230769231
 20
4955.2379571052
 30
0.0
 11
7615.4230769231
 21
4952.2379571052
 31
0.0
  0
LINE
  5
258
330
1F
100
AcDbEntity
  8
0
  6
Continuous
 62
     7
370
    25
100
AcDbLine
 10
7610.2893728938
 20
4933.9117588022
 30
0.0
 11
7610.4321692234
 21
4917.5489201505
 31
0.0
  0
LINE
  5
259
330
1F
100
AcDbEntity
  8
0
  6
Continuous
 62
     7
370
    25
100
AcDbLine
 10
7703.9140364019
 20
4917.5548534554
 30
0.0
 11
7704.1730769231
 21
4947.2379571052
 31
0.0
  0
LWPOLYLINE
  5
25A
330
1F
100
AcDbEntity
  8
0
  6
Continuous
 62
     7
370
    25
100
AcDbPolyline
 90
       14
 70
   128
 43
0.0
 10
7610.468530418
 20
4917.5720432865
 10
7610.4832410749
 20
4916.5618020828
 10
7610.8261862864
 20
4914.5812263527
 10
7611.4686529743
 20
4912.7311678947
 10
7612.3778707676
 20
4911.0308056378
 10
7613.5287792417
 20
4909.482798777
 10
7614.9160024633
 20
4908.0742383006
 10
7616.5565274861
 20
4906.7879705839
 10
7618.488450307
 20
4905.6097491033
 10
7620.7523423514
 20
4904.5386372974
 10
7623.3472401275
 20
4903.5936640585
 10
7626.1802464762
 20
4902.8049640817
 10
7629.2147601587
 20
4902.1537469536
 10
7629.4841455137
 20
4902.1088261887
  0
LWPOLYLINE
  5
25B
330
1F
100
AcDbEntity
  8
0
  6
Continuous
 62
     7
370
    25
100
AcDbPolyline
 90
       13
 70
   128
 43
0.0
 10
7684.8416005059
 20
4902.1186666588
 10
7686.4032425083
 20
4902.4075331291
 10
7689.2807147093
 20
4903.0904224452
 10
7692.0460286757
 20
4903.9486795647
 10
7694.5509233611
 20
4904.9697288492
 10
7696.9153663667
 20
4906.2396324126
 10
7698.7415007633
 20
4907.5245028216
 10
7700.2690072464
 20
4908.9173324809
 10
7701.5237341839
 20
4910.4183257037
 10
7702.5186778587
 20
4912.0278066906
 10
7703.3148353685
 20
4913.9240011932
 10
7703.772443328
 20
4915.8603295099
 10
7703.8943468035
 20
4917.5813057459
  0
ARC
  5
25C
330
1F
100
AcDbEntity
  8
0
  6
Continuous
 62
     7
370
    25
100
AcDbCircle
 10
7610.1730769231
 20
4950.2379571052
 30
0.0
 40
2.000000000000042
100
AcDbArc
 50
120.0010464823
 51
180.0
  0
ARC
  5
25D
330
1F
100
AcDbEntity
  8
0
  6
Continuous
 62
     7
370
    25
100
AcDbCircle
 10
7704.1730769231
 20
4950.2379571052
 30
0.0
 40
2.000000000000909
100
AcDbArc
 50
0.0
 51
90.0
  0
LINE
  5
25E
330
1F
100
AcDbEntity
  8
0
  6
Continuous
 62
     7
370
    25
100
AcDbLine
 10
7706.1730769231
 20
4947.2379571052
 30
0.0
 11
7706.1730769231
 21
4950.2379571052
 31
0.0
  0
LINE
  5
25F
330
1F
100
AcDbEntity
  8
0
  6
Continuous
 62
     7
370
    25
100
AcDbLine
 10
7608.1730769231
 20
4950.2379571052
 30
0.0
 11
7608.1730769231
 21
4947.2379571052
 31
0.0
  0
LINE
  5
260
330
1F
100
AcDbEntity
  8
0
  6
Continuous
 62
     7
370
    25
100
AcDbLine
 10
7624.3230567364
 20
4903.3219998114
 30
0.0
 11
7624.9323319408
 21
4880.054718467
 31
0.0
  0
LINE
  5
261
330
1F
100
AcDbEntity
  8
0
  6
Continuous
 62
     7
370
    25
100
AcDbLine
 10
7689.4138219053
 20
4880.054718467
 30
0.0
 11
7690.0230662811
 21
4903.3208225116
 31
0.0
  0
ARC
  5
262
330
1F
100
AcDbEntity
  8
0
  6
Continuous
 62
     7
370
    25
100
AcDbCircle
 10
7682.4162206305
 20
4880.2379571052
 30
0.0
 40
6.999999999999502
100
AcDbArc
 50
270.0
 51
358.5
  0
ARC
  5
263
330
1F
100
AcDbEntity
  8
0
  6
Continuous
 62
     7
370
    25
100
AcDbCircle
 10
7631.9299332157
 20
4880.2379571052
 30
0.0
 40
6.999999999999502
100
AcDbArc
 50
181.5
 51
270.0
  0
LINE
  5
264
330
1F
100
AcDbEntity
  8
0
  6
Continuous
 62
     7
370
    25
100
AcDbLine
 10
7602.1730769231
 20
4942.0379571052
 30
0.0
 11
7601.1730769231
 21
4943.0379571052
 31
0.0
  0
LINE
  5
265
330
1F
100
AcDbEntity
  8
0
  6
Continuous
 62
     7
370
    25
100
AcDbLine
 10
7593.1730769231
 20
4943.0379571052
 30
0.0
 11
7592.1730769231
 21
4942.0379571052
 31
0.0
  0
LINE
  5
266
330
1F
100
AcDbEntity
  8
0
  6
Continuous
 62
     7
370
    25
100
AcDbLine
 10
7602.1730769231
 20
4863.0379571052
 30
0.0
 11
7602.1730769231
 21
4933.0379571052
 31
0.0
  0
LINE
  5
267
330
1F
100
AcDbEntity
  8
0
  6
Continuous
 62
     7
370
    25
100
AcDbLine
 10
7592.1730769231
 20
4933.0379571052
 30
0.0
 11
7592.1730769231
 21
4863.0379571052
 31
0.0
  0
LINE
  5
268
330
1F
100
AcDbEntity
  8
0
  6
Continuous
 62
     7
370
    25
100
AcDbLine
 10
7749.1730769231
 20
4942.0379571052
 30
0.0
 11
7748.1730769231
 21
4943.0379571052
 31
0.0
  0
LINE
  5
269
330
1F
100
AcDbEntity
  8
0
  6
Continuous
 62
     7
370
    25
100
AcDbLine
 10
7740.1730769231
 20
4943.0379571052
 30
0.0
 11
7739.1730769231
 21
4942.0379571052
 31
0.0
  0
LINE
  5
26A
330
1F
100
AcDbEntity
  8
0
  6
Continuous
 62
     7
370
    25
100
AcDbLine
 10
7749.1730769231
 20
4858.0379571052
 30
0.0
 11
7749.1730769231
 21
4933.0379571052
 31
0.0
  0
LINE
  5
26B
330
1F
100
AcDbEntity
  8
0
  6
Continuous
 62
     7
370
    25
100
AcDbLine
 10
7739.1730769231
 20
4933.0379571052
 30
0.0
 11
7739.1730769231
 21
4858.0379571052
 31
0.0
  0
LINE
  5
26C
330
1F
100
AcDbEntity
  8
0
  6
Continuous
 62
     7
370
    25
100
AcDbLine
 10
7607.1730769231
 20
4977.0379571052
 30
0.0
 11
7604.4730769231
 21
4977.0379571052
 31
0.0
  0
LINE
  5
26D
330
1F
100
AcDbEntity
  8
0
  6
Continuous
 62
     7
370
    25
100
AcDbLine
 10
7707.1730769231
 20
4977.0379571052
 30
0.0
 11
7607.1730769231
 21
4977.0379571052
 31
0.0
  0
LINE
  5
26E
330
1F
100
AcDbEntity
  8
0
  6
Continuous
 62
     7
370
    25
100
AcDbLine
 10
7709.8730769231
 20
4977.0379571052
 30
0.0
 11
7707.1730769231
 21
4977.0379571052
 31
0.0
  0
LINE
  5
26F
330
1F
100
AcDbEntity
  8
0
  6
Continuous
 62
     7
370
    25
100
AcDbLine
 10
7654.1730769231
 20
4952.8379571052
 30
0.0
 11
7654.1730769231
 21
4937.8379571052
 31
0.0
  0
LINE
  5
270
330
1F
100
AcDbEntity
  8
0
  6
Continuous
 62
     7
370
    25
100
AcDbLine
 10
7660.1730769231
 20
4937.8379571052
 30
0.0
 11
7660.1730769231
 21
4952.8379571052
 31
0.0
  0
LINE
  5
271
330
1F
100
AcDbEntity
  8
0
  6
Continuous
 62
     7
370
    25
100
AcDbLine
 10
7625.63311306
 20
4957.2423208714
 30
0.0
 11
7627.288016757
 21
4956.2305354098
 31
0.0
  0
LINE
  5
272
330
1F
100
AcDbEntity
  8
0
  6
Continuous
 62
     7
370
    25
100
AcDbLine
 10
7687.0581370891
 20
4956.2305354098
 30
0.0
 11
7688.7130407862
 21
4957.2423208714
 31
0.0
  0
LINE
  5
273
330
1F
100
AcDbEntity
  8
0
  6
Continuous
 62
     7
370
    25
100
AcDbLine
 10
7690.4230769231
 20
4957.2423208714
 30
0.0
 11
7662.946579615
 21
4957.2423208714
 31
0.0
  0
LINE
  5
274
330
1F
100
AcDbEntity
  8
0
  6
Continuous
 62
     7
370
    25
100
AcDbLine
 10
7651.3995742312
 20
4957.2423208714
 30
0.0
 11
7623.9230769231
 21
4957.2423208714
 31
0.0
  0
LINE
  5
275
330
1F
100
AcDbEntity
  8
0
  6
Continuous
 62
     7
370
    25
100
AcDbLine
 10
7617.1730769231
 20
4955.7342462575
 30
0.0
 11
7651.3995742312
 21
4955.7342462575
 31
0.0
  0
LINE
  5
276
330
1F
100
AcDbEntity
  8
0
  6
Continuous
 62
     7
370
    25
100
AcDbLine
 10
7662.946579615
 20
4955.7342462575
 30
0.0
 11
7697.1730769231
 21
4955.7342462575
 31
0.0
  0
LWPOLYLINE
  5
277
330
1F
100
AcDbEntity
  8
0
  6
Continuous
 62
     7
370
    25
100
AcDbPolyline
 90
        8
 70
   128
 43
0.0
 10
7667.258115733
 20
4933.1677208474
 10
7666.8173639874
 20
4933.1643147527
 10
7663.2466324755
 20
4933.138535692
 10
7659.51234185
 20
4933.1132566056
 10
7655.7250768699
 20
4933.0889864697
 10
7651.9938560835
 20
4933.0640120454
 10
7648.4094430321
 20
4933.0383156058
 10
7647.1481752267
 20
4933.0285918483
  0
LINE
  5
278
330
1F
100
AcDbEntity
  8
0
  6
Continuous
 62
     7
370
    25
100
AcDbLine
 10
7657.1730769231
 20
4931.7379571052
 30
0.0
 11
7666.8639220667
 21
4931.7379571052
 31
0.0
  0
LINE
  5
279
330
1F
100
AcDbEntity
  8
0
  6
Continuous
 62
     7
370
    25
100
AcDbLine
 10
7647.4822317795
 20
4931.7379571052
 30
0.0
 11
7657.1730769231
 21
4931.7379571052
 31
0.0
  0
LWPOLYLINE
  5
27A
330
1F
100
AcDbEntity
  8
0
  6
Continuous
 62
     7
370
    25
100
AcDbPolyline
 90
        7
 70
   128
 43
0.0
 10
7648.0405388902
 20
4934.0786758996
 10
7648.2948212922
 20
4934.0817071011
 10
7652.6904694115
 20
4934.1299594735
 10
7657.1730769231
 20
4934.1754571011
 10
7661.6556844346
 20
4934.2209547286
 10
7666.051332554
 20
4934.2692071011
 10
7666.1185579836
 20
4934.2700084692
  0
LWPOLYLINE
  5
27B
330
1F
100
AcDbEntity
  8
0
  6
Continuous
 62
     7
370
    25
100
AcDbPolyline
 90
        5
 70
   128
 43
0.0
 10
7648.4088883766
 20
4934.2704592544
 10
7652.6904694115
 20
4934.3174594776
 10
7657.1730769231
 20
4934.3629571052
 10
7661.6556844346
 20
4934.4084547327
 10
7665.7138016215
 20
4934.453001925
  0
LWPOLYLINE
  5
27C
330
1F
100
AcDbEntity
  8
0
  6
Continuous
 62
     7
370
    25
100
AcDbPolyline
 90
        7
 70
   128
 43
0.0
 10
7647.2812446086
 20
4933.5965984319
 10
7648.6055215165
 20
4933.6129571031
 10
7652.8473411234
 20
4933.6612094755
 10
7657.1730769231
 20
4933.7067071031
 10
7661.4988127228
 20
4933.7522047307
 10
7665.7406323297
 20
4933.8004571031
 10
7666.8593853478
 20
4933.8142769565
  0
LWPOLYLINE
  5
27D
330
1F
100
AcDbEntity
  8
0
  6
Continuous
 62
     7
370
    25
100
AcDbPolyline
 90
        4
 70
   128
 43
0.0
 10
7650.0587865457
 20
4935.1294885665
 10
7652.8473411234
 20
4935.1612094755
 10
7657.1730769231
 20
4935.2067071031
 10
7660.1442044262
 20
4935.2379571052
  0
LWPOLYLINE
  5
27E
330
1F
100
AcDbEntity
  8
0
  6
Continuous
 62
     7
370
    25
100
AcDbPolyline
 90
        7
 70
   128
 43
0.0
 10
7647.2695588685
 20
4933.221454079
 10
7648.6055215165
 20
4933.2379571031
 10
7652.8473411234
 20
4933.2862094755
 10
7657.1730769231
 20
4933.3317071031
 10
7661.4988127228
 20
4933.3772047307
 10
7665.7406323297
 20
4933.4254571031
 10
7667.0697196742
 20
4933.4418751972
  0
LWPOLYLINE
  5
27F
330
1F
100
AcDbEntity
  8
0
  6
Continuous
 62
     7
370
    25
100
AcDbPolyline
 90
        5
 70
   128
 43
0.0
 10
7649.3224537128
 20
4934.7461124898
 10
7652.8473411234
 20
4934.7862094755
 10
7657.1730769231
 20
4934.8317071031
 10
7661.4988127228
 20
4934.8772047307
 10
7664.6951021173
 20
4934.9135637842
  0
CIRCLE
  5
280
330
1F
100
AcDbEntity
  8
0
  6
Continuous
 62
     7
370
    25
100
AcDbCircle
 10
7657.173013704
 20
4919.3012331887
 30
0.0
 40
17.4996804375101
  0
ARC
  5
281
330
1F
100
AcDbEntity
  8
0
  6
Continuous
 62
     7
370
    25
100
AcDbCircle
 10
7657.1730769231
 20
4919.3013682751
 30
0.0
 40
19.71434232641655
100
AcDbArc
 50
98.7529037444
 51
81.2470962556
  0
ARC
  5
282
330
1F
100
AcDbEntity
  8
0
  6
Continuous
 62
     7
370
    25
100
AcDbCircle
 10
7657.1730769231
 20
4919.3318023739
 30
0.0
 40
19.99963762810193
100
AcDbArc
 50
98.6270840614
 51
81.3729159386
  0
ARC
  5
283
330
1F
100
AcDbEntity
  8
0
  6
Continuous
 62
     7
370
    25
100
AcDbCircle
 10
7657.173637178
 20
4919.9302523711
 30
0.0
 40
19.99934455095036
100
AcDbArc
 50
0.0007770969
 51
81.3744119802
  0
ARC
  5
284
330
1F
100
AcDbEntity
  8
0
  6
Continuous
 62
     7
370
    25
100
AcDbCircle
 10
7657.1725888069
 20
4919.9301903491
 30
0.0
 40
19.99941669060323
100
AcDbArc
 50
98.6257657018
 51
179.9990452211
  0
ARC
  5
285
330
1F
100
AcDbEntity
  8
0
  6
Continuous
 62
     7
370
    25
100
AcDbCircle
 10
7654.7334601789
 20
4920.1790285889
 30
0.0
 40
15.04056685108426
100
AcDbArc
 50
177.7865545129
 51
205.5322813903
  0
ARC
  5
286
330
1F
100
AcDbEntity
  8
0
  6
Continuous
 62
     7
370
    25
100
AcDbCircle
 10
7657.1730769231
 20
4920.7598698113
 30
0.0
 40
17.50023986067709
100
AcDbArc
 50
203.8052968746
 51
336.1947031254
  0
ARC
  5
287
330
1F
100
AcDbEntity
  8
0
  6
Continuous
 62
     7
370
    25
100
AcDbCircle
 10
7658.8267691974
 20
4920.2852616822
 30
0.0
 40
15.79739587785131
100
AcDbArc
 50
335.348694842
 51
1.7302785812
  0
ARC
  5
288
330
1F
100
AcDbEntity
  8
0
  6
Continuous
 62
     7
370
    25
100
AcDbCircle
 10
7657.1731275581
 20
4920.6519505181
 30
0.0
 40
26.51314433510345
100
AcDbArc
 50
59.5202020562
 51
83.5030967341
  0
ARC
  5
289
330
1F
100
AcDbEntity
  8
0
  6
Continuous
 62
     7
370
    25
100
AcDbCircle
 10
7657.1730200647
 20
4920.6519698783
 30
0.0
 40
26.5131244936536
100
AcDbArc
 50
96.2484580151
 51
120.479807585
  0
LINE
  5
28A
330
1F
100
AcDbEntity
  8
0
  6
Continuous
 62
     7
370
    25
100
AcDbLine
 10
7633.1534605881
 20
4950.2379571052
 30
0.0
 11
7633.1534605881
 21
4947.2379571052
 31
0.0
  0
LINE
  5
28B
330
1F
100
AcDbEntity
  8
0
  6
Continuous
 62
     7
370
    25
100
AcDbLine
 10
7640.0398124464
 20
4950.2379571052
 30
0.0
 11
7633.1534605881
 21
4950.2379571052
 31
0.0
  0
LINE
  5
28C
330
1F
100
AcDbEntity
  8
0
  6
Continuous
 62
     7
370
    25
100
AcDbLine
 10
7640.0398124464
 20
4950.2379571052
 30
0.0
 11
7640.0398124464
 21
4947.2379571052
 31
0.0
  0
LINE
  5
28D
330
1F
100
AcDbEntity
  8
0
  6
Continuous
 62
     7
370
    25
100
AcDbLine
 10
7633.1534605881
 20
4947.2379571052
 30
0.0
 11
7640.0398124464
 21
4947.2379571052
 31
0.0
  0
LINE
  5
28E
330
1F
100
AcDbEntity
  8
0
  6
Continuous
 62
     7
370
    25
100
AcDbLine
 10
7635.1209896905
 20
4952.2379571052
 30
0.0
 11
7640.0398124464
 21
4952.2379571052
 31
0.0
  0
LINE
  5
28F
330
1F
100
AcDbEntity
  8
0
  6
Continuous
 62
     7
370
    25
100
AcDbLine
 10
7640.0398124464
 20
4952.2379571052
 30
0.0
 11
7640.0398124464
 21
4950.2379571052
 31
0.0
  0
ARC
  5
290
330
1F
100
AcDbEntity
  8
0
  6
Continuous
 62
     7
370
    25
100
AcDbCircle
 10
7635.1373591093
 20
4950.2540607591
 30
0.0
 40
1.983963878169464
100
AcDbArc
 50
90.4727451245
 51
180.4650697253
  0
LINE
  5
291
330
1F
100
AcDbEntity
  8
0
  6
Continuous
 62
     7
370
    25
100
AcDbLine
 10
7674.3063413998
 20
4950.2379571052
 30
0.0
 11
7674.3063413998
 21
4947.2379571052
 31
0.0
  0
LINE
  5
292
330
1F
100
AcDbEntity
  8
0
  6
Continuous
 62
     7
370
    25
100
AcDbLine
 10
7640.0398124464
 20
4947.2379571052
 30
0.0
 11
7654.1730769231
 21
4947.2379571052
 31
0.0
  0
LINE
  5
293
330
1F
100
AcDbEntity
  8
0
  6
Continuous
 62
     7
370
    25
100
AcDbLine
 10
7660.1730769231
 20
4947.2379571052
 30
0.0
 11
7674.3063413998
 21
4947.2379571052
 31
0.0
  0
LINE
  5
294
330
1F
100
AcDbEntity
  8
0
  6
Continuous
 62
     7
370
    25
100
AcDbLine
 10
7640.0398124464
 20
4952.2379571052
 30
0.0
 11
7654.1730769231
 21
4952.2379571052
 31
0.0
  0
LINE
  5
295
330
1F
100
AcDbEntity
  8
0
  6
Continuous
 62
     7
370
    25
100
AcDbLine
 10
7660.1730769231
 20
4952.2379571052
 30
0.0
 11
7674.3063413998
 21
4952.2379571052
 31
0.0
  0
LINE
  5
296
330
1F
100
AcDbEntity
  8
0
  6
Continuous
 62
     7
370
    25
100
AcDbLine
 10
7674.3063413998
 20
4952.2379571052
 30
0.0
 11
7674.3063413998
 21
4950.2379571052
 31
0.0
  0
LINE
  5
297
330
1F
100
AcDbEntity
  8
0
  6
Continuous
 62
     7
370
    25
100
AcDbLine
 10
7674.3063413998
 20
4952.2379571052
 30
0.0
 11
7679.2251641557
 21
4952.2379571052
 31
0.0
  0
ARC
  5
298
330
1F
100
AcDbEntity
  8
0
  6
Continuous
 62
     7
370
    25
100
AcDbCircle
 10
7679.2087947369
 20
4950.2540607591
 30
0.0
 40
1.983963878168156
100
AcDbArc
 50
359.5349302746
 51
89.5272548755
  0
LINE
  5
299
330
1F
100
AcDbEntity
  8
0
  6
Continuous
 62
     7
370
    25
100
AcDbLine
 10
7681.1926932581
 20
4950.2379571052
 30
0.0
 11
7674.3063413998
 21
4950.2379571052
 31
0.0
  0
LINE
  5
29A
330
1F
100
AcDbEntity
  8
0
  6
Continuous
 62
     7
370
    25
100
AcDbLine
 10
7681.1926932581
 20
4950.2379571052
 30
0.0
 11
7681.1926932581
 21
4947.2379571052
 31
0.0
  0
LINE
  5
29B
330
1F
100
AcDbEntity
  8
0
  6
Continuous
 62
     7
370
    25
100
AcDbLine
 10
7674.3063413998
 20
4947.2379571052
 30
0.0
 11
7681.1926932581
 21
4947.2379571052
 31
0.0
  0
LWPOLYLINE
  5
29C
330
1F
100
AcDbEntity
  8
0
  6
Continuous
 62
     7
370
    25
100
AcDbPolyline
 90
        3
 70
   128
 43
0.0
 10
7674.9461177266
 20
4899.6393426237
 10
7674.6141223177
 20
4899.4189140023
 10
7674.2380717639
 20
4899.3535110223
  0
LWPOLYLINE
  5
29D
330
1F
100
AcDbEntity
  8
0
  6
Continuous
 62
     7
370
    25
100
AcDbPolyline
 90
        3
 70
   128
 43
0.0
 10
7639.4000361196
 20
4899.6393426237
 10
7639.7320315285
 20
4899.4189140023
 10
7640.1295730291
 20
4899.3497733015
  0
LINE
  5
29E
330
1F
100
AcDbEntity
  8
0
  6
Continuous
 62
     7
370
    25
100
AcDbLine
 10
7623.6288702686
 20
4950.2379571052
 30
0.0
 11
7623.6288702686
 21
4947.2379571052
 31
0.0
  0
LINE
  5
29F
330
1F
100
AcDbEntity
  8
0
  6
Continuous
 62
     7
370
    25
100
AcDbLine
 10
7633.1534605881
 20
4950.2379571052
 30
0.0
 11
7623.6288702686
 21
4950.2379571052
 31
0.0
  0
LINE
  5
2A0
330
1F
100
AcDbEntity
  8
0
  6
Continuous
 62
     7
370
    25
100
AcDbLine
 10
7623.6288702686
 20
4947.2379571052
 30
0.0
 11
7633.1534605881
 21
4947.2379571052
 31
0.0
  0
ARC
  5
2A1
330
1F
100
AcDbEntity
  8
0
  6
Continuous
 62
     7
370
    25
100
AcDbCircle
 10
7625.3868045671
 20
4950.5025446869
 30
0.0
 40
1.77773439702024
100
AcDbArc
 50
102.5271579555
 51
188.5593696972
  0
LINE
  5
2A2
330
1F
100
AcDbEntity
  8
0
  6
Continuous
 62
     7
370
    25
100
AcDbLine
 10
7625.0012097992
 20
4952.2379571052
 30
0.0
 11
7635.1209896905
 21
4952.2379571052
 31
0.0
  0
ARC
  5
2A3
330
1F
100
AcDbEntity
  8
0
  6
Continuous
 62
     7
370
    25
100
AcDbCircle
 10
7688.9562966225
 20
4950.5004500463
 30
0.0
 40
1.780443090937101
100
AcDbArc
 50
351.5219073503
 51
77.391564997
  0
LINE
  5
2A4
330
1F
100
AcDbEntity
  8
0
  6
Continuous
 62
     7
370
    25
100
AcDbLine
 10
7690.7172835776
 20
4950.2379571052
 30
0.0
 11
7681.1926932581
 21
4950.2379571052
 31
0.0
  0
LINE
  5
2A5
330
1F
100
AcDbEntity
  8
0
  6
Continuous
 62
     7
370
    25
100
AcDbLine
 10
7679.2251641557
 20
4952.2379571052
 30
0.0
 11
7689.344944047
 21
4952.2379571052
 31
0.0
  0
LINE
  5
2A6
330
1F
100
AcDbEntity
  8
0
  6
Continuous
 62
     7
370
    25
100
AcDbLine
 10
7690.7172835776
 20
4950.2379571052
 30
0.0
 11
7690.7172835776
 21
4947.2379571052
 31
0.0
  0
LINE
  5
2A7
330
1F
100
AcDbEntity
  8
0
  6
Continuous
 62
     7
370
    25
100
AcDbLine
 10
7681.1926932581
 20
4947.2379571052
 30
0.0
 11
7690.7172835776
 21
4947.2379571052
 31
0.0
  0
LINE
  5
2A8
330
1F
100
AcDbEntity
  8
0
  6
Continuous
 62
     7
370
    25
100
AcDbLine
 10
7626.0715871976
 20
4908.93079222
 30
0.0
 11
7625.8487837898
 21
4947.2379571052
 31
0.0
  0
LINE
  5
2A9
330
1F
100
AcDbEntity
  8
0
  6
Continuous
 62
     7
370
    25
100
AcDbLine
 10
7688.2745666486
 20
4908.93079222
 30
0.0
 11
7688.4973700564
 21
4947.2379571052
 31
0.0
  0
LINE
  5
2AA
330
1F
100
AcDbEntity
  8
0
  6
Continuous
 62
     7
370
    25
100
AcDbLine
 10
7649.9438138529
 20
4935.2379571052
 30
0.0
 11
7664.4023399933
 21
4935.2379571052
 31
0.0
  0
LINE
  5
2AB
330
1F
100
AcDbEntity
  8
0
  6
Continuous
 62
     7
370
    25
100
AcDbLine
 10
7662.946579615
 20
4955.2379571052
 30
0.0
 11
7698.9230769231
 21
4955.2379571052
 31
0.0
  0
LINE
  5
2AC
330
1F
100
AcDbEntity
  8
0
  6
Continuous
 62
     7
370
    25
100
AcDbLine
 10
7615.4230769231
 20
4955.2379571052
 30
0.0
 11
7651.3995742312
 21
4955.2379571052
 31
0.0
  0
LINE
  5
2AD
330
1F
100
AcDbEntity
  8
0
  6
Continuous
 62
     7
370
    25
100
AcDbLine
 10
7689.344944047
 20
4952.2379571052
 30
0.0
 11
7704.1730769231
 21
4952.2379571052
 31
0.0
  0
LINE
  5
2AE
330
1F
100
AcDbEntity
  8
0
  6
Continuous
 62
     7
370
    25
100
AcDbLine
 10
7611.1730470296
 20
4952.2379571052
 30
0.0
 11
7625.0012097992
 21
4952.2379571052
 31
0.0
  0
LINE
  5
2AF
330
1F
100
AcDbEntity
  8
0
  6
Continuous
 62
     7
370
    25
100
AcDbLine
 10
7690.7172835776
 20
4947.2379571052
 30
0.0
 11
7706.1730769231
 21
4947.2379571052
 31
0.0
  0
LINE
  5
2B0
330
1F
100
AcDbEntity
  8
0
  6
Continuous
 62
     7
370
    25
100
AcDbLine
 10
7608.1730769231
 20
4947.2379571052
 30
0.0
 11
7609.1730145366
 21
4947.2379571052
 31
0.0
  0
LINE
  5
2B1
330
1F
100
AcDbEntity
  8
0
  6
Continuous
 62
     7
370
    25
100
AcDbLine
 10
7611.1730769231
 20
4947.2379571052
 30
0.0
 11
7623.6288702686
 21
4947.2379571052
 31
0.0
  0
LINE
  5
2B2
330
1F
100
AcDbEntity
  8
0
  6
Continuous
 62
     7
370
    25
100
AcDbLine
 10
7645.9138219053
 20
4880.054718467
 30
0.0
 11
7646.3148249199
 21
4895.3684057658
 31
0.0
  0
ARC
  5
2B3
330
1F
100
AcDbEntity
  8
0
  6
Continuous
 62
     7
370
    25
100
AcDbCircle
 10
7640.693198699
 20
4928.4660901987
 30
0.0
 40
48.69205088730614
100
AcDbArc
 50
263.8450785085
 51
276.1549214915
  0
ARC
  5
2B4
330
1F
100
AcDbEntity
  8
0
  6
Continuous
 62
     7
370
    25
100
AcDbCircle
 10
7673.6529551471
 20
4928.4660901158
 30
0.0
 40
48.69205080484107
100
AcDbArc
 50
263.845078498
 51
276.154921502
  0
LINE
  5
2B5
330
1F
100
AcDbEntity
  8
0
  6
Continuous
 62
     7
370
    25
100
AcDbLine
 10
7668.4323319408
 20
4880.054718467
 30
0.0
 11
7668.0313289263
 21
4895.3684057658
 31
0.0
  0
LINE
  5
2B6
330
1F
100
AcDbEntity
  8
0
  6
Continuous
 62
     7
370
    25
100
AcDbLine
 10
7646.6115840864
 20
4906.8058692464
 30
0.0
 11
7647.4822317795
 21
4931.7379571052
 31
0.0
  0
LINE
  5
2B7
330
1F
100
AcDbEntity
  8
0
  6
Continuous
 62
     7
370
    25
100
AcDbLine
 10
7667.7345697598
 20
4906.8058692464
 30
0.0
 11
7666.8639220667
 21
4931.7379571052
 31
0.0
  0
LWPOLYLINE
  5
2B8
330
1F
100
AcDbEntity
  8
0
  6
Continuous
 62
     7
370
    25
100
AcDbPolyline
 90
        6
 70
   128
 43
0.0
 10
7638.9162206305
 20
4873.2379571052
 10
7637.6386030081
 20
4873.7305196968
 10
7636.534083348
 20
4875.1678644278
 10
7635.7700652147
 20
4877.3768516964
 10
7635.5571544185
 20
4878.6805706487
 10
7635.4725754927
 20
4880.054718467
  0
ARC
  5
2B9
330
1F
100
AcDbEntity
  8
0
  6
Continuous
 62
     7
370
    25
100
AcDbCircle
 10
7638.9162206305
 20
4880.2379571052
 30
0.0
 40
6.999999999998593
100
AcDbArc
 50
270.0
 51
358.5
  0
LWPOLYLINE
  5
2BA
330
1F
100
AcDbEntity
  8
0
  6
Continuous
 62
     7
370
    25
100
AcDbPolyline
 90
        6
 70
   128
 43
0.0
 10
7678.8735783535
 20
4880.054718467
 10
7678.7890021536
 20
4878.6805889575
 10
7678.5760954376
 20
4877.3768745486
 10
7677.8120704982
 20
4875.1678644278
 10
7676.7075508381
 20
4873.7305196968
 10
7675.4299332157
 20
4873.2379571052
  0
ARC
  5
2BB
330
1F
100
AcDbEntity
  8
0
  6
Continuous
 62
     7
370
    25
100
AcDbCircle
 10
7675.4299332157
 20
4880.2379571052
 30
0.0
 40
6.999999999998593
100
AcDbArc
 50
181.5
 51
270.0
  0
LINE
  5
2BC
330
1F
100
AcDbEntity
  8
0
  6
Continuous
 62
     7
370
    25
100
AcDbLine
 10
7638.9162206305
 20
4873.2379571052
 30
0.0
 11
7631.9299332157
 21
4873.2379571052
 31
0.0
  0
LINE
  5
2BD
330
1F
100
AcDbEntity
  8
0
  6
Continuous
 62
     7
370
    25
100
AcDbLine
 10
7682.4162206305
 20
4873.2379571052
 30
0.0
 11
7675.4299332157
 21
4873.2379571052
 31
0.0
  0
LINE
  5
2BE
330
1F
100
AcDbEntity
  8
0
  6
Continuous
 62
     7
370
    25
100
AcDbLine
 10
7645.9138219053
 20
4880.054718467
 30
0.0
 11
7647.3077754266
 21
4880.054718467
 31
0.0
  0
LWPOLYLINE
  5
2BF
330
1F
100
AcDbEntity
  8
0
  6
Continuous
 62
     7
370
    25
100
AcDbPolyline
 90
        9
 70
   128
 43
0.0
 10
7642.3597241132
 20
4873.2379571052
 10
7643.3094800279
 20
4873.3680278912
 10
7644.2239400859
 20
4873.753406418
 10
7645.0691201334
 20
4874.379770832
 10
7645.8136106752
 20
4875.2238435012
 10
7646.4297441484
 20
4876.254256084
 10
7646.8946231344
 20
4877.4327152734
 10
7647.1909712975
 20
4878.7154258943
 10
7647.3077754266
 20
4880.054718467
  0
LINE
  5
2C0
330
1F
100
AcDbEntity
  8
0
  6
Continuous
 62
     7
370
    25
100
AcDbLine
 10
7642.3597241132
 20
4873.2379571052
 30
0.0
 11
7638.9162206305
 21
4873.2379571052
 31
0.0
  0
LINE
  5
2C1
330
1F
100
AcDbEntity
  8
0
  6
Continuous
 62
     7
370
    25
100
AcDbLine
 10
7667.0383784195
 20
4880.054718467
 30
0.0
 11
7668.4323319408
 21
4880.054718467
 31
0.0
  0
LWPOLYLINE
  5
2C2
330
1F
100
AcDbEntity
  8
0
  6
Continuous
 62
     7
370
    25
100
AcDbPolyline
 90
        9
 70
   128
 43
0.0
 10
7667.0383784195
 20
4880.054718467
 10
7667.1551825487
 20
4878.7154258943
 10
7667.4515307118
 20
4877.4327152734
 10
7667.9164096978
 20
4876.254256084
 10
7668.532543171
 20
4875.2238435012
 10
7669.2770337128
 20
4874.379770832
 10
7670.1222137603
 20
4873.753406418
 10
7671.0366738183
 20
4873.3680278912
 10
7671.986429733
 20
4873.2379571052
  0
LINE
  5
2C3
330
1F
100
AcDbEntity
  8
0
  6
Continuous
 62
     7
370
    25
100
AcDbLine
 10
7675.4299332157
 20
4873.2379571052
 30
0.0
 11
7671.986429733
 21
4873.2379571052
 31
0.0
  0
LINE
  5
2C4
330
1F
100
AcDbEntity
  8
0
  6
Continuous
 62
     7
370
    25
100
AcDbLine
 10
7647.3077754266
 20
4880.054718467
 30
0.0
 11
7651.0504161138
 21
4880.054718467
 31
0.0
  0
LINE
  5
2C5
330
1F
100
AcDbEntity
  8
0
  6
Continuous
 62
     7
370
    25
100
AcDbLine
 10
7663.2957377324
 20
4880.054718467
 30
0.0
 11
7667.0383784195
 21
4880.054718467
 31
0.0
  0
LWPOLYLINE
  5
2C6
330
1F
100
AcDbEntity
  8
0
  6
Continuous
 62
     7
370
    25
100
AcDbPolyline
 90
        9
 70
   128
 43
0.0
 10
7646.1023648003
 20
4873.2379571052
 10
7647.052120715
 20
4873.3680278912
 10
7647.966580773
 20
4873.753406418
 10
7648.8117608205
 20
4874.379770832
 10
7649.5562513623
 20
4875.2238435012
 10
7650.1723848355
 20
4876.254256084
 10
7650.6372638215
 20
4877.4327152734
 10
7650.9336119846
 20
4878.7154258943
 10
7651.0504161138
 20
4880.054718467
  0
LINE
  5
2C7
330
1F
100
AcDbEntity
  8
0
  6
Continuous
 62
     7
370
    25
100
AcDbLine
 10
7646.1023648003
 20
4873.2379571052
 30
0.0
 11
7642.3597241132
 21
4873.2379571052
 31
0.0
  0
LWPOLYLINE
  5
2C8
330
1F
100
AcDbEntity
  8
0
  6
Continuous
 62
     7
370
    25
100
AcDbPolyline
 90
        9
 70
   128
 43
0.0
 10
7663.2957377324
 20
4880.054718467
 10
7663.4125418616
 20
4878.7154258943
 10
7663.7088900246
 20
4877.4327152734
 10
7664.1737690107
 20
4876.254256084
 10
7664.7899024839
 20
4875.2238435012
 10
7665.5343930256
 20
4874.379770832
 10
7666.3795730731
 20
4873.753406418
 10
7667.2940331312
 20
4873.3680278912
 10
7668.2437890459
 20
4873.2379571052
  0
LINE
  5
2C9
330
1F
100
AcDbEntity
  8
0
  6
Continuous
 62
     7
370
    25
100
AcDbLine
 10
7671.986429733
 20
4873.2379571052
 30
0.0
 11
7668.2437890459
 21
4873.2379571052
 31
0.0
  0
LINE
  5
2CA
330
1F
100
AcDbEntity
  8
0
  6
Continuous
 62
     7
370
    25
100
AcDbLine
 10
7651.0504161138
 20
4880.054718467
 30
0.0
 11
7654.4157176102
 21
4880.054718467
 31
0.0
  0
LINE
  5
2CB
330
1F
100
AcDbEntity
  8
0
  6
Continuous
 62
     7
370
    25
100
AcDbLine
 10
7659.930436236
 20
4880.054718467
 30
0.0
 11
7663.2957377324
 21
4880.054718467
 31
0.0
  0
LINE
  5
2CC
330
1F
100
AcDbEntity
  8
0
  6
Continuous
 62
     7
370
    25
100
AcDbLine
 10
7654.4157176102
 20
4873.2379571052
 30
0.0
 11
7654.4157176102
 21
4880.054718467
 31
0.0
  0
LINE
  5
2CD
330
1F
100
AcDbEntity
  8
0
  6
Continuous
 62
     7
370
    25
100
AcDbLine
 10
7654.4157176102
 20
4873.2379571052
 30
0.0
 11
7646.1023648003
 21
4873.2379571052
 31
0.0
  0
LINE
  5
2CE
330
1F
100
AcDbEntity
  8
0
  6
Continuous
 62
     7
370
    25
100
AcDbLine
 10
7659.930436236
 20
4880.054718467
 30
0.0
 11
7659.930436236
 21
4873.2379571052
 31
0.0
  0
LINE
  5
2CF
330
1F
100
AcDbEntity
  8
0
  6
Continuous
 62
     7
370
    25
100
AcDbLine
 10
7668.2437890459
 20
4873.2379571052
 30
0.0
 11
7659.930436236
 21
4873.2379571052
 31
0.0
  0
LINE
  5
2D0
330
1F
100
AcDbEntity
  8
0
  6
Continuous
 62
     7
370
    25
100
AcDbLine
 10
7654.4157176102
 20
4880.054718467
 30
0.0
 11
7659.930436236
 21
4880.054718467
 31
0.0
  0
LINE
  5
2D1
330
1F
100
AcDbEntity
  8
0
  6
Continuous
 62
     7
370
    25
100
AcDbLine
 10
7659.930436236
 20
4873.2379571052
 30
0.0
 11
7654.4157176102
 21
4873.2379571052
 31
0.0
  0
LINE
  5
2D2
330
1F
100
AcDbEntity
  8
0
  6
Continuous
 62
     7
370
    25
100
AcDbLine
 10
7592.265599635
 20
4863.0379571052
 30
0.0
 11
7592.265599635
 21
4856.0379571052
 31
0.0
  0
LINE
  5
2D3
330
1F
100
AcDbEntity
  8
0
  6
Continuous
 62
     7
370
    25
100
AcDbLine
 10
7602.0805542112
 20
4863.0379571052
 30
0.0
 11
7602.0805542112
 21
4856.0379571052
 31
0.0
  0
LINE
  5
2D4
330
1F
100
AcDbEntity
  8
0
  6
Continuous
 62
     7
370
    25
100
AcDbLine
 10
7592.265599635
 20
4863.0379571052
 30
0.0
 11
7602.0805542112
 21
4863.0379571052
 31
0.0
  0
LINE
  5
2D5
330
1F
100
AcDbEntity
  8
0
  6
Continuous
 62
     7
370
    25
100
AcDbLine
 10
7592.265599635
 20
4856.0379571052
 30
0.0
 11
7602.0805542112
 21
4856.0379571052
 31
0.0
  0
LINE
  5
2D6
330
1F
100
AcDbEntity
  8
0
  6
Continuous
 62
     7
370
    25
100
AcDbLine
 10
7587.3581223469
 20
4863.0379571052
 30
0.0
 11
7587.3581223469
 21
4856.0379571052
 31
0.0
  0
LINE
  5
2D7
330
1F
100
AcDbEntity
  8
0
  6
Continuous
 62
     7
370
    25
100
AcDbLine
 10
7587.3581223469
 20
4863.0379571052
 30
0.0
 11
7592.265599635
 21
4863.0379571052
 31
0.0
  0
LINE
  5
2D8
330
1F
100
AcDbEntity
  8
0
  6
Continuous
 62
     7
370
    25
100
AcDbLine
 10
7587.3581223469
 20
4856.0379571052
 30
0.0
 11
7592.265599635
 21
4856.0379571052
 31
0.0
  0
LINE
  5
2D9
330
1F
100
AcDbEntity
  8
0
  6
Continuous
 62
     7
370
    25
100
AcDbLine
 10
7606.9880314993
 20
4863.0379571052
 30
0.0
 11
7606.9880314993
 21
4856.0379571052
 31
0.0
  0
LINE
  5
2DA
330
1F
100
AcDbEntity
  8
0
  6
Continuous
 62
     7
370
    25
100
AcDbLine
 10
7602.0805542112
 20
4863.0379571052
 30
0.0
 11
7606.9880314993
 21
4863.0379571052
 31
0.0
  0
LINE
  5
2DB
330
1F
100
AcDbEntity
  8
0
  6
Continuous
 62
     7
370
    25
100
AcDbLine
 10
7602.0805542112
 20
4856.0379571052
 30
0.0
 11
7606.9880314993
 21
4856.0379571052
 31
0.0
  0
LINE
  5
2DC
330
1F
100
AcDbEntity
  8
0
  6
Continuous
 62
     7
370
    25
100
AcDbLine
 10
7593.1730769231
 20
4943.0379571052
 30
0.0
 11
7601.1730769231
 21
4943.0379571052
 31
0.0
  0
LINE
  5
2DD
330
1F
100
AcDbEntity
  8
0
  6
Continuous
 62
     7
370
    25
100
AcDbLine
 10
7734.3581223469
 20
4863.0379571052
 30
0.0
 11
7734.3581223469
 21
4858.0379571052
 31
0.0
  0
LINE
  5
2DE
330
1F
100
AcDbEntity
  8
0
  6
Continuous
 62
     7
370
    25
100
AcDbLine
 10
7734.3581223469
 20
4863.0379571052
 30
0.0
 11
7739.1730769231
 21
4863.0379571052
 31
0.0
  0
LINE
  5
2DF
330
1F
100
AcDbEntity
  8
0
  6
Continuous
 62
     7
370
    25
100
AcDbLine
 10
7753.9880314993
 20
4863.0379571052
 30
0.0
 11
7753.9880314993
 21
4858.0379571052
 31
0.0
  0
LINE
  5
2E0
330
1F
100
AcDbEntity
  8
0
  6
Continuous
 62
     7
370
    25
100
AcDbLine
 10
7749.1730769231
 20
4863.0379571052
 30
0.0
 11
7753.9880314993
 21
4863.0379571052
 31
0.0
  0
LINE
  5
2E1
330
1F
100
AcDbEntity
  8
0
  6
Continuous
 62
     7
370
    25
100
AcDbLine
 10
7729.1730769231
 20
4858.0379571052
 30
0.0
 11
7729.1730769231
 21
4856.0379571052
 31
0.0
  0
LINE
  5
2E2
330
1F
100
AcDbEntity
  8
0
  6
Continuous
 62
     7
370
    25
100
AcDbLine
 10
7729.1730769231
 20
4858.0379571052
 30
0.0
 11
7759.1730769231
 21
4858.0379571052
 31
0.0
  0
LINE
  5
2E3
330
1F
100
AcDbEntity
  8
0
  6
Continuous
 62
     7
370
    25
100
AcDbLine
 10
7729.1730769231
 20
4856.0379571052
 30
0.0
 11
7759.1730769231
 21
4856.0379571052
 31
0.0
  0
LINE
  5
2E4
330
1F
100
AcDbEntity
  8
0
  6
Continuous
 62
     7
370
    25
100
AcDbLine
 10
7759.1730769231
 20
4858.0379571052
 30
0.0
 11
7759.1730769231
 21
4856.0379571052
 31
0.0
  0
LINE
  5
2E5
330
1F
100
AcDbEntity
  8
0
  6
Continuous
 62
     7
370
    25
100
AcDbLine
 10
7740.1730769231
 20
4943.0379571052
 30
0.0
 11
7748.1730769231
 21
4943.0379571052
 31
0.0
  0
LINE
  5
2E6
330
1F
100
AcDbEntity
  8
0
  6
Continuous
 62
     7
370
    25
100
AcDbLine
 10
7582.1730769231
 20
4858.0379571052
 30
0.0
 11
7582.1730769231
 21
4856.0379571052
 31
0.0
  0
LINE
  5
2E7
330
1F
100
AcDbEntity
  8
0
  6
Continuous
 62
     7
370
    25
100
AcDbLine
 10
7582.1730769231
 20
4858.0379571052
 30
0.0
 11
7587.3581223469
 21
4858.0379571052
 31
0.0
  0
LINE
  5
2E8
330
1F
100
AcDbEntity
  8
0
  6
Continuous
 62
     7
370
    25
100
AcDbLine
 10
7606.9880314993
 20
4858.0379571052
 30
0.0
 11
7612.1730769231
 21
4858.0379571052
 31
0.0
  0
LINE
  5
2E9
330
1F
100
AcDbEntity
  8
0
  6
Continuous
 62
     7
370
    25
100
AcDbLine
 10
7612.1730769231
 20
4858.0379571052
 30
0.0
 11
7612.1730769231
 21
4856.0379571052
 31
0.0
  0
LINE
  5
2EA
330
1F
100
AcDbEntity
  8
0
  6
Continuous
 62
     7
370
    25
100
AcDbLine
 10
7582.1730769231
 20
4856.0379571052
 30
0.0
 11
7587.3581223469
 21
4856.0379571052
 31
0.0
  0
LINE
  5
2EB
330
1F
100
AcDbEntity
  8
0
  6
Continuous
 62
     7
370
    25
100
AcDbLine
 10
7606.9880314993
 20
4856.0379571052
 30
0.0
 11
7612.1730769231
 21
4856.0379571052
 31
0.0
  0
LINE
  5
2EC
330
1F
100
AcDbEntity
  8
0
  6
Continuous
 62
     7
370
    25
100
AcDbLine
 10
7585.9730769231
 20
4961.0379571052
 30
0.0
 11
7585.9730769231
 21
4959.8379571052
 31
0.0
  0
LINE
  5
2ED
330
1F
100
AcDbEntity
  8
0
  6
Continuous
 62
     7
370
    25
100
AcDbLine
 10
7585.9730769231
 20
4961.0379571052
 30
0.0
 11
7728.3730769231
 21
4961.0379571052
 31
0.0
  0
LINE
  5
2EE
330
1F
100
AcDbEntity
  8
0
  6
Continuous
 62
     7
370
    25
100
AcDbLine
 10
7728.3730769231
 20
4961.0379571052
 30
0.0
 11
7728.3730769231
 21
4959.8379571052
 31
0.0
  0
LINE
  5
2EF
330
1F
100
AcDbEntity
  8
0
  6
Continuous
 62
     7
370
    25
100
AcDbLine
 10
7585.9730769231
 20
4959.8379571052
 30
0.0
 11
7728.3730769231
 21
4959.8379571052
 31
0.0
  0
LINE
  5
2F0
330
1F
100
AcDbEntity
  8
0
  6
Continuous
 62
     7
370
    25
100
AcDbLine
 10
7607.1730769231
 20
4974.9864157737
 30
0.0
 11
7602.809821473
 21
4974.9864157737
 31
0.0
  0
ARC
  5
2F1
330
1F
100
AcDbEntity
  8
0
  6
Continuous
 62
     7
370
    25
100
AcDbCircle
 10
7604.4547075902
 20
4975.3451921355
 30
0.0
 40
1.683558973216568
100
AcDbArc
 50
89.3750030157
 51
192.3044287048
  0
LINE
  5
2F2
330
1F
100
AcDbEntity
  8
0
  6
Continuous
 62
     7
370
    25
100
AcDbLine
 10
7707.1730769231
 20
4974.9864157737
 30
0.0
 11
7607.1730769231
 21
4974.9864157737
 31
0.0
  0
LINE
  5
2F3
330
1F
100
AcDbEntity
  8
0
  6
Continuous
 62
     7
370
    25
100
AcDbLine
 10
7711.5363323732
 20
4974.9864157737
 30
0.0
 11
7707.1730769231
 21
4974.9864157737
 31
0.0
  0
ARC
  5
2F4
330
1F
100
AcDbEntity
  8
0
  6
Continuous
 62
     7
370
    25
100
AcDbCircle
 10
7709.8730769231
 20
4975.3379571052
 30
0.0
 40
1.700000000001019
100
AcDbArc
 50
348.0657534268
 51
90.0
  0
LINE
  5
2F5
330
1F
100
AcDbEntity
  8
0
  6
Continuous
 62
     7
370
    25
100
AcDbLine
 10
7607.1730769231
 20
4970.7793578705
 30
0.0
 11
7603.6990142524
 21
4970.7793578705
 31
0.0
  0
LINE
  5
2F6
330
1F
100
AcDbEntity
  8
0
  6
Continuous
 62
     7
370
    25
100
AcDbLine
 10
7602.809821473
 20
4974.9864157737
 30
0.0
 11
7603.6990142524
 21
4970.7793578705
 31
0.0
  0
LINE
  5
2F7
330
1F
100
AcDbEntity
  8
0
  6
Continuous
 62
     7
370
    25
100
AcDbLine
 10
7607.1730769231
 20
4974.9864157737
 30
0.0
 11
7607.1730769231
 21
4970.7793578705
 31
0.0
  0
LINE
  5
2F8
330
1F
100
AcDbEntity
  8
0
  6
Continuous
 62
     7
370
    25
100
AcDbLine
 10
7707.1730769231
 20
4970.7793578705
 30
0.0
 11
7607.1730769231
 21
4970.7793578705
 31
0.0
  0
LINE
  5
2F9
330
1F
100
AcDbEntity
  8
0
  6
Continuous
 62
     7
370
    25
100
AcDbLine
 10
7707.1730769231
 20
4974.9864157737
 30
0.0
 11
7707.1730769231
 21
4970.7793578705
 31
0.0
  0
LINE
  5
2FA
330
1F
100
AcDbEntity
  8
0
  6
Continuous
 62
     7
370
    25
100
AcDbLine
 10
7710.6471395938
 20
4970.7793578705
 30
0.0
 11
7707.1730769231
 21
4970.7793578705
 31
0.0
  0
LINE
  5
2FB
330
1F
100
AcDbEntity
  8
0
  6
Continuous
 62
     7
370
    25
100
AcDbLine
 10
7711.5363323732
 20
4974.9864157737
 30
0.0
 11
7710.6471395938
 21
4970.7793578705
 31
0.0
  0
LINE
  5
2FC
330
1F
100
AcDbEntity
  8
0
  6
Continuous
 62
     7
370
    25
100
AcDbLine
 10
7604.9730769231
 20
4970.7793578705
 30
0.0
 11
7604.9730769231
 21
4961.0379571052
 31
0.0
  0
LINE
  5
2FD
330
1F
100
AcDbEntity
  8
0
  6
Continuous
 62
     7
370
    25
100
AcDbLine
 10
7709.3730769231
 20
4970.7793578705
 30
0.0
 11
7709.3730769231
 21
4961.0379571052
 31
0.0
  0
LINE
  5
2FE
330
1F
100
AcDbEntity
  8
0
  6
Continuous
 62
     7
370
    25
100
AcDbLine
 10
7587.1729417524
 20
4935.0379571052
 30
0.0
 11
7608.1729417524
 21
4935.0379571052
 31
0.0
  0
ARC
  5
2FF
330
1F
100
AcDbEntity
  8
0
  6
Continuous
 62
     7
370
    25
100
AcDbCircle
 10
7608.1729417524
 20
4936.0379571052
 30
0.0
 40
1.000000000000909
100
AcDbArc
 50
270.0
 51
359.9996276583
  0
LINE
  5
300
330
1F
100
AcDbEntity
  8
0
  6
Continuous
 62
     7
370
    25
100
AcDbLine
 10
7609.1729417523
 20
4936.0379506066
 30
0.0
 11
7609.1730769232
 21
4956.8379766009
 31
0.0
  0
ARC
  5
301
330
1F
100
AcDbEntity
  8
0
  6
Continuous
 62
     7
370
    25
100
AcDbCircle
 10
7612.1730769231
 20
4956.8379571052
 30
0.0
 40
3.000000000000592
100
AcDbArc
 50
90.0
 51
179.9996276583
  0
ARC
  5
302
330
1F
100
AcDbEntity
  8
0
  6
Continuous
 62
     7
370
    25
100
AcDbCircle
 10
7702.1730769231
 20
4956.8379571052
 30
0.0
 40
3.000000000000181
100
AcDbArc
 50
48.6002523617
 51
90.0
  0
LINE
  5
303
330
1F
100
AcDbEntity
  8
0
  6
Continuous
 62
     7
370
    25
100
AcDbLine
 10
7704.1570026074
 20
4959.0882990524
 30
0.0
 11
7731.1535603744
 21
4935.2878431228
 31
0.0
  0
ARC
  5
304
330
1F
100
AcDbEntity
  8
0
  6
Continuous
 62
     7
370
    25
100
AcDbCircle
 10
7731.8148689358
 20
4936.0379571052
 30
0.0
 40
1.000000000000909
100
AcDbArc
 50
228.6002523617
 51
270.0
  0
LINE
  5
305
330
1F
100
AcDbEntity
  8
0
  6
Continuous
 62
     7
370
    25
100
AcDbLine
 10
7731.8148689358
 20
4935.0379571052
 30
0.0
 11
7752.8148689358
 21
4935.0379571052
 31
0.0
  0
LINE
  5
306
330
1F
100
AcDbEntity
  8
0
  6
Continuous
 62
     7
370
    25
100
AcDbLine
 10
7752.8148689358
 20
4935.0379571052
 30
0.0
 11
7752.8148689358
 21
4933.0379571052
 31
0.0
  0
LINE
  5
307
330
1F
100
AcDbEntity
  8
0
  6
Continuous
 62
     7
370
    25
100
AcDbLine
 10
7752.8148689358
 20
4933.0379571052
 30
0.0
 11
7731.8148689358
 21
4933.0379571052
 31
0.0
  0
ARC
  5
308
330
1F
100
AcDbEntity
  8
0
  6
Continuous
 62
     7
370
    25
100
AcDbCircle
 10
7731.8148689358
 20
4936.0379571052
 30
0.0
 40
3.000000000000909
100
AcDbArc
 50
228.6002523617
 51
270.0
  0
LINE
  5
309
330
1F
100
AcDbEntity
  8
0
  6
Continuous
 62
     7
370
    25
100
AcDbLine
 10
7729.8309432516
 20
4933.787615158
 30
0.0
 11
7702.8343854845
 21
4957.5880710876
 31
0.0
  0
ARC
  5
30A
330
1F
100
AcDbEntity
  8
0
  6
Continuous
 62
     7
370
    25
100
AcDbCircle
 10
7702.1730769231
 20
4956.8379571052
 30
0.0
 40
1.000000000000033
100
AcDbArc
 50
48.6002523617
 51
90.0
  0
LINE
  5
30B
330
1F
100
AcDbEntity
  8
0
  6
Continuous
 62
     7
370
    25
100
AcDbLine
 10
7702.1730769231
 20
4957.8379571052
 30
0.0
 11
7612.1730769231
 21
4957.8379571052
 31
0.0
  0
ARC
  5
30C
330
1F
100
AcDbEntity
  8
0
  6
Continuous
 62
     7
370
    25
100
AcDbCircle
 10
7612.1730769231
 20
4956.8379571052
 30
0.0
 40
1.000000000000197
100
AcDbArc
 50
90.0
 51
179.9996276583
  0
LINE
  5
30D
330
1F
100
AcDbEntity
  8
0
  6
Continuous
 62
     7
370
    25
100
AcDbLine
 10
7611.1730769231
 20
4956.8379636037
 30
0.0
 11
7611.1729417523
 21
4936.0379376094
 31
0.0
  0
ARC
  5
30E
330
1F
100
AcDbEntity
  8
0
  6
Continuous
 62
     7
370
    25
100
AcDbCircle
 10
7608.1729417524
 20
4936.0379571052
 30
0.0
 40
3.000000000000909
100
AcDbArc
 50
270.0
 51
359.9996276583
  0
LINE
  5
30F
330
1F
100
AcDbEntity
  8
0
  6
Continuous
 62
     7
370
    25
100
AcDbLine
 10
7608.1729417524
 20
4933.0379571052
 30
0.0
 11
7587.1729417524
 21
4933.0379571052
 31
0.0
  0
LINE
  5
310
330
1F
100
AcDbEntity
  8
0
  6
Continuous
 62
     7
370
    25
100
AcDbLine
 10
7587.1729417524
 20
4933.0379571052
 30
0.0
 11
7587.1729417524
 21
4935.0379571052
 31
0.0
  0
LINE
  5
311
330
1F
100
AcDbEntity
  8
0
  6
Continuous
 62
     7
370
    25
100
AcDbLine
 10
7592.265599635
 20
4942.0379571052
 30
0.0
 11
7592.265599635
 21
4935.0379571052
 31
0.0
  0
LINE
  5
312
330
1F
100
AcDbEntity
  8
0
  6
Continuous
 62
     7
370
    25
100
AcDbLine
 10
7602.0805542112
 20
4942.0379571052
 30
0.0
 11
7592.265599635
 21
4942.0379571052
 31
0.0
  0
LINE
  5
313
330
1F
100
AcDbEntity
  8
0
  6
Continuous
 62
     7
370
    25
100
AcDbLine
 10
7602.0805542112
 20
4942.0379571052
 30
0.0
 11
7602.0805542112
 21
4935.0379571052
 31
0.0
  0
LINE
  5
314
330
1F
100
AcDbEntity
  8
0
  6
Continuous
 62
     7
370
    25
100
AcDbLine
 10
7587.3581223469
 20
4942.0379571052
 30
0.0
 11
7587.3581223469
 21
4935.0379571052
 31
0.0
  0
LINE
  5
315
330
1F
100
AcDbEntity
  8
0
  6
Continuous
 62
     7
370
    25
100
AcDbLine
 10
7592.265599635
 20
4942.0379571052
 30
0.0
 11
7587.3581223469
 21
4942.0379571052
 31
0.0
  0
LINE
  5
316
330
1F
100
AcDbEntity
  8
0
  6
Continuous
 62
     7
370
    25
100
AcDbLine
 10
7606.9880314993
 20
4942.0379571052
 30
0.0
 11
7606.9880314993
 21
4935.0379571052
 31
0.0
  0
LINE
  5
317
330
1F
100
AcDbEntity
  8
0
  6
Continuous
 62
     7
370
    25
100
AcDbLine
 10
7606.9880314993
 20
4942.0379571052
 30
0.0
 11
7602.0805542112
 21
4942.0379571052
 31
0.0
  0
LINE
  5
318
330
1F
100
AcDbEntity
  8
0
  6
Continuous
 62
     7
370
    25
100
AcDbLine
 10
7734.3581223469
 20
4942.0379571052
 30
0.0
 11
7734.3581223469
 21
4935.0379571052
 31
0.0
  0
LINE
  5
319
330
1F
100
AcDbEntity
  8
0
  6
Continuous
 62
     7
370
    25
100
AcDbLine
 10
7739.265599635
 20
4942.0379571052
 30
0.0
 11
7734.3581223469
 21
4942.0379571052
 31
0.0
  0
LINE
  5
31A
330
1F
100
AcDbEntity
  8
0
  6
Continuous
 62
     7
370
    25
100
AcDbLine
 10
7739.265599635
 20
4942.0379571052
 30
0.0
 11
7739.265599635
 21
4935.0379571052
 31
0.0
  0
LINE
  5
31B
330
1F
100
AcDbEntity
  8
0
  6
Continuous
 62
     7
370
    25
100
AcDbLine
 10
7749.0805542112
 20
4942.0379571052
 30
0.0
 11
7749.0805542112
 21
4935.0379571052
 31
0.0
  0
LINE
  5
31C
330
1F
100
AcDbEntity
  8
0
  6
Continuous
 62
     7
370
    25
100
AcDbLine
 10
7749.0805542112
 20
4942.0379571052
 30
0.0
 11
7739.265599635
 21
4942.0379571052
 31
0.0
  0
LINE
  5
31D
330
1F
100
AcDbEntity
  8
0
  6
Continuous
 62
     7
370
    25
100
AcDbLine
 10
7753.9880314993
 20
4942.0379571052
 30
0.0
 11
7753.9880314993
 21
4935.0379571052
 31
0.0
  0
LINE
  5
31E
330
1F
100
AcDbEntity
  8
0
  6
Continuous
 62
     7
370
    25
100
AcDbLine
 10
7753.9880314993
 20
4935.0379571052
 30
0.0
 11
7752.8148689358
 21
4935.0379571052
 31
0.0
  0
LINE
  5
31F
330
1F
100
AcDbEntity
  8
0
  6
Continuous
 62
     7
370
    25
100
AcDbLine
 10
7753.9880314993
 20
4942.0379571052
 30
0.0
 11
7749.0805542112
 21
4942.0379571052
 31
0.0
  0
LINE
  5
320
330
1F
100
AcDbEntity
  8
0
  6
Continuous
 62
     7
370
    25
100
AcDbLine
 10
7662.946579615
 20
4952.8379571052
 30
0.0
 11
7662.946579615
 21
4957.8379571052
 31
0.0
  0
LINE
  5
321
330
1F
100
AcDbEntity
  8
0
  6
Continuous
 62
     7
370
    25
100
AcDbLine
 10
7660.059828269
 20
4952.8379571052
 30
0.0
 11
7662.946579615
 21
4952.8379571052
 31
0.0
  0
LINE
  5
322
330
1F
100
AcDbEntity
  8
0
  6
Continuous
 62
     7
370
    25
100
AcDbLine
 10
7660.059828269
 20
4952.8379571052
 30
0.0
 11
7660.059828269
 21
4957.8379571052
 31
0.0
  0
LINE
  5
323
330
1F
100
AcDbEntity
  8
0
  6
Continuous
 62
     7
370
    25
100
AcDbLine
 10
7654.2863255771
 20
4952.8379571052
 30
0.0
 11
7660.059828269
 21
4952.8379571052
 31
0.0
  0
LINE
  5
324
330
1F
100
AcDbEntity
  8
0
  6
Continuous
 62
     7
370
    25
100
AcDbLine
 10
7654.2863255771
 20
4952.8379571052
 30
0.0
 11
7654.2863255771
 21
4957.8379571052
 31
0.0
  0
LINE
  5
325
330
1F
100
AcDbEntity
  8
0
  6
Continuous
 62
     7
370
    25
100
AcDbLine
 10
7651.3995742312
 20
4952.8379571052
 30
0.0
 11
7651.3995742312
 21
4957.8379571052
 31
0.0
  0
LINE
  5
326
330
1F
100
AcDbEntity
  8
0
  6
Continuous
 62
     7
370
    25
100
AcDbLine
 10
7651.3995742312
 20
4952.8379571052
 30
0.0
 11
7654.2863255771
 21
4952.8379571052
 31
0.0
  0
LINE
  5
327
330
1F
100
AcDbEntity
  8
0
  6
Continuous
 62
     7
370
    25
100
AcDbLine
 10
7654.1730769231
 20
4937.8379571052
 30
0.0
 11
7660.1730769231
 21
4937.8379571052
 31
0.0
  0
LINE
  5
328
330
1F
100
AcDbEntity
  8
0
  6
Continuous
 62
     8
370
    25
100
AcDbLine
 10
7617.8708507905
 20
4955.7616310314
 30
0.0
 11
7651.3995742312
 21
4955.7616310314
 31
0.0
  0
LINE
  5
329
330
1F
100
AcDbEntity
  8
0
  6
Continuous
 62
     8
370
    25
100
AcDbLine
 10
7662.946579615
 20
4955.7616310314
 30
0.0
 11
7696.4753030557
 21
4955.7616310314
 31
0.0
  0
LINE
  5
32A
330
1F
100
AcDbEntity
  8
0
  6
Continuous
 62
     8
370
    25
100
AcDbLine
 10
7618.1099621757
 20
4956.1757840993
 30
0.0
 11
7651.3995742312
 21
4956.1757840993
 31
0.0
  0
LINE
  5
32B
330
1F
100
AcDbEntity
  8
0
  6
Continuous
 62
     8
370
    25
100
AcDbLine
 10
7662.946579615
 20
4956.1757840993
 30
0.0
 11
7696.2361916705
 21
4956.1757840993
 31
0.0
  0
ARC
  5
32C
330
1F
100
AcDbEntity
  8
0
  6
Continuous
 62
     8
370
    25
100
AcDbCircle
 10
7657.1734100899
 20
4920.2444741781
 30
0.0
 40
17.49966683632861
100
AcDbArc
 50
269.9989091761
 51
359.9989091346
  0
ARC
  5
32D
330
1F
100
AcDbEntity
  8
0
  6
Continuous
 62
     8
370
    25
100
AcDbCircle
 10
7657.1727428512
 20
4920.2444723587
 30
0.0
 40
17.4996650168745
100
AcDbArc
 50
180.0011153103
 51
270.0010937871
  0
LINE
  5
32E
330
1F
100
AcDbEntity
  8
0
  6
Continuous
 62
     8
370
    25
100
AcDbLine
 10
7674.3063413998
 20
4950.2379571052
 30
0.0
 11
7660.1730769231
 21
4950.2379571052
 31
0.0
  0
LINE
  5
32F
330
1F
100
AcDbEntity
  8
0
  6
Continuous
 62
     8
370
    25
100
AcDbLine
 10
7654.1730769231
 20
4950.2379571052
 30
0.0
 11
7640.0398124464
 21
4950.2379571052
 31
0.0
  0
LINE
  5
330
330
1F
100
AcDbEntity
  8
0
  6
Continuous
 62
     8
370
    25
100
AcDbLine
 10
7679.0010754903
 20
4935.9802688494
 30
0.0
 11
7679.097902923
 21
4947.2379571052
 31
0.0
  0
LINE
  5
331
330
1F
100
AcDbEntity
  8
0
  6
Continuous
 62
     8
370
    25
100
AcDbLine
 10
7673.1844376249
 20
4941.8290102997
 30
0.0
 11
7673.1844376249
 21
4947.2379571052
 31
0.0
  0
LINE
  5
332
330
1F
100
AcDbEntity
  8
0
  6
Continuous
 62
     8
370
    25
100
AcDbLine
 10
7635.3450783559
 20
4935.9802688494
 30
0.0
 11
7635.2482509232
 21
4947.2379571052
 31
0.0
  0
LINE
  5
333
330
1F
100
AcDbEntity
  8
0
  6
Continuous
 62
     8
370
    25
100
AcDbLine
 10
7641.1617162213
 20
4941.8290102997
 30
0.0
 11
7641.1617162213
 21
4947.2379571052
 31
0.0
  0
ARC
  5
334
330
1F
100
AcDbEntity
  8
0
  6
Continuous
 62
     8
370
    25
100
AcDbCircle
 10
7672.7334698284
 20
4905.0395053758
 30
0.0
 40
5.835886262679628
100
AcDbArc
 50
292.2807405458
 51
346.2292893367
  0
ARC
  5
335
330
1F
100
AcDbEntity
  8
0
  6
Continuous
 62
     8
370
    25
100
AcDbCircle
 10
7641.6142835793
 20
4905.0411031217
 30
0.0
 40
5.837971247909171
100
AcDbArc
 50
193.7452696728
 51
247.7106782336
  0
ARC
  5
336
330
1F
100
AcDbEntity
  8
0
  6
Continuous
 62
     8
370
    25
100
AcDbCircle
 10
7698.3200094239
 20
4861.1168984534
 30
0.0
 40
48.85774613782637
100
AcDbArc
 50
101.8649724379
 51
111.5369123433
  0
LWPOLYLINE
  5
337
330
1F
100
AcDbEntity
  8
0
  6
Continuous
 62
     8
370
    25
100
AcDbPolyline
 90
        8
 70
   128
 43
0.0
 10
7688.2745666486
 20
4908.93079222
 10
7688.3103579601
 20
4907.4582819988
 10
7688.1313316596
 20
4906.0558521976
 10
7687.7456686753
 20
4904.787589363
 10
7687.1709925693
 20
4903.7114490412
 10
7686.4335641976
 20
4902.8766073955
 10
7685.567081673
 20
4902.3212140131
 10
7684.8898374027
 20
4902.1099956947
  0
ARC
  5
338
330
1F
100
AcDbEntity
  8
0
  6
Continuous
 62
     8
370
    25
100
AcDbCircle
 10
7616.1086527839
 20
4861.3914372185
 30
0.0
 40
48.57211479943029
100
AcDbArc
 50
68.5846849951
 51
78.1636904354
  0
LWPOLYLINE
  5
339
330
1F
100
AcDbEntity
  8
0
  6
Continuous
 62
     8
370
    25
100
AcDbPolyline
 90
        8
 70
   128
 43
0.0
 10
7626.0715871976
 20
4908.93079222
 10
7626.0357958861
 20
4907.4582819988
 10
7626.2148221866
 20
4906.0558521976
 10
7626.6004851709
 20
4904.787589363
 10
7627.1751612769
 20
4903.7114490412
 10
7627.9125896486
 20
4902.8766073955
 10
7628.7790721732
 20
4902.3212140131
 10
7629.4480586538
 20
4902.1115653926
  0
LWPOLYLINE
  5
33A
330
1F
100
AcDbEntity
  8
0
  6
Continuous
 62
     8
370
    25
100
AcDbPolyline
 90
        7
 70
   128
 43
0.0
 10
7688.2745666486
 20
4908.93079222
 10
7693.5857261324
 20
4909.9739007303
 10
7697.9936964131
 20
4911.3558988037
 10
7701.1273006533
 20
4912.9996168288
 10
7703.1379260278
 20
4914.9999662448
 10
7703.9043710828
 20
4917.2789302649
 10
7703.8536574266
 20
4917.5553803748
  0
LWPOLYLINE
  5
33B
330
1F
100
AcDbEntity
  8
0
  6
Continuous
 62
     8
370
    25
100
AcDbPolyline
 90
       11
 70
   128
 43
0.0
 10
7610.4588780229
 20
4917.5491532347
 10
7610.4395805803
 20
4917.322454239
 10
7610.7119493198
 20
4915.9902341542
 10
7611.413494921
 20
4914.7043496265
 10
7612.5414626741
 20
4913.5196273463
 10
7613.9226290162
 20
4912.5438266483
 10
7615.6420556594
 20
4911.657071586
 10
7617.7656037533
 20
4910.8355857427
 10
7620.2259015411
 20
4910.1088617813
 10
7622.9879924558
 20
4909.4782811577
 10
7626.0715871976
 20
4908.93079222
  0
LINE
  5
33C
330
1F
100
AcDbEntity
  8
0
  6
Continuous
 62
     8
370
    25
100
AcDbLine
 10
7623.6288702686
 20
4950.2379571052
 30
0.0
 11
7611.1730340324
 21
4950.2379571052
 31
0.0
  0
LINE
  5
33D
330
1F
100
AcDbEntity
  8
0
  6
Continuous
 62
     8
370
    25
100
AcDbLine
 10
7609.1730340323
 20
4950.2379571052
 30
0.0
 11
7608.1730769231
 21
4950.2379571052
 31
0.0
  0
LINE
  5
33E
330
1F
100
AcDbEntity
  8
0
  6
Continuous
 62
     8
370
    25
100
AcDbLine
 10
7706.1730769231
 20
4950.2379571052
 30
0.0
 11
7690.7172835776
 21
4950.2379571052
 31
0.0
  0
LINE
  5
33F
330
1F
100
AcDbEntity
  8
0
  6
Continuous
 62
     8
370
    25
100
AcDbLine
 10
7635.4725754927
 20
4880.054718467
 30
0.0
 11
7635.10531338
 21
4900.8921201992
 31
0.0
  0
LINE
  5
340
330
1F
100
AcDbEntity
  8
0
  6
Continuous
 62
     8
370
    25
100
AcDbLine
 10
7678.8735783535
 20
4880.054718467
 30
0.0
 11
7689.4138219053
 21
4880.054718467
 31
0.0
  0
LINE
  5
341
330
1F
100
AcDbEntity
  8
0
  6
Continuous
 62
     8
370
    25
100
AcDbLine
 10
7624.9323319408
 20
4880.054718467
 30
0.0
 11
7635.4725754927
 21
4880.054718467
 31
0.0
  0
LINE
  5
342
330
1F
100
AcDbEntity
  8
0
  6
Continuous
 62
     8
370
    25
100
AcDbLine
 10
7678.8735783535
 20
4880.054718467
 30
0.0
 11
7679.2409236395
 21
4900.8968392159
 31
0.0
  0
LINE
  5
343
330
1F
100
AcDbEntity
  8
0
  6
Continuous
 62
     8
370
    25
100
AcDbLine
 10
7647.3077754266
 20
4880.054718467
 30
0.0
 11
7647.5817253446
 21
4894.8498322587
 31
0.0
  0
LINE
  5
344
330
1F
100
AcDbEntity
  8
0
  6
Continuous
 62
     8
370
    25
100
AcDbLine
 10
7667.0383784195
 20
4880.054718467
 30
0.0
 11
7666.7644285016
 21
4894.8498322587
 31
0.0
  0
LINE
  5
345
330
1F
100
AcDbEntity
  8
0
  6
Continuous
 62
     8
370
    25
100
AcDbLine
 10
7647.4928376571
 20
4906.1807082667
 30
0.0
 11
7648.1239154655
 21
4931.7379571052
 31
0.0
  0
LINE
  5
346
330
1F
100
AcDbEntity
  8
0
  6
Continuous
 62
     8
370
    25
100
AcDbLine
 10
7666.853316189
 20
4906.1807082667
 30
0.0
 11
7666.2222383807
 21
4931.7379571052
 31
0.0
  0
LINE
  5
347
330
1F
100
AcDbEntity
  8
0
  6
Continuous
 62
     8
370
    25
100
AcDbLine
 10
7651.6000603807
 20
4904.1707417615
 30
0.0
 11
7652.280769715
 21
4931.7379571052
 31
0.0
  0
LINE
  5
348
330
1F
100
AcDbEntity
  8
0
  6
Continuous
 62
     8
370
    25
100
AcDbLine
 10
7662.7460934654
 20
4904.1707417615
 30
0.0
 11
7662.0653841312
 21
4931.7379571052
 31
0.0
  0
LINE
  5
349
330
1F
100
AcDbEntity
  8
0
  6
Continuous
 62
     8
370
    25
100
AcDbLine
 10
7651.0504161138
 20
4880.054718467
 30
0.0
 11
7651.3037139365
 21
4893.7344820507
 31
0.0
  0
LINE
  5
34A
330
1F
100
AcDbEntity
  8
0
  6
Continuous
 62
     8
370
    25
100
AcDbLine
 10
7663.2957377324
 20
4880.054718467
 30
0.0
 11
7663.0424399096
 21
4893.7344820507
 31
0.0
  0
LINE
  5
34B
330
1F
100
AcDbEntity
  8
0
  6
Continuous
 62
     8
370
    25
100
AcDbLine
 10
7653.8299311726
 20
4903.5819606905
 30
0.0
 11
7653.8299311726
 21
4931.7379571052
 31
0.0
  0
LINE
  5
34C
330
1F
100
AcDbEntity
  8
0
  6
Continuous
 62
     8
370
    25
100
AcDbLine
 10
7660.5162226736
 20
4903.5819606905
 30
0.0
 11
7660.5162226736
 21
4931.7379571052
 31
0.0
  0
LINE
  5
34D
330
1F
100
AcDbEntity
  8
0
  6
Continuous
 62
     8
370
    25
100
AcDbLine
 10
7654.4157176102
 20
4880.054718467
 30
0.0
 11
7654.4157176102
 21
4893.2299754461
 31
0.0
  0
LINE
  5
34E
330
1F
100
AcDbEntity
  8
0
  6
Continuous
 62
     8
370
    25
100
AcDbLine
 10
7659.930436236
 20
4880.054718467
 30
0.0
 11
7659.930436236
 21
4893.2299754461
 31
0.0
  0
LINE
  5
34F
330
1F
100
AcDbEntity
  8
0
  6
Continuous
 62
     8
370
    25
100
AcDbLine
 10
7607.1730769231
 20
4977.0379571052
 30
0.0
 11
7607.1730769231
 21
4974.9864157737
 31
0.0
  0
LINE
  5
350
330
1F
100
AcDbEntity
  8
0
  6
Continuous
 62
     8
370
    25
100
AcDbLine
 10
7707.1730769231
 20
4977.0379571052
 30
0.0
 11
7707.1730769231
 21
4974.9864157737
 31
0.0
  0
LINE
  5
351
330
1F
100
AcDbEntity
  8
0
  6
Continuous
 62
     8
370
    25
100
AcDbLine
 10
7607.1730769231
 20
4970.7793578705
 30
0.0
 11
7607.1730769231
 21
4961.0379571052
 31
0.0
  0
LINE
  5
352
330
1F
100
AcDbEntity
  8
0
  6
Continuous
 62
     8
370
    25
100
AcDbLine
 10
7707.1730769231
 20
4970.7793578705
 30
0.0
 11
7707.1730769231
 21
4961.0379571052
 31
0.0
  0
ENDSEC
  0
SECTION
  2
OBJECTS
  0
DICTIONARY
  5
C
330
0
100
AcDbDictionary
281
     1
  3
ACAD_GROUP
350
D
  3
ACAD_LAYOUT
350
1A
  3
ACAD_MLINESTYLE
350
17
  3
ACAD_PLOTSETTINGS
350
19
  3
ACAD_PLOTSTYLENAME
350
E
  3
ACAD_SCALELIST
350
47
  3
DWGPROPS
350
353
  0
DICTIONARY
  5
D
102
{ACAD_REACTORS
330
C
102
}
330
C
100
AcDbDictionary
281
     1
  0
DICTIONARY
  5
1A
102
{ACAD_REACTORS
330
C
102
}
330
C
100
AcDbDictionary
281
     1
  3
Layout1
350
1E
  3
Layout2
350
26
  3
Model
350
22
  0
DICTIONARY
  5
17
102
{ACAD_REACTORS
330
C
102
}
330
C
100
AcDbDictionary
281
     1
  3
Standard
350
18
  0
DICTIONARY
  5
19
102
{ACAD_REACTORS
330
C
102
}
330
C
100
AcDbDictionary
281
     1
  0
ACDBDICTIONARYWDFLT
  5
E
102
{ACAD_REACTORS
330
C
102
}
330
C
100
AcDbDictionary
281
     1
  3
Normal
350
F
100
AcDbDictionaryWithDefault
340
F
  0
DICTIONARY
  5
47
102
{ACAD_REACTORS
330
C
102
}
330
C
100
AcDbDictionary
281
     1
  3
A0
350
48
  3
A1
350
49
  3
A2
350
4A
  3
A3
350
4B
  3
A4
350
4C
  3
A5
350
4D
  3
A6
350
4E
  3
A7
350
4F
  3
A8
350
50
  3
A9
350
51
  3
B0
350
52
  3
B1
350
53
  3
B2
350
54
  3
B3
350
55
  3
B4
350
56
  3
B5
350
57
  3
B6
350
58
  3
B7
350
59
  3
B8
350
5A
  3
B9
350
5B
  3
C0
350
5C
  3
C1
350
5D
  3
C2
350
5E
  3
C3
350
5F
  3
C4
350
60
  3
C5
350
61
  3
C6
350
62
  3
C7
350
63
  3
C8
350
64
  3
C9
350
65
  3
D0
350
66
  3
D1
350
67
  3
D2
350
68
  0
XRECORD
  5
353
102
{ACAD_REACTORS
330
C
102
}
330
C
100
AcDbXrecord
280
     1
  1
DWGPROPS COOKIE
  2

  3

  4

  6

  7

  8
radek.stransky
  9

300
=
301
=
302
=
303
=
304
=
305
=
306
=
307
=
308
=
309
=
 40
0.0
 41
2459157.414479444
 42
2459157.414479792
  1

 90
        0
  0
LAYOUT
  5
1E
102
{ACAD_REACTORS
330
1A
102
}
330
1A
100
AcDbPlotSettings
  1

  2
none_device
  4

  6

 40
0.0
 41
0.0
 42
0.0
 43
0.0
 44
0.0
 45
0.0
 46
0.0
 47
0.0
 48
0.0
 49
0.0
140
0.0
141
0.0
142
1.0
143
1.0
 70
   688
 72
     1
 73
     0
 74
     5
  7

 75
    16
147
1.0
148
0.0
149
0.0
100
AcDbLayout
  1
Layout1
 70
     1
 71
     1
 10
0.0
 20
0.0
 11
420.0
 21
297.0
 12
0.0
 22
0.0
 32
0.0
 14
1.0000000000E+20
 24
1.0000000000E+20
 34
1.0000000000E+20
 15
-1.0000000000E+20
 25
-1.0000000000E+20
 35
-1.0000000000E+20
146
0.0
 13
0.0
 23
0.0
 33
0.0
 16
1.0
 26
0.0
 36
0.0
 17
0.0
 27
1.0
 37
0.0
 76
     0
330
1B
  0
LAYOUT
  5
26
102
{ACAD_REACTORS
330
1A
102
}
330
1A
100
AcDbPlotSettings
  1

  2
none_device
  4

  6

 40
0.0
 41
0.0
 42
0.0
 43
0.0
 44
0.0
 45
0.0
 46
0.0
 47
0.0
 48
0.0
 49
0.0
140
0.0
141
0.0
142
1.0
143
1.0
 70
   688
 72
     1
 73
     0
 74
     5
  7

 75
    16
147
1.0
148
0.0
149
0.0
100
AcDbLayout
  1
Layout2
 70
     1
 71
     2
 10
0.0
 20
0.0
 11
0.0
 21
0.0
 12
0.0
 22
0.0
 32
0.0
 14
0.0
 24
0.0
 34
0.0
 15
0.0
 25
0.0
 35
0.0
146
0.0
 13
0.0
 23
0.0
 33
0.0
 16
1.0
 26
0.0
 36
0.0
 17
0.0
 27
1.0
 37
0.0
 76
     0
330
23
  0
LAYOUT
  5
22
102
{ACAD_REACTORS
330
1A
102
}
330
1A
100
AcDbPlotSettings
  1

  2
none_device
  4
Letter_(8.50_x_11.00_Inches)
  6

 40
6.35
 41
6.35
 42
6.35000508
 43
6.35000508
 44
215.9
 45
279.4
 46
0.0
 47
0.0
 48
0.0
 49
0.0
140
0.0
141
0.0
142
1.0
143
1.0
 70
  1712
 72
     1
 73
     0
 74
     0
  7

 75
     0
147
1.0
148
0.0
149
0.0
100
AcDbLayout
  1
Model
 70
     1
 71
     0
 10
0.0
 20
0.0
 11
20000.0
 21
10000.0
 12
0.0
 22
0.0
 32
0.0
 14
0.0
 24
0.0
 34
0.0
 15
20000.0
 25
10000.0
 35
0.0
146
0.0
 13
0.0
 23
0.0
 33
0.0
 16
1.0
 26
0.0
 36
0.0
 17
0.0
 27
1.0
 37
0.0
 76
     0
330
1F
331
29
  0
MLINESTYLE
  5
18
102
{ACAD_REACTORS
330
17
102
}
330
17
100
AcDbMlineStyle
  2
Standard
 70
     0
  3

 62
   256
 51
90.0
 52
90.0
 71
     2
 49
0.5
 62
   256
  6
BYLAYER
 49
-0.5
 62
   256
  6
BYLAYER
  0
ACDBPLACEHOLDER
  5
F
102
{ACAD_REACTORS
330
E
102
}
330
E
  0
SCALE
  5
48
102
{ACAD_REACTORS
330
47
102
}
330
47
100
AcDbScale
 70
     0
300
1:1
140
1.0
141
1.0
290
     1
  0
SCALE
  5
49
102
{ACAD_REACTORS
330
47
102
}
330
47
100
AcDbScale
 70
     0
300
1:2
140
1.0
141
2.0
290
     0
  0
SCALE
  5
4A
102
{ACAD_REACTORS
330
47
102
}
330
47
100
AcDbScale
 70
     0
300
1:4
140
1.0
141
4.0
290
     0
  0
SCALE
  5
4B
102
{ACAD_REACTORS
330
47
102
}
330
47
100
AcDbScale
 70
     0
300
1:5
140
1.0
141
5.0
290
     0
  0
SCALE
  5
4C
102
{ACAD_REACTORS
330
47
102
}
330
47
100
AcDbScale
 70
     0
300
1:8
140
1.0
141
8.0
290
     0
  0
SCALE
  5
4D
102
{ACAD_REACTORS
330
47
102
}
330
47
100
AcDbScale
 70
     0
300
1:10
140
1.0
141
10.0
290
     0
  0
SCALE
  5
4E
102
{ACAD_REACTORS
330
47
102
}
330
47
100
AcDbScale
 70
     0
300
1:16
140
1.0
141
16.0
290
     0
  0
SCALE
  5
4F
102
{ACAD_REACTORS
330
47
102
}
330
47
100
AcDbScale
 70
     0
300
1:20
140
1.0
141
20.0
290
     0
  0
SCALE
  5
50
102
{ACAD_REACTORS
330
47
102
}
330
47
100
AcDbScale
 70
     0
300
1:30
140
1.0
141
30.0
290
     0
  0
SCALE
  5
51
102
{ACAD_REACTORS
330
47
102
}
330
47
100
AcDbScale
 70
     0
300
1:40
140
1.0
141
40.0
290
     0
  0
SCALE
  5
52
102
{ACAD_REACTORS
330
47
102
}
330
47
100
AcDbScale
 70
     0
300
1:50
140
1.0
141
50.0
290
     0
  0
SCALE
  5
53
102
{ACAD_REACTORS
330
47
102
}
330
47
100
AcDbScale
 70
     0
300
1:100
140
1.0
141
100.0
290
     0
  0
SCALE
  5
54
102
{ACAD_REACTORS
330
47
102
}
330
47
100
AcDbScale
 70
     0
300
2:1
140
2.0
141
1.0
290
     0
  0
SCALE
  5
55
102
{ACAD_REACTORS
330
47
102
}
330
47
100
AcDbScale
 70
     0
300
4:1
140
4.0
141
1.0
290
     0
  0
SCALE
  5
56
102
{ACAD_REACTORS
330
47
102
}
330
47
100
AcDbScale
 70
     0
300
8:1
140
8.0
141
1.0
290
     0
  0
SCALE
  5
57
102
{ACAD_REACTORS
330
47
102
}
330
47
100
AcDbScale
 70
     0
300
10:1
140
10.0
141
1.0
290
     0
  0
SCALE
  5
58
102
{ACAD_REACTORS
330
47
102
}
330
47
100
AcDbScale
 70
     0
300
100:1
140
100.0
141
1.0
290
     0
  0
SCALE
  5
59
102
{ACAD_REACTORS
330
47
102
}
330
47
100
AcDbScale
 70
     0
300
1/128" = 1'-0"
140
0.0078125
141
12.0
290
     0
  0
SCALE
  5
5A
102
{ACAD_REACTORS
330
47
102
}
330
47
100
AcDbScale
 70
     0
300
1/64" = 1'-0"
140
0.015625
141
12.0
290
     0
  0
SCALE
  5
5B
102
{ACAD_REACTORS
330
47
102
}
330
47
100
AcDbScale
 70
     0
300
1/32" = 1'-0"
140
0.03125
141
12.0
290
     0
  0
SCALE
  5
5C
102
{ACAD_REACTORS
330
47
102
}
330
47
100
AcDbScale
 70
     0
300
1/16" = 1'-0"
140
0.0625
141
12.0
290
     0
  0
SCALE
  5
5D
102
{ACAD_REACTORS
330
47
102
}
330
47
100
AcDbScale
 70
     0
300
3/32" = 1'-0"
140
0.09375
141
12.0
290
     0
  0
SCALE
  5
5E
102
{ACAD_REACTORS
330
47
102
}
330
47
100
AcDbScale
 70
     0
300
1/8" = 1'-0"
140
0.125
141
12.0
290
     0
  0
SCALE
  5
5F
102
{ACAD_REACTORS
330
47
102
}
330
47
100
AcDbScale
 70
     0
300
3/16" = 1'-0"
140
0.1875
141
12.0
290
     0
  0
SCALE
  5
60
102
{ACAD_REACTORS
330
47
102
}
330
47
100
AcDbScale
 70
     0
300
1/4" = 1'-0"
140
0.25
141
12.0
290
     0
  0
SCALE
  5
61
102
{ACAD_REACTORS
330
47
102
}
330
47
100
AcDbScale
 70
     0
300
3/8" = 1'-0"
140
0.375
141
12.0
290
     0
  0
SCALE
  5
62
102
{ACAD_REACTORS
330
47
102
}
330
47
100
AcDbScale
 70
     0
300
1/2" = 1'-0"
140
0.5
141
12.0
290
     0
  0
SCALE
  5
63
102
{ACAD_REACTORS
330
47
102
}
330
47
100
AcDbScale
 70
     0
300
3/4" = 1'-0"
140
0.75
141
12.0
290
     0
  0
SCALE
  5
64
102
{ACAD_REACTORS
330
47
102
}
330
47
100
AcDbScale
 70
     0
300
1" = 1'-0"
140
1.0
141
12.0
290
     0
  0
SCALE
  5
65
102
{ACAD_REACTORS
330
47
102
}
330
47
100
AcDbScale
 70
     0
300
1-1/2" = 1'-0"
140
1.5
141
12.0
290
     0
  0
SCALE
  5
66
102
{ACAD_REACTORS
330
47
102
}
330
47
100
AcDbScale
 70
     0
300
3" = 1'-0"
140
3.0
141
12.0
290
     0
  0
SCALE
  5
67
102
{ACAD_REACTORS
330
47
102
}
330
47
100
AcDbScale
 70
     0
300
6" = 1'-0"
140
6.0
141
12.0
290
     0
  0
SCALE
  5
68
102
{ACAD_REACTORS
330
47
102
}
330
47
100
AcDbScale
 70
     0
300
1'-0" = 1'-0"
140
12.0
141
12.0
290
     0
  0
ENDSEC
  0
EOF
