  0
SECTION
  2
HEADER
  9
$ACADVER
  1
AC1015
  9
$ACADMAINTVER
 70
     6
  9
$DWGCODEPAGE
  3
ANSI_1250
  9
$INSBASE
 10
0.0
 20
0.0
 30
0.0
  9
$EXTMIN
 10
0.0
 20
0.0
 30
0.0
  9
$EXTMAX
 10
20000.0
 20
10000.0
 30
0.0
  9
$LIMMIN
 10
0.0
 20
0.0
  9
$LIMMAX
 10
20000.0
 20
10000.0
  9
$ORTHOMODE
 70
     0
  9
$REGENMODE
 70
     1
  9
$FILLMODE
 70
     1
  9
$QTEXTMODE
 70
     0
  9
$MIRRTEXT
 70
     1
  9
$LTSCALE
 40
1.0
  9
$ATTMODE
 70
     1
  9
$TEXTSIZE
 40
2.0
  9
$TRACEWID
 40
1.0
  9
$TEXTSTYLE
  7
Standard
  9
$CLAYER
  8
0
  9
$CELTYPE
  6
ByLayer
  9
$CECOLOR
 62
   256
  9
$CELTSCALE
 40
1.0
  9
$DISPSILH
 70
     0
  9
$DIMSCALE
 40
1.0
  9
$DIMASZ
 40
2.0
  9
$DIMEXO
 40
1.0
  9
$DIMDLI
 40
3.75
  9
$DIMRND
 40
0.0
  9
$DIMDLE
 40
0.0
  9
$DIMEXE
 40
1.0
  9
$DIMTP
 40
0.0
  9
$DIMTM
 40
0.0
  9
$DIMTXT
 40
2.0
  9
$DIMCEN
 40
2.5
  9
$DIMTSZ
 40
0.0
  9
$DIMTOL
 70
     0
  9
$DIMLIM
 70
     0
  9
$DIMTIH
 70
     1
  9
$DIMTOH
 70
     1
  9
$DIMSE1
 70
     0
  9
$DIMSE2
 70
     0
  9
$DIMTAD
 70
     1
  9
$DIMZIN
 70
     0
  9
$DIMBLK
  1

  9
$DIMASO
 70
     1
  9
$DIMSHO
 70
     1
  9
$DIMPOST
  1

  9
$DIMAPOST
  1

  9
$DIMALT
 70
     0
  9
$DIMALTD
 70
     3
  9
$DIMALTF
 40
0.0393700787
  9
$DIMLFAC
 40
1.0
  9
$DIMTOFL
 70
     1
  9
$DIMTVP
 40
0.0
  9
$DIMTIX
 70
     0
  9
$DIMSOXD
 70
     0
  9
$DIMSAH
 70
     0
  9
$DIMBLK1
  1

  9
$DIMBLK2
  1

  9
$DIMSTYLE
  2
ISO-25
  9
$DIMCLRD
 70
     0
  9
$DIMCLRE
 70
     0
  9
$DIMCLRT
 70
     0
  9
$DIMTFAC
 40
1.0
  9
$DIMGAP
 40
1.524
  9
$DIMJUST
 70
     0
  9
$DIMSD1
 70
     0
  9
$DIMSD2
 70
     0
  9
$DIMTOLJ
 70
     0
  9
$DIMTZIN
 70
     0
  9
$DIMALTZ
 70
     0
  9
$DIMALTTZ
 70
     0
  9
$DIMUPT
 70
     0
  9
$DIMDEC
 70
     2
  9
$DIMTDEC
 70
     0
  9
$DIMALTU
 70
     2
  9
$DIMALTTD
 70
     3
  9
$DIMTXSTY
  7
Standard
  9
$DIMAUNIT
 70
     0
  9
$DIMADEC
 70
     2
  9
$DIMALTRND
 40
0.0
  9
$DIMAZIN
 70
     0
  9
$DIMDSEP
 70
    44
  9
$DIMATFIT
 70
     3
  9
$DIMFRAC
 70
     0
  9
$DIMLDRBLK
  1

  9
$DIMLUNIT
 70
     2
  9
$DIMLWD
 70
    -2
  9
$DIMLWE
 70
    -2
  9
$DIMTMOVE
 70
     0
  9
$LUNITS
 70
     2
  9
$LUPREC
 70
     3
  9
$SKETCHINC
 40
1.0
  9
$FILLETRAD
 40
10.0
  9
$AUNITS
 70
     0
  9
$AUPREC
 70
     2
  9
$MENU
  1
.
  9
$ELEVATION
 40
0.0
  9
$PELEVATION
 40
0.0
  9
$THICKNESS
 40
0.0
  9
$LIMCHECK
 70
     0
  9
$CHAMFERA
 40
0.0
  9
$CHAMFERB
 40
0.0
  9
$CHAMFERC
 40
0.0
  9
$CHAMFERD
 40
0.0
  9
$SKPOLY
 70
     0
  9
$TDCREATE
 40
2459107.543103484
  9
$TDUCREATE
 40
2459107.45977015
  9
$TDUPDATE
 40
2459107.543104028
  9
$TDUUPDATE
 40
2459107.459770694
  9
$TDINDWG
 40
0.0000000116
  9
$TDUSRTIMER
 40
0.0000000116
  9
$USRTIMER
 70
     1
  9
$ANGBASE
 50
0.0
  9
$ANGDIR
 70
     0
  9
$PDMODE
 70
     0
  9
$PDSIZE
 40
-1.0
  9
$PLINEWID
 40
0.0
  9
$SPLFRAME
 70
     0
  9
$SPLINETYPE
 70
     6
  9
$SPLINESEGS
 70
     8
  9
$HANDSEED
  5
645
  9
$SURFTAB1
 70
     6
  9
$SURFTAB2
 70
     6
  9
$SURFTYPE
 70
     6
  9
$SURFU
 70
     6
  9
$SURFV
 70
     6
  9
$UCSBASE
  2

  9
$UCSNAME
  2

  9
$UCSORG
 10
0.0
 20
0.0
 30
0.0
  9
$UCSXDIR
 10
1.0
 20
0.0
 30
0.0
  9
$UCSYDIR
 10
0.0
 20
1.0
 30
0.0
  9
$UCSORTHOREF
  2

  9
$UCSORTHOVIEW
 70
     0
  9
$UCSORGTOP
 10
0.0
 20
0.0
 30
0.0
  9
$UCSORGBOTTOM
 10
0.0
 20
0.0
 30
0.0
  9
$UCSORGLEFT
 10
0.0
 20
0.0
 30
0.0
  9
$UCSORGRIGHT
 10
0.0
 20
0.0
 30
0.0
  9
$UCSORGFRONT
 10
0.0
 20
0.0
 30
0.0
  9
$UCSORGBACK
 10
0.0
 20
0.0
 30
0.0
  9
$PUCSBASE
  2

  9
$PUCSNAME
  2

  9
$PUCSORG
 10
0.0
 20
0.0
 30
0.0
  9
$PUCSXDIR
 10
1.0
 20
0.0
 30
0.0
  9
$PUCSYDIR
 10
0.0
 20
1.0
 30
0.0
  9
$PUCSORTHOREF
  2

  9
$PUCSORTHOVIEW
 70
     0
  9
$PUCSORGTOP
 10
0.0
 20
0.0
 30
0.0
  9
$PUCSORGBOTTOM
 10
0.0
 20
0.0
 30
0.0
  9
$PUCSORGLEFT
 10
0.0
 20
0.0
 30
0.0
  9
$PUCSORGRIGHT
 10
0.0
 20
0.0
 30
0.0
  9
$PUCSORGFRONT
 10
0.0
 20
0.0
 30
0.0
  9
$PUCSORGBACK
 10
0.0
 20
0.0
 30
0.0
  9
$USERI1
 70
     0
  9
$USERI2
 70
     0
  9
$USERI3
 70
     0
  9
$USERI4
 70
     0
  9
$USERI5
 70
     0
  9
$USERR1
 40
0.0
  9
$USERR2
 40
0.0
  9
$USERR3
 40
0.0
  9
$USERR4
 40
0.0
  9
$USERR5
 40
0.0
  9
$WORLDVIEW
 70
     1
  9
$SHADEDGE
 70
     3
  9
$SHADEDIF
 70
    70
  9
$TILEMODE
 70
     1
  9
$MAXACTVP
 70
    64
  9
$PINSBASE
 10
0.0
 20
0.0
 30
0.0
  9
$PLIMCHECK
 70
     0
  9
$PEXTMIN
 10
1.0000000000E+20
 20
1.0000000000E+20
 30
1.0000000000E+20
  9
$PEXTMAX
 10
-1.0000000000E+20
 20
-1.0000000000E+20
 30
-1.0000000000E+20
  9
$PLIMMIN
 10
0.0
 20
0.0
  9
$PLIMMAX
 10
420.0
 20
297.0
  9
$UNITMODE
 70
     0
  9
$VISRETAIN
 70
     1
  9
$PLINEGEN
 70
     0
  9
$PSLTSCALE
 70
     1
  9
$TREEDEPTH
 70
  3020
  9
$CMLSTYLE
  2
Standard
  9
$CMLJUST
 70
     0
  9
$CMLSCALE
 40
20.0
  9
$PROXYGRAPHICS
 70
     1
  9
$MEASUREMENT
 70
     1
  9
$CELWEIGHT
370
    -1
  9
$ENDCAPS
280
     0
  9
$JOINSTYLE
280
     0
  9
$LWDISPLAY
290
     1
  9
$INSUNITS
 70
     4
  9
$HYPERLINKBASE
  1

  9
$STYLESHEET
  1

  9
$XEDIT
290
     1
  9
$CEPSNTYPE
380
     0
  9
$PSTYLEMODE
290
     1
  9
$FINGERPRINTGUID
  2
{e6fe280a-f48d-4225-91d6-420254d3bd17}
  9
$VERSIONGUID
  2
{FAEB1C32-E019-11D5-929B-00C0DF256EC4}
  9
$EXTNAMES
290
     1
  9
$PSVPSCALE
 40
0.0
  9
$OLESTARTUP
290
     0
  0
ENDSEC
  0
SECTION
  2
CLASSES
  0
CLASS
  1
ACDBDICTIONARYWDFLT
  2
AcDbDictionaryWithDefault
  3
ObjectDBX Classes
 90
        0
280
     0
281
     0
  0
CLASS
  1
VISUALSTYLE
  2
AcDbVisualStyle
  3
ObjectDBX Classes
 90
     4095
280
     0
281
     0
  0
CLASS
  1
MATERIAL
  2
AcDbMaterial
  3
ObjectDBX Classes
 90
     1153
280
     0
281
     0
  0
CLASS
  1
SCALE
  2
AcDbScale
  3
ObjectDBX Classes
 90
     1153
280
     0
281
     0
  0
CLASS
  1
TABLESTYLE
  2
AcDbTableStyle
  3
ObjectDBX Classes
 90
     4095
280
     0
281
     0
  0
CLASS
  1
MLEADERSTYLE
  2
AcDbMLeaderStyle
  3
ACDB_MLEADERSTYLE_CLASS
 90
     4095
280
     0
281
     0
  0
CLASS
  1
SUN
  2
AcDbSun
  3
SCENEOE
 90
     1153
280
     0
281
     0
  0
CLASS
  1
ACDBPLACEHOLDER
  2
AcDbPlaceHolder
  3
ObjectDBX Classes
 90
        0
280
     0
281
     0
  0
CLASS
  1
LAYOUT
  2
AcDbLayout
  3
ObjectDBX Classes
 90
        0
280
     0
281
     0
  0
ENDSEC
  0
SECTION
  2
TABLES
  0
TABLE
  2
VPORT
  5
8
330
0
100
AcDbSymbolTable
 70
     1
  0
VPORT
  5
29
330
8
100
AcDbSymbolTableRecord
100
AcDbViewportTableRecord
  2
*Active
 70
     0
 10
0.0
 20
0.0
 11
1.0
 21
1.0
 12
10000.0
 22
5000.0
 13
0.0
 23
0.0
 14
10.0
 24
10.0
 15
10.0
 25
10.0
 16
0.0
 26
0.0
 36
1.0
 17
0.0
 27
0.0
 37
0.0
 40
10000.0
 41
2.0
 42
50.0
 43
0.0
 44
0.0
 50
0.0
 51
0.0
 71
     0
 72
  2000
 73
     1
 74
     3
 75
     0
 76
     0
 77
     0
 78
     0
281
     0
 65
     1
110
0.0
120
0.0
130
0.0
111
1.0
121
0.0
131
0.0
112
0.0
122
1.0
132
0.0
 79
     0
146
0.0
  0
ENDTAB
  0
TABLE
  2
LTYPE
  5
5
330
0
100
AcDbSymbolTable
 70
     6
  0
LTYPE
  5
14
330
5
100
AcDbSymbolTableRecord
100
AcDbLinetypeTableRecord
  2
ByBlock
 70
     0
  3

 72
    65
 73
     0
 40
0.0
  0
LTYPE
  5
15
330
5
100
AcDbSymbolTableRecord
100
AcDbLinetypeTableRecord
  2
ByLayer
 70
     0
  3

 72
    65
 73
     0
 40
0.0
  0
LTYPE
  5
16
330
5
100
AcDbSymbolTableRecord
100
AcDbLinetypeTableRecord
  2
Continuous
 70
     0
  3
Solid line
 72
    65
 73
     0
 40
0.0
  0
LTYPE
  5
6E
330
5
100
AcDbSymbolTableRecord
100
AcDbLinetypeTableRecord
  2
HIDDEN
 70
     0
  3
Hidden __ __ __ __ __ __ __ __ __ __ __ __ __ __
 72
    65
 73
     2
 40
1.905
 49
1.27
 74
     0
 49
-0.635
 74
     0
  0
LTYPE
  5
6F
330
5
100
AcDbSymbolTableRecord
100
AcDbLinetypeTableRecord
  2
PHANTOM
 70
     0
  3
Phantom ______  __  __  ______  __  __  ______
 72
    65
 73
     6
 40
12.7
 49
6.35
 74
     0
 49
-1.27
 74
     0
 49
1.27
 74
     0
 49
-1.27
 74
     0
 49
1.27
 74
     0
 49
-1.27
 74
     0
  0
LTYPE
  5
70
330
5
100
AcDbSymbolTableRecord
100
AcDbLinetypeTableRecord
  2
CENTER
 70
     0
  3
Center ____ _ ____ _ ____ _ ____ _ ____ _ ____
 72
    65
 73
     4
 40
10.16
 49
6.35
 74
     0
 49
-1.27
 74
     0
 49
1.27
 74
     0
 49
-1.27
 74
     0
  0
LTYPE
  5
71
330
5
100
AcDbSymbolTableRecord
100
AcDbLinetypeTableRecord
  2
CENTERX2
 70
     0
  3
Center (2x) ________  __  ________  __  _____
 72
    65
 73
     4
 40
20.32
 49
12.7
 74
     0
 49
-2.54
 74
     0
 49
2.54
 74
     0
 49
-2.54
 74
     0
  0
LTYPE
  5
72
330
5
100
AcDbSymbolTableRecord
100
AcDbLinetypeTableRecord
  2
DOT2
 70
     0
  3
Dot (.5x) ........................................
 72
    65
 73
     2
 40
0.635
 49
0.0
 74
     0
 49
-0.635
 74
     0
  0
ENDTAB
  0
TABLE
  2
LAYER
  5
2
330
0
100
AcDbSymbolTable
 70
    13
  0
LAYER
  5
10
330
2
100
AcDbSymbolTableRecord
100
AcDbLayerTableRecord
  2
0
 70
     0
 62
     7
  6
Continuous
370
    -3
390
F
  0
LAYER
  5
73
330
2
100
AcDbSymbolTableRecord
100
AcDbLayerTableRecord
  2
FORMAT
 70
     0
 62
     7
  6
Continuous
370
    -3
390
F
  0
LAYER
  5
74
330
2
100
AcDbSymbolTableRecord
100
AcDbLayerTableRecord
  2
OSA
 70
     0
 62
     7
  6
CENTER
370
    -3
390
F
  0
LAYER
  5
75
330
2
100
AcDbSymbolTableRecord
100
AcDbLayerTableRecord
  2
0_35
 70
     0
 62
     7
  6
Continuous
370
    35
390
F
  0
LAYER
  5
76
330
2
100
AcDbSymbolTableRecord
100
AcDbLayerTableRecord
  2
0_5
 70
     0
 62
     7
  6
Continuous
370
    50
390
F
  0
LAYER
  5
77
330
2
100
AcDbSymbolTableRecord
100
AcDbLayerTableRecord
  2
0_25
 70
     0
 62
     7
  6
Continuous
370
    25
390
F
  0
LAYER
  5
78
330
2
100
AcDbSymbolTableRecord
100
AcDbLayerTableRecord
  2
0_18
 70
     0
 62
     7
  6
Continuous
370
    -3
390
F
  0
LAYER
  5
79
330
2
100
AcDbSymbolTableRecord
100
AcDbLayerTableRecord
  2
SLD-0
 70
     0
 62
   179
  6
Continuous
370
    -3
390
F
  0
LAYER
  5
7A
330
2
100
AcDbSymbolTableRecord
100
AcDbLayerTableRecord
  2
KOTY
 70
     0
 62
     7
  6
Continuous
370
    -3
390
F
  0
LAYER
  5
7B
330
2
100
AcDbSymbolTableRecord
100
AcDbLayerTableRecord
  2
SILNA
 70
     0
 62
   179
  6
Continuous
370
    -3
390
F
  0
LAYER
  5
7C
330
2
100
AcDbSymbolTableRecord
100
AcDbLayerTableRecord
  2
0_18_1
 70
     0
 62
   179
  6
Continuous
370
    -3
390
F
  0
LAYER
  5
7D
330
2
100
AcDbSymbolTableRecord
100
AcDbLayerTableRecord
  2
0_35_1
 70
     0
 62
   179
  6
Continuous
370
    35
390
F
  0
LAYER
  5
7E
330
2
100
AcDbSymbolTableRecord
100
AcDbLayerTableRecord
  2
0_5_1
 70
     0
 62
   179
  6
Continuous
370
    50
390
F
  0
ENDTAB
  0
TABLE
  2
STYLE
  5
3
330
0
100
AcDbSymbolTable
 70
     1
  0
STYLE
  5
11
330
3
100
AcDbSymbolTableRecord
100
AcDbTextStyleTableRecord
  2
Standard
 70
     0
 40
0.0
 41
1.0
 50
0.0
 71
     0
 42
2.0
  3
txt
  4

  0
ENDTAB
  0
TABLE
  2
VIEW
  5
6
330
0
100
AcDbSymbolTable
 70
     0
  0
ENDTAB
  0
TABLE
  2
UCS
  5
7
330
0
100
AcDbSymbolTable
 70
     0
  0
ENDTAB
  0
TABLE
  2
APPID
  5
9
330
0
100
AcDbSymbolTable
 70
     1
  0
APPID
  5
12
330
9
100
AcDbSymbolTableRecord
100
AcDbRegAppTableRecord
  2
ACAD
 70
     0
  0
ENDTAB
  0
TABLE
  2
DIMSTYLE
  5
A
330
0
100
AcDbSymbolTable
 70
     1
100
AcDbDimStyleTable
  0
DIMSTYLE
105
27
330
A
100
AcDbSymbolTableRecord
100
AcDbDimStyleTableRecord
  2
ISO-25
 70
     0
 41
2.5
 42
0.625
 43
3.75
 44
1.25
 73
     0
 74
     0
 77
     1
 78
     8
140
2.5
141
2.5
143
0.0393700787
147
0.625
171
     3
172
     1
178
     0
271
     2
272
     2
274
     3
278
    44
283
     0
284
     8
340
11
  0
ENDTAB
  0
TABLE
  2
BLOCK_RECORD
  5
1
330
0
100
AcDbSymbolTable
 70
     1
  0
BLOCK_RECORD
  5
1F
330
1
100
AcDbSymbolTableRecord
100
AcDbBlockTableRecord
  2
*Model_Space
340
22
  0
BLOCK_RECORD
  5
1B
330
1
100
AcDbSymbolTableRecord
100
AcDbBlockTableRecord
  2
*Paper_Space
340
1E
  0
BLOCK_RECORD
  5
23
330
1
100
AcDbSymbolTableRecord
100
AcDbBlockTableRecord
  2
*Paper_Space0
340
26
  0
ENDTAB
  0
ENDSEC
  0
SECTION
  2
BLOCKS
  0
BLOCK
  5
20
330
1F
100
AcDbEntity
  8
0
100
AcDbBlockBegin
  2
*Model_Space
 70
     0
 10
0.0
 20
0.0
 30
0.0
  3
*Model_Space
  1

  0
ENDBLK
  5
21
330
1F
100
AcDbEntity
  8
0
100
AcDbBlockEnd
  0
BLOCK
  5
1C
330
1B
100
AcDbEntity
 67
     1
  8
0
100
AcDbBlockBegin
  2
*Paper_Space
 70
     0
 10
0.0
 20
0.0
 30
0.0
  3
*Paper_Space
  1

  0
ENDBLK
  5
1D
330
1B
100
AcDbEntity
 67
     1
  8
0
100
AcDbBlockEnd
  0
BLOCK
  5
24
330
23
100
AcDbEntity
  8
0
100
AcDbBlockBegin
  2
*Paper_Space0
 70
     0
 10
0.0
 20
0.0
 30
0.0
  3
*Paper_Space0
  1

  0
ENDBLK
  5
25
330
23
100
AcDbEntity
  8
0
100
AcDbBlockEnd
  0
ENDSEC
  0
SECTION
  2
ENTITIES
  0
LINE
  5
7F
330
1F
100
AcDbEntity
  8
0
  6
Continuous
 62
     7
370
    25
100
AcDbLine
 10
6240.7687553361
 20
5229.0492985395
 30
0.0
 11
6240.7687553361
 21
5228.003805859
 31
0.0
  0
LINE
  5
80
330
1F
100
AcDbEntity
  8
0
  6
Continuous
 62
     7
370
    25
100
AcDbLine
 10
6307.2687553361
 20
5228.003805859
 30
0.0
 11
6307.2687553361
 21
5229.0492985395
 31
0.0
  0
LINE
  5
81
330
1F
100
AcDbEntity
  8
0
  6
Continuous
 62
     7
370
    25
100
AcDbLine
 10
6234.0187553361
 20
5226.495731245
 30
0.0
 11
6234.0187553361
 21
5225.9994420927
 31
0.0
  0
LINE
  5
82
330
1F
100
AcDbEntity
  8
0
  6
Continuous
 62
     7
370
    25
100
AcDbLine
 10
6314.0187553361
 20
5225.9994420927
 30
0.0
 11
6314.0187553361
 21
5226.495731245
 31
0.0
  0
ARC
  5
83
330
1F
100
AcDbEntity
  8
0
  6
Continuous
 62
     7
370
    25
100
AcDbCircle
 10
6234.6690973836
 20
5226.550500793
 30
0.0
 40
0.05476954799542
100
AcDbArc
 50
270.0
 51
330.0000000003
  0
ARC
  5
84
330
1F
100
AcDbEntity
  8
0
  6
Continuous
 62
     7
370
    25
100
AcDbCircle
 10
6313.3684132886
 20
5226.550500793
 30
0.0
 40
0.0547695479963295
100
AcDbArc
 50
210.0000000005
 51
270.0
  0
LINE
  5
85
330
1F
100
AcDbEntity
  8
0
  6
Continuous
 62
     7
370
    25
100
AcDbLine
 10
6313.3209814687
 20
5226.523116019
 30
0.0
 11
6313.0818700835
 21
5226.9372690868
 31
0.0
  0
LINE
  5
86
330
1F
100
AcDbEntity
  8
0
  6
Continuous
 62
     7
370
    25
100
AcDbLine
 10
6234.9556405887
 20
5226.9372690868
 30
0.0
 11
6234.7165292035
 21
5226.523116019
 31
0.0
  0
ARC
  5
87
330
1F
100
AcDbEntity
  8
0
  6
Continuous
 62
     7
370
    25
100
AcDbCircle
 10
6235.0504726402
 20
5226.8825177764
 30
0.0
 40
0.1095026209371498
100
AcDbArc
 50
90.0
 51
150.0000000001
  0
ARC
  5
88
330
1F
100
AcDbEntity
  8
0
  6
Continuous
 62
     7
370
    25
100
AcDbCircle
 10
6312.987038032
 20
5226.8825177764
 30
0.0
 40
0.1095026209371498
100
AcDbArc
 50
29.9999999999
 51
90.0
  0
LINE
  5
89
330
1F
100
AcDbEntity
  8
0
  6
Continuous
 62
     7
370
    25
100
AcDbLine
 10
6312.987038032
 20
5226.9920203973
 30
0.0
 11
6235.0504726402
 21
5226.9920203973
 31
0.0
  0
ARC
  5
8A
330
1F
100
AcDbEntity
  8
0
  6
Continuous
 62
     7
370
    25
100
AcDbCircle
 10
6314.0573135552
 20
5209.0613713722
 30
0.0
 40
6.853085275273202
100
AcDbArc
 50
305.7382565022
 51
359.7686518058
  0
LINE
  5
8B
330
1F
100
AcDbEntity
  8
0
  6
Continuous
 62
     7
370
    25
100
AcDbLine
 10
6320.940503559
 20
5209.0326765883
 30
0.0
 11
6321.0187553361
 21
5217.9994420927
 31
0.0
  0
ARC
  5
8C
330
1F
100
AcDbEntity
  8
0
  6
Continuous
 62
     7
370
    25
100
AcDbCircle
 10
6321.0187553361
 20
5220.9994420927
 30
0.0
 40
2.000000000000909
100
AcDbArc
 50
0.0
 51
90.0
  0
LINE
  5
8D
330
1F
100
AcDbEntity
  8
0
  6
Continuous
 62
     7
370
    25
100
AcDbLine
 10
6323.0187553361
 20
5217.9994420927
 30
0.0
 11
6323.0187553361
 21
5220.9994420927
 31
0.0
  0
LINE
  5
8E
330
1F
100
AcDbEntity
  8
0
  6
Continuous
 62
     7
370
    25
100
AcDbLine
 10
6315.7687553361
 20
5222.9994420927
 30
0.0
 11
6315.7687553361
 21
5225.9994420927
 31
0.0
  0
LINE
  5
8F
330
1F
100
AcDbEntity
  8
0
  6
Continuous
 62
     7
370
    25
100
AcDbLine
 10
6232.2687553361
 20
5225.9994420927
 30
0.0
 11
6232.2687553361
 21
5222.9994420927
 31
0.0
  0
LINE
  5
90
330
1F
100
AcDbEntity
  8
0
  6
Continuous
 62
     7
370
    25
100
AcDbLine
 10
6306.2595003184
 20
5150.8162034546
 30
0.0
 11
6307.4613636571
 21
5196.7135126483
 31
0.0
  0
ARC
  5
91
330
1F
100
AcDbEntity
  8
0
  6
Continuous
 62
     7
370
    25
100
AcDbCircle
 10
6299.2618990435
 20
5150.9994420927
 30
0.0
 40
7.000000000000909
100
AcDbArc
 50
270.0
 51
358.5
  0
ARC
  5
92
330
1F
100
AcDbEntity
  8
0
  6
Continuous
 62
     7
370
    25
100
AcDbCircle
 10
6142.4529357327
 20
5190.8502945412
 30
0.0
 40
27.0
100
AcDbArc
 50
73.1772087534
 51
90.0
  0
ARC
  5
93
330
1F
100
AcDbEntity
  8
0
  6
Continuous
 62
     7
370
    25
100
AcDbCircle
 10
6142.4529357327
 20
5190.8502945412
 30
0.0
 40
27.00000000000062
100
AcDbArc
 50
228.2942528904
 51
287.8227912466
  0
ARC
  5
94
330
1F
100
AcDbEntity
  8
0
  6
Continuous
 62
     7
370
    25
100
AcDbCircle
 10
6142.4529357327
 20
5190.8502945412
 30
0.0
 40
27.0
100
AcDbArc
 50
90.0
 51
132.7057471096
  0
ARC
  5
95
330
1F
100
AcDbEntity
  8
0
  6
Continuous
 62
     7
370
    25
100
AcDbCircle
 10
6207.0187553361
 20
5215.9278209955
 30
0.0
 40
1.99999999999944
100
AcDbArc
 50
0.5
 51
92.0154937467
  0
ARC
  5
96
330
1F
100
AcDbEntity
  8
0
  6
Continuous
 62
     7
370
    25
100
AcDbCircle
 10
6207.4465848332
 20
5166.9034164414
 30
0.0
 40
2.000000000000349
100
AcDbArc
 50
268.9845062533
 51
0.5
  0
LINE
  5
97
330
1F
100
AcDbEntity
  8
0
  6
Continuous
 62
     7
370
    25
100
AcDbLine
 10
6209.4465086793
 20
5166.9208695124
 30
0.0
 11
6209.0186791822
 21
5215.9452740665
 31
0.0
  0
LINE
  5
98
330
1F
100
AcDbEntity
  8
0
  6
Continuous
 62
     7
370
    25
100
AcDbLine
 10
6206.9484158409
 20
5217.9265837016
 30
0.0
 11
6181.9484158409
 21
5217.0467957338
 31
0.0
  0
LINE
  5
99
330
1F
100
AcDbEntity
  8
0
  6
Continuous
 62
     7
370
    25
100
AcDbLine
 10
6182.3995924741
 20
5165.3470743739
 30
0.0
 11
6207.4111392702
 21
5164.903730563
 31
0.0
  0
ARC
  5
9A
330
1F
100
AcDbEntity
  8
0
  6
Continuous
 62
     7
370
    25
100
AcDbCircle
 10
6182.0187553361
 20
5215.0480330277
 30
0.0
 40
2.000000000000287
100
AcDbArc
 50
92.0154937467
 51
180.0
  0
ARC
  5
9B
330
1F
100
AcDbEntity
  8
0
  6
Continuous
 62
     7
370
    25
100
AcDbCircle
 10
6182.4350380371
 20
5167.3467602523
 30
0.0
 40
2.000000000000286
100
AcDbArc
 50
181.0
 51
268.9845062532
  0
LINE
  5
9C
330
1F
100
AcDbEntity
  8
0
  6
Continuous
 62
     7
370
    25
100
AcDbLine
 10
6180.0187553361
 20
5215.0480330277
 30
0.0
 11
6180.0187553361
 21
5211.1788880501
 31
0.0
  0
LINE
  5
9D
330
1F
100
AcDbEntity
  8
0
  6
Continuous
 62
     7
370
    25
100
AcDbLine
 10
6180.367816756
 20
5171.1804111275
 30
0.0
 11
6180.4353426467
 21
5167.3118554394
 31
0.0
  0
LINE
  5
9E
330
1F
100
AcDbEntity
  8
0
  6
Continuous
 62
     7
370
    25
100
AcDbLine
 10
6158.8439579679
 20
5167.7782734364
 30
0.0
 11
6159.6816489914
 21
5167.7928953876
 31
0.0
  0
LINE
  5
9F
330
1F
100
AcDbEntity
  8
0
  6
Continuous
 62
     7
370
    25
100
AcDbLine
 10
6159.2766178735
 20
5214.2048644475
 30
0.0
 11
6158.4387992462
 21
5214.2048644475
 31
0.0
  0
ARC
  5
A0
330
1F
100
AcDbEntity
  8
0
  6
Continuous
 62
     7
370
    25
100
AcDbCircle
 10
6158.4387992462
 20
5213.9548644475
 30
0.0
 40
0.25
100
AcDbArc
 50
90.0
 51
168.5
  0
ARC
  5
A1
330
1F
100
AcDbEntity
  8
0
  6
Continuous
 62
     7
370
    25
100
AcDbCircle
 10
6158.8395948663
 20
5168.0282353602
 30
0.0
 40
0.2499999999996683
100
AcDbArc
 50
192.5
 51
271.0000000001
  0
ARC
  5
A2
330
1F
100
AcDbEntity
  8
0
  6
Continuous
 62
     7
370
    25
100
AcDbCircle
 10
6159.2766178735
 20
5213.9548644475
 30
0.0
 40
0.25
100
AcDbArc
 50
10.5
 51
90.0
  0
ARC
  5
A3
330
1F
100
AcDbEntity
  8
0
  6
Continuous
 62
     7
370
    25
100
AcDbCircle
 10
6159.6772858898
 20
5168.0428573114
 30
0.0
 40
0.250000000000231
100
AcDbArc
 50
271.0000000001
 51
350.5000000002
  0
LINE
  5
A4
330
1F
100
AcDbEntity
  8
0
  6
Continuous
 62
     7
370
    25
100
AcDbLine
 10
6158.19381807
 20
5214.0047064311
 30
0.0
 11
6157.7776256225
 21
5211.9590551963
 31
0.0
  0
LINE
  5
A5
330
1F
100
AcDbEntity
  8
0
  6
Continuous
 62
     7
370
    25
100
AcDbLine
 10
6158.1436902683
 20
5170.0122015691
 30
0.0
 11
6158.5955208645
 21
5167.9741254567
 31
0.0
  0
LINE
  5
A6
330
1F
100
AcDbEntity
  8
0
  6
Continuous
 62
     7
370
    25
100
AcDbLine
 10
6159.9238572901
 20
5168.0015954099
 30
0.0
 11
6160.4266870424
 21
5171.0063875249
 31
0.0
  0
LINE
  5
A7
330
1F
100
AcDbEntity
  8
0
  6
Continuous
 62
     7
370
    25
100
AcDbLine
 10
6160.0776256225
 20
5211.0048644475
 30
0.0
 11
6159.5224316004
 21
5214.0004233288
 31
0.0
  0
ARC
  5
A8
330
1F
100
AcDbEntity
  8
0
  6
Continuous
 62
     7
370
    25
100
AcDbCircle
 10
6142.4529357327
 20
5190.8502945412
 30
0.0
 40
23.99999999999965
100
AcDbArc
 50
57.0896848103
 51
70.9987276534
  0
ARC
  5
A9
330
1F
100
AcDbEntity
  8
0
  6
Continuous
 62
     7
370
    25
100
AcDbCircle
 10
6142.4529357327
 20
5190.8502945412
 30
0.0
 40
23.99999999999999
100
AcDbArc
 50
290.0012723466
 51
303.9103151897
  0
LINE
  5
AA
330
1F
100
AcDbEntity
  8
0
  6
Continuous
 62
     7
370
    25
100
AcDbLine
 10
6247.9587877665
 20
5173.3603045953
 30
0.0
 11
6248.5555511569
 21
5150.5708301516
 31
0.0
  0
LWPOLYLINE
  5
AB
330
1F
100
AcDbEntity
  8
0
  6
Continuous
 62
     7
370
    25
100
AcDbPolyline
 90
        7
 70
   128
 43
0.0
 10
6248.5546292297
 20
5150.6102552623
 10
6248.7298527927
 20
5149.45138289
 10
6249.682352959
 20
5147.5519705093
 10
6251.4345951168
 20
5145.8133017446
 10
6253.372505967
 20
5144.6942660688
 10
6254.5536721013
 20
5144.2771100743
 10
6256.5859270358
 20
5143.9994420927
  0
LINE
  5
AC
330
1F
100
AcDbEntity
  8
0
  6
Continuous
 62
     7
370
    25
100
AcDbLine
 10
6215.075531391
 20
5211.4848238999
 30
0.0
 11
6209.0580632208
 21
5211.4323102507
 31
0.0
  0
LINE
  5
AD
330
1F
100
AcDbEntity
  8
0
  6
Continuous
 62
     7
370
    25
100
AcDbLine
 10
6209.4071246407
 20
5171.4338333282
 30
0.0
 11
6216.6498673256
 21
5171.497039786
 31
0.0
  0
ARC
  5
AE
330
1F
100
AcDbEntity
  8
0
  6
Continuous
 62
     7
370
    25
100
AcDbCircle
 10
6156.3077385655
 20
5212.2581070979
 30
0.0
 40
1.500000000000566
100
AcDbArc
 50
237.0896848103
 51
348.5
  0
ARC
  5
AF
330
1F
100
AcDbEntity
  8
0
  6
Continuous
 62
     7
370
    25
100
AcDbCircle
 10
6156.6792462576
 20
5169.6875421482
 30
0.0
 40
1.500000000000391
100
AcDbArc
 50
12.5
 51
123.9103151897
  0
LINE
  5
B0
330
1F
100
AcDbEntity
  8
0
  6
Continuous
 62
     7
370
    25
100
AcDbLine
 10
6180.0187553361
 20
5211.1788880501
 30
0.0
 11
6160.0776256225
 21
5211.0048644475
 31
0.0
  0
LINE
  5
B1
330
1F
100
AcDbEntity
  8
0
  6
Continuous
 62
     7
370
    25
100
AcDbLine
 10
6160.4266870424
 20
5171.0063875249
 30
0.0
 11
6180.367816756
 21
5171.1804111275
 31
0.0
  0
LINE
  5
B2
330
1F
100
AcDbEntity
  8
0
  6
Continuous
 62
     7
370
    25
100
AcDbLine
 10
6124.1406343974
 20
5210.6911518767
 30
0.0
 11
6055.5892852738
 21
5210.092913316
 31
0.0
  0
LINE
  5
B3
330
1F
100
AcDbEntity
  8
0
  6
Continuous
 62
     7
370
    25
100
AcDbLine
 10
6055.9383450323
 20
5170.0946267781
 30
0.0
 11
6124.4896941558
 21
5170.6928653388
 31
0.0
  0
LINE
  5
B4
330
1F
100
AcDbEntity
  8
0
  6
Continuous
 62
     7
370
    25
100
AcDbLine
 10
6055.5892852738
 20
5210.092913316
 30
0.0
 11
6052.103555101
 21
5209.7771837445
 31
0.0
  0
LINE
  5
B5
330
1F
100
AcDbEntity
  8
0
  6
Continuous
 62
     7
370
    25
100
AcDbLine
 10
6052.4476355123
 20
5170.3494738827
 30
0.0
 11
6055.9383450323
 21
5170.0946267781
 31
0.0
  0
LINE
  5
B6
330
1F
100
AcDbEntity
  8
0
  6
Continuous
 62
     7
370
    25
100
AcDbLine
 10
6052.103555101
 20
5209.7771837445
 30
0.0
 11
6052.103555101
 21
5207.5623986136
 31
0.0
  0
LINE
  5
B7
330
1F
100
AcDbEntity
  8
0
  6
Continuous
 62
     7
370
    25
100
AcDbLine
 10
6052.408982182
 20
5172.5639216911
 30
0.0
 11
6052.4476355123
 21
5170.3494738827
 31
0.0
  0
ARC
  5
B8
330
1F
100
AcDbEntity
  8
0
  6
Continuous
 62
     7
370
    25
100
AcDbCircle
 10
6215.05807832
 20
5213.484747746
 30
0.0
 40
2.000000000000349
100
AcDbArc
 50
270.5
 51
0.5
  0
ARC
  5
B9
330
1F
100
AcDbEntity
  8
0
  6
Continuous
 62
     7
370
    25
100
AcDbCircle
 10
6222.9650514222
 20
5178.3389327595
 30
0.0
 40
8.83661007095446
100
AcDbArc
 50
235.0092265577
 51
282.7578591461
  0
LWPOLYLINE
  5
BA
330
1F
100
AcDbEntity
  8
0
  6
Continuous
 62
     7
370
    25
100
AcDbPolyline
 90
        3
 70
   128
 43
0.0
 10
6224.9633717955
 20
5169.7248300348
 10
6224.9688376206
 20
5169.7253367031
 10
6224.9584834296
 20
5169.7244743841
  0
ARC
  5
BB
330
1F
100
AcDbEntity
  8
0
  6
Continuous
 62
     7
370
    25
100
AcDbCircle
 10
6216.8306388976
 20
5169.8667380291
 30
0.0
 40
1.612651671722767
100
AcDbArc
 50
48.4360533117
 51
96.2068831894
  0
LINE
  5
BC
330
1F
100
AcDbEntity
  8
0
  6
Continuous
 62
     7
370
    25
100
AcDbLine
 10
6831.3187553361
 20
5133.7994420927
 30
0.0
 11
6831.3187553361
 21
5203.7994420927
 31
0.0
  0
LINE
  5
BD
330
1F
100
AcDbEntity
  8
0
  6
Continuous
 62
     7
370
    25
100
AcDbLine
 10
6821.3187553361
 20
5203.7994420927
 30
0.0
 11
6821.3187553361
 21
5133.7994420927
 31
0.0
  0
LINE
  5
BE
330
1F
100
AcDbEntity
  8
0
  6
Continuous
 62
     7
370
    25
100
AcDbLine
 10
6831.3187553361
 20
5212.7994420927
 30
0.0
 11
6830.3187553361
 21
5213.7994420927
 31
0.0
  0
LINE
  5
BF
330
1F
100
AcDbEntity
  8
0
  6
Continuous
 62
     7
370
    25
100
AcDbLine
 10
6822.3187553361
 20
5213.7994420927
 30
0.0
 11
6821.3187553361
 21
5212.7994420927
 31
0.0
  0
LINE
  5
C0
330
1F
100
AcDbEntity
  8
0
  6
Continuous
 62
     7
370
    25
100
AcDbLine
 10
5726.7187553361
 20
5128.7994420927
 30
0.0
 11
5726.7187553361
 21
5203.7994420927
 31
0.0
  0
LINE
  5
C1
330
1F
100
AcDbEntity
  8
0
  6
Continuous
 62
     7
370
    25
100
AcDbLine
 10
5716.7187553361
 20
5203.7994420927
 30
0.0
 11
5716.7187553361
 21
5128.7994420927
 31
0.0
  0
LINE
  5
C2
330
1F
100
AcDbEntity
  8
0
  6
Continuous
 62
     7
370
    25
100
AcDbLine
 10
5726.7187553361
 20
5212.7994420927
 30
0.0
 11
5725.7187553361
 21
5213.7994420927
 31
0.0
  0
LINE
  5
C3
330
1F
100
AcDbEntity
  8
0
  6
Continuous
 62
     7
370
    25
100
AcDbLine
 10
5717.7187553361
 20
5213.7994420927
 30
0.0
 11
5716.7187553361
 21
5212.7994420927
 31
0.0
  0
LINE
  5
C4
330
1F
100
AcDbEntity
  8
0
  6
Continuous
 62
     7
370
    25
100
AcDbLine
 10
6844.6187553361
 20
5247.7994420927
 30
0.0
 11
5703.4187553361
 21
5247.7994420927
 31
0.0
  0
LINE
  5
C5
330
1F
100
AcDbEntity
  8
0
  6
Continuous
 62
     7
370
    25
100
AcDbLine
 10
6847.3187553361
 20
5247.7994420927
 30
0.0
 11
6844.6187553361
 21
5247.7994420927
 31
0.0
  0
LINE
  5
C6
330
1F
100
AcDbEntity
  8
0
  6
Continuous
 62
     7
370
    25
100
AcDbLine
 10
5703.4187553361
 20
5247.7994420927
 30
0.0
 11
5700.7187553361
 21
5247.7994420927
 31
0.0
  0
LINE
  5
C7
330
1F
100
AcDbEntity
  8
0
  6
Continuous
 62
     7
370
    25
100
AcDbLine
 10
6238.2332985674
 20
5230.5994420927
 30
0.0
 11
6240.7687553361
 21
5229.0492985395
 31
0.0
  0
LINE
  5
C8
330
1F
100
AcDbEntity
  8
0
  6
Continuous
 62
     7
370
    25
100
AcDbLine
 10
6242.478791473
 20
5228.003805859
 30
0.0
 11
6244.13369517
 21
5226.9920203973
 31
0.0
  0
LINE
  5
C9
330
1F
100
AcDbEntity
  8
0
  6
Continuous
 62
     7
370
    25
100
AcDbLine
 10
6303.9038155022
 20
5226.9920203973
 30
0.0
 11
6305.5587191992
 21
5228.003805859
 31
0.0
  0
LINE
  5
CA
330
1F
100
AcDbEntity
  8
0
  6
Continuous
 62
     7
370
    25
100
AcDbLine
 10
6307.2687553361
 20
5229.0492985395
 30
0.0
 11
6309.8042121048
 21
5230.5994420927
 31
0.0
  0
LINE
  5
CB
330
1F
100
AcDbEntity
  8
0
  6
Continuous
 62
     7
370
    25
100
AcDbLine
 10
6307.2687553361
 20
5228.003805859
 30
0.0
 11
6240.7687553361
 21
5228.003805859
 31
0.0
  0
LINE
  5
CC
330
1F
100
AcDbEntity
  8
0
  6
Continuous
 62
     7
370
    25
100
AcDbLine
 10
6234.0187553361
 20
5226.495731245
 30
0.0
 11
6314.0187553361
 21
5226.495731245
 31
0.0
  0
LWPOLYLINE
  5
CD
330
1F
100
AcDbEntity
  8
0
  6
Continuous
 62
     7
370
    25
100
AcDbPolyline
 90
       18
 70
   128
 43
0.0
 10
6317.7728701909
 20
5203.2989149751
 10
6317.8179474112
 20
5203.3297948121
 10
6317.0746431675
 20
5202.8267816506
 10
6315.5331883308
 20
5201.8006261862
 10
6313.4513558374
 20
5200.4468850163
 10
6310.813533529
 20
5198.7831937465
 10
6307.714577978
 20
5196.9001311353
 10
6304.1299940575
 20
5194.818326852
 10
6300.166592331
 20
5192.62863267
 10
6295.901327706
 20
5190.3990989528
 10
6289.4196487345
 20
5187.2588153027
 10
6282.5436487513
 20
5184.2312301293
 10
6275.8778265166
 20
5181.5868912103
 10
6269.1422089835
 20
5179.1871456617
 10
6262.71152514
 20
5177.1476879949
 10
6256.5475900396
 20
5175.4109099715
 10
6250.8859445234
 20
5174.003256867
 10
6245.8615497504
 20
5172.8978461541
  0
LWPOLYLINE
  5
CE
330
1F
100
AcDbEntity
  8
0
  6
Continuous
 62
     7
370
    25
100
AcDbPolyline
 90
        9
 70
   128
 43
0.0
 10
6239.2281711583
 20
5179.6922772075
 10
6239.4919429644
 20
5178.2197669863
 10
6239.9821298386
 20
5176.8173371852
 10
6240.6763318122
 20
5175.5490743506
 10
6241.54282608
 20
5174.4729340288
 10
6242.5420166316
 20
5173.6380923831
 10
6243.6282436615
 20
5173.0826990006
 10
6244.7518700762
 20
5172.8321335788
 10
6245.8615497504
 20
5172.8978461541
  0
LINE
  5
CF
330
1F
100
AcDbEntity
  8
0
  6
Continuous
 62
     7
370
    25
100
AcDbLine
 10
6239.2281711583
 20
5179.6922772075
 30
0.0
 11
6238.978939987
 21
5217.9994420927
 31
0.0
  0
ARC
  5
D0
330
1F
100
AcDbEntity
  8
0
  6
Continuous
 62
     7
370
    25
100
AcDbCircle
 10
6240.07644716
 20
5221.2367915091
 30
0.0
 40
1.791632486068305
100
AcDbArc
 50
100.3196220904
 51
187.6127302624
  0
LINE
  5
D1
330
1F
100
AcDbEntity
  8
0
  6
Continuous
 62
     7
370
    25
100
AcDbLine
 10
6239.7554956289
 20
5222.9994420927
 30
0.0
 11
6321.0187553361
 21
5222.9994420927
 31
0.0
  0
LINE
  5
D2
330
1F
100
AcDbEntity
  8
0
  6
Continuous
 62
     7
370
    25
100
AcDbLine
 10
6238.3006058891
 20
5217.9994420927
 30
0.0
 11
6323.0187553361
 21
5217.9994420927
 31
0.0
  0
LINE
  5
D3
330
1F
100
AcDbEntity
  8
0
  6
Continuous
 62
     7
370
    25
100
AcDbLine
 10
6238.3006058891
 20
5220.9994420927
 30
0.0
 11
6238.3006058891
 21
5217.9994420927
 31
0.0
  0
LINE
  5
D4
330
1F
100
AcDbEntity
  8
0
  6
Continuous
 62
     7
370
    25
100
AcDbLine
 10
6232.2687553361
 20
5225.9994420927
 30
0.0
 11
6315.7687553361
 21
5225.9994420927
 31
0.0
  0
LINE
  5
D5
330
1F
100
AcDbEntity
  8
0
  6
Continuous
 62
     7
370
    25
100
AcDbLine
 10
6250.1743875592
 20
5150.8162034546
 30
0.0
 11
6249.7305071389
 21
5173.7363495965
 31
0.0
  0
LINE
  5
D6
330
1F
100
AcDbEntity
  8
0
  6
Continuous
 62
     7
370
    25
100
AcDbLine
 10
6238.3006058891
 20
5220.9994420927
 30
0.0
 11
6220.7625077158
 21
5220.9994420927
 31
0.0
  0
ARC
  5
D7
330
1F
100
AcDbEntity
  8
0
  6
Continuous
 62
     7
370
    25
100
AcDbCircle
 10
6223.8177785637
 20
5221.4833384388
 30
0.0
 40
3.093353459914043
100
AcDbArc
 50
150.6517591702
 51
188.9997984493
  0
LINE
  5
D8
330
1F
100
AcDbEntity
  8
0
  6
Continuous
 62
     7
370
    25
100
AcDbLine
 10
6221.1214356073
 20
5222.9994420927
 30
0.0
 11
6239.7554956289
 21
5222.9994420927
 31
0.0
  0
LINE
  5
D9
330
1F
100
AcDbEntity
  8
0
  6
Continuous
 62
     7
370
    25
100
AcDbLine
 10
6220.7625077158
 20
5220.9994420927
 30
0.0
 11
6220.7625077158
 21
5217.9994420927
 31
0.0
  0
LINE
  5
DA
330
1F
100
AcDbEntity
  8
0
  6
Continuous
 62
     7
370
    25
100
AcDbLine
 10
6220.7625077158
 20
5217.9994420927
 30
0.0
 11
6238.3006058891
 21
5217.9994420927
 31
0.0
  0
ARC
  5
DB
330
1F
100
AcDbEntity
  8
0
  6
Continuous
 62
     7
370
    25
100
AcDbCircle
 10
6207.3936298623
 20
5304.416119032
 30
0.0
 40
128.7224717715542
100
AcDbArc
 50
276.5444516408
 51
284.318474563
  0
LINE
  5
DC
330
1F
100
AcDbEntity
  8
0
  6
Continuous
 62
     7
370
    25
100
AcDbLine
 10
6222.0646474319
 20
5176.5324375771
 30
0.0
 11
6222.0034090068
 21
5217.9994420927
 31
0.0
  0
LWPOLYLINE
  5
DD
330
1F
100
AcDbEntity
  8
0
  6
Continuous
 62
     7
370
    25
100
AcDbPolyline
 90
        6
 70
   128
 43
0.0
 10
6222.0646474319
 20
5176.5324375771
 10
6222.2378171069
 20
5175.188973021
 10
6222.5043085579
 20
5173.8485377856
 10
6223.230756787
 20
5171.6224314335
 10
6224.1303911652
 20
5170.1803989899
 10
6225.0664761678
 20
5169.7354391237
  0
ARC
  5
DE
330
1F
100
AcDbEntity
  8
0
  6
Continuous
 62
     7
370
    25
100
AcDbCircle
 10
6205.4363668663
 20
5368.7697547797
 30
0.0
 40
199.9999999995931
100
AcDbArc
 50
275.6326806458
 51
281.6613043232
  0
LINE
  5
DF
330
1F
100
AcDbEntity
  8
0
  6
Continuous
 62
     7
370
    25
100
AcDbLine
 10
6299.2618990435
 20
5143.9994420927
 30
0.0
 11
6256.5859270358
 21
5143.9994420927
 31
0.0
  0
ARC
  5
E0
330
1F
100
AcDbEntity
  8
0
  6
Continuous
 62
     7
370
    25
100
AcDbCircle
 10
6256.8854772398
 20
5150.704769226
 30
0.0
 40
6.712014771171348
100
AcDbArc
 50
179.0487201604
 51
267.4420996518
  0
LINE
  5
E1
330
1F
100
AcDbEntity
  8
0
  6
Continuous
 62
     7
370
    25
100
AcDbLine
 10
6150.2670753606
 20
5216.694814693
 30
0.0
 11
6150.7169342992
 21
5165.1460861758
 31
0.0
  0
LINE
  5
E2
330
1F
100
AcDbEntity
  8
0
  6
Continuous
 62
     7
370
    25
100
AcDbLine
 10
6124.1406343974
 20
5210.6911518767
 30
0.0
 11
6124.4896941558
 21
5170.6928653388
 31
0.0
  0
LINE
  5
E3
330
1F
100
AcDbEntity
  8
0
  6
Continuous
 62
     7
370
    25
100
AcDbLine
 10
6220.7625077158
 20
5220.9994420927
 30
0.0
 11
6215.0187553361
 21
5220.9994420927
 31
0.0
  0
ARC
  5
E4
330
1F
100
AcDbEntity
  8
0
  6
Continuous
 62
     7
370
    25
100
AcDbCircle
 10
6217.0187553361
 20
5220.9994420927
 30
0.0
 40
2.000000000000909
100
AcDbArc
 50
90.0
 51
180.0
  0
LINE
  5
E5
330
1F
100
AcDbEntity
  8
0
  6
Continuous
 62
     7
370
    25
100
AcDbLine
 10
6217.0187553361
 20
5222.9994420927
 30
0.0
 11
6221.1214356073
 21
5222.9994420927
 31
0.0
  0
LINE
  5
E6
330
1F
100
AcDbEntity
  8
0
  6
Continuous
 62
     7
370
    25
100
AcDbLine
 10
6215.0187553361
 20
5220.9994420927
 30
0.0
 11
6215.0187553361
 21
5217.9994420927
 31
0.0
  0
LINE
  5
E7
330
1F
100
AcDbEntity
  8
0
  6
Continuous
 62
     7
370
    25
100
AcDbLine
 10
6215.0187553361
 20
5217.9994420927
 30
0.0
 11
6220.7625077158
 21
5217.9994420927
 31
0.0
  0
LINE
  5
E8
330
1F
100
AcDbEntity
  8
0
  6
Continuous
 62
     7
370
    25
100
AcDbLine
 10
6180.367816756
 20
5171.1804111275
 30
0.0
 11
6180.0187553361
 21
5211.1788880501
 31
0.0
  0
LINE
  5
E9
330
1F
100
AcDbEntity
  8
0
  6
Continuous
 62
     7
370
    25
100
AcDbLine
 10
6160.0776256225
 20
5211.0048644475
 30
0.0
 11
6160.4266870424
 21
5171.0063875249
 31
0.0
  0
ARC
  5
EA
330
1F
100
AcDbEntity
  8
0
  6
Continuous
 62
     7
370
    25
100
AcDbCircle
 10
6220.6942476887
 20
5220.2725354273
 30
0.0
 40
43.76156024870865
100
AcDbArc
 50
265.6588877915
 51
271.794519202
  0
LWPOLYLINE
  5
EB
330
1F
100
AcDbEntity
  8
0
  6
Continuous
 62
     7
370
    25
100
AcDbPolyline
 90
       11
 70
   128
 43
0.0
 10
6217.1183232808
 20
5206.5900857163
 10
6217.2756194896
 20
5204.5459684464
 10
6217.6396865851
 20
5202.3537643256
 10
6218.3510606342
 20
5198.9386980482
 10
6219.0238711509
 20
5195.3231139123
 10
6219.2969571782
 20
5192.7890494266
 10
6219.3229421487
 20
5190.1896126429
 10
6218.7048671643
 20
5185.18831514
 10
6218.0542560291
 20
5181.8281453917
 10
6217.5167526775
 20
5178.5548522935
 10
6217.3817542264
 20
5176.6365196461
  0
LINE
  5
EC
330
1F
100
AcDbEntity
  8
0
  6
Continuous
 62
     7
370
    25
100
AcDbLine
 10
6217.1183232808
 20
5206.5900857163
 30
0.0
 11
6217.0187553361
 21
5217.9994420927
 31
0.0
  0
ARC
  5
ED
330
1F
100
AcDbEntity
  8
0
  6
Continuous
 62
     7
370
    25
100
AcDbCircle
 10
6224.3794223422
 20
5176.7016401717
 30
0.0
 40
6.999999999998608
100
AcDbArc
 50
181.914945567
 51
275.6326806459
  0
LWPOLYLINE
  5
EE
330
1F
100
AcDbEntity
  8
0
  6
Continuous
 62
     7
370
    25
100
AcDbPolyline
 90
        4
 70
   128
 43
0.0
 10
6217.3817629049
 20
5176.6365238281
 10
6217.3817622372
 20
5176.6364785739
 10
6217.3833347494
 20
5176.4678109383
 10
6217.3833362467
 20
5176.467766233
  0
LWPOLYLINE
  5
EF
330
1F
100
AcDbEntity
  8
0
  6
Continuous
 62
     7
370
    25
100
AcDbPolyline
 90
       12
 70
   128
 43
0.0
 10
6215.3707559867
 20
5177.9705704716
 10
6215.5609290267
 20
5179.7146721789
 10
6216.2809055865
 20
5182.6213807274
 10
6217.1898760065
 20
5185.7464269353
 10
6217.7247271125
 20
5187.9792341511
 10
6218.0380611415
 20
5190.2937653676
 10
6218.0047626296
 20
5192.6462346668
 10
6217.6498913252
 20
5194.960309078
 10
6216.7567617548
 20
5198.2595640621
 10
6215.813584782
 20
5201.3503969661
 10
6215.3325011085
 20
5203.3464597124
 10
6215.1303687679
 20
5205.2010828993
  0
ARC
  5
F0
330
1F
100
AcDbEntity
  8
0
  6
Continuous
 62
     7
370
    25
100
AcDbCircle
 10
6215.379857893
 20
5206.9611030543
 30
0.0
 40
1.777615191624956
100
AcDbArc
 50
261.9318731471
 51
347.952862863
  0
ARC
  5
F1
330
1F
100
AcDbEntity
  8
0
  6
Continuous
 62
     7
370
    25
100
AcDbCircle
 10
6215.62363942
 20
5176.1690239508
 30
0.0
 40
1.819208590991405
100
AcDbArc
 50
14.8907936099
 51
97.9904121159
  0
LINE
  5
F2
330
1F
100
AcDbEntity
  8
0
  6
Continuous
 62
     7
370
    25
100
AcDbLine
 10
6215.3724892376
 20
5177.7721709099
 30
0.0
 11
6215.370773051
 21
5177.9705703682
 31
0.0
  0
LINE
  5
F3
330
1F
100
AcDbEntity
  8
0
  6
Continuous
 62
     7
370
    25
100
AcDbLine
 10
6215.7718976569
 20
5175.6152807386
 30
0.0
 11
6215.3724833559
 21
5177.7721707739
 31
0.0
  0
LINE
  5
F4
330
1F
100
AcDbEntity
  8
0
  6
Continuous
 62
     7
370
    25
100
AcDbLine
 10
6055.5892852738
 20
5210.092913316
 30
0.0
 11
6055.9383450323
 21
5170.0946267781
 31
0.0
  0
LINE
  5
F5
330
1F
100
AcDbEntity
  8
0
  6
Continuous
 62
     7
370
    25
100
AcDbLine
 10
6052.103555101
 20
5209.7771837445
 30
0.0
 11
6052.4476355123
 21
5170.3494738827
 31
0.0
  0
LINE
  5
F6
330
1F
100
AcDbEntity
  8
0
  6
Continuous
 62
     7
370
    25
100
AcDbLine
 10
6052.103555101
 20
5207.5623986136
 30
0.0
 11
6052.408982182
 21
5172.5639216911
 31
0.0
  0
ARC
  5
F7
330
1F
100
AcDbEntity
  8
0
  6
Continuous
 62
     7
370
    25
100
AcDbCircle
 10
6215.6724657455
 20
5176.0325230256
 30
0.0
 40
1.765353851705701
100
AcDbArc
 50
14.2723990243
 51
99.7836484595
  0
ARC
  5
F8
330
1F
100
AcDbEntity
  8
0
  6
Continuous
 62
     7
370
    25
100
AcDbCircle
 10
6216.1314120213
 20
5173.9522614256
 30
0.0
 40
1.701435809416282
100
AcDbArc
 50
23.1834570492
 51
102.1985801329
  0
LINE
  5
F9
330
1F
100
AcDbEntity
  8
0
  6
Continuous
 62
     7
370
    25
100
AcDbLine
 10
6217.9334509187
 20
5171.1369514727
 30
0.0
 11
6217.9329880992
 21
5171.1264042295
 31
0.0
  0
LINE
  5
FA
330
1F
100
AcDbEntity
  8
0
  6
Continuous
 62
     7
370
    25
100
AcDbLine
 10
6826.3187553361
 20
5133.7994420927
 30
0.0
 11
6826.3187553361
 21
5126.7994420927
 31
0.0
  0
LINE
  5
FB
330
1F
100
AcDbEntity
  8
0
  6
Continuous
 62
     7
370
    25
100
AcDbLine
 10
6826.3187553361
 20
5133.7994420927
 30
0.0
 11
6834.8187553361
 21
5133.7994420927
 31
0.0
  0
LINE
  5
FC
330
1F
100
AcDbEntity
  8
0
  6
Continuous
 62
     7
370
    25
100
AcDbLine
 10
6834.8187553361
 20
5133.7994420927
 30
0.0
 11
6834.8187553361
 21
5126.7994420927
 31
0.0
  0
LINE
  5
FD
330
1F
100
AcDbEntity
  8
0
  6
Continuous
 62
     7
370
    25
100
AcDbLine
 10
6826.3187553361
 20
5126.7994420927
 30
0.0
 11
6834.8187553361
 21
5126.7994420927
 31
0.0
  0
LINE
  5
FE
330
1F
100
AcDbEntity
  8
0
  6
Continuous
 62
     7
370
    25
100
AcDbLine
 10
6817.8187553361
 20
5133.7994420927
 30
0.0
 11
6817.8187553361
 21
5126.7994420927
 31
0.0
  0
LINE
  5
FF
330
1F
100
AcDbEntity
  8
0
  6
Continuous
 62
     7
370
    25
100
AcDbLine
 10
6817.8187553361
 20
5133.7994420927
 30
0.0
 11
6826.3187553361
 21
5133.7994420927
 31
0.0
  0
LINE
  5
100
330
1F
100
AcDbEntity
  8
0
  6
Continuous
 62
     7
370
    25
100
AcDbLine
 10
6817.8187553361
 20
5126.7994420927
 30
0.0
 11
6826.3187553361
 21
5126.7994420927
 31
0.0
  0
LINE
  5
101
330
1F
100
AcDbEntity
  8
0
  6
Continuous
 62
     7
370
    25
100
AcDbLine
 10
6826.3187553361
 20
5213.7994420927
 30
0.0
 11
6830.3187553361
 21
5213.7994420927
 31
0.0
  0
LINE
  5
102
330
1F
100
AcDbEntity
  8
0
  6
Continuous
 62
     7
370
    25
100
AcDbLine
 10
6822.3187553361
 20
5213.7994420927
 30
0.0
 11
6826.3187553361
 21
5213.7994420927
 31
0.0
  0
LINE
  5
103
330
1F
100
AcDbEntity
  8
0
  6
Continuous
 62
     7
370
    25
100
AcDbLine
 10
5726.7187553361
 20
5133.7994420927
 30
0.0
 11
5730.2187553361
 21
5133.7994420927
 31
0.0
  0
LINE
  5
104
330
1F
100
AcDbEntity
  8
0
  6
Continuous
 62
     7
370
    25
100
AcDbLine
 10
5730.2187553361
 20
5133.7994420927
 30
0.0
 11
5730.2187553361
 21
5128.7994420927
 31
0.0
  0
LINE
  5
105
330
1F
100
AcDbEntity
  8
0
  6
Continuous
 62
     7
370
    25
100
AcDbLine
 10
5713.2187553361
 20
5133.7994420927
 30
0.0
 11
5713.2187553361
 21
5128.7994420927
 31
0.0
  0
LINE
  5
106
330
1F
100
AcDbEntity
  8
0
  6
Continuous
 62
     7
370
    25
100
AcDbLine
 10
5713.2187553361
 20
5133.7994420927
 30
0.0
 11
5716.7187553361
 21
5133.7994420927
 31
0.0
  0
LINE
  5
107
330
1F
100
AcDbEntity
  8
0
  6
Continuous
 62
     7
370
    25
100
AcDbLine
 10
5707.7187553361
 20
5128.7994420927
 30
0.0
 11
5707.7187553361
 21
5126.7994420927
 31
0.0
  0
LINE
  5
108
330
1F
100
AcDbEntity
  8
0
  6
Continuous
 62
     7
370
    25
100
AcDbLine
 10
5707.7187553361
 20
5128.7994420927
 30
0.0
 11
5757.7187553361
 21
5128.7994420927
 31
0.0
  0
LINE
  5
109
330
1F
100
AcDbEntity
  8
0
  6
Continuous
 62
     7
370
    25
100
AcDbLine
 10
5757.7187553361
 20
5128.7994420927
 30
0.0
 11
5757.7187553361
 21
5126.7994420927
 31
0.0
  0
LINE
  5
10A
330
1F
100
AcDbEntity
  8
0
  6
Continuous
 62
     7
370
    25
100
AcDbLine
 10
5707.7187553361
 20
5126.7994420927
 30
0.0
 11
5757.7187553361
 21
5126.7994420927
 31
0.0
  0
LINE
  5
10B
330
1F
100
AcDbEntity
  8
0
  6
Continuous
 62
     7
370
    25
100
AcDbLine
 10
5717.7187553361
 20
5213.7994420927
 30
0.0
 11
5725.7187553361
 21
5213.7994420927
 31
0.0
  0
LINE
  5
10C
330
1F
100
AcDbEntity
  8
0
  6
Continuous
 62
     7
370
    25
100
AcDbLine
 10
6840.3187553361
 20
5128.7994420927
 30
0.0
 11
6840.3187553361
 21
5126.7994420927
 31
0.0
  0
LINE
  5
10D
330
1F
100
AcDbEntity
  8
0
  6
Continuous
 62
     7
370
    25
100
AcDbLine
 10
6790.3187553361
 20
5126.7994420927
 30
0.0
 11
6817.8187553361
 21
5126.7994420927
 31
0.0
  0
LINE
  5
10E
330
1F
100
AcDbEntity
  8
0
  6
Continuous
 62
     7
370
    25
100
AcDbLine
 10
6834.8187553361
 20
5126.7994420927
 30
0.0
 11
6840.3187553361
 21
5126.7994420927
 31
0.0
  0
LINE
  5
10F
330
1F
100
AcDbEntity
  8
0
  6
Continuous
 62
     7
370
    25
100
AcDbLine
 10
6790.3187553361
 20
5128.7994420927
 30
0.0
 11
6790.3187553361
 21
5126.7994420927
 31
0.0
  0
LINE
  5
110
330
1F
100
AcDbEntity
  8
0
  6
Continuous
 62
     7
370
    25
100
AcDbLine
 10
6790.3187553361
 20
5128.7994420927
 30
0.0
 11
6817.8187553361
 21
5128.7994420927
 31
0.0
  0
LINE
  5
111
330
1F
100
AcDbEntity
  8
0
  6
Continuous
 62
     7
370
    25
100
AcDbLine
 10
6834.8187553361
 20
5128.7994420927
 30
0.0
 11
6840.3187553361
 21
5128.7994420927
 31
0.0
  0
LINE
  5
112
330
1F
100
AcDbEntity
  8
0
  6
Continuous
 62
     7
370
    25
100
AcDbLine
 10
5723.7507325016
 20
5205.7994420927
 30
0.0
 11
5721.7187553361
 21
5205.7994420927
 31
0.0
  0
LINE
  5
113
330
1F
100
AcDbEntity
  8
0
  6
Continuous
 62
     7
370
    25
100
AcDbLine
 10
5721.7187553361
 20
5212.7994420927
 30
0.0
 11
5721.7187553361
 21
5205.7994420927
 31
0.0
  0
LINE
  5
114
330
1F
100
AcDbEntity
  8
0
  6
Continuous
 62
     7
370
    25
100
AcDbLine
 10
5730.2187553361
 20
5212.7994420927
 30
0.0
 11
5721.7187553361
 21
5212.7994420927
 31
0.0
  0
LINE
  5
115
330
1F
100
AcDbEntity
  8
0
  6
Continuous
 62
     7
370
    25
100
AcDbLine
 10
5730.2187553361
 20
5212.7994420927
 30
0.0
 11
5730.2187553361
 21
5205.7994420927
 31
0.0
  0
LINE
  5
116
330
1F
100
AcDbEntity
  8
0
  6
Continuous
 62
     7
370
    25
100
AcDbLine
 10
6817.8187553361
 20
5212.7994420927
 30
0.0
 11
6817.8187553361
 21
5205.7994420927
 31
0.0
  0
LINE
  5
117
330
1F
100
AcDbEntity
  8
0
  6
Continuous
 62
     7
370
    25
100
AcDbLine
 10
6826.3187553361
 20
5212.7994420927
 30
0.0
 11
6826.3187553361
 21
5205.7994420927
 31
0.0
  0
LINE
  5
118
330
1F
100
AcDbEntity
  8
0
  6
Continuous
 62
     7
370
    25
100
AcDbLine
 10
6824.2867781706
 20
5205.7994420927
 30
0.0
 11
6826.3187553361
 21
5205.7994420927
 31
0.0
  0
LINE
  5
119
330
1F
100
AcDbEntity
  8
0
  6
Continuous
 62
     7
370
    25
100
AcDbLine
 10
6817.8187553361
 20
5212.7994420927
 30
0.0
 11
6826.3187553361
 21
5212.7994420927
 31
0.0
  0
LINE
  5
11A
330
1F
100
AcDbEntity
  8
0
  6
Continuous
 62
     7
370
    25
100
AcDbLine
 10
6834.8187553361
 20
5212.7994420927
 30
0.0
 11
6834.8187553361
 21
5205.7994420927
 31
0.0
  0
LINE
  5
11B
330
1F
100
AcDbEntity
  8
0
  6
Continuous
 62
     7
370
    25
100
AcDbLine
 10
6826.3187553361
 20
5205.7994420927
 30
0.0
 11
6828.3507325016
 21
5205.7994420927
 31
0.0
  0
LINE
  5
11C
330
1F
100
AcDbEntity
  8
0
  6
Continuous
 62
     7
370
    25
100
AcDbLine
 10
6826.3187553361
 20
5212.7994420927
 30
0.0
 11
6834.8187553361
 21
5212.7994420927
 31
0.0
  0
LINE
  5
11D
330
1F
100
AcDbEntity
  8
0
  6
Continuous
 62
     7
370
    25
100
AcDbLine
 10
5713.2187553361
 20
5212.7994420927
 30
0.0
 11
5713.2187553361
 21
5205.7994420927
 31
0.0
  0
LINE
  5
11E
330
1F
100
AcDbEntity
  8
0
  6
Continuous
 62
     7
370
    25
100
AcDbLine
 10
5721.7187553361
 20
5205.7994420927
 30
0.0
 11
5719.6867781706
 21
5205.7994420927
 31
0.0
  0
LINE
  5
11F
330
1F
100
AcDbEntity
  8
0
  6
Continuous
 62
     7
370
    25
100
AcDbLine
 10
5721.7187553361
 20
5212.7994420927
 30
0.0
 11
5713.2187553361
 21
5212.7994420927
 31
0.0
  0
LINE
  5
120
330
1F
100
AcDbEntity
  8
0
  6
Continuous
 62
     7
370
    25
100
AcDbLine
 10
5719.6867781706
 20
5205.7994420927
 30
0.0
 11
5711.7187553361
 21
5205.7994420927
 31
0.0
  0
LINE
  5
121
330
1F
100
AcDbEntity
  8
0
  6
Continuous
 62
     7
370
    25
100
AcDbLine
 10
5731.7187553361
 20
5205.7994420927
 30
0.0
 11
5723.7507325016
 21
5205.7994420927
 31
0.0
  0
LINE
  5
122
330
1F
100
AcDbEntity
  8
0
  6
Continuous
 62
     7
370
    25
100
AcDbLine
 10
5731.7187553361
 20
5203.7994420927
 30
0.0
 11
5711.7187553361
 21
5203.7994420927
 31
0.0
  0
LINE
  5
123
330
1F
100
AcDbEntity
  8
0
  6
Continuous
 62
     7
370
    25
100
AcDbLine
 10
5711.7187553361
 20
5205.7994420927
 30
0.0
 11
5711.7187553361
 21
5203.7994420927
 31
0.0
  0
LINE
  5
124
330
1F
100
AcDbEntity
  8
0
  6
Continuous
 62
     7
370
    25
100
AcDbLine
 10
5731.7187553361
 20
5205.7994420927
 30
0.0
 11
5731.7187553361
 21
5203.7994420927
 31
0.0
  0
LINE
  5
125
330
1F
100
AcDbEntity
  8
0
  6
Continuous
 62
     7
370
    25
100
AcDbLine
 10
6816.3187553361
 20
5203.7994420927
 30
0.0
 11
6836.3187553361
 21
5203.7994420927
 31
0.0
  0
LINE
  5
126
330
1F
100
AcDbEntity
  8
0
  6
Continuous
 62
     7
370
    25
100
AcDbLine
 10
6816.3187553361
 20
5205.7994420927
 30
0.0
 11
6816.3187553361
 21
5203.7994420927
 31
0.0
  0
LINE
  5
127
330
1F
100
AcDbEntity
  8
0
  6
Continuous
 62
     7
370
    25
100
AcDbLine
 10
6836.3187553361
 20
5205.7994420927
 30
0.0
 11
6836.3187553361
 21
5203.7994420927
 31
0.0
  0
LINE
  5
128
330
1F
100
AcDbEntity
  8
0
  6
Continuous
 62
     7
370
    25
100
AcDbLine
 10
6828.3507325016
 20
5205.7994420927
 30
0.0
 11
6836.3187553361
 21
5205.7994420927
 31
0.0
  0
LINE
  5
129
330
1F
100
AcDbEntity
  8
0
  6
Continuous
 62
     7
370
    25
100
AcDbLine
 10
6816.3187553361
 20
5205.7994420927
 30
0.0
 11
6824.2867781706
 21
5205.7994420927
 31
0.0
  0
LINE
  5
12A
330
1F
100
AcDbEntity
  8
0
  6
Continuous
 62
     7
370
    25
100
AcDbLine
 10
6836.3187553361
 20
5206.0493281103
 30
0.0
 11
6836.3187553361
 21
5205.7994420927
 31
0.0
  0
LINE
  5
12B
330
1F
100
AcDbEntity
  8
0
  6
Continuous
 62
     7
370
    25
100
AcDbLine
 10
6816.3187553361
 20
5206.0493281103
 30
0.0
 11
6816.3187553361
 21
5205.7994420927
 31
0.0
  0
LINE
  5
12C
330
1F
100
AcDbEntity
  8
0
  6
Continuous
 62
     7
370
    25
100
AcDbLine
 10
5711.7187553361
 20
5206.0493281103
 30
0.0
 11
5711.7187553361
 21
5205.7994420927
 31
0.0
  0
LINE
  5
12D
330
1F
100
AcDbEntity
  8
0
  6
Continuous
 62
     7
370
    25
100
AcDbLine
 10
5731.7187553361
 20
5206.0493281103
 30
0.0
 11
5731.7187553361
 21
5205.7994420927
 31
0.0
  0
LINE
  5
12E
330
1F
100
AcDbEntity
  8
0
  6
Continuous
 62
     7
370
    25
100
AcDbLine
 10
6816.3187553361
 20
5229.8497840399
 30
0.0
 11
6836.3187553361
 21
5229.8497840399
 31
0.0
  0
LINE
  5
12F
330
1F
100
AcDbEntity
  8
0
  6
Continuous
 62
     7
370
    25
100
AcDbLine
 10
6836.3187553361
 20
5229.8497840399
 30
0.0
 11
6836.3187553361
 21
5206.0493281103
 31
0.0
  0
LINE
  5
130
330
1F
100
AcDbEntity
  8
0
  6
Continuous
 62
     7
370
    25
100
AcDbLine
 10
6816.3187553361
 20
5229.8497840399
 30
0.0
 11
6816.3187553361
 21
5206.0493281103
 31
0.0
  0
LINE
  5
131
330
1F
100
AcDbEntity
  8
0
  6
Continuous
 62
     7
370
    25
100
AcDbLine
 10
5731.7187553361
 20
5229.8497840399
 30
0.0
 11
5711.7187553361
 21
5229.8497840399
 31
0.0
  0
LINE
  5
132
330
1F
100
AcDbEntity
  8
0
  6
Continuous
 62
     7
370
    25
100
AcDbLine
 10
5711.7187553361
 20
5229.8497840399
 30
0.0
 11
5711.7187553361
 21
5206.0493281103
 31
0.0
  0
LINE
  5
133
330
1F
100
AcDbEntity
  8
0
  6
Continuous
 62
     7
370
    25
100
AcDbLine
 10
5731.7187553361
 20
5229.8497840399
 30
0.0
 11
5731.7187553361
 21
5206.0493281103
 31
0.0
  0
LINE
  5
134
330
1F
100
AcDbEntity
  8
0
  6
Continuous
 62
     7
370
    25
100
AcDbLine
 10
5671.7187553361
 20
5230.5994420927
 30
0.0
 11
6876.3187553361
 21
5230.5994420927
 31
0.0
  0
LINE
  5
135
330
1F
100
AcDbEntity
  8
0
  6
Continuous
 62
     7
370
    25
100
AcDbLine
 10
6876.3187553361
 20
5231.7994420927
 30
0.0
 11
6876.3187553361
 21
5230.5994420927
 31
0.0
  0
LINE
  5
136
330
1F
100
AcDbEntity
  8
0
  6
Continuous
 62
     7
370
    25
100
AcDbLine
 10
5671.7187553361
 20
5231.7994420927
 30
0.0
 11
5671.7187553361
 21
5230.5994420927
 31
0.0
  0
LINE
  5
137
330
1F
100
AcDbEntity
  8
0
  6
Continuous
 62
     7
370
    25
100
AcDbLine
 10
5671.7187553361
 20
5231.7994420927
 30
0.0
 11
6876.3187553361
 21
5231.7994420927
 31
0.0
  0
LINE
  5
138
330
1F
100
AcDbEntity
  8
0
  6
Continuous
 62
     7
370
    25
100
AcDbLine
 10
6844.6187553361
 20
5245.7479007613
 30
0.0
 11
5703.4187553361
 21
5245.7479007613
 31
0.0
  0
LINE
  5
139
330
1F
100
AcDbEntity
  8
0
  6
Continuous
 62
     7
370
    25
100
AcDbLine
 10
6848.9820107862
 20
5245.7479007613
 30
0.0
 11
6844.6187553361
 21
5245.7479007613
 31
0.0
  0
ARC
  5
13A
330
1F
100
AcDbEntity
  8
0
  6
Continuous
 62
     7
370
    25
100
AcDbCircle
 10
6847.3187553361
 20
5246.0994420927
 30
0.0
 40
1.700000000000728
100
AcDbArc
 50
348.0657534268
 51
90.0
  0
LINE
  5
13B
330
1F
100
AcDbEntity
  8
0
  6
Continuous
 62
     7
370
    25
100
AcDbLine
 10
5703.4187553361
 20
5245.7479007613
 30
0.0
 11
5699.055499886
 21
5245.7479007613
 31
0.0
  0
ARC
  5
13C
330
1F
100
AcDbEntity
  8
0
  6
Continuous
 62
     7
370
    25
100
AcDbCircle
 10
5700.7187553361
 20
5246.0994420927
 30
0.0
 40
1.700000000001019
100
AcDbArc
 50
90.0
 51
191.9342465732
  0
LINE
  5
13D
330
1F
100
AcDbEntity
  8
0
  6
Continuous
 62
     7
370
    25
100
AcDbLine
 10
6848.0928180068
 20
5241.5408428581
 30
0.0
 11
6844.6187553361
 21
5241.5408428581
 31
0.0
  0
LINE
  5
13E
330
1F
100
AcDbEntity
  8
0
  6
Continuous
 62
     7
370
    25
100
AcDbLine
 10
6844.6187553361
 20
5245.7479007613
 30
0.0
 11
6844.6187553361
 21
5241.5408428581
 31
0.0
  0
LINE
  5
13F
330
1F
100
AcDbEntity
  8
0
  6
Continuous
 62
     7
370
    25
100
AcDbLine
 10
6848.9820107862
 20
5245.7479007613
 30
0.0
 11
6848.0928180068
 21
5241.5408428581
 31
0.0
  0
LINE
  5
140
330
1F
100
AcDbEntity
  8
0
  6
Continuous
 62
     7
370
    25
100
AcDbLine
 10
5703.4187553361
 20
5241.5408428581
 30
0.0
 11
5699.9446926654
 21
5241.5408428581
 31
0.0
  0
LINE
  5
141
330
1F
100
AcDbEntity
  8
0
  6
Continuous
 62
     7
370
    25
100
AcDbLine
 10
5699.055499886
 20
5245.7479007613
 30
0.0
 11
5699.9446926654
 21
5241.5408428581
 31
0.0
  0
LINE
  5
142
330
1F
100
AcDbEntity
  8
0
  6
Continuous
 62
     7
370
    25
100
AcDbLine
 10
5703.4187553361
 20
5245.7479007613
 30
0.0
 11
5703.4187553361
 21
5241.5408428581
 31
0.0
  0
LINE
  5
143
330
1F
100
AcDbEntity
  8
0
  6
Continuous
 62
     7
370
    25
100
AcDbLine
 10
6844.6187553361
 20
5241.5408428581
 30
0.0
 11
5703.4187553361
 21
5241.5408428581
 31
0.0
  0
LINE
  5
144
330
1F
100
AcDbEntity
  8
0
  6
Continuous
 62
     7
370
    25
100
AcDbLine
 10
6846.8187553361
 20
5241.5408428581
 30
0.0
 11
6846.8187553361
 21
5231.7994420927
 31
0.0
  0
LINE
  5
145
330
1F
100
AcDbEntity
  8
0
  6
Continuous
 62
     7
370
    25
100
AcDbLine
 10
5701.2187553361
 20
5241.5408428581
 30
0.0
 11
5701.2187553361
 21
5231.7994420927
 31
0.0
  0
LINE
  5
146
330
1F
100
AcDbEntity
  8
0
  6
Continuous
 62
     7
370
    25
100
AcDbLine
 10
5711.7187553361
 20
5230.5994420927
 30
0.0
 11
5711.7187553361
 21
5229.8497840399
 31
0.0
  0
LINE
  5
147
330
1F
100
AcDbEntity
  8
0
  6
Continuous
 62
     7
370
    25
100
AcDbLine
 10
5731.7187553361
 20
5230.5994420927
 30
0.0
 11
5731.7187553361
 21
5229.8497840399
 31
0.0
  0
LINE
  5
148
330
1F
100
AcDbEntity
  8
0
  6
Continuous
 62
     7
370
    25
100
AcDbLine
 10
6836.3187553361
 20
5230.5994420927
 30
0.0
 11
6836.3187553361
 21
5229.8497840399
 31
0.0
  0
LINE
  5
149
330
1F
100
AcDbEntity
  8
0
  6
Continuous
 62
     7
370
    25
100
AcDbLine
 10
6816.3187553361
 20
5230.5994420927
 30
0.0
 11
6816.3187553361
 21
5229.8497840399
 31
0.0
  0
LINE
  5
14A
330
1F
100
AcDbEntity
  8
0
  6
Continuous
 62
     7
370
    25
100
AcDbLine
 10
6844.6187553361
 20
5261.7994420927
 30
0.0
 11
6864.6187553361
 21
5261.7994420927
 31
0.0
  0
ARC
  5
14B
330
1F
100
AcDbEntity
  8
0
  6
Continuous
 62
     7
370
    25
100
AcDbCircle
 10
6864.6187553361
 20
5266.7994420927
 30
0.0
 40
5.0
100
AcDbArc
 50
270.0
 51
90.0
  0
LINE
  5
14C
330
1F
100
AcDbEntity
  8
0
  6
Continuous
 62
     7
370
    25
100
AcDbLine
 10
6864.6187553361
 20
5271.7994420927
 30
0.0
 11
6844.6187553361
 21
5271.7994420927
 31
0.0
  0
ARC
  5
14D
330
1F
100
AcDbEntity
  8
0
  6
Continuous
 62
     7
370
    25
100
AcDbCircle
 10
6844.6187553361
 20
5266.7994420927
 30
0.0
 40
5.0
100
AcDbArc
 50
90.0
 51
270.0
  0
LINE
  5
14E
330
1F
100
AcDbEntity
  8
0
  6
Continuous
 62
     7
370
    25
100
AcDbLine
 10
6804.5187553361
 20
5261.7994420927
 30
0.0
 11
6824.5187553361
 21
5261.7994420927
 31
0.0
  0
ARC
  5
14F
330
1F
100
AcDbEntity
  8
0
  6
Continuous
 62
     7
370
    25
100
AcDbCircle
 10
6824.5187553361
 20
5266.7994420927
 30
0.0
 40
5.0
100
AcDbArc
 50
270.0
 51
90.0
  0
LINE
  5
150
330
1F
100
AcDbEntity
  8
0
  6
Continuous
 62
     7
370
    25
100
AcDbLine
 10
6824.5187553361
 20
5271.7994420927
 30
0.0
 11
6804.5187553361
 21
5271.7994420927
 31
0.0
  0
ARC
  5
151
330
1F
100
AcDbEntity
  8
0
  6
Continuous
 62
     7
370
    25
100
AcDbCircle
 10
6804.5187553361
 20
5266.7994420927
 30
0.0
 40
5.0
100
AcDbArc
 50
90.0
 51
270.0
  0
LINE
  5
152
330
1F
100
AcDbEntity
  8
0
  6
Continuous
 62
     7
370
    25
100
AcDbLine
 10
6764.4187553361
 20
5261.7994420927
 30
0.0
 11
6784.4187553361
 21
5261.7994420927
 31
0.0
  0
ARC
  5
153
330
1F
100
AcDbEntity
  8
0
  6
Continuous
 62
     7
370
    25
100
AcDbCircle
 10
6784.4187553361
 20
5266.7994420927
 30
0.0
 40
5.0
100
AcDbArc
 50
270.0
 51
90.0
  0
LINE
  5
154
330
1F
100
AcDbEntity
  8
0
  6
Continuous
 62
     7
370
    25
100
AcDbLine
 10
6784.4187553361
 20
5271.7994420927
 30
0.0
 11
6764.4187553361
 21
5271.7994420927
 31
0.0
  0
ARC
  5
155
330
1F
100
AcDbEntity
  8
0
  6
Continuous
 62
     7
370
    25
100
AcDbCircle
 10
6764.4187553361
 20
5266.7994420927
 30
0.0
 40
5.0
100
AcDbArc
 50
90.0
 51
270.0
  0
LINE
  5
156
330
1F
100
AcDbEntity
  8
0
  6
Continuous
 62
     7
370
    25
100
AcDbLine
 10
6724.3187553361
 20
5261.7994420927
 30
0.0
 11
6744.3187553361
 21
5261.7994420927
 31
0.0
  0
ARC
  5
157
330
1F
100
AcDbEntity
  8
0
  6
Continuous
 62
     7
370
    25
100
AcDbCircle
 10
6744.3187553361
 20
5266.7994420927
 30
0.0
 40
5.0
100
AcDbArc
 50
270.0
 51
90.0
  0
LINE
  5
158
330
1F
100
AcDbEntity
  8
0
  6
Continuous
 62
     7
370
    25
100
AcDbLine
 10
6744.3187553361
 20
5271.7994420927
 30
0.0
 11
6724.3187553361
 21
5271.7994420927
 31
0.0
  0
ARC
  5
159
330
1F
100
AcDbEntity
  8
0
  6
Continuous
 62
     7
370
    25
100
AcDbCircle
 10
6724.3187553361
 20
5266.7994420927
 30
0.0
 40
5.0
100
AcDbArc
 50
90.0
 51
270.0
  0
LINE
  5
15A
330
1F
100
AcDbEntity
  8
0
  6
Continuous
 62
     7
370
    25
100
AcDbLine
 10
6684.2187553361
 20
5261.7994420927
 30
0.0
 11
6704.2187553361
 21
5261.7994420927
 31
0.0
  0
ARC
  5
15B
330
1F
100
AcDbEntity
  8
0
  6
Continuous
 62
     7
370
    25
100
AcDbCircle
 10
6704.2187553361
 20
5266.7994420927
 30
0.0
 40
5.0
100
AcDbArc
 50
270.0
 51
90.0
  0
LINE
  5
15C
330
1F
100
AcDbEntity
  8
0
  6
Continuous
 62
     7
370
    25
100
AcDbLine
 10
6704.2187553361
 20
5271.7994420927
 30
0.0
 11
6684.2187553361
 21
5271.7994420927
 31
0.0
  0
ARC
  5
15D
330
1F
100
AcDbEntity
  8
0
  6
Continuous
 62
     7
370
    25
100
AcDbCircle
 10
6684.2187553361
 20
5266.7994420927
 30
0.0
 40
5.0
100
AcDbArc
 50
90.0
 51
270.0
  0
LINE
  5
15E
330
1F
100
AcDbEntity
  8
0
  6
Continuous
 62
     7
370
    25
100
AcDbLine
 10
6644.1187553361
 20
5261.7994420927
 30
0.0
 11
6664.1187553361
 21
5261.7994420927
 31
0.0
  0
ARC
  5
15F
330
1F
100
AcDbEntity
  8
0
  6
Continuous
 62
     7
370
    25
100
AcDbCircle
 10
6664.1187553361
 20
5266.7994420927
 30
0.0
 40
5.0
100
AcDbArc
 50
270.0
 51
90.0
  0
LINE
  5
160
330
1F
100
AcDbEntity
  8
0
  6
Continuous
 62
     7
370
    25
100
AcDbLine
 10
6664.1187553361
 20
5271.7994420927
 30
0.0
 11
6644.1187553361
 21
5271.7994420927
 31
0.0
  0
ARC
  5
161
330
1F
100
AcDbEntity
  8
0
  6
Continuous
 62
     7
370
    25
100
AcDbCircle
 10
6644.1187553361
 20
5266.7994420927
 30
0.0
 40
5.0
100
AcDbArc
 50
90.0
 51
270.0
  0
LINE
  5
162
330
1F
100
AcDbEntity
  8
0
  6
Continuous
 62
     7
370
    25
100
AcDbLine
 10
6604.0187553361
 20
5261.7994420927
 30
0.0
 11
6624.0187553361
 21
5261.7994420927
 31
0.0
  0
ARC
  5
163
330
1F
100
AcDbEntity
  8
0
  6
Continuous
 62
     7
370
    25
100
AcDbCircle
 10
6624.0187553361
 20
5266.7994420927
 30
0.0
 40
5.0
100
AcDbArc
 50
270.0
 51
90.0
  0
LINE
  5
164
330
1F
100
AcDbEntity
  8
0
  6
Continuous
 62
     7
370
    25
100
AcDbLine
 10
6624.0187553361
 20
5271.7994420927
 30
0.0
 11
6604.0187553361
 21
5271.7994420927
 31
0.0
  0
ARC
  5
165
330
1F
100
AcDbEntity
  8
0
  6
Continuous
 62
     7
370
    25
100
AcDbCircle
 10
6604.0187553361
 20
5266.7994420927
 30
0.0
 40
5.0
100
AcDbArc
 50
90.0
 51
270.0
  0
LINE
  5
166
330
1F
100
AcDbEntity
  8
0
  6
Continuous
 62
     7
370
    25
100
AcDbLine
 10
6563.9187553361
 20
5261.7994420927
 30
0.0
 11
6583.9187553361
 21
5261.7994420927
 31
0.0
  0
ARC
  5
167
330
1F
100
AcDbEntity
  8
0
  6
Continuous
 62
     7
370
    25
100
AcDbCircle
 10
6583.9187553361
 20
5266.7994420927
 30
0.0
 40
5.0
100
AcDbArc
 50
270.0
 51
90.0
  0
LINE
  5
168
330
1F
100
AcDbEntity
  8
0
  6
Continuous
 62
     7
370
    25
100
AcDbLine
 10
6583.9187553361
 20
5271.7994420927
 30
0.0
 11
6563.9187553361
 21
5271.7994420927
 31
0.0
  0
ARC
  5
169
330
1F
100
AcDbEntity
  8
0
  6
Continuous
 62
     7
370
    25
100
AcDbCircle
 10
6563.9187553361
 20
5266.7994420927
 30
0.0
 40
5.0
100
AcDbArc
 50
90.0
 51
270.0
  0
LINE
  5
16A
330
1F
100
AcDbEntity
  8
0
  6
Continuous
 62
     7
370
    25
100
AcDbLine
 10
6523.8187553361
 20
5261.7994420927
 30
0.0
 11
6543.8187553361
 21
5261.7994420927
 31
0.0
  0
ARC
  5
16B
330
1F
100
AcDbEntity
  8
0
  6
Continuous
 62
     7
370
    25
100
AcDbCircle
 10
6543.8187553361
 20
5266.7994420927
 30
0.0
 40
5.0
100
AcDbArc
 50
270.0
 51
90.0
  0
LINE
  5
16C
330
1F
100
AcDbEntity
  8
0
  6
Continuous
 62
     7
370
    25
100
AcDbLine
 10
6543.8187553361
 20
5271.7994420927
 30
0.0
 11
6523.8187553361
 21
5271.7994420927
 31
0.0
  0
ARC
  5
16D
330
1F
100
AcDbEntity
  8
0
  6
Continuous
 62
     7
370
    25
100
AcDbCircle
 10
6523.8187553361
 20
5266.7994420927
 30
0.0
 40
5.0
100
AcDbArc
 50
90.0
 51
270.0
  0
LINE
  5
16E
330
1F
100
AcDbEntity
  8
0
  6
Continuous
 62
     7
370
    25
100
AcDbLine
 10
6483.7187553361
 20
5261.7994420927
 30
0.0
 11
6503.7187553361
 21
5261.7994420927
 31
0.0
  0
ARC
  5
16F
330
1F
100
AcDbEntity
  8
0
  6
Continuous
 62
     7
370
    25
100
AcDbCircle
 10
6503.7187553361
 20
5266.7994420927
 30
0.0
 40
5.0
100
AcDbArc
 50
270.0
 51
90.0
  0
LINE
  5
170
330
1F
100
AcDbEntity
  8
0
  6
Continuous
 62
     7
370
    25
100
AcDbLine
 10
6503.7187553361
 20
5271.7994420927
 30
0.0
 11
6483.7187553361
 21
5271.7994420927
 31
0.0
  0
ARC
  5
171
330
1F
100
AcDbEntity
  8
0
  6
Continuous
 62
     7
370
    25
100
AcDbCircle
 10
6483.7187553361
 20
5266.7994420927
 30
0.0
 40
5.0
100
AcDbArc
 50
90.0
 51
270.0
  0
LINE
  5
172
330
1F
100
AcDbEntity
  8
0
  6
Continuous
 62
     7
370
    25
100
AcDbLine
 10
6443.6187553361
 20
5261.7994420927
 30
0.0
 11
6463.6187553361
 21
5261.7994420927
 31
0.0
  0
ARC
  5
173
330
1F
100
AcDbEntity
  8
0
  6
Continuous
 62
     7
370
    25
100
AcDbCircle
 10
6463.6187553361
 20
5266.7994420927
 30
0.0
 40
5.0
100
AcDbArc
 50
270.0
 51
90.0
  0
LINE
  5
174
330
1F
100
AcDbEntity
  8
0
  6
Continuous
 62
     7
370
    25
100
AcDbLine
 10
6463.6187553361
 20
5271.7994420927
 30
0.0
 11
6443.6187553361
 21
5271.7994420927
 31
0.0
  0
ARC
  5
175
330
1F
100
AcDbEntity
  8
0
  6
Continuous
 62
     7
370
    25
100
AcDbCircle
 10
6443.6187553361
 20
5266.7994420927
 30
0.0
 40
5.0
100
AcDbArc
 50
90.0
 51
270.0
  0
LINE
  5
176
330
1F
100
AcDbEntity
  8
0
  6
Continuous
 62
     7
370
    25
100
AcDbLine
 10
6403.5187553361
 20
5261.7994420927
 30
0.0
 11
6423.5187553361
 21
5261.7994420927
 31
0.0
  0
ARC
  5
177
330
1F
100
AcDbEntity
  8
0
  6
Continuous
 62
     7
370
    25
100
AcDbCircle
 10
6423.5187553361
 20
5266.7994420927
 30
0.0
 40
5.000000000000909
100
AcDbArc
 50
270.0
 51
90.0
  0
LINE
  5
178
330
1F
100
AcDbEntity
  8
0
  6
Continuous
 62
     7
370
    25
100
AcDbLine
 10
6423.5187553361
 20
5271.7994420927
 30
0.0
 11
6403.5187553361
 21
5271.7994420927
 31
0.0
  0
ARC
  5
179
330
1F
100
AcDbEntity
  8
0
  6
Continuous
 62
     7
370
    25
100
AcDbCircle
 10
6403.5187553361
 20
5266.7994420927
 30
0.0
 40
5.000000000000909
100
AcDbArc
 50
90.0
 51
270.0
  0
LINE
  5
17A
330
1F
100
AcDbEntity
  8
0
  6
Continuous
 62
     7
370
    25
100
AcDbLine
 10
6363.4187553361
 20
5261.7994420927
 30
0.0
 11
6383.4187553361
 21
5261.7994420927
 31
0.0
  0
ARC
  5
17B
330
1F
100
AcDbEntity
  8
0
  6
Continuous
 62
     7
370
    25
100
AcDbCircle
 10
6383.4187553361
 20
5266.7994420927
 30
0.0
 40
5.000000000000909
100
AcDbArc
 50
270.0
 51
90.0
  0
LINE
  5
17C
330
1F
100
AcDbEntity
  8
0
  6
Continuous
 62
     7
370
    25
100
AcDbLine
 10
6383.4187553361
 20
5271.7994420927
 30
0.0
 11
6363.4187553361
 21
5271.7994420927
 31
0.0
  0
ARC
  5
17D
330
1F
100
AcDbEntity
  8
0
  6
Continuous
 62
     7
370
    25
100
AcDbCircle
 10
6363.4187553361
 20
5266.7994420927
 30
0.0
 40
5.000000000000909
100
AcDbArc
 50
90.0
 51
270.0
  0
LINE
  5
17E
330
1F
100
AcDbEntity
  8
0
  6
Continuous
 62
     7
370
    25
100
AcDbLine
 10
6323.3187553361
 20
5261.7994420927
 30
0.0
 11
6343.3187553361
 21
5261.7994420927
 31
0.0
  0
ARC
  5
17F
330
1F
100
AcDbEntity
  8
0
  6
Continuous
 62
     7
370
    25
100
AcDbCircle
 10
6343.3187553361
 20
5266.7994420927
 30
0.0
 40
5.000000000000909
100
AcDbArc
 50
270.0
 51
90.0
  0
LINE
  5
180
330
1F
100
AcDbEntity
  8
0
  6
Continuous
 62
     7
370
    25
100
AcDbLine
 10
6343.3187553361
 20
5271.7994420927
 30
0.0
 11
6323.3187553361
 21
5271.7994420927
 31
0.0
  0
ARC
  5
181
330
1F
100
AcDbEntity
  8
0
  6
Continuous
 62
     7
370
    25
100
AcDbCircle
 10
6323.3187553361
 20
5266.7994420927
 30
0.0
 40
5.000000000000909
100
AcDbArc
 50
90.0
 51
270.0
  0
LINE
  5
182
330
1F
100
AcDbEntity
  8
0
  6
Continuous
 62
     7
370
    25
100
AcDbLine
 10
6283.2187553361
 20
5261.7994420927
 30
0.0
 11
6303.2187553361
 21
5261.7994420927
 31
0.0
  0
ARC
  5
183
330
1F
100
AcDbEntity
  8
0
  6
Continuous
 62
     7
370
    25
100
AcDbCircle
 10
6303.2187553361
 20
5266.7994420927
 30
0.0
 40
5.000000000000909
100
AcDbArc
 50
270.0
 51
90.0
  0
LINE
  5
184
330
1F
100
AcDbEntity
  8
0
  6
Continuous
 62
     7
370
    25
100
AcDbLine
 10
6303.2187553361
 20
5271.7994420927
 30
0.0
 11
6283.2187553361
 21
5271.7994420927
 31
0.0
  0
ARC
  5
185
330
1F
100
AcDbEntity
  8
0
  6
Continuous
 62
     7
370
    25
100
AcDbCircle
 10
6283.2187553361
 20
5266.7994420927
 30
0.0
 40
5.000000000000909
100
AcDbArc
 50
90.0
 51
270.0
  0
LINE
  5
186
330
1F
100
AcDbEntity
  8
0
  6
Continuous
 62
     7
370
    25
100
AcDbLine
 10
6243.1187553361
 20
5261.7994420927
 30
0.0
 11
6263.1187553361
 21
5261.7994420927
 31
0.0
  0
ARC
  5
187
330
1F
100
AcDbEntity
  8
0
  6
Continuous
 62
     7
370
    25
100
AcDbCircle
 10
6263.1187553361
 20
5266.7994420927
 30
0.0
 40
5.000000000000909
100
AcDbArc
 50
270.0
 51
90.0
  0
LINE
  5
188
330
1F
100
AcDbEntity
  8
0
  6
Continuous
 62
     7
370
    25
100
AcDbLine
 10
6263.1187553361
 20
5271.7994420927
 30
0.0
 11
6243.1187553361
 21
5271.7994420927
 31
0.0
  0
ARC
  5
189
330
1F
100
AcDbEntity
  8
0
  6
Continuous
 62
     7
370
    25
100
AcDbCircle
 10
6243.1187553361
 20
5266.7994420927
 30
0.0
 40
5.000000000000909
100
AcDbArc
 50
90.0
 51
270.0
  0
LINE
  5
18A
330
1F
100
AcDbEntity
  8
0
  6
Continuous
 62
     7
370
    25
100
AcDbLine
 10
6203.0187553361
 20
5261.7994420927
 30
0.0
 11
6223.0187553361
 21
5261.7994420927
 31
0.0
  0
ARC
  5
18B
330
1F
100
AcDbEntity
  8
0
  6
Continuous
 62
     7
370
    25
100
AcDbCircle
 10
6223.0187553361
 20
5266.7994420927
 30
0.0
 40
5.000000000000909
100
AcDbArc
 50
270.0
 51
90.0
  0
LINE
  5
18C
330
1F
100
AcDbEntity
  8
0
  6
Continuous
 62
     7
370
    25
100
AcDbLine
 10
6223.0187553361
 20
5271.7994420927
 30
0.0
 11
6203.0187553361
 21
5271.7994420927
 31
0.0
  0
ARC
  5
18D
330
1F
100
AcDbEntity
  8
0
  6
Continuous
 62
     7
370
    25
100
AcDbCircle
 10
6203.0187553361
 20
5266.7994420927
 30
0.0
 40
5.000000000000909
100
AcDbArc
 50
90.0
 51
270.0
  0
LINE
  5
18E
330
1F
100
AcDbEntity
  8
0
  6
Continuous
 62
     7
370
    25
100
AcDbLine
 10
6162.9187553361
 20
5261.7994420927
 30
0.0
 11
6182.9187553361
 21
5261.7994420927
 31
0.0
  0
ARC
  5
18F
330
1F
100
AcDbEntity
  8
0
  6
Continuous
 62
     7
370
    25
100
AcDbCircle
 10
6182.9187553361
 20
5266.7994420927
 30
0.0
 40
5.000000000000909
100
AcDbArc
 50
270.0
 51
90.0
  0
LINE
  5
190
330
1F
100
AcDbEntity
  8
0
  6
Continuous
 62
     7
370
    25
100
AcDbLine
 10
6182.9187553361
 20
5271.7994420927
 30
0.0
 11
6162.9187553361
 21
5271.7994420927
 31
0.0
  0
ARC
  5
191
330
1F
100
AcDbEntity
  8
0
  6
Continuous
 62
     7
370
    25
100
AcDbCircle
 10
6162.9187553361
 20
5266.7994420927
 30
0.0
 40
5.000000000000909
100
AcDbArc
 50
90.0
 51
270.0
  0
LINE
  5
192
330
1F
100
AcDbEntity
  8
0
  6
Continuous
 62
     7
370
    25
100
AcDbLine
 10
6122.8187553361
 20
5261.7994420927
 30
0.0
 11
6142.8187553361
 21
5261.7994420927
 31
0.0
  0
ARC
  5
193
330
1F
100
AcDbEntity
  8
0
  6
Continuous
 62
     7
370
    25
100
AcDbCircle
 10
6142.8187553361
 20
5266.7994420927
 30
0.0
 40
5.000000000000909
100
AcDbArc
 50
270.0
 51
90.0
  0
LINE
  5
194
330
1F
100
AcDbEntity
  8
0
  6
Continuous
 62
     7
370
    25
100
AcDbLine
 10
6142.8187553361
 20
5271.7994420927
 30
0.0
 11
6122.8187553361
 21
5271.7994420927
 31
0.0
  0
ARC
  5
195
330
1F
100
AcDbEntity
  8
0
  6
Continuous
 62
     7
370
    25
100
AcDbCircle
 10
6122.8187553361
 20
5266.7994420927
 30
0.0
 40
5.000000000000909
100
AcDbArc
 50
90.0
 51
270.0
  0
LINE
  5
196
330
1F
100
AcDbEntity
  8
0
  6
Continuous
 62
     7
370
    25
100
AcDbLine
 10
6082.7187553361
 20
5261.7994420927
 30
0.0
 11
6102.7187553361
 21
5261.7994420927
 31
0.0
  0
ARC
  5
197
330
1F
100
AcDbEntity
  8
0
  6
Continuous
 62
     7
370
    25
100
AcDbCircle
 10
6102.7187553361
 20
5266.7994420927
 30
0.0
 40
5.000000000000909
100
AcDbArc
 50
270.0
 51
90.0
  0
LINE
  5
198
330
1F
100
AcDbEntity
  8
0
  6
Continuous
 62
     7
370
    25
100
AcDbLine
 10
6102.7187553361
 20
5271.7994420927
 30
0.0
 11
6082.7187553361
 21
5271.7994420927
 31
0.0
  0
ARC
  5
199
330
1F
100
AcDbEntity
  8
0
  6
Continuous
 62
     7
370
    25
100
AcDbCircle
 10
6082.7187553361
 20
5266.7994420927
 30
0.0
 40
5.000000000000909
100
AcDbArc
 50
90.0
 51
270.0
  0
LINE
  5
19A
330
1F
100
AcDbEntity
  8
0
  6
Continuous
 62
     7
370
    25
100
AcDbLine
 10
6042.6187553361
 20
5261.7994420927
 30
0.0
 11
6062.6187553361
 21
5261.7994420927
 31
0.0
  0
ARC
  5
19B
330
1F
100
AcDbEntity
  8
0
  6
Continuous
 62
     7
370
    25
100
AcDbCircle
 10
6062.6187553361
 20
5266.7994420927
 30
0.0
 40
5.000000000000909
100
AcDbArc
 50
270.0
 51
90.0
  0
LINE
  5
19C
330
1F
100
AcDbEntity
  8
0
  6
Continuous
 62
     7
370
    25
100
AcDbLine
 10
6062.6187553361
 20
5271.7994420927
 30
0.0
 11
6042.6187553361
 21
5271.7994420927
 31
0.0
  0
ARC
  5
19D
330
1F
100
AcDbEntity
  8
0
  6
Continuous
 62
     7
370
    25
100
AcDbCircle
 10
6042.6187553361
 20
5266.7994420927
 30
0.0
 40
5.000000000000909
100
AcDbArc
 50
90.0
 51
270.0
  0
LINE
  5
19E
330
1F
100
AcDbEntity
  8
0
  6
Continuous
 62
     7
370
    25
100
AcDbLine
 10
6002.5187553361
 20
5261.7994420927
 30
0.0
 11
6022.5187553361
 21
5261.7994420927
 31
0.0
  0
ARC
  5
19F
330
1F
100
AcDbEntity
  8
0
  6
Continuous
 62
     7
370
    25
100
AcDbCircle
 10
6022.5187553361
 20
5266.7994420927
 30
0.0
 40
5.000000000000909
100
AcDbArc
 50
270.0
 51
90.0
  0
LINE
  5
1A0
330
1F
100
AcDbEntity
  8
0
  6
Continuous
 62
     7
370
    25
100
AcDbLine
 10
6022.5187553361
 20
5271.7994420927
 30
0.0
 11
6002.5187553361
 21
5271.7994420927
 31
0.0
  0
ARC
  5
1A1
330
1F
100
AcDbEntity
  8
0
  6
Continuous
 62
     7
370
    25
100
AcDbCircle
 10
6002.5187553361
 20
5266.7994420927
 30
0.0
 40
5.000000000000909
100
AcDbArc
 50
90.0
 51
270.0
  0
LINE
  5
1A2
330
1F
100
AcDbEntity
  8
0
  6
Continuous
 62
     7
370
    25
100
AcDbLine
 10
5962.4187553361
 20
5261.7994420927
 30
0.0
 11
5982.4187553361
 21
5261.7994420927
 31
0.0
  0
ARC
  5
1A3
330
1F
100
AcDbEntity
  8
0
  6
Continuous
 62
     7
370
    25
100
AcDbCircle
 10
5982.4187553361
 20
5266.7994420927
 30
0.0
 40
5.000000000000909
100
AcDbArc
 50
270.0
 51
90.0
  0
LINE
  5
1A4
330
1F
100
AcDbEntity
  8
0
  6
Continuous
 62
     7
370
    25
100
AcDbLine
 10
5982.4187553361
 20
5271.7994420927
 30
0.0
 11
5962.4187553361
 21
5271.7994420927
 31
0.0
  0
ARC
  5
1A5
330
1F
100
AcDbEntity
  8
0
  6
Continuous
 62
     7
370
    25
100
AcDbCircle
 10
5962.4187553361
 20
5266.7994420927
 30
0.0
 40
5.000000000000909
100
AcDbArc
 50
90.0
 51
270.0
  0
LINE
  5
1A6
330
1F
100
AcDbEntity
  8
0
  6
Continuous
 62
     7
370
    25
100
AcDbLine
 10
5922.3187553361
 20
5261.7994420927
 30
0.0
 11
5942.3187553361
 21
5261.7994420927
 31
0.0
  0
ARC
  5
1A7
330
1F
100
AcDbEntity
  8
0
  6
Continuous
 62
     7
370
    25
100
AcDbCircle
 10
5942.3187553361
 20
5266.7994420927
 30
0.0
 40
5.000000000000909
100
AcDbArc
 50
270.0
 51
90.0
  0
LINE
  5
1A8
330
1F
100
AcDbEntity
  8
0
  6
Continuous
 62
     7
370
    25
100
AcDbLine
 10
5942.3187553361
 20
5271.7994420927
 30
0.0
 11
5922.3187553361
 21
5271.7994420927
 31
0.0
  0
ARC
  5
1A9
330
1F
100
AcDbEntity
  8
0
  6
Continuous
 62
     7
370
    25
100
AcDbCircle
 10
5922.3187553361
 20
5266.7994420927
 30
0.0
 40
5.000000000000909
100
AcDbArc
 50
90.0
 51
270.0
  0
LINE
  5
1AA
330
1F
100
AcDbEntity
  8
0
  6
Continuous
 62
     7
370
    25
100
AcDbLine
 10
5882.2187553361
 20
5261.7994420927
 30
0.0
 11
5902.2187553361
 21
5261.7994420927
 31
0.0
  0
ARC
  5
1AB
330
1F
100
AcDbEntity
  8
0
  6
Continuous
 62
     7
370
    25
100
AcDbCircle
 10
5902.2187553361
 20
5266.7994420927
 30
0.0
 40
5.000000000000909
100
AcDbArc
 50
270.0
 51
90.0
  0
LINE
  5
1AC
330
1F
100
AcDbEntity
  8
0
  6
Continuous
 62
     7
370
    25
100
AcDbLine
 10
5902.2187553361
 20
5271.7994420927
 30
0.0
 11
5882.2187553361
 21
5271.7994420927
 31
0.0
  0
ARC
  5
1AD
330
1F
100
AcDbEntity
  8
0
  6
Continuous
 62
     7
370
    25
100
AcDbCircle
 10
5882.2187553361
 20
5266.7994420927
 30
0.0
 40
5.000000000000909
100
AcDbArc
 50
90.0
 51
270.0
  0
LINE
  5
1AE
330
1F
100
AcDbEntity
  8
0
  6
Continuous
 62
     7
370
    25
100
AcDbLine
 10
5842.1187553361
 20
5261.7994420927
 30
0.0
 11
5862.1187553361
 21
5261.7994420927
 31
0.0
  0
ARC
  5
1AF
330
1F
100
AcDbEntity
  8
0
  6
Continuous
 62
     7
370
    25
100
AcDbCircle
 10
5862.1187553361
 20
5266.7994420927
 30
0.0
 40
5.000000000000909
100
AcDbArc
 50
270.0
 51
90.0
  0
LINE
  5
1B0
330
1F
100
AcDbEntity
  8
0
  6
Continuous
 62
     7
370
    25
100
AcDbLine
 10
5862.1187553361
 20
5271.7994420927
 30
0.0
 11
5842.1187553361
 21
5271.7994420927
 31
0.0
  0
ARC
  5
1B1
330
1F
100
AcDbEntity
  8
0
  6
Continuous
 62
     7
370
    25
100
AcDbCircle
 10
5842.1187553361
 20
5266.7994420927
 30
0.0
 40
5.000000000000909
100
AcDbArc
 50
90.0
 51
270.0
  0
LINE
  5
1B2
330
1F
100
AcDbEntity
  8
0
  6
Continuous
 62
     7
370
    25
100
AcDbLine
 10
5802.0187553361
 20
5261.7994420927
 30
0.0
 11
5822.0187553361
 21
5261.7994420927
 31
0.0
  0
ARC
  5
1B3
330
1F
100
AcDbEntity
  8
0
  6
Continuous
 62
     7
370
    25
100
AcDbCircle
 10
5822.0187553361
 20
5266.7994420927
 30
0.0
 40
5.000000000000909
100
AcDbArc
 50
270.0
 51
90.0
  0
LINE
  5
1B4
330
1F
100
AcDbEntity
  8
0
  6
Continuous
 62
     7
370
    25
100
AcDbLine
 10
5822.0187553361
 20
5271.7994420927
 30
0.0
 11
5802.0187553361
 21
5271.7994420927
 31
0.0
  0
ARC
  5
1B5
330
1F
100
AcDbEntity
  8
0
  6
Continuous
 62
     7
370
    25
100
AcDbCircle
 10
5802.0187553361
 20
5266.7994420927
 30
0.0
 40
5.000000000000909
100
AcDbArc
 50
90.0
 51
270.0
  0
LINE
  5
1B6
330
1F
100
AcDbEntity
  8
0
  6
Continuous
 62
     7
370
    25
100
AcDbLine
 10
5761.9187553361
 20
5261.7994420927
 30
0.0
 11
5781.9187553361
 21
5261.7994420927
 31
0.0
  0
ARC
  5
1B7
330
1F
100
AcDbEntity
  8
0
  6
Continuous
 62
     7
370
    25
100
AcDbCircle
 10
5781.9187553361
 20
5266.7994420927
 30
0.0
 40
5.000000000000909
100
AcDbArc
 50
270.0
 51
90.0
  0
LINE
  5
1B8
330
1F
100
AcDbEntity
  8
0
  6
Continuous
 62
     7
370
    25
100
AcDbLine
 10
5781.9187553361
 20
5271.7994420927
 30
0.0
 11
5761.9187553361
 21
5271.7994420927
 31
0.0
  0
ARC
  5
1B9
330
1F
100
AcDbEntity
  8
0
  6
Continuous
 62
     7
370
    25
100
AcDbCircle
 10
5761.9187553361
 20
5266.7994420927
 30
0.0
 40
5.000000000000909
100
AcDbArc
 50
90.0
 51
270.0
  0
LINE
  5
1BA
330
1F
100
AcDbEntity
  8
0
  6
Continuous
 62
     7
370
    25
100
AcDbLine
 10
6844.6187553361
 20
5281.7994420927
 30
0.0
 11
6864.6187553361
 21
5281.7994420927
 31
0.0
  0
ARC
  5
1BB
330
1F
100
AcDbEntity
  8
0
  6
Continuous
 62
     7
370
    25
100
AcDbCircle
 10
6864.6187553361
 20
5286.7994420927
 30
0.0
 40
5.0
100
AcDbArc
 50
270.0
 51
90.0
  0
LINE
  5
1BC
330
1F
100
AcDbEntity
  8
0
  6
Continuous
 62
     7
370
    25
100
AcDbLine
 10
6864.6187553361
 20
5291.7994420927
 30
0.0
 11
6844.6187553361
 21
5291.7994420927
 31
0.0
  0
ARC
  5
1BD
330
1F
100
AcDbEntity
  8
0
  6
Continuous
 62
     7
370
    25
100
AcDbCircle
 10
6844.6187553361
 20
5286.7994420927
 30
0.0
 40
5.0
100
AcDbArc
 50
90.0
 51
270.0
  0
LINE
  5
1BE
330
1F
100
AcDbEntity
  8
0
  6
Continuous
 62
     7
370
    25
100
AcDbLine
 10
6804.5187553361
 20
5281.7994420927
 30
0.0
 11
6824.5187553361
 21
5281.7994420927
 31
0.0
  0
ARC
  5
1BF
330
1F
100
AcDbEntity
  8
0
  6
Continuous
 62
     7
370
    25
100
AcDbCircle
 10
6824.5187553361
 20
5286.7994420927
 30
0.0
 40
5.0
100
AcDbArc
 50
270.0
 51
90.0
  0
LINE
  5
1C0
330
1F
100
AcDbEntity
  8
0
  6
Continuous
 62
     7
370
    25
100
AcDbLine
 10
6824.5187553361
 20
5291.7994420927
 30
0.0
 11
6804.5187553361
 21
5291.7994420927
 31
0.0
  0
ARC
  5
1C1
330
1F
100
AcDbEntity
  8
0
  6
Continuous
 62
     7
370
    25
100
AcDbCircle
 10
6804.5187553361
 20
5286.7994420927
 30
0.0
 40
5.0
100
AcDbArc
 50
90.0
 51
270.0
  0
LINE
  5
1C2
330
1F
100
AcDbEntity
  8
0
  6
Continuous
 62
     7
370
    25
100
AcDbLine
 10
6764.4187553361
 20
5281.7994420927
 30
0.0
 11
6784.4187553361
 21
5281.7994420927
 31
0.0
  0
ARC
  5
1C3
330
1F
100
AcDbEntity
  8
0
  6
Continuous
 62
     7
370
    25
100
AcDbCircle
 10
6784.4187553361
 20
5286.7994420927
 30
0.0
 40
5.0
100
AcDbArc
 50
270.0
 51
90.0
  0
LINE
  5
1C4
330
1F
100
AcDbEntity
  8
0
  6
Continuous
 62
     7
370
    25
100
AcDbLine
 10
6784.4187553361
 20
5291.7994420927
 30
0.0
 11
6764.4187553361
 21
5291.7994420927
 31
0.0
  0
ARC
  5
1C5
330
1F
100
AcDbEntity
  8
0
  6
Continuous
 62
     7
370
    25
100
AcDbCircle
 10
6764.4187553361
 20
5286.7994420927
 30
0.0
 40
5.0
100
AcDbArc
 50
90.0
 51
270.0
  0
LINE
  5
1C6
330
1F
100
AcDbEntity
  8
0
  6
Continuous
 62
     7
370
    25
100
AcDbLine
 10
6724.3187553361
 20
5281.7994420927
 30
0.0
 11
6744.3187553361
 21
5281.7994420927
 31
0.0
  0
ARC
  5
1C7
330
1F
100
AcDbEntity
  8
0
  6
Continuous
 62
     7
370
    25
100
AcDbCircle
 10
6744.3187553361
 20
5286.7994420927
 30
0.0
 40
5.0
100
AcDbArc
 50
270.0
 51
90.0
  0
LINE
  5
1C8
330
1F
100
AcDbEntity
  8
0
  6
Continuous
 62
     7
370
    25
100
AcDbLine
 10
6744.3187553361
 20
5291.7994420927
 30
0.0
 11
6724.3187553361
 21
5291.7994420927
 31
0.0
  0
ARC
  5
1C9
330
1F
100
AcDbEntity
  8
0
  6
Continuous
 62
     7
370
    25
100
AcDbCircle
 10
6724.3187553361
 20
5286.7994420927
 30
0.0
 40
5.0
100
AcDbArc
 50
90.0
 51
270.0
  0
LINE
  5
1CA
330
1F
100
AcDbEntity
  8
0
  6
Continuous
 62
     7
370
    25
100
AcDbLine
 10
6684.2187553361
 20
5281.7994420927
 30
0.0
 11
6704.2187553361
 21
5281.7994420927
 31
0.0
  0
ARC
  5
1CB
330
1F
100
AcDbEntity
  8
0
  6
Continuous
 62
     7
370
    25
100
AcDbCircle
 10
6704.2187553361
 20
5286.7994420927
 30
0.0
 40
5.0
100
AcDbArc
 50
270.0
 51
90.0
  0
LINE
  5
1CC
330
1F
100
AcDbEntity
  8
0
  6
Continuous
 62
     7
370
    25
100
AcDbLine
 10
6704.2187553361
 20
5291.7994420927
 30
0.0
 11
6684.2187553361
 21
5291.7994420927
 31
0.0
  0
ARC
  5
1CD
330
1F
100
AcDbEntity
  8
0
  6
Continuous
 62
     7
370
    25
100
AcDbCircle
 10
6684.2187553361
 20
5286.7994420927
 30
0.0
 40
5.0
100
AcDbArc
 50
90.0
 51
270.0
  0
LINE
  5
1CE
330
1F
100
AcDbEntity
  8
0
  6
Continuous
 62
     7
370
    25
100
AcDbLine
 10
6644.1187553361
 20
5281.7994420927
 30
0.0
 11
6664.1187553361
 21
5281.7994420927
 31
0.0
  0
ARC
  5
1CF
330
1F
100
AcDbEntity
  8
0
  6
Continuous
 62
     7
370
    25
100
AcDbCircle
 10
6664.1187553361
 20
5286.7994420927
 30
0.0
 40
5.0
100
AcDbArc
 50
270.0
 51
90.0
  0
LINE
  5
1D0
330
1F
100
AcDbEntity
  8
0
  6
Continuous
 62
     7
370
    25
100
AcDbLine
 10
6664.1187553361
 20
5291.7994420927
 30
0.0
 11
6644.1187553361
 21
5291.7994420927
 31
0.0
  0
ARC
  5
1D1
330
1F
100
AcDbEntity
  8
0
  6
Continuous
 62
     7
370
    25
100
AcDbCircle
 10
6644.1187553361
 20
5286.7994420927
 30
0.0
 40
5.0
100
AcDbArc
 50
90.0
 51
270.0
  0
LINE
  5
1D2
330
1F
100
AcDbEntity
  8
0
  6
Continuous
 62
     7
370
    25
100
AcDbLine
 10
6604.0187553361
 20
5281.7994420927
 30
0.0
 11
6624.0187553361
 21
5281.7994420927
 31
0.0
  0
ARC
  5
1D3
330
1F
100
AcDbEntity
  8
0
  6
Continuous
 62
     7
370
    25
100
AcDbCircle
 10
6624.0187553361
 20
5286.7994420927
 30
0.0
 40
5.0
100
AcDbArc
 50
270.0
 51
90.0
  0
LINE
  5
1D4
330
1F
100
AcDbEntity
  8
0
  6
Continuous
 62
     7
370
    25
100
AcDbLine
 10
6624.0187553361
 20
5291.7994420927
 30
0.0
 11
6604.0187553361
 21
5291.7994420927
 31
0.0
  0
ARC
  5
1D5
330
1F
100
AcDbEntity
  8
0
  6
Continuous
 62
     7
370
    25
100
AcDbCircle
 10
6604.0187553361
 20
5286.7994420927
 30
0.0
 40
5.0
100
AcDbArc
 50
90.0
 51
270.0
  0
LINE
  5
1D6
330
1F
100
AcDbEntity
  8
0
  6
Continuous
 62
     7
370
    25
100
AcDbLine
 10
6563.9187553361
 20
5281.7994420927
 30
0.0
 11
6583.9187553361
 21
5281.7994420927
 31
0.0
  0
ARC
  5
1D7
330
1F
100
AcDbEntity
  8
0
  6
Continuous
 62
     7
370
    25
100
AcDbCircle
 10
6583.9187553361
 20
5286.7994420927
 30
0.0
 40
5.0
100
AcDbArc
 50
270.0
 51
90.0
  0
LINE
  5
1D8
330
1F
100
AcDbEntity
  8
0
  6
Continuous
 62
     7
370
    25
100
AcDbLine
 10
6583.9187553361
 20
5291.7994420927
 30
0.0
 11
6563.9187553361
 21
5291.7994420927
 31
0.0
  0
ARC
  5
1D9
330
1F
100
AcDbEntity
  8
0
  6
Continuous
 62
     7
370
    25
100
AcDbCircle
 10
6563.9187553361
 20
5286.7994420927
 30
0.0
 40
5.0
100
AcDbArc
 50
90.0
 51
270.0
  0
LINE
  5
1DA
330
1F
100
AcDbEntity
  8
0
  6
Continuous
 62
     7
370
    25
100
AcDbLine
 10
6523.8187553361
 20
5281.7994420927
 30
0.0
 11
6543.8187553361
 21
5281.7994420927
 31
0.0
  0
ARC
  5
1DB
330
1F
100
AcDbEntity
  8
0
  6
Continuous
 62
     7
370
    25
100
AcDbCircle
 10
6543.8187553361
 20
5286.7994420927
 30
0.0
 40
5.0
100
AcDbArc
 50
270.0
 51
90.0
  0
LINE
  5
1DC
330
1F
100
AcDbEntity
  8
0
  6
Continuous
 62
     7
370
    25
100
AcDbLine
 10
6543.8187553361
 20
5291.7994420927
 30
0.0
 11
6523.8187553361
 21
5291.7994420927
 31
0.0
  0
ARC
  5
1DD
330
1F
100
AcDbEntity
  8
0
  6
Continuous
 62
     7
370
    25
100
AcDbCircle
 10
6523.8187553361
 20
5286.7994420927
 30
0.0
 40
5.0
100
AcDbArc
 50
90.0
 51
270.0
  0
LINE
  5
1DE
330
1F
100
AcDbEntity
  8
0
  6
Continuous
 62
     7
370
    25
100
AcDbLine
 10
6483.7187553361
 20
5281.7994420927
 30
0.0
 11
6503.7187553361
 21
5281.7994420927
 31
0.0
  0
ARC
  5
1DF
330
1F
100
AcDbEntity
  8
0
  6
Continuous
 62
     7
370
    25
100
AcDbCircle
 10
6503.7187553361
 20
5286.7994420927
 30
0.0
 40
5.0
100
AcDbArc
 50
270.0
 51
90.0
  0
LINE
  5
1E0
330
1F
100
AcDbEntity
  8
0
  6
Continuous
 62
     7
370
    25
100
AcDbLine
 10
6503.7187553361
 20
5291.7994420927
 30
0.0
 11
6483.7187553361
 21
5291.7994420927
 31
0.0
  0
ARC
  5
1E1
330
1F
100
AcDbEntity
  8
0
  6
Continuous
 62
     7
370
    25
100
AcDbCircle
 10
6483.7187553361
 20
5286.7994420927
 30
0.0
 40
5.0
100
AcDbArc
 50
90.0
 51
270.0
  0
LINE
  5
1E2
330
1F
100
AcDbEntity
  8
0
  6
Continuous
 62
     7
370
    25
100
AcDbLine
 10
6443.6187553361
 20
5281.7994420927
 30
0.0
 11
6463.6187553361
 21
5281.7994420927
 31
0.0
  0
ARC
  5
1E3
330
1F
100
AcDbEntity
  8
0
  6
Continuous
 62
     7
370
    25
100
AcDbCircle
 10
6463.6187553361
 20
5286.7994420927
 30
0.0
 40
5.0
100
AcDbArc
 50
270.0
 51
90.0
  0
LINE
  5
1E4
330
1F
100
AcDbEntity
  8
0
  6
Continuous
 62
     7
370
    25
100
AcDbLine
 10
6463.6187553361
 20
5291.7994420927
 30
0.0
 11
6443.6187553361
 21
5291.7994420927
 31
0.0
  0
ARC
  5
1E5
330
1F
100
AcDbEntity
  8
0
  6
Continuous
 62
     7
370
    25
100
AcDbCircle
 10
6443.6187553361
 20
5286.7994420927
 30
0.0
 40
5.0
100
AcDbArc
 50
90.0
 51
270.0
  0
LINE
  5
1E6
330
1F
100
AcDbEntity
  8
0
  6
Continuous
 62
     7
370
    25
100
AcDbLine
 10
6403.5187553361
 20
5281.7994420927
 30
0.0
 11
6423.5187553361
 21
5281.7994420927
 31
0.0
  0
ARC
  5
1E7
330
1F
100
AcDbEntity
  8
0
  6
Continuous
 62
     7
370
    25
100
AcDbCircle
 10
6423.5187553361
 20
5286.7994420927
 30
0.0
 40
5.0
100
AcDbArc
 50
270.0
 51
90.0
  0
LINE
  5
1E8
330
1F
100
AcDbEntity
  8
0
  6
Continuous
 62
     7
370
    25
100
AcDbLine
 10
6423.5187553361
 20
5291.7994420927
 30
0.0
 11
6403.5187553361
 21
5291.7994420927
 31
0.0
  0
ARC
  5
1E9
330
1F
100
AcDbEntity
  8
0
  6
Continuous
 62
     7
370
    25
100
AcDbCircle
 10
6403.5187553361
 20
5286.7994420927
 30
0.0
 40
5.0
100
AcDbArc
 50
90.0
 51
270.0
  0
LINE
  5
1EA
330
1F
100
AcDbEntity
  8
0
  6
Continuous
 62
     7
370
    25
100
AcDbLine
 10
6363.4187553361
 20
5281.7994420927
 30
0.0
 11
6383.4187553361
 21
5281.7994420927
 31
0.0
  0
ARC
  5
1EB
330
1F
100
AcDbEntity
  8
0
  6
Continuous
 62
     7
370
    25
100
AcDbCircle
 10
6383.4187553361
 20
5286.7994420927
 30
0.0
 40
5.0
100
AcDbArc
 50
270.0
 51
90.0
  0
LINE
  5
1EC
330
1F
100
AcDbEntity
  8
0
  6
Continuous
 62
     7
370
    25
100
AcDbLine
 10
6383.4187553361
 20
5291.7994420927
 30
0.0
 11
6363.4187553361
 21
5291.7994420927
 31
0.0
  0
ARC
  5
1ED
330
1F
100
AcDbEntity
  8
0
  6
Continuous
 62
     7
370
    25
100
AcDbCircle
 10
6363.4187553361
 20
5286.7994420927
 30
0.0
 40
5.0
100
AcDbArc
 50
90.0
 51
270.0
  0
LINE
  5
1EE
330
1F
100
AcDbEntity
  8
0
  6
Continuous
 62
     7
370
    25
100
AcDbLine
 10
6323.3187553361
 20
5281.7994420927
 30
0.0
 11
6343.3187553361
 21
5281.7994420927
 31
0.0
  0
ARC
  5
1EF
330
1F
100
AcDbEntity
  8
0
  6
Continuous
 62
     7
370
    25
100
AcDbCircle
 10
6343.3187553361
 20
5286.7994420927
 30
0.0
 40
5.0
100
AcDbArc
 50
270.0
 51
90.0
  0
LINE
  5
1F0
330
1F
100
AcDbEntity
  8
0
  6
Continuous
 62
     7
370
    25
100
AcDbLine
 10
6343.3187553361
 20
5291.7994420927
 30
0.0
 11
6323.3187553361
 21
5291.7994420927
 31
0.0
  0
ARC
  5
1F1
330
1F
100
AcDbEntity
  8
0
  6
Continuous
 62
     7
370
    25
100
AcDbCircle
 10
6323.3187553361
 20
5286.7994420927
 30
0.0
 40
5.0
100
AcDbArc
 50
90.0
 51
270.0
  0
LINE
  5
1F2
330
1F
100
AcDbEntity
  8
0
  6
Continuous
 62
     7
370
    25
100
AcDbLine
 10
6283.2187553361
 20
5281.7994420927
 30
0.0
 11
6303.2187553361
 21
5281.7994420927
 31
0.0
  0
ARC
  5
1F3
330
1F
100
AcDbEntity
  8
0
  6
Continuous
 62
     7
370
    25
100
AcDbCircle
 10
6303.2187553361
 20
5286.7994420927
 30
0.0
 40
5.0
100
AcDbArc
 50
270.0
 51
90.0
  0
LINE
  5
1F4
330
1F
100
AcDbEntity
  8
0
  6
Continuous
 62
     7
370
    25
100
AcDbLine
 10
6303.2187553361
 20
5291.7994420927
 30
0.0
 11
6283.2187553361
 21
5291.7994420927
 31
0.0
  0
ARC
  5
1F5
330
1F
100
AcDbEntity
  8
0
  6
Continuous
 62
     7
370
    25
100
AcDbCircle
 10
6283.2187553361
 20
5286.7994420927
 30
0.0
 40
5.0
100
AcDbArc
 50
90.0
 51
270.0
  0
LINE
  5
1F6
330
1F
100
AcDbEntity
  8
0
  6
Continuous
 62
     7
370
    25
100
AcDbLine
 10
6243.1187553361
 20
5281.7994420927
 30
0.0
 11
6263.1187553361
 21
5281.7994420927
 31
0.0
  0
ARC
  5
1F7
330
1F
100
AcDbEntity
  8
0
  6
Continuous
 62
     7
370
    25
100
AcDbCircle
 10
6263.1187553361
 20
5286.7994420927
 30
0.0
 40
5.0
100
AcDbArc
 50
270.0
 51
90.0
  0
LINE
  5
1F8
330
1F
100
AcDbEntity
  8
0
  6
Continuous
 62
     7
370
    25
100
AcDbLine
 10
6263.1187553361
 20
5291.7994420927
 30
0.0
 11
6243.1187553361
 21
5291.7994420927
 31
0.0
  0
ARC
  5
1F9
330
1F
100
AcDbEntity
  8
0
  6
Continuous
 62
     7
370
    25
100
AcDbCircle
 10
6243.1187553361
 20
5286.7994420927
 30
0.0
 40
5.0
100
AcDbArc
 50
90.0
 51
270.0
  0
LINE
  5
1FA
330
1F
100
AcDbEntity
  8
0
  6
Continuous
 62
     7
370
    25
100
AcDbLine
 10
6203.0187553361
 20
5281.7994420927
 30
0.0
 11
6223.0187553361
 21
5281.7994420927
 31
0.0
  0
ARC
  5
1FB
330
1F
100
AcDbEntity
  8
0
  6
Continuous
 62
     7
370
    25
100
AcDbCircle
 10
6223.0187553361
 20
5286.7994420927
 30
0.0
 40
5.0
100
AcDbArc
 50
270.0
 51
90.0
  0
LINE
  5
1FC
330
1F
100
AcDbEntity
  8
0
  6
Continuous
 62
     7
370
    25
100
AcDbLine
 10
6223.0187553361
 20
5291.7994420927
 30
0.0
 11
6203.0187553361
 21
5291.7994420927
 31
0.0
  0
ARC
  5
1FD
330
1F
100
AcDbEntity
  8
0
  6
Continuous
 62
     7
370
    25
100
AcDbCircle
 10
6203.0187553361
 20
5286.7994420927
 30
0.0
 40
5.0
100
AcDbArc
 50
90.0
 51
270.0
  0
LINE
  5
1FE
330
1F
100
AcDbEntity
  8
0
  6
Continuous
 62
     7
370
    25
100
AcDbLine
 10
6162.9187553361
 20
5281.7994420927
 30
0.0
 11
6182.9187553361
 21
5281.7994420927
 31
0.0
  0
ARC
  5
1FF
330
1F
100
AcDbEntity
  8
0
  6
Continuous
 62
     7
370
    25
100
AcDbCircle
 10
6182.9187553361
 20
5286.7994420927
 30
0.0
 40
5.0
100
AcDbArc
 50
270.0
 51
90.0
  0
LINE
  5
200
330
1F
100
AcDbEntity
  8
0
  6
Continuous
 62
     7
370
    25
100
AcDbLine
 10
6182.9187553361
 20
5291.7994420927
 30
0.0
 11
6162.9187553361
 21
5291.7994420927
 31
0.0
  0
ARC
  5
201
330
1F
100
AcDbEntity
  8
0
  6
Continuous
 62
     7
370
    25
100
AcDbCircle
 10
6162.9187553361
 20
5286.7994420927
 30
0.0
 40
5.0
100
AcDbArc
 50
90.0
 51
270.0
  0
LINE
  5
202
330
1F
100
AcDbEntity
  8
0
  6
Continuous
 62
     7
370
    25
100
AcDbLine
 10
6122.8187553361
 20
5281.7994420927
 30
0.0
 11
6142.8187553361
 21
5281.7994420927
 31
0.0
  0
ARC
  5
203
330
1F
100
AcDbEntity
  8
0
  6
Continuous
 62
     7
370
    25
100
AcDbCircle
 10
6142.8187553361
 20
5286.7994420927
 30
0.0
 40
5.0
100
AcDbArc
 50
270.0
 51
90.0
  0
LINE
  5
204
330
1F
100
AcDbEntity
  8
0
  6
Continuous
 62
     7
370
    25
100
AcDbLine
 10
6142.8187553361
 20
5291.7994420927
 30
0.0
 11
6122.8187553361
 21
5291.7994420927
 31
0.0
  0
ARC
  5
205
330
1F
100
AcDbEntity
  8
0
  6
Continuous
 62
     7
370
    25
100
AcDbCircle
 10
6122.8187553361
 20
5286.7994420927
 30
0.0
 40
5.0
100
AcDbArc
 50
90.0
 51
270.0
  0
LINE
  5
206
330
1F
100
AcDbEntity
  8
0
  6
Continuous
 62
     7
370
    25
100
AcDbLine
 10
6082.7187553361
 20
5281.7994420927
 30
0.0
 11
6102.7187553361
 21
5281.7994420927
 31
0.0
  0
ARC
  5
207
330
1F
100
AcDbEntity
  8
0
  6
Continuous
 62
     7
370
    25
100
AcDbCircle
 10
6102.7187553361
 20
5286.7994420927
 30
0.0
 40
5.0
100
AcDbArc
 50
270.0
 51
90.0
  0
LINE
  5
208
330
1F
100
AcDbEntity
  8
0
  6
Continuous
 62
     7
370
    25
100
AcDbLine
 10
6102.7187553361
 20
5291.7994420927
 30
0.0
 11
6082.7187553361
 21
5291.7994420927
 31
0.0
  0
ARC
  5
209
330
1F
100
AcDbEntity
  8
0
  6
Continuous
 62
     7
370
    25
100
AcDbCircle
 10
6082.7187553361
 20
5286.7994420927
 30
0.0
 40
5.0
100
AcDbArc
 50
90.0
 51
270.0
  0
LINE
  5
20A
330
1F
100
AcDbEntity
  8
0
  6
Continuous
 62
     7
370
    25
100
AcDbLine
 10
6042.6187553361
 20
5281.7994420927
 30
0.0
 11
6062.6187553361
 21
5281.7994420927
 31
0.0
  0
ARC
  5
20B
330
1F
100
AcDbEntity
  8
0
  6
Continuous
 62
     7
370
    25
100
AcDbCircle
 10
6062.6187553361
 20
5286.7994420927
 30
0.0
 40
5.0
100
AcDbArc
 50
270.0
 51
90.0
  0
LINE
  5
20C
330
1F
100
AcDbEntity
  8
0
  6
Continuous
 62
     7
370
    25
100
AcDbLine
 10
6062.6187553361
 20
5291.7994420927
 30
0.0
 11
6042.6187553361
 21
5291.7994420927
 31
0.0
  0
ARC
  5
20D
330
1F
100
AcDbEntity
  8
0
  6
Continuous
 62
     7
370
    25
100
AcDbCircle
 10
6042.6187553361
 20
5286.7994420927
 30
0.0
 40
5.0
100
AcDbArc
 50
90.0
 51
270.0
  0
LINE
  5
20E
330
1F
100
AcDbEntity
  8
0
  6
Continuous
 62
     7
370
    25
100
AcDbLine
 10
6002.5187553361
 20
5281.7994420927
 30
0.0
 11
6022.5187553361
 21
5281.7994420927
 31
0.0
  0
ARC
  5
20F
330
1F
100
AcDbEntity
  8
0
  6
Continuous
 62
     7
370
    25
100
AcDbCircle
 10
6022.5187553361
 20
5286.7994420927
 30
0.0
 40
5.0
100
AcDbArc
 50
270.0
 51
90.0
  0
LINE
  5
210
330
1F
100
AcDbEntity
  8
0
  6
Continuous
 62
     7
370
    25
100
AcDbLine
 10
6022.5187553361
 20
5291.7994420927
 30
0.0
 11
6002.5187553361
 21
5291.7994420927
 31
0.0
  0
ARC
  5
211
330
1F
100
AcDbEntity
  8
0
  6
Continuous
 62
     7
370
    25
100
AcDbCircle
 10
6002.5187553361
 20
5286.7994420927
 30
0.0
 40
5.0
100
AcDbArc
 50
90.0
 51
270.0
  0
LINE
  5
212
330
1F
100
AcDbEntity
  8
0
  6
Continuous
 62
     7
370
    25
100
AcDbLine
 10
5962.4187553361
 20
5281.7994420927
 30
0.0
 11
5982.4187553361
 21
5281.7994420927
 31
0.0
  0
ARC
  5
213
330
1F
100
AcDbEntity
  8
0
  6
Continuous
 62
     7
370
    25
100
AcDbCircle
 10
5982.4187553361
 20
5286.7994420927
 30
0.0
 40
5.0
100
AcDbArc
 50
270.0
 51
90.0
  0
LINE
  5
214
330
1F
100
AcDbEntity
  8
0
  6
Continuous
 62
     7
370
    25
100
AcDbLine
 10
5982.4187553361
 20
5291.7994420927
 30
0.0
 11
5962.4187553361
 21
5291.7994420927
 31
0.0
  0
ARC
  5
215
330
1F
100
AcDbEntity
  8
0
  6
Continuous
 62
     7
370
    25
100
AcDbCircle
 10
5962.4187553361
 20
5286.7994420927
 30
0.0
 40
5.0
100
AcDbArc
 50
90.0
 51
270.0
  0
LINE
  5
216
330
1F
100
AcDbEntity
  8
0
  6
Continuous
 62
     7
370
    25
100
AcDbLine
 10
5922.3187553361
 20
5281.7994420927
 30
0.0
 11
5942.3187553361
 21
5281.7994420927
 31
0.0
  0
ARC
  5
217
330
1F
100
AcDbEntity
  8
0
  6
Continuous
 62
     7
370
    25
100
AcDbCircle
 10
5942.3187553361
 20
5286.7994420927
 30
0.0
 40
5.0
100
AcDbArc
 50
270.0
 51
90.0
  0
LINE
  5
218
330
1F
100
AcDbEntity
  8
0
  6
Continuous
 62
     7
370
    25
100
AcDbLine
 10
5942.3187553361
 20
5291.7994420927
 30
0.0
 11
5922.3187553361
 21
5291.7994420927
 31
0.0
  0
ARC
  5
219
330
1F
100
AcDbEntity
  8
0
  6
Continuous
 62
     7
370
    25
100
AcDbCircle
 10
5922.3187553361
 20
5286.7994420927
 30
0.0
 40
5.0
100
AcDbArc
 50
90.0
 51
270.0
  0
LINE
  5
21A
330
1F
100
AcDbEntity
  8
0
  6
Continuous
 62
     7
370
    25
100
AcDbLine
 10
5882.2187553361
 20
5281.7994420927
 30
0.0
 11
5902.2187553361
 21
5281.7994420927
 31
0.0
  0
ARC
  5
21B
330
1F
100
AcDbEntity
  8
0
  6
Continuous
 62
     7
370
    25
100
AcDbCircle
 10
5902.2187553361
 20
5286.7994420927
 30
0.0
 40
5.0
100
AcDbArc
 50
270.0
 51
90.0
  0
LINE
  5
21C
330
1F
100
AcDbEntity
  8
0
  6
Continuous
 62
     7
370
    25
100
AcDbLine
 10
5902.2187553361
 20
5291.7994420927
 30
0.0
 11
5882.2187553361
 21
5291.7994420927
 31
0.0
  0
ARC
  5
21D
330
1F
100
AcDbEntity
  8
0
  6
Continuous
 62
     7
370
    25
100
AcDbCircle
 10
5882.2187553361
 20
5286.7994420927
 30
0.0
 40
5.0
100
AcDbArc
 50
90.0
 51
270.0
  0
LINE
  5
21E
330
1F
100
AcDbEntity
  8
0
  6
Continuous
 62
     7
370
    25
100
AcDbLine
 10
5842.1187553361
 20
5281.7994420927
 30
0.0
 11
5862.1187553361
 21
5281.7994420927
 31
0.0
  0
ARC
  5
21F
330
1F
100
AcDbEntity
  8
0
  6
Continuous
 62
     7
370
    25
100
AcDbCircle
 10
5862.1187553361
 20
5286.7994420927
 30
0.0
 40
5.0
100
AcDbArc
 50
270.0
 51
90.0
  0
LINE
  5
220
330
1F
100
AcDbEntity
  8
0
  6
Continuous
 62
     7
370
    25
100
AcDbLine
 10
5862.1187553361
 20
5291.7994420927
 30
0.0
 11
5842.1187553361
 21
5291.7994420927
 31
0.0
  0
ARC
  5
221
330
1F
100
AcDbEntity
  8
0
  6
Continuous
 62
     7
370
    25
100
AcDbCircle
 10
5842.1187553361
 20
5286.7994420927
 30
0.0
 40
5.0
100
AcDbArc
 50
90.0
 51
270.0
  0
LINE
  5
222
330
1F
100
AcDbEntity
  8
0
  6
Continuous
 62
     7
370
    25
100
AcDbLine
 10
5802.0187553361
 20
5281.7994420927
 30
0.0
 11
5822.0187553361
 21
5281.7994420927
 31
0.0
  0
ARC
  5
223
330
1F
100
AcDbEntity
  8
0
  6
Continuous
 62
     7
370
    25
100
AcDbCircle
 10
5822.0187553361
 20
5286.7994420927
 30
0.0
 40
5.0
100
AcDbArc
 50
270.0
 51
90.0
  0
LINE
  5
224
330
1F
100
AcDbEntity
  8
0
  6
Continuous
 62
     7
370
    25
100
AcDbLine
 10
5822.0187553361
 20
5291.7994420927
 30
0.0
 11
5802.0187553361
 21
5291.7994420927
 31
0.0
  0
ARC
  5
225
330
1F
100
AcDbEntity
  8
0
  6
Continuous
 62
     7
370
    25
100
AcDbCircle
 10
5802.0187553361
 20
5286.7994420927
 30
0.0
 40
5.0
100
AcDbArc
 50
90.0
 51
270.0
  0
LINE
  5
226
330
1F
100
AcDbEntity
  8
0
  6
Continuous
 62
     7
370
    25
100
AcDbLine
 10
5761.9187553361
 20
5281.7994420927
 30
0.0
 11
5781.9187553361
 21
5281.7994420927
 31
0.0
  0
ARC
  5
227
330
1F
100
AcDbEntity
  8
0
  6
Continuous
 62
     7
370
    25
100
AcDbCircle
 10
5781.9187553361
 20
5286.7994420927
 30
0.0
 40
5.0
100
AcDbArc
 50
270.0
 51
90.0
  0
LINE
  5
228
330
1F
100
AcDbEntity
  8
0
  6
Continuous
 62
     7
370
    25
100
AcDbLine
 10
5781.9187553361
 20
5291.7994420927
 30
0.0
 11
5761.9187553361
 21
5291.7994420927
 31
0.0
  0
ARC
  5
229
330
1F
100
AcDbEntity
  8
0
  6
Continuous
 62
     7
370
    25
100
AcDbCircle
 10
5761.9187553361
 20
5286.7994420927
 30
0.0
 40
5.0
100
AcDbArc
 50
90.0
 51
270.0
  0
LINE
  5
22A
330
1F
100
AcDbEntity
  8
0
  6
Continuous
 62
     7
370
    25
100
AcDbLine
 10
6848.1474748661
 20
5241.7994420927
 30
0.0
 11
6864.6187553361
 21
5241.7994420927
 31
0.0
  0
ARC
  5
22B
330
1F
100
AcDbEntity
  8
0
  6
Continuous
 62
     7
370
    25
100
AcDbCircle
 10
6864.6187553361
 20
5246.7994420927
 30
0.0
 40
5.0
100
AcDbArc
 50
270.0
 51
90.0
  0
LINE
  5
22C
330
1F
100
AcDbEntity
  8
0
  6
Continuous
 62
     7
370
    25
100
AcDbLine
 10
6864.6187553361
 20
5251.7994420927
 30
0.0
 11
6844.6187553361
 21
5251.7994420927
 31
0.0
  0
ARC
  5
22D
330
1F
100
AcDbEntity
  8
0
  6
Continuous
 62
     7
370
    25
100
AcDbCircle
 10
6844.6187553361
 20
5246.7994420927
 30
0.0
 40
5.0
100
AcDbArc
 50
90.0
 51
168.4630409672
  0
ARC
  5
22E
330
1F
100
AcDbEntity
  8
0
  6
Continuous
 62
     7
370
    25
100
AcDbCircle
 10
6824.5187553361
 20
5246.7994420927
 30
0.0
 40
5.0
100
AcDbArc
 50
11.5369590328
 51
90.0
  0
LINE
  5
22F
330
1F
100
AcDbEntity
  8
0
  6
Continuous
 62
     7
370
    25
100
AcDbLine
 10
6824.5187553361
 20
5251.7994420927
 30
0.0
 11
6804.5187553361
 21
5251.7994420927
 31
0.0
  0
ARC
  5
230
330
1F
100
AcDbEntity
  8
0
  6
Continuous
 62
     7
370
    25
100
AcDbCircle
 10
6804.5187553361
 20
5246.7994420927
 30
0.0
 40
5.0
100
AcDbArc
 50
90.0
 51
168.4630409672
  0
ARC
  5
231
330
1F
100
AcDbEntity
  8
0
  6
Continuous
 62
     7
370
    25
100
AcDbCircle
 10
6784.4187553361
 20
5246.7994420927
 30
0.0
 40
5.0
100
AcDbArc
 50
11.5369590328
 51
90.0
  0
LINE
  5
232
330
1F
100
AcDbEntity
  8
0
  6
Continuous
 62
     7
370
    25
100
AcDbLine
 10
6784.4187553361
 20
5251.7994420927
 30
0.0
 11
6764.4187553361
 21
5251.7994420927
 31
0.0
  0
ARC
  5
233
330
1F
100
AcDbEntity
  8
0
  6
Continuous
 62
     7
370
    25
100
AcDbCircle
 10
6764.4187553361
 20
5246.7994420927
 30
0.0
 40
5.00000000000081
100
AcDbArc
 50
90.0
 51
168.4630409672
  0
ARC
  5
234
330
1F
100
AcDbEntity
  8
0
  6
Continuous
 62
     7
370
    25
100
AcDbCircle
 10
6744.3187553361
 20
5246.7994420927
 30
0.0
 40
5.0
100
AcDbArc
 50
11.5369590328
 51
90.0
  0
LINE
  5
235
330
1F
100
AcDbEntity
  8
0
  6
Continuous
 62
     7
370
    25
100
AcDbLine
 10
6744.3187553361
 20
5251.7994420927
 30
0.0
 11
6724.3187553361
 21
5251.7994420927
 31
0.0
  0
ARC
  5
236
330
1F
100
AcDbEntity
  8
0
  6
Continuous
 62
     7
370
    25
100
AcDbCircle
 10
6724.3187553361
 20
5246.7994420927
 30
0.0
 40
5.0
100
AcDbArc
 50
90.0
 51
168.4630409672
  0
ARC
  5
237
330
1F
100
AcDbEntity
  8
0
  6
Continuous
 62
     7
370
    25
100
AcDbCircle
 10
6704.2187553361
 20
5246.7994420927
 30
0.0
 40
5.00000000000081
100
AcDbArc
 50
11.5369590328
 51
90.0
  0
LINE
  5
238
330
1F
100
AcDbEntity
  8
0
  6
Continuous
 62
     7
370
    25
100
AcDbLine
 10
6704.2187553361
 20
5251.7994420927
 30
0.0
 11
6684.2187553361
 21
5251.7994420927
 31
0.0
  0
ARC
  5
239
330
1F
100
AcDbEntity
  8
0
  6
Continuous
 62
     7
370
    25
100
AcDbCircle
 10
6684.2187553361
 20
5246.7994420927
 30
0.0
 40
5.0
100
AcDbArc
 50
90.0
 51
168.4630409672
  0
ARC
  5
23A
330
1F
100
AcDbEntity
  8
0
  6
Continuous
 62
     7
370
    25
100
AcDbCircle
 10
6664.1187553361
 20
5246.7994420927
 30
0.0
 40
5.0
100
AcDbArc
 50
11.5369590328
 51
90.0
  0
LINE
  5
23B
330
1F
100
AcDbEntity
  8
0
  6
Continuous
 62
     7
370
    25
100
AcDbLine
 10
6664.1187553361
 20
5251.7994420927
 30
0.0
 11
6644.1187553361
 21
5251.7994420927
 31
0.0
  0
ARC
  5
23C
330
1F
100
AcDbEntity
  8
0
  6
Continuous
 62
     7
370
    25
100
AcDbCircle
 10
6644.1187553361
 20
5246.7994420927
 30
0.0
 40
5.0
100
AcDbArc
 50
90.0
 51
168.4630409672
  0
ARC
  5
23D
330
1F
100
AcDbEntity
  8
0
  6
Continuous
 62
     7
370
    25
100
AcDbCircle
 10
6624.0187553361
 20
5246.7994420927
 30
0.0
 40
5.0
100
AcDbArc
 50
11.5369590328
 51
90.0
  0
LINE
  5
23E
330
1F
100
AcDbEntity
  8
0
  6
Continuous
 62
     7
370
    25
100
AcDbLine
 10
6624.0187553361
 20
5251.7994420927
 30
0.0
 11
6604.0187553361
 21
5251.7994420927
 31
0.0
  0
ARC
  5
23F
330
1F
100
AcDbEntity
  8
0
  6
Continuous
 62
     7
370
    25
100
AcDbCircle
 10
6604.0187553361
 20
5246.7994420927
 30
0.0
 40
5.0
100
AcDbArc
 50
90.0
 51
168.4630409672
  0
ARC
  5
240
330
1F
100
AcDbEntity
  8
0
  6
Continuous
 62
     7
370
    25
100
AcDbCircle
 10
6583.9187553361
 20
5246.7994420927
 30
0.0
 40
5.0
100
AcDbArc
 50
11.5369590328
 51
90.0
  0
LINE
  5
241
330
1F
100
AcDbEntity
  8
0
  6
Continuous
 62
     7
370
    25
100
AcDbLine
 10
6583.9187553361
 20
5251.7994420927
 30
0.0
 11
6563.9187553361
 21
5251.7994420927
 31
0.0
  0
ARC
  5
242
330
1F
100
AcDbEntity
  8
0
  6
Continuous
 62
     7
370
    25
100
AcDbCircle
 10
6563.9187553361
 20
5246.7994420927
 30
0.0
 40
5.0
100
AcDbArc
 50
90.0
 51
168.4630409672
  0
ARC
  5
243
330
1F
100
AcDbEntity
  8
0
  6
Continuous
 62
     7
370
    25
100
AcDbCircle
 10
6543.8187553361
 20
5246.7994420927
 30
0.0
 40
5.0
100
AcDbArc
 50
11.5369590328
 51
90.0
  0
LINE
  5
244
330
1F
100
AcDbEntity
  8
0
  6
Continuous
 62
     7
370
    25
100
AcDbLine
 10
6543.8187553361
 20
5251.7994420927
 30
0.0
 11
6523.8187553361
 21
5251.7994420927
 31
0.0
  0
ARC
  5
245
330
1F
100
AcDbEntity
  8
0
  6
Continuous
 62
     7
370
    25
100
AcDbCircle
 10
6523.8187553361
 20
5246.7994420927
 30
0.0
 40
5.0
100
AcDbArc
 50
90.0
 51
168.4630409672
  0
ARC
  5
246
330
1F
100
AcDbEntity
  8
0
  6
Continuous
 62
     7
370
    25
100
AcDbCircle
 10
6503.7187553361
 20
5246.7994420927
 30
0.0
 40
5.00000000000081
100
AcDbArc
 50
11.5369590328
 51
90.0
  0
LINE
  5
247
330
1F
100
AcDbEntity
  8
0
  6
Continuous
 62
     7
370
    25
100
AcDbLine
 10
6503.7187553361
 20
5251.7994420927
 30
0.0
 11
6483.7187553361
 21
5251.7994420927
 31
0.0
  0
ARC
  5
248
330
1F
100
AcDbEntity
  8
0
  6
Continuous
 62
     7
370
    25
100
AcDbCircle
 10
6483.7187553361
 20
5246.7994420927
 30
0.0
 40
5.0
100
AcDbArc
 50
90.0
 51
168.4630409672
  0
ARC
  5
249
330
1F
100
AcDbEntity
  8
0
  6
Continuous
 62
     7
370
    25
100
AcDbCircle
 10
6463.6187553361
 20
5246.7994420927
 30
0.0
 40
5.0
100
AcDbArc
 50
11.5369590328
 51
90.0
  0
LINE
  5
24A
330
1F
100
AcDbEntity
  8
0
  6
Continuous
 62
     7
370
    25
100
AcDbLine
 10
6463.6187553361
 20
5251.7994420927
 30
0.0
 11
6443.6187553361
 21
5251.7994420927
 31
0.0
  0
ARC
  5
24B
330
1F
100
AcDbEntity
  8
0
  6
Continuous
 62
     7
370
    25
100
AcDbCircle
 10
6443.6187553361
 20
5246.7994420927
 30
0.0
 40
5.00000000000081
100
AcDbArc
 50
90.0
 51
168.4630409672
  0
ARC
  5
24C
330
1F
100
AcDbEntity
  8
0
  6
Continuous
 62
     7
370
    25
100
AcDbCircle
 10
6423.5187553361
 20
5246.7994420927
 30
0.0
 40
5.0
100
AcDbArc
 50
11.5369590328
 51
90.0
  0
LINE
  5
24D
330
1F
100
AcDbEntity
  8
0
  6
Continuous
 62
     7
370
    25
100
AcDbLine
 10
6423.5187553361
 20
5251.7994420927
 30
0.0
 11
6403.5187553361
 21
5251.7994420927
 31
0.0
  0
ARC
  5
24E
330
1F
100
AcDbEntity
  8
0
  6
Continuous
 62
     7
370
    25
100
AcDbCircle
 10
6403.5187553361
 20
5246.7994420927
 30
0.0
 40
5.0
100
AcDbArc
 50
90.0
 51
168.4630409672
  0
ARC
  5
24F
330
1F
100
AcDbEntity
  8
0
  6
Continuous
 62
     7
370
    25
100
AcDbCircle
 10
6383.4187553361
 20
5246.7994420927
 30
0.0
 40
5.00000000000081
100
AcDbArc
 50
11.5369590328
 51
90.0
  0
LINE
  5
250
330
1F
100
AcDbEntity
  8
0
  6
Continuous
 62
     7
370
    25
100
AcDbLine
 10
6383.4187553361
 20
5251.7994420927
 30
0.0
 11
6363.4187553361
 21
5251.7994420927
 31
0.0
  0
ARC
  5
251
330
1F
100
AcDbEntity
  8
0
  6
Continuous
 62
     7
370
    25
100
AcDbCircle
 10
6363.4187553361
 20
5246.7994420927
 30
0.0
 40
5.0
100
AcDbArc
 50
90.0
 51
168.4630409672
  0
ARC
  5
252
330
1F
100
AcDbEntity
  8
0
  6
Continuous
 62
     7
370
    25
100
AcDbCircle
 10
6343.3187553361
 20
5246.7994420927
 30
0.0
 40
5.0
100
AcDbArc
 50
11.5369590328
 51
90.0
  0
LINE
  5
253
330
1F
100
AcDbEntity
  8
0
  6
Continuous
 62
     7
370
    25
100
AcDbLine
 10
6343.3187553361
 20
5251.7994420927
 30
0.0
 11
6323.3187553361
 21
5251.7994420927
 31
0.0
  0
ARC
  5
254
330
1F
100
AcDbEntity
  8
0
  6
Continuous
 62
     7
370
    25
100
AcDbCircle
 10
6323.3187553361
 20
5246.7994420927
 30
0.0
 40
5.00000000000081
100
AcDbArc
 50
90.0
 51
168.4630409672
  0
ARC
  5
255
330
1F
100
AcDbEntity
  8
0
  6
Continuous
 62
     7
370
    25
100
AcDbCircle
 10
6303.2187553361
 20
5246.7994420927
 30
0.0
 40
5.0
100
AcDbArc
 50
11.5369590328
 51
90.0
  0
LINE
  5
256
330
1F
100
AcDbEntity
  8
0
  6
Continuous
 62
     7
370
    25
100
AcDbLine
 10
6303.2187553361
 20
5251.7994420927
 30
0.0
 11
6283.2187553361
 21
5251.7994420927
 31
0.0
  0
ARC
  5
257
330
1F
100
AcDbEntity
  8
0
  6
Continuous
 62
     7
370
    25
100
AcDbCircle
 10
6283.2187553361
 20
5246.7994420927
 30
0.0
 40
5.0
100
AcDbArc
 50
90.0
 51
168.4630409672
  0
ARC
  5
258
330
1F
100
AcDbEntity
  8
0
  6
Continuous
 62
     7
370
    25
100
AcDbCircle
 10
6263.1187553361
 20
5246.7994420927
 30
0.0
 40
5.0
100
AcDbArc
 50
11.5369590328
 51
90.0
  0
LINE
  5
259
330
1F
100
AcDbEntity
  8
0
  6
Continuous
 62
     7
370
    25
100
AcDbLine
 10
6263.1187553361
 20
5251.7994420927
 30
0.0
 11
6243.1187553361
 21
5251.7994420927
 31
0.0
  0
ARC
  5
25A
330
1F
100
AcDbEntity
  8
0
  6
Continuous
 62
     7
370
    25
100
AcDbCircle
 10
6243.1187553361
 20
5246.7994420927
 30
0.0
 40
5.00000000000081
100
AcDbArc
 50
90.0
 51
168.4630409672
  0
ARC
  5
25B
330
1F
100
AcDbEntity
  8
0
  6
Continuous
 62
     7
370
    25
100
AcDbCircle
 10
6223.0187553361
 20
5246.7994420927
 30
0.0
 40
5.0
100
AcDbArc
 50
11.5369590328
 51
90.0
  0
LINE
  5
25C
330
1F
100
AcDbEntity
  8
0
  6
Continuous
 62
     7
370
    25
100
AcDbLine
 10
6223.0187553361
 20
5251.7994420927
 30
0.0
 11
6203.0187553361
 21
5251.7994420927
 31
0.0
  0
ARC
  5
25D
330
1F
100
AcDbEntity
  8
0
  6
Continuous
 62
     7
370
    25
100
AcDbCircle
 10
6203.0187553361
 20
5246.7994420927
 30
0.0
 40
5.0
100
AcDbArc
 50
90.0
 51
168.4630409672
  0
ARC
  5
25E
330
1F
100
AcDbEntity
  8
0
  6
Continuous
 62
     7
370
    25
100
AcDbCircle
 10
6182.9187553361
 20
5246.7994420927
 30
0.0
 40
5.00000000000081
100
AcDbArc
 50
11.5369590328
 51
90.0
  0
LINE
  5
25F
330
1F
100
AcDbEntity
  8
0
  6
Continuous
 62
     7
370
    25
100
AcDbLine
 10
6182.9187553361
 20
5251.7994420927
 30
0.0
 11
6162.9187553361
 21
5251.7994420927
 31
0.0
  0
ARC
  5
260
330
1F
100
AcDbEntity
  8
0
  6
Continuous
 62
     7
370
    25
100
AcDbCircle
 10
6162.9187553361
 20
5246.7994420927
 30
0.0
 40
5.0
100
AcDbArc
 50
90.0
 51
168.4630409672
  0
ARC
  5
261
330
1F
100
AcDbEntity
  8
0
  6
Continuous
 62
     7
370
    25
100
AcDbCircle
 10
6142.8187553361
 20
5246.7994420927
 30
0.0
 40
5.0
100
AcDbArc
 50
11.5369590328
 51
90.0
  0
LINE
  5
262
330
1F
100
AcDbEntity
  8
0
  6
Continuous
 62
     7
370
    25
100
AcDbLine
 10
6142.8187553361
 20
5251.7994420927
 30
0.0
 11
6122.8187553361
 21
5251.7994420927
 31
0.0
  0
ARC
  5
263
330
1F
100
AcDbEntity
  8
0
  6
Continuous
 62
     7
370
    25
100
AcDbCircle
 10
6122.8187553361
 20
5246.7994420927
 30
0.0
 40
5.00000000000081
100
AcDbArc
 50
90.0
 51
168.4630409672
  0
ARC
  5
264
330
1F
100
AcDbEntity
  8
0
  6
Continuous
 62
     7
370
    25
100
AcDbCircle
 10
6102.7187553361
 20
5246.7994420927
 30
0.0
 40
5.0
100
AcDbArc
 50
11.5369590328
 51
90.0
  0
LINE
  5
265
330
1F
100
AcDbEntity
  8
0
  6
Continuous
 62
     7
370
    25
100
AcDbLine
 10
6102.7187553361
 20
5251.7994420927
 30
0.0
 11
6082.7187553361
 21
5251.7994420927
 31
0.0
  0
ARC
  5
266
330
1F
100
AcDbEntity
  8
0
  6
Continuous
 62
     7
370
    25
100
AcDbCircle
 10
6082.7187553361
 20
5246.7994420927
 30
0.0
 40
5.0
100
AcDbArc
 50
90.0
 51
168.4630409672
  0
ARC
  5
267
330
1F
100
AcDbEntity
  8
0
  6
Continuous
 62
     7
370
    25
100
AcDbCircle
 10
6062.6187553361
 20
5246.7994420927
 30
0.0
 40
5.000000000001701
100
AcDbArc
 50
11.5369590328
 51
90.0
  0
LINE
  5
268
330
1F
100
AcDbEntity
  8
0
  6
Continuous
 62
     7
370
    25
100
AcDbLine
 10
6062.6187553361
 20
5251.7994420927
 30
0.0
 11
6042.6187553361
 21
5251.7994420927
 31
0.0
  0
ARC
  5
269
330
1F
100
AcDbEntity
  8
0
  6
Continuous
 62
     7
370
    25
100
AcDbCircle
 10
6042.6187553361
 20
5246.7994420927
 30
0.0
 40
5.0
100
AcDbArc
 50
90.0
 51
168.4630409672
  0
ARC
  5
26A
330
1F
100
AcDbEntity
  8
0
  6
Continuous
 62
     7
370
    25
100
AcDbCircle
 10
6022.5187553361
 20
5246.7994420927
 30
0.0
 40
5.0
100
AcDbArc
 50
11.5369590328
 51
90.0
  0
LINE
  5
26B
330
1F
100
AcDbEntity
  8
0
  6
Continuous
 62
     7
370
    25
100
AcDbLine
 10
6022.5187553361
 20
5251.7994420927
 30
0.0
 11
6002.5187553361
 21
5251.7994420927
 31
0.0
  0
ARC
  5
26C
330
1F
100
AcDbEntity
  8
0
  6
Continuous
 62
     7
370
    25
100
AcDbCircle
 10
6002.5187553361
 20
5246.7994420927
 30
0.0
 40
5.0
100
AcDbArc
 50
90.0
 51
168.4630409672
  0
ARC
  5
26D
330
1F
100
AcDbEntity
  8
0
  6
Continuous
 62
     7
370
    25
100
AcDbCircle
 10
5982.4187553361
 20
5246.7994420927
 30
0.0
 40
5.0
100
AcDbArc
 50
11.5369590328
 51
90.0
  0
LINE
  5
26E
330
1F
100
AcDbEntity
  8
0
  6
Continuous
 62
     7
370
    25
100
AcDbLine
 10
5982.4187553361
 20
5251.7994420927
 30
0.0
 11
5962.4187553361
 21
5251.7994420927
 31
0.0
  0
ARC
  5
26F
330
1F
100
AcDbEntity
  8
0
  6
Continuous
 62
     7
370
    25
100
AcDbCircle
 10
5962.4187553361
 20
5246.7994420927
 30
0.0
 40
5.00000000000081
100
AcDbArc
 50
90.0
 51
168.4630409672
  0
ARC
  5
270
330
1F
100
AcDbEntity
  8
0
  6
Continuous
 62
     7
370
    25
100
AcDbCircle
 10
5942.3187553361
 20
5246.7994420927
 30
0.0
 40
5.0
100
AcDbArc
 50
11.5369590328
 51
90.0
  0
LINE
  5
271
330
1F
100
AcDbEntity
  8
0
  6
Continuous
 62
     7
370
    25
100
AcDbLine
 10
5942.3187553361
 20
5251.7994420927
 30
0.0
 11
5922.3187553361
 21
5251.7994420927
 31
0.0
  0
ARC
  5
272
330
1F
100
AcDbEntity
  8
0
  6
Continuous
 62
     7
370
    25
100
AcDbCircle
 10
5922.3187553361
 20
5246.7994420927
 30
0.0
 40
5.00000000000081
100
AcDbArc
 50
90.0
 51
168.4630409672
  0
ARC
  5
273
330
1F
100
AcDbEntity
  8
0
  6
Continuous
 62
     7
370
    25
100
AcDbCircle
 10
5902.2187553361
 20
5246.7994420927
 30
0.0
 40
5.0
100
AcDbArc
 50
11.5369590328
 51
90.0
  0
LINE
  5
274
330
1F
100
AcDbEntity
  8
0
  6
Continuous
 62
     7
370
    25
100
AcDbLine
 10
5902.2187553361
 20
5251.7994420927
 30
0.0
 11
5882.2187553361
 21
5251.7994420927
 31
0.0
  0
ARC
  5
275
330
1F
100
AcDbEntity
  8
0
  6
Continuous
 62
     7
370
    25
100
AcDbCircle
 10
5882.2187553361
 20
5246.7994420927
 30
0.0
 40
5.0
100
AcDbArc
 50
90.0
 51
168.4630409672
  0
ARC
  5
276
330
1F
100
AcDbEntity
  8
0
  6
Continuous
 62
     7
370
    25
100
AcDbCircle
 10
5862.1187553361
 20
5246.7994420927
 30
0.0
 40
5.00000000000081
100
AcDbArc
 50
11.5369590328
 51
90.0
  0
LINE
  5
277
330
1F
100
AcDbEntity
  8
0
  6
Continuous
 62
     7
370
    25
100
AcDbLine
 10
5862.1187553361
 20
5251.7994420927
 30
0.0
 11
5842.1187553361
 21
5251.7994420927
 31
0.0
  0
ARC
  5
278
330
1F
100
AcDbEntity
  8
0
  6
Continuous
 62
     7
370
    25
100
AcDbCircle
 10
5842.1187553361
 20
5246.7994420927
 30
0.0
 40
5.0
100
AcDbArc
 50
90.0
 51
168.4630409672
  0
ARC
  5
279
330
1F
100
AcDbEntity
  8
0
  6
Continuous
 62
     7
370
    25
100
AcDbCircle
 10
5822.0187553361
 20
5246.7994420927
 30
0.0
 40
5.0
100
AcDbArc
 50
11.5369590328
 51
90.0
  0
LINE
  5
27A
330
1F
100
AcDbEntity
  8
0
  6
Continuous
 62
     7
370
    25
100
AcDbLine
 10
5822.0187553361
 20
5251.7994420927
 30
0.0
 11
5802.0187553361
 21
5251.7994420927
 31
0.0
  0
ARC
  5
27B
330
1F
100
AcDbEntity
  8
0
  6
Continuous
 62
     7
370
    25
100
AcDbCircle
 10
5802.0187553361
 20
5246.7994420927
 30
0.0
 40
5.00000000000081
100
AcDbArc
 50
90.0
 51
168.4630409672
  0
ARC
  5
27C
330
1F
100
AcDbEntity
  8
0
  6
Continuous
 62
     7
370
    25
100
AcDbCircle
 10
5781.9187553361
 20
5246.7994420927
 30
0.0
 40
5.0
100
AcDbArc
 50
11.5369590328
 51
90.0
  0
LINE
  5
27D
330
1F
100
AcDbEntity
  8
0
  6
Continuous
 62
     7
370
    25
100
AcDbLine
 10
5781.9187553361
 20
5251.7994420927
 30
0.0
 11
5761.9187553361
 21
5251.7994420927
 31
0.0
  0
ARC
  5
27E
330
1F
100
AcDbEntity
  8
0
  6
Continuous
 62
     7
370
    25
100
AcDbCircle
 10
5761.9187553361
 20
5246.7994420927
 30
0.0
 40
5.0
100
AcDbArc
 50
90.0
 51
168.4630409672
  0
LINE
  5
27F
330
1F
100
AcDbEntity
  8
0
  6
Continuous
 62
     7
370
    25
100
AcDbLine
 10
5671.7187553361
 20
5300.5994420927
 30
0.0
 11
6876.3187553361
 21
5300.5994420927
 31
0.0
  0
ARC
  5
280
330
1F
100
AcDbEntity
  8
0
  6
Continuous
 62
     7
370
    25
100
AcDbCircle
 10
5701.7187553361
 20
5286.7994420927
 30
0.0
 40
5.0
100
AcDbArc
 50
270.0
 51
90.0
  0
LINE
  5
281
330
1F
100
AcDbEntity
  8
0
  6
Continuous
 62
     7
370
    25
100
AcDbLine
 10
5701.7187553361
 20
5291.7994420927
 30
0.0
 11
5681.7187553361
 21
5291.7994420927
 31
0.0
  0
ARC
  5
282
330
1F
100
AcDbEntity
  8
0
  6
Continuous
 62
     7
370
    25
100
AcDbCircle
 10
5681.7187553361
 20
5286.7994420927
 30
0.0
 40
5.0
100
AcDbArc
 50
90.0
 51
270.0
  0
LINE
  5
283
330
1F
100
AcDbEntity
  8
0
  6
Continuous
 62
     7
370
    25
100
AcDbLine
 10
5681.7187553361
 20
5281.7994420927
 30
0.0
 11
5701.7187553361
 21
5281.7994420927
 31
0.0
  0
ARC
  5
284
330
1F
100
AcDbEntity
  8
0
  6
Continuous
 62
     7
370
    25
100
AcDbCircle
 10
5701.7187553361
 20
5266.7994420927
 30
0.0
 40
5.000000000000909
100
AcDbArc
 50
270.0
 51
90.0
  0
LINE
  5
285
330
1F
100
AcDbEntity
  8
0
  6
Continuous
 62
     7
370
    25
100
AcDbLine
 10
5701.7187553361
 20
5271.7994420927
 30
0.0
 11
5681.7187553361
 21
5271.7994420927
 31
0.0
  0
ARC
  5
286
330
1F
100
AcDbEntity
  8
0
  6
Continuous
 62
     7
370
    25
100
AcDbCircle
 10
5681.7187553361
 20
5266.7994420927
 30
0.0
 40
5.000000000000909
100
AcDbArc
 50
90.0
 51
270.0
  0
LINE
  5
287
330
1F
100
AcDbEntity
  8
0
  6
Continuous
 62
     7
370
    25
100
AcDbLine
 10
5681.7187553361
 20
5261.7994420927
 30
0.0
 11
5701.7187553361
 21
5261.7994420927
 31
0.0
  0
ARC
  5
288
330
1F
100
AcDbEntity
  8
0
  6
Continuous
 62
     7
370
    25
100
AcDbCircle
 10
5701.7187553361
 20
5246.7994420927
 30
0.0
 40
5.0
100
AcDbArc
 50
11.5369590328
 51
90.0
  0
LINE
  5
289
330
1F
100
AcDbEntity
  8
0
  6
Continuous
 62
     7
370
    25
100
AcDbLine
 10
5701.7187553361
 20
5251.7994420927
 30
0.0
 11
5681.7187553361
 21
5251.7994420927
 31
0.0
  0
ARC
  5
28A
330
1F
100
AcDbEntity
  8
0
  6
Continuous
 62
     7
370
    25
100
AcDbCircle
 10
5681.7187553361
 20
5246.7994420927
 30
0.0
 40
5.0
100
AcDbArc
 50
90.0
 51
270.0
  0
LINE
  5
28B
330
1F
100
AcDbEntity
  8
0
  6
Continuous
 62
     7
370
    25
100
AcDbLine
 10
5681.7187553361
 20
5241.7994420927
 30
0.0
 11
5699.8900358061
 21
5241.7994420927
 31
0.0
  0
ARC
  5
28C
330
1F
100
AcDbEntity
  8
0
  6
Continuous
 62
     7
370
    25
100
AcDbCircle
 10
5741.8187553361
 20
5246.7994420927
 30
0.0
 40
5.00000000000081
100
AcDbArc
 50
11.5369590328
 51
90.0
  0
LINE
  5
28D
330
1F
100
AcDbEntity
  8
0
  6
Continuous
 62
     7
370
    25
100
AcDbLine
 10
5741.8187553361
 20
5251.7994420927
 30
0.0
 11
5721.8187553361
 21
5251.7994420927
 31
0.0
  0
ARC
  5
28E
330
1F
100
AcDbEntity
  8
0
  6
Continuous
 62
     7
370
    25
100
AcDbCircle
 10
5721.8187553361
 20
5246.7994420927
 30
0.0
 40
5.0
100
AcDbArc
 50
90.0
 51
168.4630409672
  0
ARC
  5
28F
330
1F
100
AcDbEntity
  8
0
  6
Continuous
 62
     7
370
    25
100
AcDbCircle
 10
5741.8187553361
 20
5286.7994420927
 30
0.0
 40
5.0
100
AcDbArc
 50
270.0
 51
90.0
  0
LINE
  5
290
330
1F
100
AcDbEntity
  8
0
  6
Continuous
 62
     7
370
    25
100
AcDbLine
 10
5741.8187553361
 20
5291.7994420927
 30
0.0
 11
5721.8187553361
 21
5291.7994420927
 31
0.0
  0
ARC
  5
291
330
1F
100
AcDbEntity
  8
0
  6
Continuous
 62
     7
370
    25
100
AcDbCircle
 10
5721.8187553361
 20
5286.7994420927
 30
0.0
 40
5.0
100
AcDbArc
 50
90.0
 51
270.0
  0
LINE
  5
292
330
1F
100
AcDbEntity
  8
0
  6
Continuous
 62
     7
370
    25
100
AcDbLine
 10
5721.8187553361
 20
5281.7994420927
 30
0.0
 11
5741.8187553361
 21
5281.7994420927
 31
0.0
  0
ARC
  5
293
330
1F
100
AcDbEntity
  8
0
  6
Continuous
 62
     7
370
    25
100
AcDbCircle
 10
5741.8187553361
 20
5266.7994420927
 30
0.0
 40
5.000000000000909
100
AcDbArc
 50
270.0
 51
90.0
  0
LINE
  5
294
330
1F
100
AcDbEntity
  8
0
  6
Continuous
 62
     7
370
    25
100
AcDbLine
 10
5741.8187553361
 20
5271.7994420927
 30
0.0
 11
5721.8187553361
 21
5271.7994420927
 31
0.0
  0
ARC
  5
295
330
1F
100
AcDbEntity
  8
0
  6
Continuous
 62
     7
370
    25
100
AcDbCircle
 10
5721.8187553361
 20
5266.7994420927
 30
0.0
 40
5.000000000000909
100
AcDbArc
 50
90.0
 51
270.0
  0
LINE
  5
296
330
1F
100
AcDbEntity
  8
0
  6
Continuous
 62
     7
370
    25
100
AcDbLine
 10
5721.8187553361
 20
5261.7994420927
 30
0.0
 11
5741.8187553361
 21
5261.7994420927
 31
0.0
  0
LINE
  5
297
330
1F
100
AcDbEntity
  8
0
  6
Continuous
 62
     7
370
    25
100
AcDbLine
 10
6876.3187553361
 20
5300.5994420927
 30
0.0
 11
6876.3187553361
 21
5231.7994420927
 31
0.0
  0
LINE
  5
298
330
1F
100
AcDbEntity
  8
0
  6
Continuous
 62
     7
370
    25
100
AcDbLine
 10
5671.7187553361
 20
5231.7994420927
 30
0.0
 11
5671.7187553361
 21
5300.5994420927
 31
0.0
  0
LINE
  5
299
330
1F
100
AcDbEntity
  8
0
  6
Continuous
 62
     8
370
    25
100
AcDbLine
 10
6234.7165292035
 20
5226.523116019
 30
0.0
 11
6313.3209814687
 21
5226.523116019
 31
0.0
  0
LINE
  5
29A
330
1F
100
AcDbEntity
  8
0
  6
Continuous
 62
     8
370
    25
100
AcDbLine
 10
6234.9556405887
 20
5226.9372690868
 30
0.0
 11
6313.0818700835
 21
5226.9372690868
 31
0.0
  0
LWPOLYLINE
  5
29B
330
1F
100
AcDbEntity
  8
0
  6
Continuous
 62
     8
370
    25
100
AcDbPolyline
 90
       21
 70
   128
 43
0.0
 10
6239.2281711583
 20
5179.6922772075
 10
6244.8184801106
 20
5180.7353857179
 10
6251.3617451663
 20
5182.1173837913
 10
6258.2381055483
 20
5183.7611018164
 10
6265.6601580369
 20
5185.7614512324
 10
6273.1951379386
 20
5188.0404152525
 10
6280.8705471193
 20
5190.6289927436
 10
6288.5790349941
 20
5193.5122560854
 10
6292.3725753885
 20
5195.0399401079
 10
6296.0256362785
 20
5196.5809861583
 10
6299.6547344444
 20
5198.1821855839
 10
6303.0844385434
 20
5199.7611850038
 10
6306.3851815572
 20
5201.3433221771
 10
6309.4223907289
 20
5202.8544822144
 10
6312.085423543
 20
5204.2246125666
 10
6314.4495177519
 20
5205.4769802283
 10
6316.5581699416
 20
5206.6234220748
 10
6318.2851979403
 20
5207.5834599385
 10
6320.0229739419
 20
5208.5689759832
 10
6320.8744351873
 20
5209.0591076625
 10
6320.8304561075
 20
5209.033684494
  0
LINE
  5
29C
330
1F
100
AcDbEntity
  8
0
  6
Continuous
 62
     8
370
    25
100
AcDbLine
 10
6323.0187553361
 20
5220.9994420927
 30
0.0
 11
6238.3006058891
 21
5220.9994420927
 31
0.0
  0
LINE
  5
29D
330
1F
100
AcDbEntity
  8
0
  6
Continuous
 62
     8
370
    25
100
AcDbLine
 10
6250.1743875592
 20
5150.8162034546
 30
0.0
 11
6306.2595003184
 21
5150.8162034546
 31
0.0
  0
LINE
  5
29E
330
1F
100
AcDbEntity
  8
0
  6
Continuous
 62
     8
370
    25
100
AcDbLine
 10
6207.4111392702
 20
5164.903730563
 30
0.0
 11
6206.9484158409
 21
5217.9265837016
 31
0.0
  0
LINE
  5
29F
330
1F
100
AcDbEntity
  8
0
  6
Continuous
 62
     8
370
    25
100
AcDbLine
 10
6181.9484158409
 20
5217.0467957338
 30
0.0
 11
6182.3995924741
 21
5165.3470743739
 31
0.0
  0
LINE
  5
2A0
330
1F
100
AcDbEntity
  8
0
  6
Continuous
 62
     8
370
    25
100
AcDbLine
 10
6180.4353426467
 20
5167.3118554394
 30
0.0
 11
6180.0187553361
 21
5215.0480330277
 31
0.0
  0
LINE
  5
2A1
330
1F
100
AcDbEntity
  8
0
  6
Continuous
 62
     8
370
    25
100
AcDbLine
 10
6159.2766178735
 20
5214.2048644475
 30
0.0
 11
6159.6816489914
 21
5167.7928953876
 31
0.0
  0
LINE
  5
2A2
330
1F
100
AcDbEntity
  8
0
  6
Continuous
 62
     8
370
    25
100
AcDbLine
 10
6158.4387992462
 20
5214.2048644475
 30
0.0
 11
6158.8439579679
 21
5167.7782734364
 31
0.0
  0
LINE
  5
2A3
330
1F
100
AcDbEntity
  8
0
  6
Continuous
 62
     8
370
    25
100
AcDbLine
 10
6158.19381807
 20
5214.0047064311
 30
0.0
 11
6158.5955208645
 21
5167.9741254567
 31
0.0
  0
LINE
  5
2A4
330
1F
100
AcDbEntity
  8
0
  6
Continuous
 62
     8
370
    25
100
AcDbLine
 10
6159.5224316004
 20
5214.0004233288
 30
0.0
 11
6159.9238572901
 21
5168.0015954099
 31
0.0
  0
LINE
  5
2A5
330
1F
100
AcDbEntity
  8
0
  6
Continuous
 62
     8
370
    25
100
AcDbLine
 10
6157.7776256225
 20
5211.9590551963
 30
0.0
 11
6158.1436902683
 21
5170.0122015691
 31
0.0
  0
LINE
  5
2A6
330
1F
100
AcDbEntity
  8
0
  6
Continuous
 62
     8
370
    25
100
AcDbLine
 10
6155.4927501636
 20
5210.9988240063
 30
0.0
 11
6155.8424044621
 21
5170.9324099361
 31
0.0
  0
ARC
  5
2A7
330
1F
100
AcDbEntity
  8
0
  6
Continuous
 62
     8
370
    25
100
AcDbCircle
 10
6249.9684159886
 20
5146.3229345399
 30
0.0
 40
4.497987308479835
100
AcDbArc
 50
87.3753972298
 51
107.4379694261
  0
LINE
  5
2A8
330
1F
100
AcDbEntity
  8
0
  6
Continuous
 62
     8
370
    25
100
AcDbLine
 10
6215.1303687679
 20
5205.2010828993
 30
0.0
 11
6215.075531391
 21
5211.4848238999
 31
0.0
  0
LWPOLYLINE
  5
2A9
330
1F
100
AcDbEntity
  8
0
  6
Continuous
 62
     8
370
    25
100
AcDbPolyline
 90
        6
 70
   128
 43
0.0
 10
6216.6493861121
 20
5171.5521814002
 10
6216.6553650177
 20
5171.5165558936
 10
6216.5931599036
 20
5171.8856250127
 10
6216.4438585374
 20
5172.7406297645
 10
6216.2041408676
 20
5173.9697794088
 10
6215.7718976569
 20
5175.6152807386
  0
ARC
  5
2AA
330
1F
100
AcDbEntity
  8
0
  6
Continuous
 62
     8
370
    25
100
AcDbCircle
 10
6203.9160636521
 20
5171.9304072384
 30
0.0
 40
14.03982613263609
100
AcDbArc
 50
356.7602233057
 51
11.0529873537
  0
LINE
  5
2AB
330
1F
100
AcDbEntity
  8
0
  6
Continuous
 62
     8
370
    25
100
AcDbLine
 10
6816.3187553361
 20
5206.0493281103
 30
0.0
 11
6817.8187553361
 21
5206.0493281103
 31
0.0
  0
LINE
  5
2AC
330
1F
100
AcDbEntity
  8
0
  6
Continuous
 62
     8
370
    25
100
AcDbLine
 10
6834.8187553361
 20
5206.0493281103
 30
0.0
 11
6836.3187553361
 21
5206.0493281103
 31
0.0
  0
LINE
  5
2AD
330
1F
100
AcDbEntity
  8
0
  6
Continuous
 62
     8
370
    25
100
AcDbLine
 10
5731.7187553361
 20
5206.0493281103
 30
0.0
 11
5730.2187553361
 21
5206.0493281103
 31
0.0
  0
LINE
  5
2AE
330
1F
100
AcDbEntity
  8
0
  6
Continuous
 62
     8
370
    25
100
AcDbLine
 10
5713.2187553361
 20
5206.0493281103
 30
0.0
 11
5711.7187553361
 21
5206.0493281103
 31
0.0
  0
LINE
  5
2AF
330
1F
100
AcDbEntity
  8
0
  6
Continuous
 62
     8
370
    25
100
AcDbLine
 10
5703.4187553361
 20
5247.7994420927
 30
0.0
 11
5703.4187553361
 21
5245.7479007613
 31
0.0
  0
LINE
  5
2B0
330
1F
100
AcDbEntity
  8
0
  6
Continuous
 62
     8
370
    25
100
AcDbLine
 10
6844.6187553361
 20
5247.7994420927
 30
0.0
 11
6844.6187553361
 21
5245.7479007613
 31
0.0
  0
LINE
  5
2B1
330
1F
100
AcDbEntity
  8
0
  6
Continuous
 62
     8
370
    25
100
AcDbLine
 10
6844.6187553361
 20
5241.5408428581
 30
0.0
 11
6844.6187553361
 21
5231.7994420927
 31
0.0
  0
LINE
  5
2B2
330
1F
100
AcDbEntity
  8
0
  6
Continuous
 62
     8
370
    25
100
AcDbLine
 10
5703.4187553361
 20
5241.5408428581
 30
0.0
 11
5703.4187553361
 21
5231.7994420927
 31
0.0
  0
LINE
  5
2B3
330
1F
100
AcDbEntity
  8
0
  6
Continuous
 62
     7
370
    25
100
AcDbLine
 10
7179.1933054922
 20
5228.5994420927
 30
0.0
 11
7179.1933054922
 21
5228.003805859
 31
0.0
  0
LINE
  5
2B4
330
1F
100
AcDbEntity
  8
0
  6
Continuous
 62
     7
370
    25
100
AcDbLine
 10
7245.6933054922
 20
5228.003805859
 30
0.0
 11
7245.6933054922
 21
5228.5994420927
 31
0.0
  0
LINE
  5
2B5
330
1F
100
AcDbEntity
  8
0
  6
Continuous
 62
     7
370
    25
100
AcDbLine
 10
7172.4433054922
 20
5226.495731245
 30
0.0
 11
7172.4433054922
 21
5225.9994420927
 31
0.0
  0
LINE
  5
2B6
330
1F
100
AcDbEntity
  8
0
  6
Continuous
 62
     7
370
    25
100
AcDbLine
 10
7252.4433054922
 20
5225.9994420927
 30
0.0
 11
7252.4433054922
 21
5226.495731245
 31
0.0
  0
ARC
  5
2B7
330
1F
100
AcDbEntity
  8
0
  6
Continuous
 62
     7
370
    25
100
AcDbCircle
 10
7173.0936475397
 20
5226.550500793
 30
0.0
 40
0.0547695479963295
100
AcDbArc
 50
270.0
 51
329.9999999995
  0
ARC
  5
2B8
330
1F
100
AcDbEntity
  8
0
  6
Continuous
 62
     7
370
    25
100
AcDbCircle
 10
7251.7929634447
 20
5226.550500793
 30
0.0
 40
0.0547695479963295
100
AcDbArc
 50
210.0000000005
 51
270.0
  0
LINE
  5
2B9
330
1F
100
AcDbEntity
  8
0
  6
Continuous
 62
     7
370
    25
100
AcDbLine
 10
7251.7455316248
 20
5226.523116019
 30
0.0
 11
7251.5064202396
 21
5226.9372690868
 31
0.0
  0
LINE
  5
2BA
330
1F
100
AcDbEntity
  8
0
  6
Continuous
 62
     7
370
    25
100
AcDbLine
 10
7173.3801907448
 20
5226.9372690868
 30
0.0
 11
7173.1410793596
 21
5226.523116019
 31
0.0
  0
ARC
  5
2BB
330
1F
100
AcDbEntity
  8
0
  6
Continuous
 62
     7
370
    25
100
AcDbCircle
 10
7173.4750227963
 20
5226.8825177764
 30
0.0
 40
0.109502620936837
100
AcDbArc
 50
90.0
 51
149.9999999999
  0
ARC
  5
2BC
330
1F
100
AcDbEntity
  8
0
  6
Continuous
 62
     7
370
    25
100
AcDbCircle
 10
7251.4115881881
 20
5226.8825177764
 30
0.0
 40
0.1095026209371498
100
AcDbArc
 50
29.9999999999
 51
90.0
  0
LINE
  5
2BD
330
1F
100
AcDbEntity
  8
0
  6
Continuous
 62
     7
370
    25
100
AcDbLine
 10
7251.4115881881
 20
5226.9920203973
 30
0.0
 11
7218.2168081841
 21
5226.9920203973
 31
0.0
  0
LINE
  5
2BE
330
1F
100
AcDbEntity
  8
0
  6
Continuous
 62
     7
370
    25
100
AcDbLine
 10
7206.6698028003
 20
5226.9920203973
 30
0.0
 11
7173.4750227963
 21
5226.9920203973
 31
0.0
  0
LINE
  5
2BF
330
1F
100
AcDbEntity
  8
0
  6
Continuous
 62
     7
370
    25
100
AcDbLine
 10
7192.4434006882
 20
5190.6920086077
 30
0.0
 11
7192.4434006882
 21
5190.093770047
 31
0.0
  0
LINE
  5
2C0
330
1F
100
AcDbEntity
  8
0
  6
Continuous
 62
     7
370
    25
100
AcDbLine
 10
7232.4432102962
 20
5190.093770047
 30
0.0
 11
7232.4432102962
 21
5190.6920086077
 31
0.0
  0
ARC
  5
2C1
330
1F
100
AcDbEntity
  8
0
  6
Continuous
 62
     7
370
    25
100
AcDbCircle
 10
7212.4433054922
 20
5190.8502945412
 30
0.0
 40
26.99999999999921
100
AcDbArc
 50
0.0
 51
83.6206297916
  0
ARC
  5
2C2
330
1F
100
AcDbEntity
  8
0
  6
Continuous
 62
     7
370
    25
100
AcDbCircle
 10
7212.4433054922
 20
5190.8502945412
 30
0.0
 40
27.00000000000001
100
AcDbArc
 50
96.3793702084
 51
0.0
  0
ARC
  5
2C3
330
1F
100
AcDbEntity
  8
0
  6
Continuous
 62
     7
370
    25
100
AcDbCircle
 10
7248.0676080831
 20
5120.6684936446
 30
0.0
 40
52.79442234711592
100
AcDbArc
 50
98.6113344955
 51
109.5792512048
  0
ARC
  5
2C4
330
1F
100
AcDbEntity
  8
0
  6
Continuous
 62
     7
370
    25
100
AcDbCircle
 10
7177.0918114633
 20
5121.7091496522
 30
0.0
 40
51.72268379399713
100
AcDbArc
 50
70.3260562123
 51
81.523490746
  0
LINE
  5
2C5
330
1F
100
AcDbEntity
  8
0
  6
Continuous
 62
     7
370
    25
100
AcDbLine
 10
7254.1933054922
 20
5222.9994420927
 30
0.0
 11
7254.1933054922
 21
5225.9994420927
 31
0.0
  0
LINE
  5
2C6
330
1F
100
AcDbEntity
  8
0
  6
Continuous
 62
     7
370
    25
100
AcDbLine
 10
7170.6933054922
 20
5225.9994420927
 30
0.0
 11
7170.6933054922
 21
5222.9994420927
 31
0.0
  0
LINE
  5
2C7
330
1F
100
AcDbEntity
  8
0
  6
Continuous
 62
     7
370
    25
100
AcDbLine
 10
7165.5596014629
 20
5204.6732437898
 30
0.0
 11
7165.7023977925
 21
5188.3104051381
 31
0.0
  0
LINE
  5
2C8
330
1F
100
AcDbEntity
  8
0
  6
Continuous
 62
     7
370
    25
100
AcDbLine
 10
7259.184264971
 20
5188.316338443
 30
0.0
 11
7259.4433054922
 21
5217.9994420927
 31
0.0
  0
LWPOLYLINE
  5
2C9
330
1F
100
AcDbEntity
  8
0
  6
Continuous
 62
     7
370
    25
100
AcDbPolyline
 90
       14
 70
   128
 43
0.0
 10
7165.7387589871
 20
5188.333528274
 10
7165.753469644
 20
5187.3232870704
 10
7166.0964148555
 20
5185.3427113402
 10
7166.7388815434
 20
5183.4926528822
 10
7167.6480993367
 20
5181.7922906254
 10
7168.7990078109
 20
5180.2442837646
 10
7170.1862310324
 20
5178.8357232882
 10
7171.8267560552
 20
5177.5494555714
 10
7173.7586788761
 20
5176.3712340909
 10
7176.0225709205
 20
5175.300122285
 10
7178.6174686966
 20
5174.355149046
 10
7181.4504750453
 20
5173.5664490693
 10
7184.4849887278
 20
5172.9152319412
 10
7184.7543740829
 20
5172.8703111762
  0
LWPOLYLINE
  5
2CA
330
1F
100
AcDbEntity
  8
0
  6
Continuous
 62
     7
370
    25
100
AcDbPolyline
 90
       13
 70
   128
 43
0.0
 10
7240.111829075
 20
5172.8801516464
 10
7241.6734710774
 20
5173.1690181167
 10
7244.5509432785
 20
5173.8519074327
 10
7247.3162572448
 20
5174.7101645523
 10
7249.8211519302
 20
5175.7312138368
 10
7252.1855949359
 20
5177.0011174002
 10
7254.0117293324
 20
5178.2859878092
 10
7255.5392358155
 20
5179.6788174684
 10
7256.7939627531
 20
5181.1798106912
 10
7257.7889064278
 20
5182.7892916781
 10
7258.5850639376
 20
5184.6854861808
 10
7259.0426718971
 20
5186.6218144975
 10
7259.1645753726
 20
5188.3427907335
  0
ARC
  5
2CB
330
1F
100
AcDbEntity
  8
0
  6
Continuous
 62
     7
370
    25
100
AcDbCircle
 10
7165.4433054922
 20
5220.9994420927
 30
0.0
 40
2.0
100
AcDbArc
 50
120.0010464823
 51
180.0
  0
ARC
  5
2CC
330
1F
100
AcDbEntity
  8
0
  6
Continuous
 62
     7
370
    25
100
AcDbCircle
 10
7259.4433054922
 20
5220.9994420927
 30
0.0
 40
2.000000000000909
100
AcDbArc
 50
0.0
 51
90.0
  0
LINE
  5
2CD
330
1F
100
AcDbEntity
  8
0
  6
Continuous
 62
     7
370
    25
100
AcDbLine
 10
7261.4433054922
 20
5217.9994420927
 30
0.0
 11
7261.4433054922
 21
5220.9994420927
 31
0.0
  0
LINE
  5
2CE
330
1F
100
AcDbEntity
  8
0
  6
Continuous
 62
     7
370
    25
100
AcDbLine
 10
7163.4433054922
 20
5220.9994420927
 30
0.0
 11
7163.4433054922
 21
5217.9994420927
 31
0.0
  0
LINE
  5
2CF
330
1F
100
AcDbEntity
  8
0
  6
Continuous
 62
     7
370
    25
100
AcDbLine
 10
7179.5932853055
 20
5174.0834847989
 30
0.0
 11
7180.2025605099
 21
5150.8162034546
 31
0.0
  0
LINE
  5
2D0
330
1F
100
AcDbEntity
  8
0
  6
Continuous
 62
     7
370
    25
100
AcDbLine
 10
7244.6840504745
 20
5150.8162034546
 30
0.0
 11
7245.2932948502
 21
5174.0823074992
 31
0.0
  0
ARC
  5
2D1
330
1F
100
AcDbEntity
  8
0
  6
Continuous
 62
     7
370
    25
100
AcDbCircle
 10
7237.6864491996
 20
5150.9994420927
 30
0.0
 40
7.000000000000909
100
AcDbArc
 50
270.0
 51
358.5
  0
ARC
  5
2D2
330
1F
100
AcDbEntity
  8
0
  6
Continuous
 62
     7
370
    25
100
AcDbCircle
 10
7187.2001617848
 20
5150.9994420927
 30
0.0
 40
7.000000000000909
100
AcDbArc
 50
181.5
 51
270.0
  0
LINE
  5
2D3
330
1F
100
AcDbEntity
  8
0
  6
Continuous
 62
     7
370
    25
100
AcDbLine
 10
7157.4433054922
 20
5133.7994420927
 30
0.0
 11
7157.4433054922
 21
5203.7994420927
 31
0.0
  0
LINE
  5
2D4
330
1F
100
AcDbEntity
  8
0
  6
Continuous
 62
     7
370
    25
100
AcDbLine
 10
7147.4433054922
 20
5203.7994420927
 30
0.0
 11
7147.4433054922
 21
5133.7994420927
 31
0.0
  0
LINE
  5
2D5
330
1F
100
AcDbEntity
  8
0
  6
Continuous
 62
     7
370
    25
100
AcDbLine
 10
7157.4433054922
 20
5212.7994420927
 30
0.0
 11
7156.4433054922
 21
5213.7994420927
 31
0.0
  0
LINE
  5
2D6
330
1F
100
AcDbEntity
  8
0
  6
Continuous
 62
     7
370
    25
100
AcDbLine
 10
7148.4433054922
 20
5213.7994420927
 30
0.0
 11
7147.4433054922
 21
5212.7994420927
 31
0.0
  0
LINE
  5
2D7
330
1F
100
AcDbEntity
  8
0
  6
Continuous
 62
     7
370
    25
100
AcDbLine
 10
7304.4433054922
 20
5212.7994420927
 30
0.0
 11
7303.4433054922
 21
5213.7994420927
 31
0.0
  0
LINE
  5
2D8
330
1F
100
AcDbEntity
  8
0
  6
Continuous
 62
     7
370
    25
100
AcDbLine
 10
7295.4433054922
 20
5213.7994420927
 30
0.0
 11
7294.4433054922
 21
5212.7994420927
 31
0.0
  0
LINE
  5
2D9
330
1F
100
AcDbEntity
  8
0
  6
Continuous
 62
     7
370
    25
100
AcDbLine
 10
7304.4433054922
 20
5128.7994420927
 30
0.0
 11
7304.4433054922
 21
5203.7994420927
 31
0.0
  0
LINE
  5
2DA
330
1F
100
AcDbEntity
  8
0
  6
Continuous
 62
     7
370
    25
100
AcDbLine
 10
7294.4433054922
 20
5203.7994420927
 30
0.0
 11
7294.4433054922
 21
5128.7994420927
 31
0.0
  0
LINE
  5
2DB
330
1F
100
AcDbEntity
  8
0
  6
Continuous
 62
     7
370
    25
100
AcDbLine
 10
7262.4433054922
 20
5247.7994420927
 30
0.0
 11
7162.4433054922
 21
5247.7994420927
 31
0.0
  0
LINE
  5
2DC
330
1F
100
AcDbEntity
  8
0
  6
Continuous
 62
     7
370
    25
100
AcDbLine
 10
7162.4433054922
 20
5247.7994420927
 30
0.0
 11
7159.7433054922
 21
5247.7994420927
 31
0.0
  0
LINE
  5
2DD
330
1F
100
AcDbEntity
  8
0
  6
Continuous
 62
     7
370
    25
100
AcDbLine
 10
7265.1433054922
 20
5247.7994420927
 30
0.0
 11
7262.4433054922
 21
5247.7994420927
 31
0.0
  0
LINE
  5
2DE
330
1F
100
AcDbEntity
  8
0
  6
Continuous
 62
     7
370
    25
100
AcDbLine
 10
7209.4433054922
 20
5223.5994420927
 30
0.0
 11
7209.4433054922
 21
5208.5994420927
 31
0.0
  0
LINE
  5
2DF
330
1F
100
AcDbEntity
  8
0
  6
Continuous
 62
     7
370
    25
100
AcDbLine
 10
7215.4433054922
 20
5208.5994420927
 30
0.0
 11
7215.4433054922
 21
5223.5994420927
 31
0.0
  0
LINE
  5
2E0
330
1F
100
AcDbEntity
  8
0
  6
Continuous
 62
     7
370
    25
100
AcDbLine
 10
7180.9033416291
 20
5228.003805859
 30
0.0
 11
7182.5582453262
 21
5226.9920203973
 31
0.0
  0
LINE
  5
2E1
330
1F
100
AcDbEntity
  8
0
  6
Continuous
 62
     7
370
    25
100
AcDbLine
 10
7242.3283656583
 20
5226.9920203973
 30
0.0
 11
7243.9832693553
 21
5228.003805859
 31
0.0
  0
LINE
  5
2E2
330
1F
100
AcDbEntity
  8
0
  6
Continuous
 62
     7
370
    25
100
AcDbLine
 10
7245.6933054922
 20
5228.003805859
 30
0.0
 11
7218.2168081841
 21
5228.003805859
 31
0.0
  0
LINE
  5
2E3
330
1F
100
AcDbEntity
  8
0
  6
Continuous
 62
     7
370
    25
100
AcDbLine
 10
7206.6698028003
 20
5228.003805859
 30
0.0
 11
7179.1933054922
 21
5228.003805859
 31
0.0
  0
LINE
  5
2E4
330
1F
100
AcDbEntity
  8
0
  6
Continuous
 62
     7
370
    25
100
AcDbLine
 10
7172.4433054922
 20
5226.495731245
 30
0.0
 11
7206.6698028003
 21
5226.495731245
 31
0.0
  0
LINE
  5
2E5
330
1F
100
AcDbEntity
  8
0
  6
Continuous
 62
     7
370
    25
100
AcDbLine
 10
7218.2168081841
 20
5226.495731245
 30
0.0
 11
7252.4433054922
 21
5226.495731245
 31
0.0
  0
LWPOLYLINE
  5
2E6
330
1F
100
AcDbEntity
  8
0
  6
Continuous
 62
     7
370
    25
100
AcDbPolyline
 90
        8
 70
   128
 43
0.0
 10
7222.5283443021
 20
5203.929205835
 10
7222.0875925565
 20
5203.9257997403
 10
7218.5168610447
 20
5203.9000206795
 10
7214.7825704192
 20
5203.8747415932
 10
7210.9953054391
 20
5203.8504714573
 10
7207.2640846526
 20
5203.825497033
 10
7203.6796716012
 20
5203.7998005934
 10
7202.4184037958
 20
5203.7900768358
  0
LINE
  5
2E7
330
1F
100
AcDbEntity
  8
0
  6
Continuous
 62
     7
370
    25
100
AcDbLine
 10
7212.4433054922
 20
5202.4994420927
 30
0.0
 11
7222.1341506358
 21
5202.4994420927
 31
0.0
  0
LINE
  5
2E8
330
1F
100
AcDbEntity
  8
0
  6
Continuous
 62
     7
370
    25
100
AcDbLine
 10
7202.7524603486
 20
5202.4994420927
 30
0.0
 11
7212.4433054922
 21
5202.4994420927
 31
0.0
  0
LWPOLYLINE
  5
2E9
330
1F
100
AcDbEntity
  8
0
  6
Continuous
 62
     7
370
    25
100
AcDbPolyline
 90
        7
 70
   128
 43
0.0
 10
7203.3107674593
 20
5204.8401608872
 10
7203.5650498613
 20
5204.8431920886
 10
7207.9606979807
 20
5204.8914444611
 10
7212.4433054922
 20
5204.9369420886
 10
7216.9259130038
 20
5204.9824397162
 10
7221.3215611231
 20
5205.0306920886
 10
7221.3887865528
 20
5205.0314934568
  0
LWPOLYLINE
  5
2EA
330
1F
100
AcDbEntity
  8
0
  6
Continuous
 62
     7
370
    25
100
AcDbPolyline
 90
        5
 70
   128
 43
0.0
 10
7203.6791169457
 20
5205.031944242
 10
7207.9606979807
 20
5205.0789444651
 10
7212.4433054922
 20
5205.1244420927
 10
7216.9259130038
 20
5205.1699397203
 10
7220.9840301906
 20
5205.2144869125
  0
LWPOLYLINE
  5
2EB
330
1F
100
AcDbEntity
  8
0
  6
Continuous
 62
     7
370
    25
100
AcDbPolyline
 90
        7
 70
   128
 43
0.0
 10
7202.5514731778
 20
5204.3580834195
 10
7203.8757500856
 20
5204.3744420907
 10
7208.1175696925
 20
5204.4226944631
 10
7212.4433054922
 20
5204.4681920907
 10
7216.7690412919
 20
5204.5136897182
 10
7221.0108608988
 20
5204.5619420907
 10
7222.129613917
 20
5204.5757619441
  0
LWPOLYLINE
  5
2EC
330
1F
100
AcDbEntity
  8
0
  6
Continuous
 62
     7
370
    25
100
AcDbPolyline
 90
        4
 70
   128
 43
0.0
 10
7205.3290151148
 20
5205.890973554
 10
7208.1175696925
 20
5205.9226944631
 10
7212.4433054922
 20
5205.9681920907
 10
7215.4144329953
 20
5205.9994420927
  0
LWPOLYLINE
  5
2ED
330
1F
100
AcDbEntity
  8
0
  6
Continuous
 62
     7
370
    25
100
AcDbPolyline
 90
        7
 70
   128
 43
0.0
 10
7202.5397874376
 20
5203.9829390666
 10
7203.8757500856
 20
5203.9994420907
 10
7208.1175696925
 20
5204.0476944631
 10
7212.4433054922
 20
5204.0931920907
 10
7216.7690412919
 20
5204.1386897182
 10
7221.0108608988
 20
5204.1869420907
 10
7222.3399482433
 20
5204.2033601847
  0
LWPOLYLINE
  5
2EE
330
1F
100
AcDbEntity
  8
0
  6
Continuous
 62
     7
370
    25
100
AcDbPolyline
 90
        5
 70
   128
 43
0.0
 10
7204.5926822819
 20
5205.5075974774
 10
7208.1175696925
 20
5205.5476944631
 10
7212.4433054922
 20
5205.5931920907
 10
7216.7690412919
 20
5205.6386897182
 10
7219.9653306864
 20
5205.6750487718
  0
CIRCLE
  5
2EF
330
1F
100
AcDbEntity
  8
0
  6
Continuous
 62
     7
370
    25
100
AcDbCircle
 10
7212.4432422731
 20
5190.0627181762
 30
0.0
 40
17.49968043750828
  0
ARC
  5
2F0
330
1F
100
AcDbEntity
  8
0
  6
Continuous
 62
     7
370
    25
100
AcDbCircle
 10
7212.4433054922
 20
5190.0628532626
 30
0.0
 40
19.71434232641862
100
AcDbArc
 50
98.7529037444
 51
81.2470962556
  0
ARC
  5
2F1
330
1F
100
AcDbEntity
  8
0
  6
Continuous
 62
     7
370
    25
100
AcDbCircle
 10
7212.4433054922
 20
5190.0932873615
 30
0.0
 40
19.99963762810427
100
AcDbArc
 50
98.6270840614
 51
81.3729159386
  0
ARC
  5
2F2
330
1F
100
AcDbEntity
  8
0
  6
Continuous
 62
     7
370
    25
100
AcDbCircle
 10
7212.4438657471
 20
5190.6917373586
 30
0.0
 40
19.99934455095078
100
AcDbArc
 50
0.0007770969
 51
81.3744119802
  0
ARC
  5
2F3
330
1F
100
AcDbEntity
  8
0
  6
Continuous
 62
     7
370
    25
100
AcDbCircle
 10
7212.442817376
 20
5190.6916753367
 30
0.0
 40
19.99941669060336
100
AcDbArc
 50
98.6257657018
 51
179.9990452211
  0
ARC
  5
2F4
330
1F
100
AcDbEntity
  8
0
  6
Continuous
 62
     7
370
    25
100
AcDbCircle
 10
7210.003688748
 20
5190.9405135765
 30
0.0
 40
15.04056685101844
100
AcDbArc
 50
177.7865545128
 51
205.5322813903
  0
ARC
  5
2F5
330
1F
100
AcDbEntity
  8
0
  6
Continuous
 62
     7
370
    25
100
AcDbCircle
 10
7212.4433054922
 20
5191.5213547988
 30
0.0
 40
17.50023986067609
100
AcDbArc
 50
203.8052968746
 51
336.1947031255
  0
ARC
  5
2F6
330
1F
100
AcDbEntity
  8
0
  6
Continuous
 62
     7
370
    25
100
AcDbCircle
 10
7214.0969977665
 20
5191.0467466698
 30
0.0
 40
15.79739587784604
100
AcDbArc
 50
335.348694842
 51
1.7302785812
  0
ARC
  5
2F7
330
1F
100
AcDbEntity
  8
0
  6
Continuous
 62
     7
370
    25
100
AcDbCircle
 10
7212.4433561584
 20
5191.4134356614
 30
0.0
 40
26.51314417687408
100
AcDbArc
 50
59.5064972455
 51
83.5030967631
  0
ARC
  5
2F8
330
1F
100
AcDbEntity
  8
0
  6
Continuous
 62
     7
370
    25
100
AcDbCircle
 10
7212.4432486338
 20
5191.4134548661
 30
0.0
 40
26.51312449343374
100
AcDbArc
 50
96.248458015
 51
120.4798076071
  0
LINE
  5
2F9
330
1F
100
AcDbEntity
  8
0
  6
Continuous
 62
     7
370
    25
100
AcDbLine
 10
7188.4236891572
 20
5220.9994420927
 30
0.0
 11
7188.4236891572
 21
5217.9994420927
 31
0.0
  0
LINE
  5
2FA
330
1F
100
AcDbEntity
  8
0
  6
Continuous
 62
     7
370
    25
100
AcDbLine
 10
7195.3100410155
 20
5220.9994420927
 30
0.0
 11
7188.4236891572
 21
5220.9994420927
 31
0.0
  0
LINE
  5
2FB
330
1F
100
AcDbEntity
  8
0
  6
Continuous
 62
     7
370
    25
100
AcDbLine
 10
7195.3100410155
 20
5220.9994420927
 30
0.0
 11
7195.3100410155
 21
5217.9994420927
 31
0.0
  0
LINE
  5
2FC
330
1F
100
AcDbEntity
  8
0
  6
Continuous
 62
     7
370
    25
100
AcDbLine
 10
7188.4236891572
 20
5217.9994420927
 30
0.0
 11
7195.3100410155
 21
5217.9994420927
 31
0.0
  0
LINE
  5
2FD
330
1F
100
AcDbEntity
  8
0
  6
Continuous
 62
     7
370
    25
100
AcDbLine
 10
7190.3912182596
 20
5222.9994420927
 30
0.0
 11
7195.3100410155
 21
5222.9994420927
 31
0.0
  0
LINE
  5
2FE
330
1F
100
AcDbEntity
  8
0
  6
Continuous
 62
     7
370
    25
100
AcDbLine
 10
7195.3100410155
 20
5222.9994420927
 30
0.0
 11
7195.3100410155
 21
5220.9994420927
 31
0.0
  0
ARC
  5
2FF
330
1F
100
AcDbEntity
  8
0
  6
Continuous
 62
     7
370
    25
100
AcDbCircle
 10
7190.4075876784
 20
5221.0155457466
 30
0.0
 40
1.983963878172207
100
AcDbArc
 50
90.4727451246
 51
180.4650697253
  0
LINE
  5
300
330
1F
100
AcDbEntity
  8
0
  6
Continuous
 62
     7
370
    25
100
AcDbLine
 10
7229.5765699689
 20
5220.9994420927
 30
0.0
 11
7229.5765699689
 21
5217.9994420927
 31
0.0
  0
LINE
  5
301
330
1F
100
AcDbEntity
  8
0
  6
Continuous
 62
     7
370
    25
100
AcDbLine
 10
7195.3100410155
 20
5217.9994420927
 30
0.0
 11
7209.4433054922
 21
5217.9994420927
 31
0.0
  0
LINE
  5
302
330
1F
100
AcDbEntity
  8
0
  6
Continuous
 62
     7
370
    25
100
AcDbLine
 10
7215.4433054922
 20
5217.9994420927
 30
0.0
 11
7229.5765699689
 21
5217.9994420927
 31
0.0
  0
LINE
  5
303
330
1F
100
AcDbEntity
  8
0
  6
Continuous
 62
     7
370
    25
100
AcDbLine
 10
7195.3100410155
 20
5222.9994420927
 30
0.0
 11
7209.4433054922
 21
5222.9994420927
 31
0.0
  0
LINE
  5
304
330
1F
100
AcDbEntity
  8
0
  6
Continuous
 62
     7
370
    25
100
AcDbLine
 10
7215.4433054922
 20
5222.9994420927
 30
0.0
 11
7229.5765699689
 21
5222.9994420927
 31
0.0
  0
LINE
  5
305
330
1F
100
AcDbEntity
  8
0
  6
Continuous
 62
     7
370
    25
100
AcDbLine
 10
7229.5765699689
 20
5222.9994420927
 30
0.0
 11
7229.5765699689
 21
5220.9994420927
 31
0.0
  0
LINE
  5
306
330
1F
100
AcDbEntity
  8
0
  6
Continuous
 62
     7
370
    25
100
AcDbLine
 10
7229.5765699689
 20
5222.9994420927
 30
0.0
 11
7234.4953927248
 21
5222.9994420927
 31
0.0
  0
ARC
  5
307
330
1F
100
AcDbEntity
  8
0
  6
Continuous
 62
     7
370
    25
100
AcDbCircle
 10
7234.479023306
 20
5221.0155457466
 30
0.0
 40
1.983963878172689
100
AcDbArc
 50
359.5349302747
 51
89.5272548753
  0
LINE
  5
308
330
1F
100
AcDbEntity
  8
0
  6
Continuous
 62
     7
370
    25
100
AcDbLine
 10
7236.4629218272
 20
5220.9994420927
 30
0.0
 11
7229.5765699689
 21
5220.9994420927
 31
0.0
  0
LINE
  5
309
330
1F
100
AcDbEntity
  8
0
  6
Continuous
 62
     7
370
    25
100
AcDbLine
 10
7236.4629218272
 20
5220.9994420927
 30
0.0
 11
7236.4629218272
 21
5217.9994420927
 31
0.0
  0
LINE
  5
30A
330
1F
100
AcDbEntity
  8
0
  6
Continuous
 62
     7
370
    25
100
AcDbLine
 10
7229.5765699689
 20
5217.9994420927
 30
0.0
 11
7236.4629218272
 21
5217.9994420927
 31
0.0
  0
LWPOLYLINE
  5
30B
330
1F
100
AcDbEntity
  8
0
  6
Continuous
 62
     7
370
    25
100
AcDbPolyline
 90
        3
 70
   128
 43
0.0
 10
7230.2163462957
 20
5170.4008276112
 10
7229.8843508868
 20
5170.1803989899
 10
7229.508300333
 20
5170.1149960099
  0
LWPOLYLINE
  5
30C
330
1F
100
AcDbEntity
  8
0
  6
Continuous
 62
     7
370
    25
100
AcDbPolyline
 90
        3
 70
   128
 43
0.0
 10
7194.6702646887
 20
5170.4008276112
 10
7195.0022600976
 20
5170.1803989899
 10
7195.3998015982
 20
5170.1112582891
  0
LINE
  5
30D
330
1F
100
AcDbEntity
  8
0
  6
Continuous
 62
     7
370
    25
100
AcDbLine
 10
7188.4236891572
 20
5220.9994420927
 30
0.0
 11
7178.8990988377
 21
5220.9994420927
 31
0.0
  0
ARC
  5
30E
330
1F
100
AcDbEntity
  8
0
  6
Continuous
 62
     7
370
    25
100
AcDbCircle
 10
7180.6570331362
 20
5221.2640296745
 30
0.0
 40
1.77773439702024
100
AcDbArc
 50
102.5271579555
 51
188.5593696972
  0
LINE
  5
30F
330
1F
100
AcDbEntity
  8
0
  6
Continuous
 62
     7
370
    25
100
AcDbLine
 10
7180.2714383683
 20
5222.9994420927
 30
0.0
 11
7190.3912182596
 21
5222.9994420927
 31
0.0
  0
LINE
  5
310
330
1F
100
AcDbEntity
  8
0
  6
Continuous
 62
     7
370
    25
100
AcDbLine
 10
7178.8990988377
 20
5220.9994420927
 30
0.0
 11
7178.8990988377
 21
5217.9994420927
 31
0.0
  0
LINE
  5
311
330
1F
100
AcDbEntity
  8
0
  6
Continuous
 62
     7
370
    25
100
AcDbLine
 10
7178.8990988377
 20
5217.9994420927
 30
0.0
 11
7188.4236891572
 21
5217.9994420927
 31
0.0
  0
ARC
  5
312
330
1F
100
AcDbEntity
  8
0
  6
Continuous
 62
     7
370
    25
100
AcDbCircle
 10
7244.2265251916
 20
5221.2619350339
 30
0.0
 40
1.780443090940299
100
AcDbArc
 50
351.5219073503
 51
77.3915649969
  0
LINE
  5
313
330
1F
100
AcDbEntity
  8
0
  6
Continuous
 62
     7
370
    25
100
AcDbLine
 10
7245.9875121467
 20
5220.9994420927
 30
0.0
 11
7236.4629218272
 21
5220.9994420927
 31
0.0
  0
LINE
  5
314
330
1F
100
AcDbEntity
  8
0
  6
Continuous
 62
     7
370
    25
100
AcDbLine
 10
7234.4953927248
 20
5222.9994420927
 30
0.0
 11
7244.6151726161
 21
5222.9994420927
 31
0.0
  0
LINE
  5
315
330
1F
100
AcDbEntity
  8
0
  6
Continuous
 62
     7
370
    25
100
AcDbLine
 10
7245.9875121467
 20
5220.9994420927
 30
0.0
 11
7245.9875121467
 21
5217.9994420927
 31
0.0
  0
LINE
  5
316
330
1F
100
AcDbEntity
  8
0
  6
Continuous
 62
     7
370
    25
100
AcDbLine
 10
7236.4629218272
 20
5217.9994420927
 30
0.0
 11
7245.9875121467
 21
5217.9994420927
 31
0.0
  0
LINE
  5
317
330
1F
100
AcDbEntity
  8
0
  6
Continuous
 62
     7
370
    25
100
AcDbLine
 10
7181.3418157667
 20
5179.6922772075
 30
0.0
 11
7181.1190123589
 21
5217.9994420927
 31
0.0
  0
LINE
  5
318
330
1F
100
AcDbEntity
  8
0
  6
Continuous
 62
     7
370
    25
100
AcDbLine
 10
7243.5447952177
 20
5179.6922772075
 30
0.0
 11
7243.7675986255
 21
5217.9994420927
 31
0.0
  0
LINE
  5
319
330
1F
100
AcDbEntity
  8
0
  6
Continuous
 62
     7
370
    25
100
AcDbLine
 10
7205.214042422
 20
5205.9994420927
 30
0.0
 11
7219.6725685624
 21
5205.9994420927
 31
0.0
  0
LINE
  5
31A
330
1F
100
AcDbEntity
  8
0
  6
Continuous
 62
     7
370
    25
100
AcDbLine
 10
7218.2168081841
 20
5225.9994420927
 30
0.0
 11
7254.1933054922
 21
5225.9994420927
 31
0.0
  0
LINE
  5
31B
330
1F
100
AcDbEntity
  8
0
  6
Continuous
 62
     7
370
    25
100
AcDbLine
 10
7170.6933054922
 20
5225.9994420927
 30
0.0
 11
7206.6698028003
 21
5225.9994420927
 31
0.0
  0
LINE
  5
31C
330
1F
100
AcDbEntity
  8
0
  6
Continuous
 62
     7
370
    25
100
AcDbLine
 10
7244.6151726161
 20
5222.9994420927
 30
0.0
 11
7259.4433054922
 21
5222.9994420927
 31
0.0
  0
LINE
  5
31D
330
1F
100
AcDbEntity
  8
0
  6
Continuous
 62
     7
370
    25
100
AcDbLine
 10
7166.4432755987
 20
5222.9994420927
 30
0.0
 11
7180.2714383683
 21
5222.9994420927
 31
0.0
  0
LINE
  5
31E
330
1F
100
AcDbEntity
  8
0
  6
Continuous
 62
     7
370
    25
100
AcDbLine
 10
7245.9875121467
 20
5217.9994420927
 30
0.0
 11
7261.4433054922
 21
5217.9994420927
 31
0.0
  0
LINE
  5
31F
330
1F
100
AcDbEntity
  8
0
  6
Continuous
 62
     7
370
    25
100
AcDbLine
 10
7163.4433054922
 20
5217.9994420927
 30
0.0
 11
7164.4432431057
 21
5217.9994420927
 31
0.0
  0
LINE
  5
320
330
1F
100
AcDbEntity
  8
0
  6
Continuous
 62
     7
370
    25
100
AcDbLine
 10
7166.4433054922
 20
5217.9994420927
 30
0.0
 11
7178.8990988377
 21
5217.9994420927
 31
0.0
  0
LINE
  5
321
330
1F
100
AcDbEntity
  8
0
  6
Continuous
 62
     7
370
    25
100
AcDbLine
 10
7201.1840504745
 20
5150.8162034546
 30
0.0
 11
7201.585053489
 21
5166.1298907534
 31
0.0
  0
ARC
  5
322
330
1F
100
AcDbEntity
  8
0
  6
Continuous
 62
     7
370
    25
100
AcDbCircle
 10
7195.9634272682
 20
5199.2275751863
 30
0.0
 40
48.69205088732422
100
AcDbArc
 50
263.8450785085
 51
276.1549214915
  0
ARC
  5
323
330
1F
100
AcDbEntity
  8
0
  6
Continuous
 62
     7
370
    25
100
AcDbCircle
 10
7228.9231837163
 20
5199.2275751033
 30
0.0
 40
48.69205080479043
100
AcDbArc
 50
263.845078498
 51
276.154921502
  0
LINE
  5
324
330
1F
100
AcDbEntity
  8
0
  6
Continuous
 62
     7
370
    25
100
AcDbLine
 10
7223.7025605099
 20
5150.8162034546
 30
0.0
 11
7223.3015574954
 21
5166.1298907534
 31
0.0
  0
LINE
  5
325
330
1F
100
AcDbEntity
  8
0
  6
Continuous
 62
     7
370
    25
100
AcDbLine
 10
7201.8818126555
 20
5177.567354234
 30
0.0
 11
7202.7524603486
 21
5202.4994420927
 31
0.0
  0
LINE
  5
326
330
1F
100
AcDbEntity
  8
0
  6
Continuous
 62
     7
370
    25
100
AcDbLine
 10
7223.0047983289
 20
5177.567354234
 30
0.0
 11
7222.1341506358
 21
5202.4994420927
 31
0.0
  0
LWPOLYLINE
  5
327
330
1F
100
AcDbEntity
  8
0
  6
Continuous
 62
     7
370
    25
100
AcDbPolyline
 90
        6
 70
   128
 43
0.0
 10
7194.1864491996
 20
5143.9994420927
 10
7192.9088315772
 20
5144.4920046844
 10
7191.8043119171
 20
5145.9293494154
 10
7191.0402937838
 20
5148.138336684
 10
7190.8273829876
 20
5149.4420556363
 10
7190.7428040618
 20
5150.8162034546
  0
ARC
  5
328
330
1F
100
AcDbEntity
  8
0
  6
Continuous
 62
     7
370
    25
100
AcDbCircle
 10
7194.1864491996
 20
5150.9994420927
 30
0.0
 40
7.000000000000909
100
AcDbArc
 50
270.0
 51
358.5
  0
LWPOLYLINE
  5
329
330
1F
100
AcDbEntity
  8
0
  6
Continuous
 62
     7
370
    25
100
AcDbPolyline
 90
        6
 70
   128
 43
0.0
 10
7234.1438069226
 20
5150.8162034546
 10
7234.0592307227
 20
5149.4420739451
 10
7233.8463240067
 20
5148.1383595362
 10
7233.0822990673
 20
5145.9293494154
 10
7231.9777794072
 20
5144.4920046844
 10
7230.7001617848
 20
5143.9994420927
  0
ARC
  5
32A
330
1F
100
AcDbEntity
  8
0
  6
Continuous
 62
     7
370
    25
100
AcDbCircle
 10
7230.7001617848
 20
5150.9994420927
 30
0.0
 40
7.000000000001819
100
AcDbArc
 50
181.5
 51
270.0
  0
LINE
  5
32B
330
1F
100
AcDbEntity
  8
0
  6
Continuous
 62
     7
370
    25
100
AcDbLine
 10
7194.1864491996
 20
5143.9994420927
 30
0.0
 11
7187.2001617848
 21
5143.9994420927
 31
0.0
  0
LINE
  5
32C
330
1F
100
AcDbEntity
  8
0
  6
Continuous
 62
     7
370
    25
100
AcDbLine
 10
7237.6864491996
 20
5143.9994420927
 30
0.0
 11
7230.7001617848
 21
5143.9994420927
 31
0.0
  0
LINE
  5
32D
330
1F
100
AcDbEntity
  8
0
  6
Continuous
 62
     7
370
    25
100
AcDbLine
 10
7201.1840504745
 20
5150.8162034546
 30
0.0
 11
7202.5780039958
 21
5150.8162034546
 31
0.0
  0
LWPOLYLINE
  5
32E
330
1F
100
AcDbEntity
  8
0
  6
Continuous
 62
     7
370
    25
100
AcDbPolyline
 90
        9
 70
   128
 43
0.0
 10
7197.6299526823
 20
5143.9994420927
 10
7198.579708597
 20
5144.1295128788
 10
7199.494168655
 20
5144.5148914056
 10
7200.3393487025
 20
5145.1412558196
 10
7201.0838392443
 20
5145.9853284887
 10
7201.6999727175
 20
5147.0157410716
 10
7202.1648517035
 20
5148.194200261
 10
7202.4611998666
 20
5149.4769108819
 10
7202.5780039958
 20
5150.8162034546
  0
LINE
  5
32F
330
1F
100
AcDbEntity
  8
0
  6
Continuous
 62
     7
370
    25
100
AcDbLine
 10
7197.6299526823
 20
5143.9994420927
 30
0.0
 11
7194.1864491996
 21
5143.9994420927
 31
0.0
  0
LINE
  5
330
330
1F
100
AcDbEntity
  8
0
  6
Continuous
 62
     7
370
    25
100
AcDbLine
 10
7222.3086069886
 20
5150.8162034546
 30
0.0
 11
7223.7025605099
 21
5150.8162034546
 31
0.0
  0
LWPOLYLINE
  5
331
330
1F
100
AcDbEntity
  8
0
  6
Continuous
 62
     7
370
    25
100
AcDbPolyline
 90
        9
 70
   128
 43
0.0
 10
7222.3086069886
 20
5150.8162034546
 10
7222.4254111178
 20
5149.4769108819
 10
7222.7217592809
 20
5148.194200261
 10
7223.1866382669
 20
5147.0157410716
 10
7223.8027717401
 20
5145.9853284887
 10
7224.5472622819
 20
5145.1412558196
 10
7225.3924423294
 20
5144.5148914056
 10
7226.3069023874
 20
5144.1295128788
 10
7227.2566583021
 20
5143.9994420927
  0
LINE
  5
332
330
1F
100
AcDbEntity
  8
0
  6
Continuous
 62
     7
370
    25
100
AcDbLine
 10
7230.7001617848
 20
5143.9994420927
 30
0.0
 11
7227.2566583021
 21
5143.9994420927
 31
0.0
  0
LINE
  5
333
330
1F
100
AcDbEntity
  8
0
  6
Continuous
 62
     7
370
    25
100
AcDbLine
 10
7202.5780039958
 20
5150.8162034546
 30
0.0
 11
7206.3206446829
 21
5150.8162034546
 31
0.0
  0
LINE
  5
334
330
1F
100
AcDbEntity
  8
0
  6
Continuous
 62
     7
370
    25
100
AcDbLine
 10
7218.5659663015
 20
5150.8162034546
 30
0.0
 11
7222.3086069886
 21
5150.8162034546
 31
0.0
  0
LWPOLYLINE
  5
335
330
1F
100
AcDbEntity
  8
0
  6
Continuous
 62
     7
370
    25
100
AcDbPolyline
 90
        9
 70
   128
 43
0.0
 10
7201.3725933694
 20
5143.9994420927
 10
7202.3223492841
 20
5144.1295128788
 10
7203.2368093422
 20
5144.5148914056
 10
7204.0819893897
 20
5145.1412558196
 10
7204.8264799314
 20
5145.9853284887
 10
7205.4426134046
 20
5147.0157410716
 10
7205.9074923906
 20
5148.194200261
 10
7206.2038405537
 20
5149.4769108819
 10
7206.3206446829
 20
5150.8162034546
  0
LINE
  5
336
330
1F
100
AcDbEntity
  8
0
  6
Continuous
 62
     7
370
    25
100
AcDbLine
 10
7201.3725933694
 20
5143.9994420927
 30
0.0
 11
7197.6299526823
 21
5143.9994420927
 31
0.0
  0
LWPOLYLINE
  5
337
330
1F
100
AcDbEntity
  8
0
  6
Continuous
 62
     7
370
    25
100
AcDbPolyline
 90
        9
 70
   128
 43
0.0
 10
7218.5659663015
 20
5150.8162034546
 10
7218.6827704307
 20
5149.4769108819
 10
7218.9791185938
 20
5148.194200261
 10
7219.4439975798
 20
5147.0157410716
 10
7220.060131053
 20
5145.9853284887
 10
7220.8046215948
 20
5145.1412558196
 10
7221.6498016423
 20
5144.5148914056
 10
7222.5642617003
 20
5144.1295128788
 10
7223.514017615
 20
5143.9994420927
  0
LINE
  5
338
330
1F
100
AcDbEntity
  8
0
  6
Continuous
 62
     7
370
    25
100
AcDbLine
 10
7227.2566583021
 20
5143.9994420927
 30
0.0
 11
7223.514017615
 21
5143.9994420927
 31
0.0
  0
LINE
  5
339
330
1F
100
AcDbEntity
  8
0
  6
Continuous
 62
     7
370
    25
100
AcDbLine
 10
7206.3206446829
 20
5150.8162034546
 30
0.0
 11
7209.6859461793
 21
5150.8162034546
 31
0.0
  0
LINE
  5
33A
330
1F
100
AcDbEntity
  8
0
  6
Continuous
 62
     7
370
    25
100
AcDbLine
 10
7215.2006648051
 20
5150.8162034546
 30
0.0
 11
7218.5659663015
 21
5150.8162034546
 31
0.0
  0
LINE
  5
33B
330
1F
100
AcDbEntity
  8
0
  6
Continuous
 62
     7
370
    25
100
AcDbLine
 10
7209.6859461793
 20
5143.9994420927
 30
0.0
 11
7209.6859461793
 21
5150.8162034546
 31
0.0
  0
LINE
  5
33C
330
1F
100
AcDbEntity
  8
0
  6
Continuous
 62
     7
370
    25
100
AcDbLine
 10
7209.6859461793
 20
5143.9994420927
 30
0.0
 11
7201.3725933694
 21
5143.9994420927
 31
0.0
  0
LINE
  5
33D
330
1F
100
AcDbEntity
  8
0
  6
Continuous
 62
     7
370
    25
100
AcDbLine
 10
7215.2006648051
 20
5150.8162034546
 30
0.0
 11
7215.2006648051
 21
5143.9994420927
 31
0.0
  0
LINE
  5
33E
330
1F
100
AcDbEntity
  8
0
  6
Continuous
 62
     7
370
    25
100
AcDbLine
 10
7223.514017615
 20
5143.9994420927
 30
0.0
 11
7215.2006648051
 21
5143.9994420927
 31
0.0
  0
LINE
  5
33F
330
1F
100
AcDbEntity
  8
0
  6
Continuous
 62
     7
370
    25
100
AcDbLine
 10
7209.6859461793
 20
5150.8162034546
 30
0.0
 11
7215.2006648051
 21
5150.8162034546
 31
0.0
  0
LINE
  5
340
330
1F
100
AcDbEntity
  8
0
  6
Continuous
 62
     7
370
    25
100
AcDbLine
 10
7215.2006648051
 20
5143.9994420927
 30
0.0
 11
7209.6859461793
 21
5143.9994420927
 31
0.0
  0
LINE
  5
341
330
1F
100
AcDbEntity
  8
0
  6
Continuous
 62
     7
370
    25
100
AcDbLine
 10
7304.4433054922
 20
5133.7994420927
 30
0.0
 11
7309.2582600684
 21
5133.7994420927
 31
0.0
  0
LINE
  5
342
330
1F
100
AcDbEntity
  8
0
  6
Continuous
 62
     7
370
    25
100
AcDbLine
 10
7309.2582600684
 20
5133.7994420927
 30
0.0
 11
7309.2582600684
 21
5128.7994420927
 31
0.0
  0
LINE
  5
343
330
1F
100
AcDbEntity
  8
0
  6
Continuous
 62
     7
370
    25
100
AcDbLine
 10
7289.628350916
 20
5133.7994420927
 30
0.0
 11
7289.628350916
 21
5128.7994420927
 31
0.0
  0
LINE
  5
344
330
1F
100
AcDbEntity
  8
0
  6
Continuous
 62
     7
370
    25
100
AcDbLine
 10
7289.628350916
 20
5133.7994420927
 30
0.0
 11
7294.4433054922
 21
5133.7994420927
 31
0.0
  0
LINE
  5
345
330
1F
100
AcDbEntity
  8
0
  6
Continuous
 62
     7
370
    25
100
AcDbLine
 10
7147.5358282041
 20
5133.7994420927
 30
0.0
 11
7147.5358282041
 21
5126.7994420927
 31
0.0
  0
LINE
  5
346
330
1F
100
AcDbEntity
  8
0
  6
Continuous
 62
     7
370
    25
100
AcDbLine
 10
7147.5358282041
 20
5133.7994420927
 30
0.0
 11
7157.3507827803
 21
5133.7994420927
 31
0.0
  0
LINE
  5
347
330
1F
100
AcDbEntity
  8
0
  6
Continuous
 62
     7
370
    25
100
AcDbLine
 10
7157.3507827803
 20
5133.7994420927
 30
0.0
 11
7157.3507827803
 21
5126.7994420927
 31
0.0
  0
LINE
  5
348
330
1F
100
AcDbEntity
  8
0
  6
Continuous
 62
     7
370
    25
100
AcDbLine
 10
7147.5358282041
 20
5126.7994420927
 30
0.0
 11
7157.3507827803
 21
5126.7994420927
 31
0.0
  0
LINE
  5
349
330
1F
100
AcDbEntity
  8
0
  6
Continuous
 62
     7
370
    25
100
AcDbLine
 10
7142.628350916
 20
5133.7994420927
 30
0.0
 11
7142.628350916
 21
5126.7994420927
 31
0.0
  0
LINE
  5
34A
330
1F
100
AcDbEntity
  8
0
  6
Continuous
 62
     7
370
    25
100
AcDbLine
 10
7142.628350916
 20
5133.7994420927
 30
0.0
 11
7147.5358282041
 21
5133.7994420927
 31
0.0
  0
LINE
  5
34B
330
1F
100
AcDbEntity
  8
0
  6
Continuous
 62
     7
370
    25
100
AcDbLine
 10
7142.628350916
 20
5126.7994420927
 30
0.0
 11
7147.5358282041
 21
5126.7994420927
 31
0.0
  0
LINE
  5
34C
330
1F
100
AcDbEntity
  8
0
  6
Continuous
 62
     7
370
    25
100
AcDbLine
 10
7162.2582600684
 20
5133.7994420927
 30
0.0
 11
7162.2582600684
 21
5126.7994420927
 31
0.0
  0
LINE
  5
34D
330
1F
100
AcDbEntity
  8
0
  6
Continuous
 62
     7
370
    25
100
AcDbLine
 10
7157.3507827803
 20
5133.7994420927
 30
0.0
 11
7162.2582600684
 21
5133.7994420927
 31
0.0
  0
LINE
  5
34E
330
1F
100
AcDbEntity
  8
0
  6
Continuous
 62
     7
370
    25
100
AcDbLine
 10
7157.3507827803
 20
5126.7994420927
 30
0.0
 11
7162.2582600684
 21
5126.7994420927
 31
0.0
  0
LINE
  5
34F
330
1F
100
AcDbEntity
  8
0
  6
Continuous
 62
     7
370
    25
100
AcDbLine
 10
7148.4433054922
 20
5213.7994420927
 30
0.0
 11
7156.4433054922
 21
5213.7994420927
 31
0.0
  0
LINE
  5
350
330
1F
100
AcDbEntity
  8
0
  6
Continuous
 62
     7
370
    25
100
AcDbLine
 10
7284.4433054922
 20
5128.7994420927
 30
0.0
 11
7284.4433054922
 21
5126.7994420927
 31
0.0
  0
LINE
  5
351
330
1F
100
AcDbEntity
  8
0
  6
Continuous
 62
     7
370
    25
100
AcDbLine
 10
7314.4433054922
 20
5128.7994420927
 30
0.0
 11
7314.4433054922
 21
5126.7994420927
 31
0.0
  0
LINE
  5
352
330
1F
100
AcDbEntity
  8
0
  6
Continuous
 62
     7
370
    25
100
AcDbLine
 10
7284.4433054922
 20
5126.7994420927
 30
0.0
 11
7314.4433054922
 21
5126.7994420927
 31
0.0
  0
LINE
  5
353
330
1F
100
AcDbEntity
  8
0
  6
Continuous
 62
     7
370
    25
100
AcDbLine
 10
7284.4433054922
 20
5128.7994420927
 30
0.0
 11
7314.4433054922
 21
5128.7994420927
 31
0.0
  0
LINE
  5
354
330
1F
100
AcDbEntity
  8
0
  6
Continuous
 62
     7
370
    25
100
AcDbLine
 10
7295.4433054922
 20
5213.7994420927
 30
0.0
 11
7303.4433054922
 21
5213.7994420927
 31
0.0
  0
LINE
  5
355
330
1F
100
AcDbEntity
  8
0
  6
Continuous
 62
     7
370
    25
100
AcDbLine
 10
7137.4433054922
 20
5128.7994420927
 30
0.0
 11
7142.628350916
 21
5128.7994420927
 31
0.0
  0
LINE
  5
356
330
1F
100
AcDbEntity
  8
0
  6
Continuous
 62
     7
370
    25
100
AcDbLine
 10
7162.2582600684
 20
5128.7994420927
 30
0.0
 11
7167.4433054922
 21
5128.7994420927
 31
0.0
  0
LINE
  5
357
330
1F
100
AcDbEntity
  8
0
  6
Continuous
 62
     7
370
    25
100
AcDbLine
 10
7167.4433054922
 20
5128.7994420927
 30
0.0
 11
7167.4433054922
 21
5126.7994420927
 31
0.0
  0
LINE
  5
358
330
1F
100
AcDbEntity
  8
0
  6
Continuous
 62
     7
370
    25
100
AcDbLine
 10
7137.4433054922
 20
5126.7994420927
 30
0.0
 11
7142.628350916
 21
5126.7994420927
 31
0.0
  0
LINE
  5
359
330
1F
100
AcDbEntity
  8
0
  6
Continuous
 62
     7
370
    25
100
AcDbLine
 10
7162.2582600684
 20
5126.7994420927
 30
0.0
 11
7167.4433054922
 21
5126.7994420927
 31
0.0
  0
LINE
  5
35A
330
1F
100
AcDbEntity
  8
0
  6
Continuous
 62
     7
370
    25
100
AcDbLine
 10
7137.4433054922
 20
5128.7994420927
 30
0.0
 11
7137.4433054922
 21
5126.7994420927
 31
0.0
  0
LINE
  5
35B
330
1F
100
AcDbEntity
  8
0
  6
Continuous
 62
     7
370
    25
100
AcDbLine
 10
7139.7433054922
 20
5230.5994420927
 30
0.0
 11
7139.7433054922
 21
5300.5994420927
 31
0.0
  0
LINE
  5
35C
330
1F
100
AcDbEntity
  8
0
  6
Continuous
 62
     7
370
    25
100
AcDbLine
 10
7139.7433054922
 20
5300.5994420927
 30
0.0
 11
7141.2433054922
 21
5300.5994420927
 31
0.0
  0
LINE
  5
35D
330
1F
100
AcDbEntity
  8
0
  6
Continuous
 62
     7
370
    25
100
AcDbLine
 10
7141.2433054922
 20
5231.7994420927
 30
0.0
 11
7283.6433054922
 21
5231.7994420927
 31
0.0
  0
LINE
  5
35E
330
1F
100
AcDbEntity
  8
0
  6
Continuous
 62
     7
370
    25
100
AcDbLine
 10
7283.6433054922
 20
5231.7994420927
 30
0.0
 11
7283.6433054922
 21
5230.5994420927
 31
0.0
  0
LINE
  5
35F
330
1F
100
AcDbEntity
  8
0
  6
Continuous
 62
     7
370
    25
100
AcDbLine
 10
7139.7433054922
 20
5230.5994420927
 30
0.0
 11
7283.6433054922
 21
5230.5994420927
 31
0.0
  0
LINE
  5
360
330
1F
100
AcDbEntity
  8
0
  6
Continuous
 62
     7
370
    25
100
AcDbLine
 10
7141.2433054922
 20
5231.7994420927
 30
0.0
 11
7141.2433054922
 21
5300.5994420927
 31
0.0
  0
LINE
  5
361
330
1F
100
AcDbEntity
  8
0
  6
Continuous
 62
     7
370
    25
100
AcDbLine
 10
7262.4433054922
 20
5245.7479007613
 30
0.0
 11
7162.4433054922
 21
5245.7479007613
 31
0.0
  0
LINE
  5
362
330
1F
100
AcDbEntity
  8
0
  6
Continuous
 62
     7
370
    25
100
AcDbLine
 10
7162.4433054922
 20
5245.7479007613
 30
0.0
 11
7158.0800500421
 21
5245.7479007613
 31
0.0
  0
ARC
  5
363
330
1F
100
AcDbEntity
  8
0
  6
Continuous
 62
     7
370
    25
100
AcDbCircle
 10
7159.7249361593
 20
5246.106677123
 30
0.0
 40
1.683558973216374
100
AcDbArc
 50
89.3750030156
 51
192.3044287047
  0
LINE
  5
364
330
1F
100
AcDbEntity
  8
0
  6
Continuous
 62
     7
370
    25
100
AcDbLine
 10
7266.8065609423
 20
5245.7479007613
 30
0.0
 11
7262.4433054922
 21
5245.7479007613
 31
0.0
  0
ARC
  5
365
330
1F
100
AcDbEntity
  8
0
  6
Continuous
 62
     7
370
    25
100
AcDbCircle
 10
7265.1433054922
 20
5246.0994420927
 30
0.0
 40
1.700000000000728
100
AcDbArc
 50
348.0657534268
 51
90.0
  0
LINE
  5
366
330
1F
100
AcDbEntity
  8
0
  6
Continuous
 62
     7
370
    25
100
AcDbLine
 10
7162.4433054922
 20
5241.5408428581
 30
0.0
 11
7158.9692428215
 21
5241.5408428581
 31
0.0
  0
LINE
  5
367
330
1F
100
AcDbEntity
  8
0
  6
Continuous
 62
     7
370
    25
100
AcDbLine
 10
7158.0800500421
 20
5245.7479007613
 30
0.0
 11
7158.9692428215
 21
5241.5408428581
 31
0.0
  0
LINE
  5
368
330
1F
100
AcDbEntity
  8
0
  6
Continuous
 62
     7
370
    25
100
AcDbLine
 10
7162.4433054922
 20
5245.7479007613
 30
0.0
 11
7162.4433054922
 21
5241.5408428581
 31
0.0
  0
LINE
  5
369
330
1F
100
AcDbEntity
  8
0
  6
Continuous
 62
     7
370
    25
100
AcDbLine
 10
7262.4433054922
 20
5241.5408428581
 30
0.0
 11
7162.4433054922
 21
5241.5408428581
 31
0.0
  0
LINE
  5
36A
330
1F
100
AcDbEntity
  8
0
  6
Continuous
 62
     7
370
    25
100
AcDbLine
 10
7262.4433054922
 20
5245.7479007613
 30
0.0
 11
7262.4433054922
 21
5241.5408428581
 31
0.0
  0
LINE
  5
36B
330
1F
100
AcDbEntity
  8
0
  6
Continuous
 62
     7
370
    25
100
AcDbLine
 10
7265.9173681629
 20
5241.5408428581
 30
0.0
 11
7262.4433054922
 21
5241.5408428581
 31
0.0
  0
LINE
  5
36C
330
1F
100
AcDbEntity
  8
0
  6
Continuous
 62
     7
370
    25
100
AcDbLine
 10
7266.8065609423
 20
5245.7479007613
 30
0.0
 11
7265.9173681629
 21
5241.5408428581
 31
0.0
  0
LINE
  5
36D
330
1F
100
AcDbEntity
  8
0
  6
Continuous
 62
     7
370
    25
100
AcDbLine
 10
7160.2433054922
 20
5241.5408428581
 30
0.0
 11
7160.2433054922
 21
5231.7994420927
 31
0.0
  0
LINE
  5
36E
330
1F
100
AcDbEntity
  8
0
  6
Continuous
 62
     7
370
    25
100
AcDbLine
 10
7264.6433054922
 20
5241.5408428581
 30
0.0
 11
7264.6433054922
 21
5231.7994420927
 31
0.0
  0
ARC
  5
36F
330
1F
100
AcDbEntity
  8
0
  6
Continuous
 62
     7
370
    25
100
AcDbCircle
 10
7163.4431703215
 20
5206.7994420927
 30
0.0
 40
1.000000000000197
100
AcDbArc
 50
270.0
 51
359.9996276583
  0
LINE
  5
370
330
1F
100
AcDbEntity
  8
0
  6
Continuous
 62
     7
370
    25
100
AcDbLine
 10
7164.4431703215
 20
5206.7994355941
 30
0.0
 11
7164.4433054923
 21
5227.5994615885
 31
0.0
  0
ARC
  5
371
330
1F
100
AcDbEntity
  8
0
  6
Continuous
 62
     7
370
    25
100
AcDbCircle
 10
7167.4433054922
 20
5227.5994420927
 30
0.0
 40
3.000000000000909
100
AcDbArc
 50
90.0
 51
179.9996276583
  0
ARC
  5
372
330
1F
100
AcDbEntity
  8
0
  6
Continuous
 62
     7
370
    25
100
AcDbCircle
 10
7257.4433054922
 20
5227.5994420927
 30
0.0
 40
3.0
100
AcDbArc
 50
48.6002523617
 51
90.0
  0
LINE
  5
373
330
1F
100
AcDbEntity
  8
0
  6
Continuous
 62
     7
370
    25
100
AcDbLine
 10
7259.4272311765
 20
5229.8497840399
 30
0.0
 11
7286.4237889435
 21
5206.0493281103
 31
0.0
  0
ARC
  5
374
330
1F
100
AcDbEntity
  8
0
  6
Continuous
 62
     7
370
    25
100
AcDbCircle
 10
7287.0850975049
 20
5206.7994420927
 30
0.0
 40
1.000000000000033
100
AcDbArc
 50
228.6002523617
 51
270.0
  0
LINE
  5
375
330
1F
100
AcDbEntity
  8
0
  6
Continuous
 62
     7
370
    25
100
AcDbLine
 10
7287.0850975049
 20
5205.7994420927
 30
0.0
 11
7308.0850975049
 21
5205.7994420927
 31
0.0
  0
LINE
  5
376
330
1F
100
AcDbEntity
  8
0
  6
Continuous
 62
     7
370
    25
100
AcDbLine
 10
7308.0850975049
 20
5205.7994420927
 30
0.0
 11
7308.0850975049
 21
5203.7994420927
 31
0.0
  0
LINE
  5
377
330
1F
100
AcDbEntity
  8
0
  6
Continuous
 62
     7
370
    25
100
AcDbLine
 10
7308.0850975049
 20
5203.7994420927
 30
0.0
 11
7287.0850975049
 21
5203.7994420927
 31
0.0
  0
ARC
  5
378
330
1F
100
AcDbEntity
  8
0
  6
Continuous
 62
     7
370
    25
100
AcDbCircle
 10
7287.0850975049
 20
5206.7994420927
 30
0.0
 40
3.0000000000001
100
AcDbArc
 50
228.6002523617
 51
270.0
  0
LINE
  5
379
330
1F
100
AcDbEntity
  8
0
  6
Continuous
 62
     7
370
    25
100
AcDbLine
 10
7285.1011718207
 20
5204.5491001455
 30
0.0
 11
7258.1046140536
 21
5228.3495560751
 31
0.0
  0
ARC
  5
37A
330
1F
100
AcDbEntity
  8
0
  6
Continuous
 62
     7
370
    25
100
AcDbCircle
 10
7257.4433054922
 20
5227.5994420927
 30
0.0
 40
1.0
100
AcDbArc
 50
48.6002523617
 51
90.0
  0
LINE
  5
37B
330
1F
100
AcDbEntity
  8
0
  6
Continuous
 62
     7
370
    25
100
AcDbLine
 10
7257.4433054922
 20
5228.5994420927
 30
0.0
 11
7167.4433054922
 21
5228.5994420927
 31
0.0
  0
ARC
  5
37C
330
1F
100
AcDbEntity
  8
0
  6
Continuous
 62
     7
370
    25
100
AcDbCircle
 10
7167.4433054922
 20
5227.5994420927
 30
0.0
 40
1.0
100
AcDbArc
 50
90.0
 51
179.9996276583
  0
LINE
  5
37D
330
1F
100
AcDbEntity
  8
0
  6
Continuous
 62
     7
370
    25
100
AcDbLine
 10
7166.4433054922
 20
5227.5994485913
 30
0.0
 11
7166.4431703214
 21
5206.799422597
 31
0.0
  0
ARC
  5
37E
330
1F
100
AcDbEntity
  8
0
  6
Continuous
 62
     7
370
    25
100
AcDbCircle
 10
7163.4431703215
 20
5206.7994420927
 30
0.0
 40
3.0
100
AcDbArc
 50
270.0
 51
359.9996276583
  0
LINE
  5
37F
330
1F
100
AcDbEntity
  8
0
  6
Continuous
 62
     7
370
    25
100
AcDbLine
 10
7142.4431703215
 20
5203.7994420927
 30
0.0
 11
7142.4431703215
 21
5205.7994420927
 31
0.0
  0
LINE
  5
380
330
1F
100
AcDbEntity
  8
0
  6
Continuous
 62
     7
370
    25
100
AcDbLine
 10
7142.4431703215
 20
5205.7994420927
 30
0.0
 11
7163.4431703215
 21
5205.7994420927
 31
0.0
  0
LINE
  5
381
330
1F
100
AcDbEntity
  8
0
  6
Continuous
 62
     7
370
    25
100
AcDbLine
 10
7163.4431703215
 20
5203.7994420927
 30
0.0
 11
7142.4431703215
 21
5203.7994420927
 31
0.0
  0
LINE
  5
382
330
1F
100
AcDbEntity
  8
0
  6
Continuous
 62
     7
370
    25
100
AcDbLine
 10
7147.5358282041
 20
5212.7994420927
 30
0.0
 11
7147.5358282041
 21
5205.7994420927
 31
0.0
  0
LINE
  5
383
330
1F
100
AcDbEntity
  8
0
  6
Continuous
 62
     7
370
    25
100
AcDbLine
 10
7157.3507827803
 20
5212.7994420927
 30
0.0
 11
7147.5358282041
 21
5212.7994420927
 31
0.0
  0
LINE
  5
384
330
1F
100
AcDbEntity
  8
0
  6
Continuous
 62
     7
370
    25
100
AcDbLine
 10
7157.3507827803
 20
5212.7994420927
 30
0.0
 11
7157.3507827803
 21
5205.7994420927
 31
0.0
  0
LINE
  5
385
330
1F
100
AcDbEntity
  8
0
  6
Continuous
 62
     7
370
    25
100
AcDbLine
 10
7142.628350916
 20
5212.7994420927
 30
0.0
 11
7142.628350916
 21
5205.7994420927
 31
0.0
  0
LINE
  5
386
330
1F
100
AcDbEntity
  8
0
  6
Continuous
 62
     7
370
    25
100
AcDbLine
 10
7147.5358282041
 20
5212.7994420927
 30
0.0
 11
7142.628350916
 21
5212.7994420927
 31
0.0
  0
LINE
  5
387
330
1F
100
AcDbEntity
  8
0
  6
Continuous
 62
     7
370
    25
100
AcDbLine
 10
7162.2582600684
 20
5212.7994420927
 30
0.0
 11
7162.2582600684
 21
5205.7994420927
 31
0.0
  0
LINE
  5
388
330
1F
100
AcDbEntity
  8
0
  6
Continuous
 62
     7
370
    25
100
AcDbLine
 10
7162.2582600684
 20
5212.7994420927
 30
0.0
 11
7157.3507827803
 21
5212.7994420927
 31
0.0
  0
LINE
  5
389
330
1F
100
AcDbEntity
  8
0
  6
Continuous
 62
     7
370
    25
100
AcDbLine
 10
7289.628350916
 20
5212.7994420927
 30
0.0
 11
7289.628350916
 21
5205.7994420927
 31
0.0
  0
LINE
  5
38A
330
1F
100
AcDbEntity
  8
0
  6
Continuous
 62
     7
370
    25
100
AcDbLine
 10
7294.5358282041
 20
5212.7994420927
 30
0.0
 11
7289.628350916
 21
5212.7994420927
 31
0.0
  0
LINE
  5
38B
330
1F
100
AcDbEntity
  8
0
  6
Continuous
 62
     7
370
    25
100
AcDbLine
 10
7294.5358282041
 20
5212.7994420927
 30
0.0
 11
7294.5358282041
 21
5205.7994420927
 31
0.0
  0
LINE
  5
38C
330
1F
100
AcDbEntity
  8
0
  6
Continuous
 62
     7
370
    25
100
AcDbLine
 10
7304.3507827803
 20
5212.7994420927
 30
0.0
 11
7304.3507827803
 21
5205.7994420927
 31
0.0
  0
LINE
  5
38D
330
1F
100
AcDbEntity
  8
0
  6
Continuous
 62
     7
370
    25
100
AcDbLine
 10
7304.3507827803
 20
5212.7994420927
 30
0.0
 11
7294.5358282041
 21
5212.7994420927
 31
0.0
  0
LINE
  5
38E
330
1F
100
AcDbEntity
  8
0
  6
Continuous
 62
     7
370
    25
100
AcDbLine
 10
7309.2582600684
 20
5212.7994420927
 30
0.0
 11
7309.2582600684
 21
5205.7994420927
 31
0.0
  0
LINE
  5
38F
330
1F
100
AcDbEntity
  8
0
  6
Continuous
 62
     7
370
    25
100
AcDbLine
 10
7309.2582600684
 20
5205.7994420927
 30
0.0
 11
7308.0850975049
 21
5205.7994420927
 31
0.0
  0
LINE
  5
390
330
1F
100
AcDbEntity
  8
0
  6
Continuous
 62
     7
370
    25
100
AcDbLine
 10
7309.2582600684
 20
5212.7994420927
 30
0.0
 11
7304.3507827803
 21
5212.7994420927
 31
0.0
  0
LINE
  5
391
330
1F
100
AcDbEntity
  8
0
  6
Continuous
 62
     7
370
    25
100
AcDbLine
 10
7209.5565541463
 20
5223.5994420927
 30
0.0
 11
7209.5565541463
 21
5228.5994420927
 31
0.0
  0
LINE
  5
392
330
1F
100
AcDbEntity
  8
0
  6
Continuous
 62
     7
370
    25
100
AcDbLine
 10
7206.6698028003
 20
5223.5994420927
 30
0.0
 11
7209.5565541463
 21
5223.5994420927
 31
0.0
  0
LINE
  5
393
330
1F
100
AcDbEntity
  8
0
  6
Continuous
 62
     7
370
    25
100
AcDbLine
 10
7206.6698028003
 20
5223.5994420927
 30
0.0
 11
7206.6698028003
 21
5228.5994420927
 31
0.0
  0
LINE
  5
394
330
1F
100
AcDbEntity
  8
0
  6
Continuous
 62
     7
370
    25
100
AcDbLine
 10
7218.2168081841
 20
5223.5994420927
 30
0.0
 11
7218.2168081841
 21
5228.5994420927
 31
0.0
  0
LINE
  5
395
330
1F
100
AcDbEntity
  8
0
  6
Continuous
 62
     7
370
    25
100
AcDbLine
 10
7215.3300568382
 20
5223.5994420927
 30
0.0
 11
7215.3300568382
 21
5228.5994420927
 31
0.0
  0
LINE
  5
396
330
1F
100
AcDbEntity
  8
0
  6
Continuous
 62
     7
370
    25
100
AcDbLine
 10
7215.3300568382
 20
5223.5994420927
 30
0.0
 11
7218.2168081841
 21
5223.5994420927
 31
0.0
  0
LINE
  5
397
330
1F
100
AcDbEntity
  8
0
  6
Continuous
 62
     7
370
    25
100
AcDbLine
 10
7209.5565541463
 20
5223.5994420927
 30
0.0
 11
7215.3300568382
 21
5223.5994420927
 31
0.0
  0
LINE
  5
398
330
1F
100
AcDbEntity
  8
0
  6
Continuous
 62
     7
370
    25
100
AcDbLine
 10
7209.4433054922
 20
5208.5994420927
 30
0.0
 11
7215.4433054922
 21
5208.5994420927
 31
0.0
  0
LINE
  5
399
330
1F
100
AcDbEntity
  8
0
  6
Continuous
 62
     8
370
    25
100
AcDbLine
 10
7173.1410793596
 20
5226.523116019
 30
0.0
 11
7206.6698028003
 21
5226.523116019
 31
0.0
  0
LINE
  5
39A
330
1F
100
AcDbEntity
  8
0
  6
Continuous
 62
     8
370
    25
100
AcDbLine
 10
7218.2168081841
 20
5226.523116019
 30
0.0
 11
7251.7455316248
 21
5226.523116019
 31
0.0
  0
LINE
  5
39B
330
1F
100
AcDbEntity
  8
0
  6
Continuous
 62
     8
370
    25
100
AcDbLine
 10
7173.3801907448
 20
5226.9372690868
 30
0.0
 11
7206.6698028003
 21
5226.9372690868
 31
0.0
  0
LINE
  5
39C
330
1F
100
AcDbEntity
  8
0
  6
Continuous
 62
     8
370
    25
100
AcDbLine
 10
7218.2168081841
 20
5226.9372690868
 30
0.0
 11
7251.5064202396
 21
5226.9372690868
 31
0.0
  0
ARC
  5
39D
330
1F
100
AcDbEntity
  8
0
  6
Continuous
 62
     8
370
    25
100
AcDbCircle
 10
7212.4436386591
 20
5191.0059591657
 30
0.0
 40
17.4996668363268
100
AcDbArc
 50
269.9989091761
 51
359.9989091346
  0
ARC
  5
39E
330
1F
100
AcDbEntity
  8
0
  6
Continuous
 62
     8
370
    25
100
AcDbCircle
 10
7212.4429714203
 20
5191.0059573462
 30
0.0
 40
17.4996650168745
100
AcDbArc
 50
180.0011153103
 51
270.0010937871
  0
LINE
  5
39F
330
1F
100
AcDbEntity
  8
0
  6
Continuous
 62
     8
370
    25
100
AcDbLine
 10
7229.5765699689
 20
5220.9994420927
 30
0.0
 11
7215.4433054922
 21
5220.9994420927
 31
0.0
  0
LINE
  5
3A0
330
1F
100
AcDbEntity
  8
0
  6
Continuous
 62
     8
370
    25
100
AcDbLine
 10
7209.4433054922
 20
5220.9994420927
 30
0.0
 11
7195.3100410155
 21
5220.9994420927
 31
0.0
  0
LINE
  5
3A1
330
1F
100
AcDbEntity
  8
0
  6
Continuous
 62
     8
370
    25
100
AcDbLine
 10
7234.2713040594
 20
5206.741753837
 30
0.0
 11
7234.3681314921
 21
5217.9994420927
 31
0.0
  0
LINE
  5
3A2
330
1F
100
AcDbEntity
  8
0
  6
Continuous
 62
     8
370
    25
100
AcDbLine
 10
7228.454666194
 20
5212.5904952872
 30
0.0
 11
7228.454666194
 21
5217.9994420927
 31
0.0
  0
LINE
  5
3A3
330
1F
100
AcDbEntity
  8
0
  6
Continuous
 62
     8
370
    25
100
AcDbLine
 10
7190.615306925
 20
5206.741753837
 30
0.0
 11
7190.5184794923
 21
5217.9994420927
 31
0.0
  0
LINE
  5
3A4
330
1F
100
AcDbEntity
  8
0
  6
Continuous
 62
     8
370
    25
100
AcDbLine
 10
7196.4319447904
 20
5212.5904952872
 30
0.0
 11
7196.4319447904
 21
5217.9994420927
 31
0.0
  0
ARC
  5
3A5
330
1F
100
AcDbEntity
  8
0
  6
Continuous
 62
     8
370
    25
100
AcDbCircle
 10
7228.0036983975
 20
5175.8009903633
 30
0.0
 40
5.835886262677752
100
AcDbArc
 50
292.2807405458
 51
346.2292893367
  0
ARC
  5
3A6
330
1F
100
AcDbEntity
  8
0
  6
Continuous
 62
     8
370
    25
100
AcDbCircle
 10
7196.8845121484
 20
5175.8025881093
 30
0.0
 40
5.837971247913583
100
AcDbArc
 50
193.7452696728
 51
247.7106782336
  0
ARC
  5
3A7
330
1F
100
AcDbEntity
  8
0
  6
Continuous
 62
     8
370
    25
100
AcDbCircle
 10
7253.5902379929
 20
5131.8783834411
 30
0.0
 40
48.85774613773656
100
AcDbArc
 50
101.8649724379
 51
111.5369123433
  0
LWPOLYLINE
  5
3A8
330
1F
100
AcDbEntity
  8
0
  6
Continuous
 62
     8
370
    25
100
AcDbPolyline
 90
        8
 70
   128
 43
0.0
 10
7243.5447952177
 20
5179.6922772075
 10
7243.5805865292
 20
5178.2197669863
 10
7243.4015602287
 20
5176.8173371852
 10
7243.0158972444
 20
5175.5490743506
 10
7242.4412211384
 20
5174.4729340288
 10
7241.7037927667
 20
5173.6380923831
 10
7240.8373102421
 20
5173.0826990006
 10
7240.1600659718
 20
5172.8714806823
  0
ARC
  5
3A9
330
1F
100
AcDbEntity
  8
0
  6
Continuous
 62
     8
370
    25
100
AcDbCircle
 10
7171.378881353
 20
5132.1529222063
 30
0.0
 40
48.57211479918918
100
AcDbArc
 50
68.5846849951
 51
78.1636904354
  0
LWPOLYLINE
  5
3AA
330
1F
100
AcDbEntity
  8
0
  6
Continuous
 62
     8
370
    25
100
AcDbPolyline
 90
        8
 70
   128
 43
0.0
 10
7181.3418157667
 20
5179.6922772075
 10
7181.3060244552
 20
5178.2197669863
 10
7181.4850507557
 20
5176.8173371852
 10
7181.87071374
 20
5175.5490743506
 10
7182.445389846
 20
5174.4729340288
 10
7183.1828182177
 20
5173.6380923831
 10
7184.0493007423
 20
5173.0826990006
 10
7184.7182872229
 20
5172.8730503802
  0
LWPOLYLINE
  5
3AB
330
1F
100
AcDbEntity
  8
0
  6
Continuous
 62
     8
370
    25
100
AcDbPolyline
 90
        7
 70
   128
 43
0.0
 10
7243.5447952177
 20
5179.6922772075
 10
7248.8559547016
 20
5180.7353857179
 10
7253.2639249822
 20
5182.1173837913
 10
7256.3975292224
 20
5183.7611018164
 10
7258.4081545969
 20
5185.7614512324
 10
7259.1745996519
 20
5188.0404152525
 10
7259.1238859958
 20
5188.3168653623
  0
LWPOLYLINE
  5
3AC
330
1F
100
AcDbEntity
  8
0
  6
Continuous
 62
     8
370
    25
100
AcDbPolyline
 90
       11
 70
   128
 43
0.0
 10
7165.729106592
 20
5188.3106382223
 10
7165.7098091494
 20
5188.0839392265
 10
7165.9821778889
 20
5186.7517191418
 10
7166.6837234901
 20
5185.4658346141
 10
7167.8116912432
 20
5184.2811123339
 10
7169.1928575853
 20
5183.3053116359
 10
7170.9122842285
 20
5182.4185565736
 10
7173.0358323224
 20
5181.5970707303
 10
7175.4961301102
 20
5180.8703467689
 10
7178.2582210249
 20
5180.2397661453
 10
7181.3418157667
 20
5179.6922772075
  0
LINE
  5
3AD
330
1F
100
AcDbEntity
  8
0
  6
Continuous
 62
     8
370
    25
100
AcDbLine
 10
7178.8990988377
 20
5220.9994420927
 30
0.0
 11
7166.4432626015
 21
5220.9994420927
 31
0.0
  0
LINE
  5
3AE
330
1F
100
AcDbEntity
  8
0
  6
Continuous
 62
     8
370
    25
100
AcDbLine
 10
7164.4432626015
 20
5220.9994420927
 30
0.0
 11
7163.4433054922
 21
5220.9994420927
 31
0.0
  0
LINE
  5
3AF
330
1F
100
AcDbEntity
  8
0
  6
Continuous
 62
     8
370
    25
100
AcDbLine
 10
7261.4433054922
 20
5220.9994420927
 30
0.0
 11
7245.9875121467
 21
5220.9994420927
 31
0.0
  0
LINE
  5
3B0
330
1F
100
AcDbEntity
  8
0
  6
Continuous
 62
     8
370
    25
100
AcDbLine
 10
7190.7428040618
 20
5150.8162034546
 30
0.0
 11
7190.3755419491
 21
5171.6536051867
 31
0.0
  0
LINE
  5
3B1
330
1F
100
AcDbEntity
  8
0
  6
Continuous
 62
     8
370
    25
100
AcDbLine
 10
7234.1438069226
 20
5150.8162034546
 30
0.0
 11
7244.6840504745
 21
5150.8162034546
 31
0.0
  0
LINE
  5
3B2
330
1F
100
AcDbEntity
  8
0
  6
Continuous
 62
     8
370
    25
100
AcDbLine
 10
7180.2025605099
 20
5150.8162034546
 30
0.0
 11
7190.7428040618
 21
5150.8162034546
 31
0.0
  0
LINE
  5
3B3
330
1F
100
AcDbEntity
  8
0
  6
Continuous
 62
     8
370
    25
100
AcDbLine
 10
7234.1438069226
 20
5150.8162034546
 30
0.0
 11
7234.5111522086
 21
5171.6583242034
 31
0.0
  0
LINE
  5
3B4
330
1F
100
AcDbEntity
  8
0
  6
Continuous
 62
     8
370
    25
100
AcDbLine
 10
7202.5780039958
 20
5150.8162034546
 30
0.0
 11
7202.8519539137
 21
5165.6113172462
 31
0.0
  0
LINE
  5
3B5
330
1F
100
AcDbEntity
  8
0
  6
Continuous
 62
     8
370
    25
100
AcDbLine
 10
7222.3086069886
 20
5150.8162034546
 30
0.0
 11
7222.0346570707
 21
5165.6113172462
 31
0.0
  0
LINE
  5
3B6
330
1F
100
AcDbEntity
  8
0
  6
Continuous
 62
     8
370
    25
100
AcDbLine
 10
7202.7630662262
 20
5176.9421932542
 30
0.0
 11
7203.3941440346
 21
5202.4994420927
 31
0.0
  0
LINE
  5
3B7
330
1F
100
AcDbEntity
  8
0
  6
Continuous
 62
     8
370
    25
100
AcDbLine
 10
7222.1235447582
 20
5176.9421932542
 30
0.0
 11
7221.4924669498
 21
5202.4994420927
 31
0.0
  0
LINE
  5
3B8
330
1F
100
AcDbEntity
  8
0
  6
Continuous
 62
     8
370
    25
100
AcDbLine
 10
7206.8702889499
 20
5174.9322267491
 30
0.0
 11
7207.5509982841
 21
5202.4994420927
 31
0.0
  0
LINE
  5
3B9
330
1F
100
AcDbEntity
  8
0
  6
Continuous
 62
     8
370
    25
100
AcDbLine
 10
7218.0163220345
 20
5174.9322267491
 30
0.0
 11
7217.3356127003
 21
5202.4994420927
 31
0.0
  0
LINE
  5
3BA
330
1F
100
AcDbEntity
  8
0
  6
Continuous
 62
     8
370
    25
100
AcDbLine
 10
7206.3206446829
 20
5150.8162034546
 30
0.0
 11
7206.5739425057
 21
5164.4959670383
 31
0.0
  0
LINE
  5
3BB
330
1F
100
AcDbEntity
  8
0
  6
Continuous
 62
     8
370
    25
100
AcDbLine
 10
7218.5659663015
 20
5150.8162034546
 30
0.0
 11
7218.3126684788
 21
5164.4959670383
 31
0.0
  0
LINE
  5
3BC
330
1F
100
AcDbEntity
  8
0
  6
Continuous
 62
     8
370
    25
100
AcDbLine
 10
7209.1001597417
 20
5174.343445678
 30
0.0
 11
7209.1001597417
 21
5202.4994420927
 31
0.0
  0
LINE
  5
3BD
330
1F
100
AcDbEntity
  8
0
  6
Continuous
 62
     8
370
    25
100
AcDbLine
 10
7215.7864512427
 20
5174.343445678
 30
0.0
 11
7215.7864512427
 21
5202.4994420927
 31
0.0
  0
LINE
  5
3BE
330
1F
100
AcDbEntity
  8
0
  6
Continuous
 62
     8
370
    25
100
AcDbLine
 10
7209.6859461793
 20
5150.8162034546
 30
0.0
 11
7209.6859461793
 21
5163.9914604336
 31
0.0
  0
LINE
  5
3BF
330
1F
100
AcDbEntity
  8
0
  6
Continuous
 62
     8
370
    25
100
AcDbLine
 10
7215.2006648051
 20
5150.8162034546
 30
0.0
 11
7215.2006648051
 21
5163.9914604336
 31
0.0
  0
LINE
  5
3C0
330
1F
100
AcDbEntity
  8
0
  6
Continuous
 62
     8
370
    25
100
AcDbLine
 10
7162.4433054922
 20
5247.7994420927
 30
0.0
 11
7162.4433054922
 21
5245.7479007613
 31
0.0
  0
LINE
  5
3C1
330
1F
100
AcDbEntity
  8
0
  6
Continuous
 62
     8
370
    25
100
AcDbLine
 10
7262.4433054922
 20
5247.7994420927
 30
0.0
 11
7262.4433054922
 21
5245.7479007613
 31
0.0
  0
LINE
  5
3C2
330
1F
100
AcDbEntity
  8
0
  6
Continuous
 62
     8
370
    25
100
AcDbLine
 10
7162.4433054922
 20
5241.5408428581
 30
0.0
 11
7162.4433054922
 21
5231.7994420927
 31
0.0
  0
LINE
  5
3C3
330
1F
100
AcDbEntity
  8
0
  6
Continuous
 62
     8
370
    25
100
AcDbLine
 10
7262.4433054922
 20
5241.5408428581
 30
0.0
 11
7262.4433054922
 21
5231.7994420927
 31
0.0
  0
ARC
  5
3C4
330
1F
100
AcDbEntity
  8
0
  6
Continuous
 62
     7
370
    25
100
AcDbCircle
 10
6274.0187553361
 20
4847.3617507023
 30
0.0
 40
18.15000000000018
100
AcDbArc
 50
149.1424770247
 51
176.8328746966
  0
ARC
  5
3C5
330
1F
100
AcDbEntity
  8
0
  6
Continuous
 62
     7
370
    25
100
AcDbCircle
 10
6274.0187553361
 20
4847.3617507023
 30
0.0
 40
18.14999999999992
100
AcDbArc
 50
115.8951326394
 51
127.2158347163
  0
LINE
  5
3C6
330
1F
100
AcDbEntity
  8
0
  6
Continuous
 62
     7
370
    25
100
AcDbLine
 10
6294.0381315401
 20
4848.469485509
 30
0.0
 11
6293.9986499743
 21
4849.0369552415
 31
0.0
  0
ARC
  5
3C7
330
1F
100
AcDbEntity
  8
0
  6
Continuous
 62
     7
370
    25
100
AcDbCircle
 10
6274.0187553361
 20
4847.3617507023
 30
0.0
 40
20.0500000000001
100
AcDbArc
 50
141.2541257416
 51
176.8328746966
  0
ARC
  5
3C8
330
1F
100
AcDbEntity
  8
0
  6
Continuous
 62
     7
370
    25
100
AcDbCircle
 10
6255.9464007579
 20
4848.3617507023
 30
0.0
 40
0.0500000000001819
100
AcDbArc
 50
176.8328746972
 51
270.0
  0
ARC
  5
3C9
330
1F
100
AcDbEntity
  8
0
  6
Continuous
 62
     7
370
    25
100
AcDbCircle
 10
6255.9464007579
 20
4848.3617507023
 30
0.0
 40
1.949999999999818
100
AcDbArc
 50
176.8328746967
 51
270.0
  0
LWPOLYLINE
  5
3CA
330
1F
100
AcDbEntity
  8
0
  6
Continuous
 62
     7
370
    25
100
AcDbPolyline
 90
        3
 70
   128
 43
0.0
 10
6293.9986499743
 20
4847.9570397936
 10
6294.019797537
 20
4848.0742371303
 10
6294.0381315401
 20
4848.469485509
  0
LINE
  5
3CB
330
1F
100
AcDbEntity
  8
0
  6
Continuous
 62
     7
370
    25
100
AcDbLine
 10
6255.9464007579
 20
4846.4117507023
 30
0.0
 11
6256.1187553361
 21
4846.4117507023
 31
0.0
  0
LINE
  5
3CC
330
1F
100
AcDbEntity
  8
0
  6
Continuous
 62
     7
370
    25
100
AcDbLine
 10
6256.1187553361
 20
4848.3117507023
 30
0.0
 11
6255.9464007579
 21
4848.3117507023
 31
0.0
  0
LINE
  5
3CD
330
1F
100
AcDbEntity
  8
0
  6
Continuous
 62
     7
370
    25
100
AcDbLine
 10
6287.5911099143
 20
4846.4117507023
 30
0.0
 11
6287.7180741075
 21
4846.4117507023
 31
0.0
  0
LINE
  5
3CE
330
1F
100
AcDbEntity
  8
0
  6
Continuous
 62
     7
370
    25
100
AcDbLine
 10
6287.7180741075
 20
4848.3117507023
 30
0.0
 11
6287.5911099143
 21
4848.3117507023
 31
0.0
  0
LINE
  5
3CF
330
1F
100
AcDbEntity
  8
0
  6
Continuous
 62
     7
370
    25
100
AcDbLine
 10
6256.352086928
 20
4856.9481383096
 30
0.0
 11
6256.4089946153
 21
4856.9481383096
 31
0.0
  0
LINE
  5
3D0
330
1F
100
AcDbEntity
  8
0
  6
Continuous
 62
     7
370
    25
100
AcDbLine
 10
6256.5229366172
 20
4837.7753630951
 30
0.0
 11
6256.352086928
 21
4837.7753630951
 31
0.0
  0
LINE
  5
3D1
330
1F
100
AcDbEntity
  8
0
  6
Continuous
 62
     7
370
    25
100
AcDbLine
 10
6844.6187553361
 20
4901.7617507023
 30
0.0
 11
5703.4187053361
 21
4901.7617507023
 31
0.0
  0
ARC
  5
3D2
330
1F
100
AcDbEntity
  8
0
  6
Continuous
 62
     7
370
    25
100
AcDbCircle
 10
5703.4187553361
 20
4897.3617507023
 30
0.0
 40
4.400000000000546
100
AcDbArc
 50
90.0
 51
180.0
  0
ARC
  5
3D3
330
1F
100
AcDbEntity
  8
0
  6
Continuous
 62
     7
370
    25
100
AcDbCircle
 10
6844.6187553361
 20
4897.3617507023
 30
0.0
 40
4.400000000000546
100
AcDbArc
 50
0.0
 51
90.0
  0
LINE
  5
3D4
330
1F
100
AcDbEntity
  8
0
  6
Continuous
 62
     7
370
    25
100
AcDbLine
 10
6849.0187553361
 20
4797.3617507023
 30
0.0
 11
6849.0187553361
 21
4897.3617507023
 31
0.0
  0
LINE
  5
3D5
330
1F
100
AcDbEntity
  8
0
  6
Continuous
 62
     7
370
    25
100
AcDbLine
 10
5699.0187553361
 20
4897.3617507023
 30
0.0
 11
5699.0187553361
 21
4797.3617507023
 31
0.0
  0
ARC
  5
3D6
330
1F
100
AcDbEntity
  8
0
  6
Continuous
 62
     7
370
    25
100
AcDbCircle
 10
6844.6187553361
 20
4797.3617507023
 30
0.0
 40
4.400000000000546
100
AcDbArc
 50
270.0
 51
0.0
  0
ARC
  5
3D7
330
1F
100
AcDbEntity
  8
0
  6
Continuous
 62
     7
370
    25
100
AcDbCircle
 10
5703.4187553361
 20
4797.3617507023
 30
0.0
 40
4.400000000000546
100
AcDbArc
 50
180.0
 51
270.0
  0
LINE
  5
3D8
330
1F
100
AcDbEntity
  8
0
  6
Continuous
 62
     7
370
    25
100
AcDbLine
 10
5703.4187553361
 20
4792.9617507023
 30
0.0
 11
6844.6187553361
 21
4792.9617507023
 31
0.0
  0
LINE
  5
3D9
330
1F
100
AcDbEntity
  8
0
  6
Continuous
 62
     7
370
    25
100
AcDbLine
 10
5706.8955320312
 20
4896.3617507025
 30
0.0
 11
5707.718755336
 21
4894.1617507025
 31
0.0
  0
LINE
  5
3DA
330
1F
100
AcDbEntity
  8
0
  6
Continuous
 62
     7
370
    25
100
AcDbLine
 10
5706.8955320312
 20
4895.1617507025
 30
0.0
 11
5707.7187553361
 21
4894.1617507024
 31
0.0
  0
LINE
  5
3DB
330
1F
100
AcDbEntity
  8
0
  6
Continuous
 62
     7
370
    25
100
AcDbLine
 10
5706.8955320312
 20
4896.3617507025
 30
0.0
 11
5706.8955320312
 21
4895.1617507025
 31
0.0
  0
LINE
  5
3DC
330
1F
100
AcDbEntity
  8
0
  6
Continuous
 62
     7
370
    25
100
AcDbLine
 10
6841.141978641
 20
4896.3617507025
 30
0.0
 11
6841.141978641
 21
4895.1617507025
 31
0.0
  0
LINE
  5
3DD
330
1F
100
AcDbEntity
  8
0
  6
Continuous
 62
     7
370
    25
100
AcDbLine
 10
6840.3187553361
 20
4894.1617507025
 30
0.0
 11
6841.141978641
 21
4895.1617507025
 31
0.0
  0
LINE
  5
3DE
330
1F
100
AcDbEntity
  8
0
  6
Continuous
 62
     7
370
    25
100
AcDbLine
 10
6840.3187553361
 20
4894.1617507025
 30
0.0
 11
6841.141978641
 21
4896.3617507025
 31
0.0
  0
LINE
  5
3DF
330
1F
100
AcDbEntity
  8
0
  6
Continuous
 62
     7
370
    25
100
AcDbLine
 10
5706.8955320312
 20
4896.3617507025
 30
0.0
 11
6841.141978641
 21
4896.3617507025
 31
0.0
  0
LINE
  5
3E0
330
1F
100
AcDbEntity
  8
0
  6
Continuous
 62
     7
370
    25
100
AcDbLine
 10
5707.718755336
 20
4894.1617507025
 30
0.0
 11
6840.3187553363
 21
4894.1617507024
 31
0.0
  0
LINE
  5
3E1
330
1F
100
AcDbEntity
  8
0
  6
Continuous
 62
     7
370
    25
100
AcDbLine
 10
5705.518755336
 20
4799.7385273975
 30
0.0
 11
5707.718755336
 21
4800.5617507023
 31
0.0
  0
LINE
  5
3E2
330
1F
100
AcDbEntity
  8
0
  6
Continuous
 62
     7
370
    25
100
AcDbLine
 10
5705.518755336
 20
4799.7385273975
 30
0.0
 11
5705.518755336
 21
4894.9849740071
 31
0.0
  0
LINE
  5
3E3
330
1F
100
AcDbEntity
  8
0
  6
Continuous
 62
     7
370
    25
100
AcDbLine
 10
5707.718755336
 20
4894.1617507024
 30
0.0
 11
5705.518755336
 21
4894.9849740071
 31
0.0
  0
LINE
  5
3E4
330
1F
100
AcDbEntity
  8
0
  6
Continuous
 62
     7
370
    25
100
AcDbLine
 10
5707.718755336
 20
4800.5617507023
 30
0.0
 11
5707.718755336
 21
4894.1617507025
 31
0.0
  0
LINE
  5
3E5
330
1F
100
AcDbEntity
  8
0
  6
Continuous
 62
     7
370
    25
100
AcDbLine
 10
6842.5187553363
 20
4894.9849740073
 30
0.0
 11
6840.3187553363
 21
4894.1617507024
 31
0.0
  0
LINE
  5
3E6
330
1F
100
AcDbEntity
  8
0
  6
Continuous
 62
     7
370
    25
100
AcDbLine
 10
6842.5187553363
 20
4894.9849740073
 30
0.0
 11
6842.5187553363
 21
4799.7385273974
 31
0.0
  0
LINE
  5
3E7
330
1F
100
AcDbEntity
  8
0
  6
Continuous
 62
     7
370
    25
100
AcDbLine
 10
6840.3187553363
 20
4800.5617507022
 30
0.0
 11
6842.5187553363
 21
4799.7385273974
 31
0.0
  0
LINE
  5
3E8
330
1F
100
AcDbEntity
  8
0
  6
Continuous
 62
     7
370
    25
100
AcDbLine
 10
6840.3187553363
 20
4894.1617507024
 30
0.0
 11
6840.3187553363
 21
4800.5617507022
 31
0.0
  0
LINE
  5
3E9
330
1F
100
AcDbEntity
  8
0
  6
Continuous
 62
     7
370
    25
100
AcDbLine
 10
5705.518755336
 20
4894.9849740071
 30
0.0
 11
5706.718755336
 21
4894.9849740071
 31
0.0
  0
LINE
  5
3EA
330
1F
100
AcDbEntity
  8
0
  6
Continuous
 62
     7
370
    25
100
AcDbLine
 10
5707.718755336
 20
4894.1617507024
 30
0.0
 11
5706.718755336
 21
4894.9849740071
 31
0.0
  0
LINE
  5
3EB
330
1F
100
AcDbEntity
  8
0
  6
Continuous
 62
     7
370
    25
100
AcDbLine
 10
6841.3187553363
 20
4894.9849740073
 30
0.0
 11
6840.3187553363
 21
4894.1617507024
 31
0.0
  0
LINE
  5
3EC
330
1F
100
AcDbEntity
  8
0
  6
Continuous
 62
     7
370
    25
100
AcDbLine
 10
6842.5187553363
 20
4894.9849740073
 30
0.0
 11
6841.3187553363
 21
4894.9849740073
 31
0.0
  0
LINE
  5
3ED
330
1F
100
AcDbEntity
  8
0
  6
Continuous
 62
     7
370
    25
100
AcDbLine
 10
6840.3187553363
 20
4800.5617507022
 30
0.0
 11
5707.718755336
 21
4800.5617507023
 31
0.0
  0
ARC
  5
3EE
330
1F
100
AcDbEntity
  8
0
  6
Continuous
 62
     7
370
    25
100
AcDbCircle
 10
5719.518755336
 20
4835.3617507023
 30
0.0
 40
3.0
100
AcDbArc
 50
180.0
 51
0.0
  0
LINE
  5
3EF
330
1F
100
AcDbEntity
  8
0
  6
Continuous
 62
     7
370
    25
100
AcDbLine
 10
5722.518755336
 20
4835.3617507023
 30
0.0
 11
5722.518755336
 21
4859.3617507023
 31
0.0
  0
ARC
  5
3F0
330
1F
100
AcDbEntity
  8
0
  6
Continuous
 62
     7
370
    25
100
AcDbCircle
 10
5719.518755336
 20
4859.3617507023
 30
0.0
 40
3.0
100
AcDbArc
 50
0.0
 51
180.0
  0
LINE
  5
3F1
330
1F
100
AcDbEntity
  8
0
  6
Continuous
 62
     7
370
    25
100
AcDbLine
 10
5716.518755336
 20
4859.3617507023
 30
0.0
 11
5716.518755336
 21
4835.3617507023
 31
0.0
  0
ARC
  5
3F2
330
1F
100
AcDbEntity
  8
0
  6
Continuous
 62
     7
370
    25
100
AcDbCircle
 10
6822.5187553363
 20
4835.3617507023
 30
0.0
 40
3.0
100
AcDbArc
 50
180.0
 51
0.0
  0
LINE
  5
3F3
330
1F
100
AcDbEntity
  8
0
  6
Continuous
 62
     7
370
    25
100
AcDbLine
 10
6825.5187553363
 20
4835.3617507023
 30
0.0
 11
6825.5187553363
 21
4859.3617507023
 31
0.0
  0
ARC
  5
3F4
330
1F
100
AcDbEntity
  8
0
  6
Continuous
 62
     7
370
    25
100
AcDbCircle
 10
6822.5187553363
 20
4859.3617507023
 30
0.0
 40
3.0
100
AcDbArc
 50
0.0
 51
180.0
  0
LINE
  5
3F5
330
1F
100
AcDbEntity
  8
0
  6
Continuous
 62
     7
370
    25
100
AcDbLine
 10
6819.5187553363
 20
4859.3617507023
 30
0.0
 11
6819.5187553363
 21
4835.3617507023
 31
0.0
  0
ARC
  5
3F6
330
1F
100
AcDbEntity
  8
0
  6
Continuous
 62
     7
370
    25
100
AcDbCircle
 10
6812.8643917041
 20
4840.0330056501
 30
0.0
 40
3.000000000000909
100
AcDbArc
 50
180.0
 51
0.0
  0
LINE
  5
3F7
330
1F
100
AcDbEntity
  8
0
  6
Continuous
 62
     7
370
    25
100
AcDbLine
 10
6815.8643917041
 20
4840.0330056501
 30
0.0
 11
6815.8643917041
 21
4864.0330056501
 31
0.0
  0
ARC
  5
3F8
330
1F
100
AcDbEntity
  8
0
  6
Continuous
 62
     7
370
    25
100
AcDbCircle
 10
6812.8643917041
 20
4864.0330056501
 30
0.0
 40
3.000000000000909
100
AcDbArc
 50
0.0
 51
180.0
  0
LINE
  5
3F9
330
1F
100
AcDbEntity
  8
0
  6
Continuous
 62
     7
370
    25
100
AcDbLine
 10
6809.8643917041
 20
4864.0330056501
 30
0.0
 11
6809.8643917041
 21
4840.0330056501
 31
0.0
  0
ARC
  5
3FA
330
1F
100
AcDbEntity
  8
0
  6
Continuous
 62
     7
370
    25
100
AcDbCircle
 10
6803.0080627399
 20
4844.2566956022
 30
0.0
 40
3.0
100
AcDbArc
 50
180.0
 51
0.0
  0
LINE
  5
3FB
330
1F
100
AcDbEntity
  8
0
  6
Continuous
 62
     7
370
    25
100
AcDbLine
 10
6806.0080627399
 20
4844.2566956022
 30
0.0
 11
6806.0080627399
 21
4868.2566956022
 31
0.0
  0
ARC
  5
3FC
330
1F
100
AcDbEntity
  8
0
  6
Continuous
 62
     7
370
    25
100
AcDbCircle
 10
6803.0080627399
 20
4868.2566956022
 30
0.0
 40
3.0
100
AcDbArc
 50
0.0
 51
180.0
  0
LINE
  5
3FD
330
1F
100
AcDbEntity
  8
0
  6
Continuous
 62
     7
370
    25
100
AcDbLine
 10
6800.0080627399
 20
4868.2566956022
 30
0.0
 11
6800.0080627399
 21
4844.2566956022
 31
0.0
  0
ARC
  5
3FE
330
1F
100
AcDbEntity
  8
0
  6
Continuous
 62
     7
370
    25
100
AcDbCircle
 10
6792.9644950824
 20
4848.0162431052
 30
0.0
 40
3.0
100
AcDbArc
 50
180.0
 51
0.0
  0
LINE
  5
3FF
330
1F
100
AcDbEntity
  8
0
  6
Continuous
 62
     7
370
    25
100
AcDbLine
 10
6795.9644950824
 20
4848.0162431052
 30
0.0
 11
6795.9644950824
 21
4872.0162431052
 31
0.0
  0
ARC
  5
400
330
1F
100
AcDbEntity
  8
0
  6
Continuous
 62
     7
370
    25
100
AcDbCircle
 10
6792.9644950824
 20
4872.0162431052
 30
0.0
 40
3.0
100
AcDbArc
 50
0.0
 51
180.0
  0
LINE
  5
401
330
1F
100
AcDbEntity
  8
0
  6
Continuous
 62
     7
370
    25
100
AcDbLine
 10
6789.9644950824
 20
4872.0162431052
 30
0.0
 11
6789.9644950824
 21
4848.0162431052
 31
0.0
  0
ARC
  5
402
330
1F
100
AcDbEntity
  8
0
  6
Continuous
 62
     7
370
    25
100
AcDbCircle
 10
6782.7547267871
 20
4851.2983448493
 30
0.0
 40
3.0
100
AcDbArc
 50
180.0
 51
0.0
  0
LINE
  5
403
330
1F
100
AcDbEntity
  8
0
  6
Continuous
 62
     7
370
    25
100
AcDbLine
 10
6785.7547267871
 20
4851.2983448493
 30
0.0
 11
6785.7547267871
 21
4875.2983448493
 31
0.0
  0
ARC
  5
404
330
1F
100
AcDbEntity
  8
0
  6
Continuous
 62
     7
370
    25
100
AcDbCircle
 10
6782.7547267871
 20
4875.2983448493
 30
0.0
 40
3.0
100
AcDbArc
 50
0.0
 51
180.0
  0
LINE
  5
405
330
1F
100
AcDbEntity
  8
0
  6
Continuous
 62
     7
370
    25
100
AcDbLine
 10
6779.7547267871
 20
4875.2983448493
 30
0.0
 11
6779.7547267871
 21
4851.2983448493
 31
0.0
  0
ARC
  5
406
330
1F
100
AcDbEntity
  8
0
  6
Continuous
 62
     7
370
    25
100
AcDbCircle
 10
6772.401899715
 20
4854.095511288
 30
0.0
 40
3.0
100
AcDbArc
 50
180.0
 51
0.0
  0
LINE
  5
407
330
1F
100
AcDbEntity
  8
0
  6
Continuous
 62
     7
370
    25
100
AcDbLine
 10
6775.401899715
 20
4854.095511288
 30
0.0
 11
6775.401899715
 21
4878.095511288
 31
0.0
  0
ARC
  5
408
330
1F
100
AcDbEntity
  8
0
  6
Continuous
 62
     7
370
    25
100
AcDbCircle
 10
6772.401899715
 20
4878.095511288
 30
0.0
 40
3.0
100
AcDbArc
 50
0.0
 51
180.0
  0
LINE
  5
409
330
1F
100
AcDbEntity
  8
0
  6
Continuous
 62
     7
370
    25
100
AcDbLine
 10
6769.401899715
 20
4878.095511288
 30
0.0
 11
6769.401899715
 21
4854.095511288
 31
0.0
  0
ARC
  5
40A
330
1F
100
AcDbEntity
  8
0
  6
Continuous
 62
     7
370
    25
100
AcDbCircle
 10
6761.929155727
 20
4856.406745826
 30
0.0
 40
3.0
100
AcDbArc
 50
180.0
 51
0.0
  0
LINE
  5
40B
330
1F
100
AcDbEntity
  8
0
  6
Continuous
 62
     7
370
    25
100
AcDbLine
 10
6764.929155727
 20
4856.406745826
 30
0.0
 11
6764.929155727
 21
4880.406745826
 31
0.0
  0
ARC
  5
40C
330
1F
100
AcDbEntity
  8
0
  6
Continuous
 62
     7
370
    25
100
AcDbCircle
 10
6761.929155727
 20
4880.406745826
 30
0.0
 40
3.0
100
AcDbArc
 50
0.0
 51
180.0
  0
LINE
  5
40D
330
1F
100
AcDbEntity
  8
0
  6
Continuous
 62
     7
370
    25
100
AcDbLine
 10
6758.929155727
 20
4880.406745826
 30
0.0
 11
6758.929155727
 21
4856.406745826
 31
0.0
  0
ARC
  5
40E
330
1F
100
AcDbEntity
  8
0
  6
Continuous
 62
     7
370
    25
100
AcDbCircle
 10
6751.3617404895
 20
4858.2368765492
 30
0.0
 40
3.0
100
AcDbArc
 50
180.0
 51
0.0
  0
LINE
  5
40F
330
1F
100
AcDbEntity
  8
0
  6
Continuous
 62
     7
370
    25
100
AcDbLine
 10
6754.3617404895
 20
4858.2368765492
 30
0.0
 11
6754.3617404895
 21
4882.2368765492
 31
0.0
  0
ARC
  5
410
330
1F
100
AcDbEntity
  8
0
  6
Continuous
 62
     7
370
    25
100
AcDbCircle
 10
6751.3617404895
 20
4882.2368765492
 30
0.0
 40
3.0
100
AcDbArc
 50
0.0
 51
180.0
  0
LINE
  5
411
330
1F
100
AcDbEntity
  8
0
  6
Continuous
 62
     7
370
    25
100
AcDbLine
 10
6748.3617404895
 20
4882.2368765492
 30
0.0
 11
6748.3617404895
 21
4858.2368765492
 31
0.0
  0
ARC
  5
412
330
1F
100
AcDbEntity
  8
0
  6
Continuous
 62
     7
370
    25
100
AcDbCircle
 10
6740.7238477664
 20
4859.5969391869
 30
0.0
 40
3.000000000000909
100
AcDbArc
 50
180.0
 51
0.0
  0
LINE
  5
413
330
1F
100
AcDbEntity
  8
0
  6
Continuous
 62
     7
370
    25
100
AcDbLine
 10
6743.7238477664
 20
4859.5969391869
 30
0.0
 11
6743.7238477664
 21
4883.5969391869
 31
0.0
  0
ARC
  5
414
330
1F
100
AcDbEntity
  8
0
  6
Continuous
 62
     7
370
    25
100
AcDbCircle
 10
6740.7238477664
 20
4883.5969391869
 30
0.0
 40
3.000000000000909
100
AcDbArc
 50
0.0
 51
180.0
  0
LINE
  5
415
330
1F
100
AcDbEntity
  8
0
  6
Continuous
 62
     7
370
    25
100
AcDbLine
 10
6737.7238477664
 20
4883.5969391869
 30
0.0
 11
6737.7238477664
 21
4859.5969391869
 31
0.0
  0
ARC
  5
416
330
1F
100
AcDbEntity
  8
0
  6
Continuous
 62
     7
370
    25
100
AcDbCircle
 10
6730.0375675159
 20
4860.5035019885
 30
0.0
 40
3.0
100
AcDbArc
 50
180.0
 51
0.0
  0
LINE
  5
417
330
1F
100
AcDbEntity
  8
0
  6
Continuous
 62
     7
370
    25
100
AcDbLine
 10
6733.0375675159
 20
4860.5035019885
 30
0.0
 11
6733.0375675159
 21
4884.5035019885
 31
0.0
  0
ARC
  5
418
330
1F
100
AcDbEntity
  8
0
  6
Continuous
 62
     7
370
    25
100
AcDbCircle
 10
6730.0375675159
 20
4884.5035019885
 30
0.0
 40
3.0
100
AcDbArc
 50
0.0
 51
180.0
  0
LINE
  5
419
330
1F
100
AcDbEntity
  8
0
  6
Continuous
 62
     7
370
    25
100
AcDbLine
 10
6727.0375675159
 20
4884.5035019885
 30
0.0
 11
6727.0375675159
 21
4860.5035019885
 31
0.0
  0
ARC
  5
41A
330
1F
100
AcDbEntity
  8
0
  6
Continuous
 62
     7
370
    25
100
AcDbCircle
 10
6719.3228858905
 20
4860.9777035613
 30
0.0
 40
3.0
100
AcDbArc
 50
180.0
 51
0.0
  0
LINE
  5
41B
330
1F
100
AcDbEntity
  8
0
  6
Continuous
 62
     7
370
    25
100
AcDbLine
 10
6722.3228858905
 20
4860.9777035613
 30
0.0
 11
6722.3228858905
 21
4884.9777035613
 31
0.0
  0
ARC
  5
41C
330
1F
100
AcDbEntity
  8
0
  6
Continuous
 62
     7
370
    25
100
AcDbCircle
 10
6719.3228858905
 20
4884.9777035613
 30
0.0
 40
3.0
100
AcDbArc
 50
0.0
 51
180.0
  0
LINE
  5
41D
330
1F
100
AcDbEntity
  8
0
  6
Continuous
 62
     7
370
    25
100
AcDbLine
 10
6716.3228858905
 20
4884.9777035613
 30
0.0
 11
6716.3228858905
 21
4860.9777035613
 31
0.0
  0
ARC
  5
41E
330
1F
100
AcDbEntity
  8
0
  6
Continuous
 62
     7
370
    25
100
AcDbCircle
 10
6708.599789043
 20
4861.0443577766
 30
0.0
 40
3.0
100
AcDbArc
 50
180.0
 51
0.0
  0
LINE
  5
41F
330
1F
100
AcDbEntity
  8
0
  6
Continuous
 62
     7
370
    25
100
AcDbLine
 10
6711.599789043
 20
4861.0443577766
 30
0.0
 11
6711.599789043
 21
4885.0443577766
 31
0.0
  0
ARC
  5
420
330
1F
100
AcDbEntity
  8
0
  6
Continuous
 62
     7
370
    25
100
AcDbCircle
 10
6708.599789043
 20
4885.0443577766
 30
0.0
 40
3.0
100
AcDbArc
 50
0.0
 51
180.0
  0
LINE
  5
421
330
1F
100
AcDbEntity
  8
0
  6
Continuous
 62
     7
370
    25
100
AcDbLine
 10
6705.599789043
 20
4885.0443577766
 30
0.0
 11
6705.599789043
 21
4861.0443577766
 31
0.0
  0
ARC
  5
422
330
1F
100
AcDbEntity
  8
0
  6
Continuous
 62
     7
370
    25
100
AcDbCircle
 10
6697.878796001
 20
4860.7310128684
 30
0.0
 40
3.000000000000909
100
AcDbArc
 50
180.0
 51
0.0
  0
LINE
  5
423
330
1F
100
AcDbEntity
  8
0
  6
Continuous
 62
     7
370
    25
100
AcDbLine
 10
6700.878796001
 20
4860.7310128684
 30
0.0
 11
6700.878796001
 21
4884.7310128684
 31
0.0
  0
ARC
  5
424
330
1F
100
AcDbEntity
  8
0
  6
Continuous
 62
     7
370
    25
100
AcDbCircle
 10
6697.878796001
 20
4884.7310128684
 30
0.0
 40
3.000000000000909
100
AcDbArc
 50
0.0
 51
180.0
  0
LINE
  5
425
330
1F
100
AcDbEntity
  8
0
  6
Continuous
 62
     7
370
    25
100
AcDbLine
 10
6694.878796001
 20
4884.7310128684
 30
0.0
 11
6694.878796001
 21
4860.7310128684
 31
0.0
  0
ARC
  5
426
330
1F
100
AcDbEntity
  8
0
  6
Continuous
 62
     7
370
    25
100
AcDbCircle
 10
6687.1746334033
 20
4860.0670014116
 30
0.0
 40
3.0
100
AcDbArc
 50
180.0
 51
0.0
  0
LINE
  5
427
330
1F
100
AcDbEntity
  8
0
  6
Continuous
 62
     7
370
    25
100
AcDbLine
 10
6690.1746334033
 20
4860.0670014116
 30
0.0
 11
6690.1746334033
 21
4884.0670014116
 31
0.0
  0
ARC
  5
428
330
1F
100
AcDbEntity
  8
0
  6
Continuous
 62
     7
370
    25
100
AcDbCircle
 10
6687.1746334033
 20
4884.0670014116
 30
0.0
 40
3.0
100
AcDbArc
 50
0.0
 51
180.0
  0
LINE
  5
429
330
1F
100
AcDbEntity
  8
0
  6
Continuous
 62
     7
370
    25
100
AcDbLine
 10
6684.1746334033
 20
4884.0670014116
 30
0.0
 11
6684.1746334033
 21
4860.0670014116
 31
0.0
  0
ARC
  5
42A
330
1F
100
AcDbEntity
  8
0
  6
Continuous
 62
     7
370
    25
100
AcDbCircle
 10
6676.4957164722
 20
4859.0826512314
 30
0.0
 40
3.000000000000909
100
AcDbArc
 50
180.0
 51
0.0
  0
LINE
  5
42B
330
1F
100
AcDbEntity
  8
0
  6
Continuous
 62
     7
370
    25
100
AcDbLine
 10
6679.4957164722
 20
4859.0826512314
 30
0.0
 11
6679.4957164722
 21
4883.0826512314
 31
0.0
  0
ARC
  5
42C
330
1F
100
AcDbEntity
  8
0
  6
Continuous
 62
     7
370
    25
100
AcDbCircle
 10
6676.4957164722
 20
4883.0826512314
 30
0.0
 40
3.000000000000909
100
AcDbArc
 50
0.0
 51
180.0
  0
LINE
  5
42D
330
1F
100
AcDbEntity
  8
0
  6
Continuous
 62
     7
370
    25
100
AcDbLine
 10
6673.4957164722
 20
4883.0826512314
 30
0.0
 11
6673.4957164722
 21
4859.0826512314
 31
0.0
  0
ARC
  5
42E
330
1F
100
AcDbEntity
  8
0
  6
Continuous
 62
     7
370
    25
100
AcDbCircle
 10
6665.8462528186
 20
4857.8083489218
 30
0.0
 40
3.0
100
AcDbArc
 50
180.0
 51
0.0
  0
LINE
  5
42F
330
1F
100
AcDbEntity
  8
0
  6
Continuous
 62
     7
370
    25
100
AcDbLine
 10
6668.8462528186
 20
4857.8083489218
 30
0.0
 11
6668.8462528186
 21
4881.8083489218
 31
0.0
  0
ARC
  5
430
330
1F
100
AcDbEntity
  8
0
  6
Continuous
 62
     7
370
    25
100
AcDbCircle
 10
6665.8462528186
 20
4881.8083489218
 30
0.0
 40
3.0
100
AcDbArc
 50
0.0
 51
180.0
  0
LINE
  5
431
330
1F
100
AcDbEntity
  8
0
  6
Continuous
 62
     7
370
    25
100
AcDbLine
 10
6662.8462528186
 20
4881.8083489218
 30
0.0
 11
6662.8462528186
 21
4857.8083489218
 31
0.0
  0
ARC
  5
432
330
1F
100
AcDbEntity
  8
0
  6
Continuous
 62
     7
370
    25
100
AcDbCircle
 10
6655.2304500537
 20
4856.2744808077
 30
0.0
 40
3.0
100
AcDbArc
 50
180.0
 51
0.0
  0
LINE
  5
433
330
1F
100
AcDbEntity
  8
0
  6
Continuous
 62
     7
370
    25
100
AcDbLine
 10
6658.2304500537
 20
4856.2744808077
 30
0.0
 11
6658.2304500537
 21
4880.2744808077
 31
0.0
  0
ARC
  5
434
330
1F
100
AcDbEntity
  8
0
  6
Continuous
 62
     7
370
    25
100
AcDbCircle
 10
6655.2304500537
 20
4880.2744808077
 30
0.0
 40
3.0
100
AcDbArc
 50
0.0
 51
180.0
  0
LINE
  5
435
330
1F
100
AcDbEntity
  8
0
  6
Continuous
 62
     7
370
    25
100
AcDbLine
 10
6652.2304500537
 20
4880.2744808077
 30
0.0
 11
6652.2304500537
 21
4856.2744808077
 31
0.0
  0
ARC
  5
436
330
1F
100
AcDbEntity
  8
0
  6
Continuous
 62
     7
370
    25
100
AcDbCircle
 10
6644.6525157886
 20
4854.511325021
 30
0.0
 40
3.0
100
AcDbArc
 50
180.0
 51
0.0
  0
LINE
  5
437
330
1F
100
AcDbEntity
  8
0
  6
Continuous
 62
     7
370
    25
100
AcDbLine
 10
6647.6525157886
 20
4854.511325021
 30
0.0
 11
6647.6525157886
 21
4878.511325021
 31
0.0
  0
ARC
  5
438
330
1F
100
AcDbEntity
  8
0
  6
Continuous
 62
     7
370
    25
100
AcDbCircle
 10
6644.6525157886
 20
4878.511325021
 30
0.0
 40
3.0
100
AcDbArc
 50
0.0
 51
180.0
  0
LINE
  5
439
330
1F
100
AcDbEntity
  8
0
  6
Continuous
 62
     7
370
    25
100
AcDbLine
 10
6641.6525157886
 20
4878.511325021
 30
0.0
 11
6641.6525157886
 21
4854.511325021
 31
0.0
  0
ARC
  5
43A
330
1F
100
AcDbEntity
  8
0
  6
Continuous
 62
     7
370
    25
100
AcDbCircle
 10
6634.1082424121
 20
4852.5473026326
 30
0.0
 40
3.0
100
AcDbArc
 50
180.0
 51
0.0
  0
LINE
  5
43B
330
1F
100
AcDbEntity
  8
0
  6
Continuous
 62
     7
370
    25
100
AcDbLine
 10
6637.1082424121
 20
4852.5473026326
 30
0.0
 11
6637.1082424121
 21
4876.5473026326
 31
0.0
  0
ARC
  5
43C
330
1F
100
AcDbEntity
  8
0
  6
Continuous
 62
     7
370
    25
100
AcDbCircle
 10
6634.1082424121
 20
4876.5473026326
 30
0.0
 40
3.0
100
AcDbArc
 50
0.0
 51
180.0
  0
LINE
  5
43D
330
1F
100
AcDbEntity
  8
0
  6
Continuous
 62
     7
370
    25
100
AcDbLine
 10
6631.1082424121
 20
4876.5473026326
 30
0.0
 11
6631.1082424121
 21
4852.5473026326
 31
0.0
  0
ARC
  5
43E
330
1F
100
AcDbEntity
  8
0
  6
Continuous
 62
     7
370
    25
100
AcDbCircle
 10
6623.5976299243
 20
4850.4108746342
 30
0.0
 40
3.0
100
AcDbArc
 50
180.0
 51
0.0
  0
LINE
  5
43F
330
1F
100
AcDbEntity
  8
0
  6
Continuous
 62
     7
370
    25
100
AcDbLine
 10
6626.5976299243
 20
4850.4108746342
 30
0.0
 11
6626.5976299243
 21
4874.4108746342
 31
0.0
  0
ARC
  5
440
330
1F
100
AcDbEntity
  8
0
  6
Continuous
 62
     7
370
    25
100
AcDbCircle
 10
6623.5976299243
 20
4874.4108746342
 30
0.0
 40
3.0
100
AcDbArc
 50
0.0
 51
180.0
  0
LINE
  5
441
330
1F
100
AcDbEntity
  8
0
  6
Continuous
 62
     7
370
    25
100
AcDbLine
 10
6620.5976299243
 20
4874.4108746342
 30
0.0
 11
6620.5976299243
 21
4850.4108746342
 31
0.0
  0
ARC
  5
442
330
1F
100
AcDbEntity
  8
0
  6
Continuous
 62
     7
370
    25
100
AcDbCircle
 10
6613.1185745196
 20
4848.1295169598
 30
0.0
 40
3.0
100
AcDbArc
 50
180.0
 51
0.0
  0
LINE
  5
443
330
1F
100
AcDbEntity
  8
0
  6
Continuous
 62
     7
370
    25
100
AcDbLine
 10
6616.1185745196
 20
4848.1295169598
 30
0.0
 11
6616.1185745196
 21
4872.1295169598
 31
0.0
  0
ARC
  5
444
330
1F
100
AcDbEntity
  8
0
  6
Continuous
 62
     7
370
    25
100
AcDbCircle
 10
6613.1185745196
 20
4872.1295169598
 30
0.0
 40
3.0
100
AcDbArc
 50
0.0
 51
180.0
  0
LINE
  5
445
330
1F
100
AcDbEntity
  8
0
  6
Continuous
 62
     7
370
    25
100
AcDbLine
 10
6610.1185745196
 20
4872.1295169598
 30
0.0
 11
6610.1185745196
 21
4848.1295169598
 31
0.0
  0
ARC
  5
446
330
1F
100
AcDbEntity
  8
0
  6
Continuous
 62
     7
370
    25
100
AcDbCircle
 10
6602.6647647815
 20
4845.7291186579
 30
0.0
 40
3.0
100
AcDbArc
 50
180.0
 51
0.0
  0
LINE
  5
447
330
1F
100
AcDbEntity
  8
0
  6
Continuous
 62
     7
370
    25
100
AcDbLine
 10
6605.6647647815
 20
4845.7291186579
 30
0.0
 11
6605.6647647815
 21
4869.7291186579
 31
0.0
  0
ARC
  5
448
330
1F
100
AcDbEntity
  8
0
  6
Continuous
 62
     7
370
    25
100
AcDbCircle
 10
6602.6647647815
 20
4869.7291186579
 30
0.0
 40
3.0
100
AcDbArc
 50
0.0
 51
180.0
  0
LINE
  5
449
330
1F
100
AcDbEntity
  8
0
  6
Continuous
 62
     7
370
    25
100
AcDbLine
 10
6599.6647647815
 20
4869.7291186579
 30
0.0
 11
6599.6647647815
 21
4845.7291186579
 31
0.0
  0
ARC
  5
44A
330
1F
100
AcDbEntity
  8
0
  6
Continuous
 62
     7
370
    25
100
AcDbCircle
 10
6592.2340969043
 20
4843.2359108874
 30
0.0
 40
3.0
100
AcDbArc
 50
180.0
 51
0.0
  0
LINE
  5
44B
330
1F
100
AcDbEntity
  8
0
  6
Continuous
 62
     7
370
    25
100
AcDbLine
 10
6595.2340969043
 20
4843.2359108874
 30
0.0
 11
6595.2340969043
 21
4867.2359108874
 31
0.0
  0
ARC
  5
44C
330
1F
100
AcDbEntity
  8
0
  6
Continuous
 62
     7
370
    25
100
AcDbCircle
 10
6592.2340969043
 20
4867.2359108874
 30
0.0
 40
3.0
100
AcDbArc
 50
0.0
 51
180.0
  0
LINE
  5
44D
330
1F
100
AcDbEntity
  8
0
  6
Continuous
 62
     7
370
    25
100
AcDbLine
 10
6589.2340969043
 20
4867.2359108874
 30
0.0
 11
6589.2340969043
 21
4843.2359108874
 31
0.0
  0
ARC
  5
44E
330
1F
100
AcDbEntity
  8
0
  6
Continuous
 62
     7
370
    25
100
AcDbCircle
 10
6581.8181556659
 20
4840.6741314885
 30
0.0
 40
3.0
100
AcDbArc
 50
180.0
 51
0.0
  0
LINE
  5
44F
330
1F
100
AcDbEntity
  8
0
  6
Continuous
 62
     7
370
    25
100
AcDbLine
 10
6584.8181556659
 20
4840.6741314885
 30
0.0
 11
6584.8181556659
 21
4864.6741314885
 31
0.0
  0
ARC
  5
450
330
1F
100
AcDbEntity
  8
0
  6
Continuous
 62
     7
370
    25
100
AcDbCircle
 10
6581.8181556659
 20
4864.6741314885
 30
0.0
 40
3.0
100
AcDbArc
 50
0.0
 51
180.0
  0
LINE
  5
451
330
1F
100
AcDbEntity
  8
0
  6
Continuous
 62
     7
370
    25
100
AcDbLine
 10
6578.8181556659
 20
4864.6741314885
 30
0.0
 11
6578.8181556659
 21
4840.6741314885
 31
0.0
  0
ARC
  5
452
330
1F
100
AcDbEntity
  8
0
  6
Continuous
 62
     7
370
    25
100
AcDbCircle
 10
6571.4148372607
 20
4838.0691559527
 30
0.0
 40
3.0
100
AcDbArc
 50
180.0
 51
0.0
  0
LINE
  5
453
330
1F
100
AcDbEntity
  8
0
  6
Continuous
 62
     7
370
    25
100
AcDbLine
 10
6574.4148372607
 20
4838.0691559527
 30
0.0
 11
6574.4148372607
 21
4862.0691559527
 31
0.0
  0
ARC
  5
454
330
1F
100
AcDbEntity
  8
0
  6
Continuous
 62
     7
370
    25
100
AcDbCircle
 10
6571.4148372607
 20
4862.0691559527
 30
0.0
 40
3.0
100
AcDbArc
 50
0.0
 51
180.0
  0
LINE
  5
455
330
1F
100
AcDbEntity
  8
0
  6
Continuous
 62
     7
370
    25
100
AcDbLine
 10
6568.4148372607
 20
4862.0691559527
 30
0.0
 11
6568.4148372607
 21
4838.0691559527
 31
0.0
  0
ARC
  5
456
330
1F
100
AcDbEntity
  8
0
  6
Continuous
 62
     7
370
    25
100
AcDbCircle
 10
6561.0157264666
 20
4835.4445417189
 30
0.0
 40
3.0
100
AcDbArc
 50
180.0
 51
0.0
  0
LINE
  5
457
330
1F
100
AcDbEntity
  8
0
  6
Continuous
 62
     7
370
    25
100
AcDbLine
 10
6564.0157264666
 20
4835.4445417189
 30
0.0
 11
6564.0157264666
 21
4859.4445417189
 31
0.0
  0
ARC
  5
458
330
1F
100
AcDbEntity
  8
0
  6
Continuous
 62
     7
370
    25
100
AcDbCircle
 10
6561.0157264666
 20
4859.4445417189
 30
0.0
 40
3.0
100
AcDbArc
 50
0.0
 51
180.0
  0
LINE
  5
459
330
1F
100
AcDbEntity
  8
0
  6
Continuous
 62
     7
370
    25
100
AcDbLine
 10
6558.0157264666
 20
4859.4445417189
 30
0.0
 11
6558.0157264666
 21
4835.4445417189
 31
0.0
  0
ARC
  5
45A
330
1F
100
AcDbEntity
  8
0
  6
Continuous
 62
     7
370
    25
100
AcDbCircle
 10
6550.614511867
 20
4832.8242449463
 30
0.0
 40
3.0
100
AcDbArc
 50
180.0
 51
0.0
  0
LINE
  5
45B
330
1F
100
AcDbEntity
  8
0
  6
Continuous
 62
     7
370
    25
100
AcDbLine
 10
6553.614511867
 20
4832.8242449463
 30
0.0
 11
6553.614511867
 21
4856.8242449463
 31
0.0
  0
ARC
  5
45C
330
1F
100
AcDbEntity
  8
0
  6
Continuous
 62
     7
370
    25
100
AcDbCircle
 10
6550.614511867
 20
4856.8242449463
 30
0.0
 40
3.0
100
AcDbArc
 50
0.0
 51
180.0
  0
LINE
  5
45D
330
1F
100
AcDbEntity
  8
0
  6
Continuous
 62
     7
370
    25
100
AcDbLine
 10
6547.614511867
 20
4856.8242449463
 30
0.0
 11
6547.614511867
 21
4832.8242449463
 31
0.0
  0
ARC
  5
45E
330
1F
100
AcDbEntity
  8
0
  6
Continuous
 62
     7
370
    25
100
AcDbCircle
 10
6540.2069858508
 20
4830.2327836246
 30
0.0
 40
3.000000000000909
100
AcDbArc
 50
180.0
 51
0.0
  0
LINE
  5
45F
330
1F
100
AcDbEntity
  8
0
  6
Continuous
 62
     7
370
    25
100
AcDbLine
 10
6543.2069858508
 20
4830.2327836246
 30
0.0
 11
6543.2069858508
 21
4854.2327836246
 31
0.0
  0
ARC
  5
460
330
1F
100
AcDbEntity
  8
0
  6
Continuous
 62
     7
370
    25
100
AcDbCircle
 10
6540.2069858508
 20
4854.2327836246
 30
0.0
 40
3.000000000000909
100
AcDbArc
 50
0.0
 51
180.0
  0
LINE
  5
461
330
1F
100
AcDbEntity
  8
0
  6
Continuous
 62
     7
370
    25
100
AcDbLine
 10
6537.2069858508
 20
4854.2327836246
 30
0.0
 11
6537.2069858508
 21
4830.2327836246
 31
0.0
  0
ARC
  5
462
330
1F
100
AcDbEntity
  8
0
  6
Continuous
 62
     7
370
    25
100
AcDbCircle
 10
6529.7868370013
 20
4827.6943129722
 30
0.0
 40
3.000000000000909
100
AcDbArc
 50
180.0
 51
0.0
  0
LINE
  5
463
330
1F
100
AcDbEntity
  8
0
  6
Continuous
 62
     7
370
    25
100
AcDbLine
 10
6532.7868370013
 20
4827.6943129722
 30
0.0
 11
6532.7868370013
 21
4851.6943129722
 31
0.0
  0
ARC
  5
464
330
1F
100
AcDbEntity
  8
0
  6
Continuous
 62
     7
370
    25
100
AcDbCircle
 10
6529.7868370013
 20
4851.6943129722
 30
0.0
 40
3.000000000000909
100
AcDbArc
 50
0.0
 51
180.0
  0
LINE
  5
465
330
1F
100
AcDbEntity
  8
0
  6
Continuous
 62
     7
370
    25
100
AcDbLine
 10
6526.7868370013
 20
4851.6943129722
 30
0.0
 11
6526.7868370013
 21
4827.6943129722
 31
0.0
  0
ARC
  5
466
330
1F
100
AcDbEntity
  8
0
  6
Continuous
 62
     7
370
    25
100
AcDbCircle
 10
6519.3477539019
 20
4825.2333110621
 30
0.0
 40
3.0
100
AcDbArc
 50
180.0
 51
0.0
  0
LINE
  5
467
330
1F
100
AcDbEntity
  8
0
  6
Continuous
 62
     7
370
    25
100
AcDbLine
 10
6522.3477539019
 20
4825.2333110621
 30
0.0
 11
6522.3477539019
 21
4849.2333110621
 31
0.0
  0
ARC
  5
468
330
1F
100
AcDbEntity
  8
0
  6
Continuous
 62
     7
370
    25
100
AcDbCircle
 10
6519.3477539019
 20
4849.2333110621
 30
0.0
 40
3.0
100
AcDbArc
 50
0.0
 51
180.0
  0
LINE
  5
469
330
1F
100
AcDbEntity
  8
0
  6
Continuous
 62
     7
370
    25
100
AcDbLine
 10
6516.3477539019
 20
4849.2333110621
 30
0.0
 11
6516.3477539019
 21
4825.2333110621
 31
0.0
  0
ARC
  5
46A
330
1F
100
AcDbEntity
  8
0
  6
Continuous
 62
     7
370
    25
100
AcDbCircle
 10
6508.8855289416
 20
4822.8751975765
 30
0.0
 40
3.0
100
AcDbArc
 50
180.0
 51
0.0
  0
LINE
  5
46B
330
1F
100
AcDbEntity
  8
0
  6
Continuous
 62
     7
370
    25
100
AcDbLine
 10
6511.8855289416
 20
4822.8751975765
 30
0.0
 11
6511.8855289416
 21
4846.8751975765
 31
0.0
  0
ARC
  5
46C
330
1F
100
AcDbEntity
  8
0
  6
Continuous
 62
     7
370
    25
100
AcDbCircle
 10
6508.8855289416
 20
4846.8751975765
 30
0.0
 40
3.0
100
AcDbArc
 50
0.0
 51
180.0
  0
LINE
  5
46D
330
1F
100
AcDbEntity
  8
0
  6
Continuous
 62
     7
370
    25
100
AcDbLine
 10
6505.8855289416
 20
4846.8751975765
 30
0.0
 11
6505.8855289416
 21
4822.8751975765
 31
0.0
  0
ARC
  5
46E
330
1F
100
AcDbEntity
  8
0
  6
Continuous
 62
     7
370
    25
100
AcDbCircle
 10
6498.3938507037
 20
4820.6454807202
 30
0.0
 40
3.0
100
AcDbArc
 50
180.0
 51
0.0
  0
LINE
  5
46F
330
1F
100
AcDbEntity
  8
0
  6
Continuous
 62
     7
370
    25
100
AcDbLine
 10
6501.3938507037
 20
4820.6454807202
 30
0.0
 11
6501.3938507037
 21
4844.6454807202
 31
0.0
  0
ARC
  5
470
330
1F
100
AcDbEntity
  8
0
  6
Continuous
 62
     7
370
    25
100
AcDbCircle
 10
6498.3938507037
 20
4844.6454807202
 30
0.0
 40
3.0
100
AcDbArc
 50
0.0
 51
180.0
  0
LINE
  5
471
330
1F
100
AcDbEntity
  8
0
  6
Continuous
 62
     7
370
    25
100
AcDbLine
 10
6495.3938507037
 20
4844.6454807202
 30
0.0
 11
6495.3938507037
 21
4820.6454807202
 31
0.0
  0
ARC
  5
472
330
1F
100
AcDbEntity
  8
0
  6
Continuous
 62
     7
370
    25
100
AcDbCircle
 10
6487.8716672854
 20
4818.5714292436
 30
0.0
 40
3.000000000000909
100
AcDbArc
 50
180.0
 51
0.0
  0
LINE
  5
473
330
1F
100
AcDbEntity
  8
0
  6
Continuous
 62
     7
370
    25
100
AcDbLine
 10
6490.8716672854
 20
4818.5714292436
 30
0.0
 11
6490.8716672854
 21
4842.5714292436
 31
0.0
  0
ARC
  5
474
330
1F
100
AcDbEntity
  8
0
  6
Continuous
 62
     7
370
    25
100
AcDbCircle
 10
6487.8716672854
 20
4842.5714292436
 30
0.0
 40
3.000000000000909
100
AcDbArc
 50
0.0
 51
180.0
  0
LINE
  5
475
330
1F
100
AcDbEntity
  8
0
  6
Continuous
 62
     7
370
    25
100
AcDbLine
 10
6484.8716672854
 20
4842.5714292436
 30
0.0
 11
6484.8716672854
 21
4818.5714292436
 31
0.0
  0
ARC
  5
476
330
1F
100
AcDbEntity
  8
0
  6
Continuous
 62
     7
370
    25
100
AcDbCircle
 10
6477.3137191729
 20
4816.680127272
 30
0.0
 40
3.0
100
AcDbArc
 50
180.0
 51
0.0
  0
LINE
  5
477
330
1F
100
AcDbEntity
  8
0
  6
Continuous
 62
     7
370
    25
100
AcDbLine
 10
6480.3137191729
 20
4816.680127272
 30
0.0
 11
6480.3137191729
 21
4840.680127272
 31
0.0
  0
ARC
  5
478
330
1F
100
AcDbEntity
  8
0
  6
Continuous
 62
     7
370
    25
100
AcDbCircle
 10
6477.3137191729
 20
4840.680127272
 30
0.0
 40
3.0
100
AcDbArc
 50
0.0
 51
180.0
  0
LINE
  5
479
330
1F
100
AcDbEntity
  8
0
  6
Continuous
 62
     7
370
    25
100
AcDbLine
 10
6474.3137191729
 20
4840.680127272
 30
0.0
 11
6474.3137191729
 21
4816.680127272
 31
0.0
  0
ARC
  5
47A
330
1F
100
AcDbEntity
  8
0
  6
Continuous
 62
     7
370
    25
100
AcDbCircle
 10
6466.721058269
 20
4815.0005155603
 30
0.0
 40
3.0
100
AcDbArc
 50
180.0
 51
0.0
  0
LINE
  5
47B
330
1F
100
AcDbEntity
  8
0
  6
Continuous
 62
     7
370
    25
100
AcDbLine
 10
6469.721058269
 20
4815.0005155603
 30
0.0
 11
6469.721058269
 21
4839.0005155603
 31
0.0
  0
ARC
  5
47C
330
1F
100
AcDbEntity
  8
0
  6
Continuous
 62
     7
370
    25
100
AcDbCircle
 10
6466.721058269
 20
4839.0005155603
 30
0.0
 40
3.0
100
AcDbArc
 50
0.0
 51
180.0
  0
LINE
  5
47D
330
1F
100
AcDbEntity
  8
0
  6
Continuous
 62
     7
370
    25
100
AcDbLine
 10
6463.721058269
 20
4839.0005155603
 30
0.0
 11
6463.721058269
 21
4815.0005155603
 31
0.0
  0
ARC
  5
47E
330
1F
100
AcDbEntity
  8
0
  6
Continuous
 62
     7
370
    25
100
AcDbCircle
 10
6456.0947364764
 20
4813.5619840778
 30
0.0
 40
3.0
100
AcDbArc
 50
180.0
 51
0.0
  0
LINE
  5
47F
330
1F
100
AcDbEntity
  8
0
  6
Continuous
 62
     7
370
    25
100
AcDbLine
 10
6459.0947364764
 20
4813.5619840778
 30
0.0
 11
6459.0947364764
 21
4837.5619840778
 31
0.0
  0
ARC
  5
480
330
1F
100
AcDbEntity
  8
0
  6
Continuous
 62
     7
370
    25
100
AcDbCircle
 10
6456.0947364764
 20
4837.5619840778
 30
0.0
 40
3.0
100
AcDbArc
 50
0.0
 51
180.0
  0
LINE
  5
481
330
1F
100
AcDbEntity
  8
0
  6
Continuous
 62
     7
370
    25
100
AcDbLine
 10
6453.0947364764
 20
4837.5619840778
 30
0.0
 11
6453.0947364764
 21
4813.5619840778
 31
0.0
  0
ARC
  5
482
330
1F
100
AcDbEntity
  8
0
  6
Continuous
 62
     7
370
    25
100
AcDbCircle
 10
6445.4326499896
 20
4812.3940465355
 30
0.0
 40
3.0
100
AcDbArc
 50
180.0
 51
0.0
  0
LINE
  5
483
330
1F
100
AcDbEntity
  8
0
  6
Continuous
 62
     7
370
    25
100
AcDbLine
 10
6448.4326499896
 20
4812.3940465355
 30
0.0
 11
6448.4326499896
 21
4836.3940465355
 31
0.0
  0
ARC
  5
484
330
1F
100
AcDbEntity
  8
0
  6
Continuous
 62
     7
370
    25
100
AcDbCircle
 10
6445.4326499896
 20
4836.3940465355
 30
0.0
 40
3.0
100
AcDbArc
 50
0.0
 51
180.0
  0
LINE
  5
485
330
1F
100
AcDbEntity
  8
0
  6
Continuous
 62
     7
370
    25
100
AcDbLine
 10
6442.4326499896
 20
4836.3940465355
 30
0.0
 11
6442.4326499896
 21
4812.3940465355
 31
0.0
  0
ARC
  5
486
330
1F
100
AcDbEntity
  8
0
  6
Continuous
 62
     7
370
    25
100
AcDbCircle
 10
6434.7432140307
 20
4811.5276886739
 30
0.0
 40
3.0
100
AcDbArc
 50
180.0
 51
0.0
  0
LINE
  5
487
330
1F
100
AcDbEntity
  8
0
  6
Continuous
 62
     7
370
    25
100
AcDbLine
 10
6437.7432140307
 20
4811.5276886739
 30
0.0
 11
6437.7432140307
 21
4835.5276886739
 31
0.0
  0
ARC
  5
488
330
1F
100
AcDbEntity
  8
0
  6
Continuous
 62
     7
370
    25
100
AcDbCircle
 10
6434.7432140307
 20
4835.5276886739
 30
0.0
 40
3.0
100
AcDbArc
 50
0.0
 51
180.0
  0
LINE
  5
489
330
1F
100
AcDbEntity
  8
0
  6
Continuous
 62
     7
370
    25
100
AcDbLine
 10
6431.7432140307
 20
4835.5276886739
 30
0.0
 11
6431.7432140307
 21
4811.5276886739
 31
0.0
  0
ARC
  5
48A
330
1F
100
AcDbEntity
  8
0
  6
Continuous
 62
     7
370
    25
100
AcDbCircle
 10
6424.0306362109
 20
4810.9932268337
 30
0.0
 40
3.0
100
AcDbArc
 50
180.0
 51
0.0
  0
LINE
  5
48B
330
1F
100
AcDbEntity
  8
0
  6
Continuous
 62
     7
370
    25
100
AcDbLine
 10
6427.0306362109
 20
4810.9932268337
 30
0.0
 11
6427.0306362109
 21
4834.9932268337
 31
0.0
  0
ARC
  5
48C
330
1F
100
AcDbEntity
  8
0
  6
Continuous
 62
     7
370
    25
100
AcDbCircle
 10
6424.0306362109
 20
4834.9932268337
 30
0.0
 40
3.0
100
AcDbArc
 50
0.0
 51
180.0
  0
LINE
  5
48D
330
1F
100
AcDbEntity
  8
0
  6
Continuous
 62
     7
370
    25
100
AcDbLine
 10
6421.0306362109
 20
4834.9932268337
 30
0.0
 11
6421.0306362109
 21
4810.9932268337
 31
0.0
  0
ARC
  5
48E
330
1F
100
AcDbEntity
  8
0
  6
Continuous
 62
     7
370
    25
100
AcDbCircle
 10
6413.3075393633
 20
4810.8208040407
 30
0.0
 40
3.0
100
AcDbArc
 50
180.0
 51
0.0
  0
LINE
  5
48F
330
1F
100
AcDbEntity
  8
0
  6
Continuous
 62
     7
370
    25
100
AcDbLine
 10
6416.3075393633
 20
4810.8208040407
 30
0.0
 11
6416.3075393633
 21
4834.8208040407
 31
0.0
  0
ARC
  5
490
330
1F
100
AcDbEntity
  8
0
  6
Continuous
 62
     7
370
    25
100
AcDbCircle
 10
6413.3075393633
 20
4834.8208040407
 30
0.0
 40
3.0
100
AcDbArc
 50
0.0
 51
180.0
  0
LINE
  5
491
330
1F
100
AcDbEntity
  8
0
  6
Continuous
 62
     7
370
    25
100
AcDbLine
 10
6410.3075393633
 20
4834.8208040407
 30
0.0
 11
6410.3075393633
 21
4810.8208040407
 31
0.0
  0
ARC
  5
492
330
1F
100
AcDbEntity
  8
0
  6
Continuous
 62
     7
370
    25
100
AcDbCircle
 10
6402.5854944186
 20
4811.0370521773
 30
0.0
 40
3.0
100
AcDbArc
 50
180.0
 51
0.0
  0
LINE
  5
493
330
1F
100
AcDbEntity
  8
0
  6
Continuous
 62
     7
370
    25
100
AcDbLine
 10
6405.5854944186
 20
4811.0370521773
 30
0.0
 11
6405.5854944186
 21
4835.0370521773
 31
0.0
  0
ARC
  5
494
330
1F
100
AcDbEntity
  8
0
  6
Continuous
 62
     7
370
    25
100
AcDbCircle
 10
6402.5854944186
 20
4835.0370521773
 30
0.0
 40
3.0
100
AcDbArc
 50
0.0
 51
180.0
  0
LINE
  5
495
330
1F
100
AcDbEntity
  8
0
  6
Continuous
 62
     7
370
    25
100
AcDbLine
 10
6399.5854944186
 20
4835.0370521773
 30
0.0
 11
6399.5854944186
 21
4811.0370521773
 31
0.0
  0
ARC
  5
496
330
1F
100
AcDbEntity
  8
0
  6
Continuous
 62
     7
370
    25
100
AcDbCircle
 10
6391.8781761126
 20
4811.6353052234
 30
0.0
 40
3.0
100
AcDbArc
 50
180.0
 51
0.0
  0
LINE
  5
497
330
1F
100
AcDbEntity
  8
0
  6
Continuous
 62
     7
370
    25
100
AcDbLine
 10
6394.8781761126
 20
4811.6353052234
 30
0.0
 11
6394.8781761126
 21
4835.6353052234
 31
0.0
  0
ARC
  5
498
330
1F
100
AcDbEntity
  8
0
  6
Continuous
 62
     7
370
    25
100
AcDbCircle
 10
6391.8781761126
 20
4835.6353052234
 30
0.0
 40
3.0
100
AcDbArc
 50
0.0
 51
180.0
  0
LINE
  5
499
330
1F
100
AcDbEntity
  8
0
  6
Continuous
 62
     7
370
    25
100
AcDbLine
 10
6388.8781761126
 20
4835.6353052234
 30
0.0
 11
6388.8781761126
 21
4811.6353052234
 31
0.0
  0
ARC
  5
49A
330
1F
100
AcDbEntity
  8
0
  6
Continuous
 62
     7
370
    25
100
AcDbCircle
 10
6381.1950515704
 20
4812.5826052982
 30
0.0
 40
3.0
100
AcDbArc
 50
180.0
 51
0.0
  0
LINE
  5
49B
330
1F
100
AcDbEntity
  8
0
  6
Continuous
 62
     7
370
    25
100
AcDbLine
 10
6384.1950515704
 20
4812.5826052982
 30
0.0
 11
6384.1950515704
 21
4836.5826052982
 31
0.0
  0
ARC
  5
49C
330
1F
100
AcDbEntity
  8
0
  6
Continuous
 62
     7
370
    25
100
AcDbCircle
 10
6381.1950515704
 20
4836.5826052982
 30
0.0
 40
3.0
100
AcDbArc
 50
0.0
 51
180.0
  0
LINE
  5
49D
330
1F
100
AcDbEntity
  8
0
  6
Continuous
 62
     7
370
    25
100
AcDbLine
 10
6378.1950515704
 20
4836.5826052982
 30
0.0
 11
6378.1950515704
 21
4812.5826052982
 31
0.0
  0
ARC
  5
49E
330
1F
100
AcDbEntity
  8
0
  6
Continuous
 62
     7
370
    25
100
AcDbCircle
 10
6370.5434841112
 20
4813.8447686412
 30
0.0
 40
3.0
100
AcDbArc
 50
180.0
 51
0.0
  0
LINE
  5
49F
330
1F
100
AcDbEntity
  8
0
  6
Continuous
 62
     7
370
    25
100
AcDbLine
 10
6373.5434841112
 20
4813.8447686412
 30
0.0
 11
6373.5434841112
 21
4837.8447686412
 31
0.0
  0
ARC
  5
4A0
330
1F
100
AcDbEntity
  8
0
  6
Continuous
 62
     7
370
    25
100
AcDbCircle
 10
6370.5434841112
 20
4837.8447686412
 30
0.0
 40
3.0
100
AcDbArc
 50
0.0
 51
180.0
  0
LINE
  5
4A1
330
1F
100
AcDbEntity
  8
0
  6
Continuous
 62
     7
370
    25
100
AcDbLine
 10
6367.5434841112
 20
4837.8447686412
 30
0.0
 11
6367.5434841112
 21
4813.8447686412
 31
0.0
  0
ARC
  5
4A2
330
1F
100
AcDbEntity
  8
0
  6
Continuous
 62
     7
370
    25
100
AcDbCircle
 10
6359.9297851519
 20
4815.3874538495
 30
0.0
 40
3.0
100
AcDbArc
 50
180.0
 51
0.0
  0
LINE
  5
4A3
330
1F
100
AcDbEntity
  8
0
  6
Continuous
 62
     7
370
    25
100
AcDbLine
 10
6362.9297851519
 20
4815.3874538495
 30
0.0
 11
6362.9297851519
 21
4839.3874538495
 31
0.0
  0
ARC
  5
4A4
330
1F
100
AcDbEntity
  8
0
  6
Continuous
 62
     7
370
    25
100
AcDbCircle
 10
6359.9297851519
 20
4839.3874538495
 30
0.0
 40
3.0
100
AcDbArc
 50
0.0
 51
180.0
  0
LINE
  5
4A5
330
1F
100
AcDbEntity
  8
0
  6
Continuous
 62
     7
370
    25
100
AcDbLine
 10
6356.9297851519
 20
4839.3874538495
 30
0.0
 11
6356.9297851519
 21
4815.3874538495
 31
0.0
  0
ARC
  5
4A6
330
1F
100
AcDbEntity
  8
0
  6
Continuous
 62
     7
370
    25
100
AcDbCircle
 10
6349.3560584978
 20
4817.1770622067
 30
0.0
 40
3.0
100
AcDbArc
 50
180.0
 51
0.0
  0
LINE
  5
4A7
330
1F
100
AcDbEntity
  8
0
  6
Continuous
 62
     7
370
    25
100
AcDbLine
 10
6352.3560584978
 20
4817.1770622067
 30
0.0
 11
6352.3560584978
 21
4841.1770622067
 31
0.0
  0
ARC
  5
4A8
330
1F
100
AcDbEntity
  8
0
  6
Continuous
 62
     7
370
    25
100
AcDbCircle
 10
6349.3560584978
 20
4841.1770622067
 30
0.0
 40
3.0
100
AcDbArc
 50
0.0
 51
180.0
  0
LINE
  5
4A9
330
1F
100
AcDbEntity
  8
0
  6
Continuous
 62
     7
370
    25
100
AcDbLine
 10
6346.3560584978
 20
4841.1770622067
 30
0.0
 11
6346.3560584978
 21
4817.1770622067
 31
0.0
  0
ARC
  5
4AA
330
1F
100
AcDbEntity
  8
0
  6
Continuous
 62
     7
370
    25
100
AcDbCircle
 10
6338.8202003435
 20
4819.1813279725
 30
0.0
 40
3.0
100
AcDbArc
 50
180.0
 51
0.0
  0
LINE
  5
4AB
330
1F
100
AcDbEntity
  8
0
  6
Continuous
 62
     7
370
    25
100
AcDbLine
 10
6341.8202003435
 20
4819.1813279725
 30
0.0
 11
6341.8202003435
 21
4843.1813279725
 31
0.0
  0
ARC
  5
4AC
330
1F
100
AcDbEntity
  8
0
  6
Continuous
 62
     7
370
    25
100
AcDbCircle
 10
6338.8202003435
 20
4843.1813279725
 30
0.0
 40
3.0
100
AcDbArc
 50
0.0
 51
180.0
  0
LINE
  5
4AD
330
1F
100
AcDbEntity
  8
0
  6
Continuous
 62
     7
370
    25
100
AcDbLine
 10
6335.8202003435
 20
4843.1813279725
 30
0.0
 11
6335.8202003435
 21
4819.1813279725
 31
0.0
  0
ARC
  5
4AE
330
1F
100
AcDbEntity
  8
0
  6
Continuous
 62
     7
370
    25
100
AcDbCircle
 10
6328.3201068834
 20
4821.3688129176
 30
0.0
 40
3.0
100
AcDbArc
 50
180.0
 51
0.0
  0
LINE
  5
4AF
330
1F
100
AcDbEntity
  8
0
  6
Continuous
 62
     7
370
    25
100
AcDbLine
 10
6331.3201068834
 20
4821.3688129176
 30
0.0
 11
6331.3201068834
 21
4845.3688129176
 31
0.0
  0
ARC
  5
4B0
330
1F
100
AcDbEntity
  8
0
  6
Continuous
 62
     7
370
    25
100
AcDbCircle
 10
6328.3201068834
 20
4845.3688129176
 30
0.0
 40
3.0
100
AcDbArc
 50
0.0
 51
180.0
  0
LINE
  5
4B1
330
1F
100
AcDbEntity
  8
0
  6
Continuous
 62
     7
370
    25
100
AcDbLine
 10
6325.3201068834
 20
4845.3688129176
 30
0.0
 11
6325.3201068834
 21
4821.3688129176
 31
0.0
  0
ARC
  5
4B2
330
1F
100
AcDbEntity
  8
0
  6
Continuous
 62
     7
370
    25
100
AcDbCircle
 10
6317.853674312
 20
4823.7088401817
 30
0.0
 40
3.0
100
AcDbArc
 50
180.0
 51
0.0
  0
LINE
  5
4B3
330
1F
100
AcDbEntity
  8
0
  6
Continuous
 62
     7
370
    25
100
AcDbLine
 10
6320.853674312
 20
4823.7088401817
 30
0.0
 11
6320.853674312
 21
4847.7088401817
 31
0.0
  0
ARC
  5
4B4
330
1F
100
AcDbEntity
  8
0
  6
Continuous
 62
     7
370
    25
100
AcDbCircle
 10
6317.853674312
 20
4847.7088401817
 30
0.0
 40
3.0
100
AcDbArc
 50
0.0
 51
180.0
  0
LINE
  5
4B5
330
1F
100
AcDbEntity
  8
0
  6
Continuous
 62
     7
370
    25
100
AcDbLine
 10
6314.853674312
 20
4847.7088401817
 30
0.0
 11
6314.853674312
 21
4823.7088401817
 31
0.0
  0
ARC
  5
4B6
330
1F
100
AcDbEntity
  8
0
  6
Continuous
 62
     7
370
    25
100
AcDbCircle
 10
6307.4145912127
 20
4826.1724446303
 30
0.0
 40
3.0
100
AcDbArc
 50
180.0
 51
0.0
  0
LINE
  5
4B7
330
1F
100
AcDbEntity
  8
0
  6
Continuous
 62
     7
370
    25
100
AcDbLine
 10
6310.4145912127
 20
4826.1724446303
 30
0.0
 11
6310.4145912127
 21
4850.1724446303
 31
0.0
  0
ARC
  5
4B8
330
1F
100
AcDbEntity
  8
0
  6
Continuous
 62
     7
370
    25
100
AcDbCircle
 10
6307.4145912127
 20
4850.1724446303
 30
0.0
 40
3.0
100
AcDbArc
 50
0.0
 51
180.0
  0
LINE
  5
4B9
330
1F
100
AcDbEntity
  8
0
  6
Continuous
 62
     7
370
    25
100
AcDbLine
 10
6304.4145912127
 20
4850.1724446303
 30
0.0
 11
6304.4145912127
 21
4826.1724446303
 31
0.0
  0
ARC
  5
4BA
330
1F
100
AcDbEntity
  8
0
  6
Continuous
 62
     7
370
    25
100
AcDbCircle
 10
6296.9986499743
 20
4828.7309077594
 30
0.0
 40
3.0
100
AcDbArc
 50
180.0
 51
0.0
  0
LINE
  5
4BB
330
1F
100
AcDbEntity
  8
0
  6
Continuous
 62
     7
370
    25
100
AcDbLine
 10
6299.9986499743
 20
4828.7309077594
 30
0.0
 11
6299.9986499743
 21
4852.7309077594
 31
0.0
  0
ARC
  5
4BC
330
1F
100
AcDbEntity
  8
0
  6
Continuous
 62
     7
370
    25
100
AcDbCircle
 10
6296.9986499743
 20
4852.7309077594
 30
0.0
 40
3.0
100
AcDbArc
 50
0.0
 51
180.0
  0
LINE
  5
4BD
330
1F
100
AcDbEntity
  8
0
  6
Continuous
 62
     7
370
    25
100
AcDbLine
 10
6293.9986499743
 20
4852.7309077594
 30
0.0
 11
6293.9986499743
 21
4828.7309077594
 31
0.0
  0
ARC
  5
4BE
330
1F
100
AcDbEntity
  8
0
  6
Continuous
 62
     7
370
    25
100
AcDbCircle
 10
6286.5995391802
 20
4831.3565943848
 30
0.0
 40
3.0
100
AcDbArc
 50
180.0
 51
0.0
  0
LINE
  5
4BF
330
1F
100
AcDbEntity
  8
0
  6
Continuous
 62
     7
370
    25
100
AcDbLine
 10
6289.5995391802
 20
4831.3565943848
 30
0.0
 11
6289.5995391802
 21
4855.3565943848
 31
0.0
  0
ARC
  5
4C0
330
1F
100
AcDbEntity
  8
0
  6
Continuous
 62
     7
370
    25
100
AcDbCircle
 10
6286.5995391802
 20
4855.3565943848
 30
0.0
 40
3.0
100
AcDbArc
 50
0.0
 51
180.0
  0
LINE
  5
4C1
330
1F
100
AcDbEntity
  8
0
  6
Continuous
 62
     7
370
    25
100
AcDbLine
 10
6283.5995391802
 20
4855.3565943848
 30
0.0
 11
6283.5995391802
 21
4831.3565943848
 31
0.0
  0
ARC
  5
4C2
330
1F
100
AcDbEntity
  8
0
  6
Continuous
 62
     7
370
    25
100
AcDbCircle
 10
6276.2109474138
 20
4834.0223208573
 30
0.0
 40
3.0
100
AcDbArc
 50
180.0
 51
0.0
  0
LINE
  5
4C3
330
1F
100
AcDbEntity
  8
0
  6
Continuous
 62
     7
370
    25
100
AcDbLine
 10
6279.2109474138
 20
4834.0223208573
 30
0.0
 11
6279.2109474138
 21
4858.0223208573
 31
0.0
  0
ARC
  5
4C4
330
1F
100
AcDbEntity
  8
0
  6
Continuous
 62
     7
370
    25
100
AcDbCircle
 10
6276.2109474138
 20
4858.0223208573
 30
0.0
 40
3.0
100
AcDbArc
 50
0.0
 51
180.0
  0
LINE
  5
4C5
330
1F
100
AcDbEntity
  8
0
  6
Continuous
 62
     7
370
    25
100
AcDbLine
 10
6273.2109474138
 20
4858.0223208573
 30
0.0
 11
6273.2109474138
 21
4834.0223208573
 31
0.0
  0
ARC
  5
4C6
330
1F
100
AcDbEntity
  8
0
  6
Continuous
 62
     7
370
    25
100
AcDbCircle
 10
6265.8265632586
 20
4836.7011805474
 30
0.0
 40
3.0
100
AcDbArc
 50
180.0
 51
0.0
  0
LINE
  5
4C7
330
1F
100
AcDbEntity
  8
0
  6
Continuous
 62
     7
370
    25
100
AcDbLine
 10
6268.8265632586
 20
4836.7011805474
 30
0.0
 11
6268.8265632586
 21
4860.7011805474
 31
0.0
  0
ARC
  5
4C8
330
1F
100
AcDbEntity
  8
0
  6
Continuous
 62
     7
370
    25
100
AcDbCircle
 10
6265.8265632586
 20
4860.7011805474
 30
0.0
 40
3.0
100
AcDbArc
 50
0.0
 51
180.0
  0
LINE
  5
4C9
330
1F
100
AcDbEntity
  8
0
  6
Continuous
 62
     7
370
    25
100
AcDbLine
 10
6262.8265632586
 20
4860.7011805474
 30
0.0
 11
6262.8265632586
 21
4836.7011805474
 31
0.0
  0
ARC
  5
4CA
330
1F
100
AcDbEntity
  8
0
  6
Continuous
 62
     7
370
    25
100
AcDbCircle
 10
6255.4379714922
 20
4839.3669070199
 30
0.0
 40
3.0
100
AcDbArc
 50
180.0
 51
0.0
  0
LINE
  5
4CB
330
1F
100
AcDbEntity
  8
0
  6
Continuous
 62
     7
370
    25
100
AcDbLine
 10
6258.4379714922
 20
4839.3669070199
 30
0.0
 11
6258.4379714922
 21
4863.3669070199
 31
0.0
  0
ARC
  5
4CC
330
1F
100
AcDbEntity
  8
0
  6
Continuous
 62
     7
370
    25
100
AcDbCircle
 10
6255.4379714922
 20
4863.3669070199
 30
0.0
 40
3.0
100
AcDbArc
 50
0.0
 51
180.0
  0
LINE
  5
4CD
330
1F
100
AcDbEntity
  8
0
  6
Continuous
 62
     7
370
    25
100
AcDbLine
 10
6252.4379714922
 20
4863.3669070199
 30
0.0
 11
6252.4379714922
 21
4839.3669070199
 31
0.0
  0
ARC
  5
4CE
330
1F
100
AcDbEntity
  8
0
  6
Continuous
 62
     7
370
    25
100
AcDbCircle
 10
6245.0388606981
 20
4841.9925936453
 30
0.0
 40
3.0
100
AcDbArc
 50
180.0
 51
0.0
  0
LINE
  5
4CF
330
1F
100
AcDbEntity
  8
0
  6
Continuous
 62
     7
370
    25
100
AcDbLine
 10
6248.0388606981
 20
4841.9925936453
 30
0.0
 11
6248.0388606981
 21
4865.9925936453
 31
0.0
  0
ARC
  5
4D0
330
1F
100
AcDbEntity
  8
0
  6
Continuous
 62
     7
370
    25
100
AcDbCircle
 10
6245.0388606981
 20
4865.9925936453
 30
0.0
 40
3.0
100
AcDbArc
 50
0.0
 51
180.0
  0
LINE
  5
4D1
330
1F
100
AcDbEntity
  8
0
  6
Continuous
 62
     7
370
    25
100
AcDbLine
 10
6242.0388606981
 20
4865.9925936453
 30
0.0
 11
6242.0388606981
 21
4841.9925936453
 31
0.0
  0
ARC
  5
4D2
330
1F
100
AcDbEntity
  8
0
  6
Continuous
 62
     7
370
    25
100
AcDbCircle
 10
6234.6229194597
 20
4844.5510567744
 30
0.0
 40
3.0
100
AcDbArc
 50
180.0
 51
0.0
  0
LINE
  5
4D3
330
1F
100
AcDbEntity
  8
0
  6
Continuous
 62
     7
370
    25
100
AcDbLine
 10
6237.6229194597
 20
4844.5510567744
 30
0.0
 11
6237.6229194597
 21
4868.5510567744
 31
0.0
  0
ARC
  5
4D4
330
1F
100
AcDbEntity
  8
0
  6
Continuous
 62
     7
370
    25
100
AcDbCircle
 10
6234.6229194597
 20
4868.5510567744
 30
0.0
 40
3.0
100
AcDbArc
 50
0.0
 51
180.0
  0
LINE
  5
4D5
330
1F
100
AcDbEntity
  8
0
  6
Continuous
 62
     7
370
    25
100
AcDbLine
 10
6231.6229194597
 20
4868.5510567744
 30
0.0
 11
6231.6229194597
 21
4844.5510567744
 31
0.0
  0
ARC
  5
4D6
330
1F
100
AcDbEntity
  8
0
  6
Continuous
 62
     7
370
    25
100
AcDbCircle
 10
6224.1838363603
 20
4847.0146612231
 30
0.0
 40
3.0
100
AcDbArc
 50
180.0
 51
0.0
  0
LINE
  5
4D7
330
1F
100
AcDbEntity
  8
0
  6
Continuous
 62
     7
370
    25
100
AcDbLine
 10
6227.1838363603
 20
4847.0146612231
 30
0.0
 11
6227.1838363603
 21
4871.0146612231
 31
0.0
  0
ARC
  5
4D8
330
1F
100
AcDbEntity
  8
0
  6
Continuous
 62
     7
370
    25
100
AcDbCircle
 10
6224.1838363603
 20
4871.0146612231
 30
0.0
 40
3.0
100
AcDbArc
 50
0.0
 51
180.0
  0
LINE
  5
4D9
330
1F
100
AcDbEntity
  8
0
  6
Continuous
 62
     7
370
    25
100
AcDbLine
 10
6221.1838363603
 20
4871.0146612231
 30
0.0
 11
6221.1838363603
 21
4847.0146612231
 31
0.0
  0
ARC
  5
4DA
330
1F
100
AcDbEntity
  8
0
  6
Continuous
 62
     7
370
    25
100
AcDbCircle
 10
6213.7174037889
 20
4849.3546884872
 30
0.0
 40
3.0
100
AcDbArc
 50
180.0
 51
0.0
  0
LINE
  5
4DB
330
1F
100
AcDbEntity
  8
0
  6
Continuous
 62
     7
370
    25
100
AcDbLine
 10
6216.7174037889
 20
4849.3546884872
 30
0.0
 11
6216.7174037889
 21
4873.3546884872
 31
0.0
  0
ARC
  5
4DC
330
1F
100
AcDbEntity
  8
0
  6
Continuous
 62
     7
370
    25
100
AcDbCircle
 10
6213.7174037889
 20
4873.3546884872
 30
0.0
 40
3.0
100
AcDbArc
 50
0.0
 51
180.0
  0
LINE
  5
4DD
330
1F
100
AcDbEntity
  8
0
  6
Continuous
 62
     7
370
    25
100
AcDbLine
 10
6210.7174037889
 20
4873.3546884872
 30
0.0
 11
6210.7174037889
 21
4849.3546884872
 31
0.0
  0
ARC
  5
4DE
330
1F
100
AcDbEntity
  8
0
  6
Continuous
 62
     7
370
    25
100
AcDbCircle
 10
6203.2173103288
 20
4851.5421734323
 30
0.0
 40
3.000000000000909
100
AcDbArc
 50
180.0
 51
0.0
  0
LINE
  5
4DF
330
1F
100
AcDbEntity
  8
0
  6
Continuous
 62
     7
370
    25
100
AcDbLine
 10
6206.2173103288
 20
4851.5421734323
 30
0.0
 11
6206.2173103288
 21
4875.5421734323
 31
0.0
  0
ARC
  5
4E0
330
1F
100
AcDbEntity
  8
0
  6
Continuous
 62
     7
370
    25
100
AcDbCircle
 10
6203.2173103288
 20
4875.5421734323
 30
0.0
 40
3.000000000000909
100
AcDbArc
 50
0.0
 51
180.0
  0
LINE
  5
4E1
330
1F
100
AcDbEntity
  8
0
  6
Continuous
 62
     7
370
    25
100
AcDbLine
 10
6200.2173103288
 20
4875.5421734323
 30
0.0
 11
6200.2173103288
 21
4851.5421734323
 31
0.0
  0
ARC
  5
4E2
330
1F
100
AcDbEntity
  8
0
  6
Continuous
 62
     7
370
    25
100
AcDbCircle
 10
6192.6814521745
 20
4853.5464391981
 30
0.0
 40
3.0
100
AcDbArc
 50
180.0
 51
0.0
  0
LINE
  5
4E3
330
1F
100
AcDbEntity
  8
0
  6
Continuous
 62
     7
370
    25
100
AcDbLine
 10
6195.6814521745
 20
4853.5464391981
 30
0.0
 11
6195.6814521745
 21
4877.5464391981
 31
0.0
  0
ARC
  5
4E4
330
1F
100
AcDbEntity
  8
0
  6
Continuous
 62
     7
370
    25
100
AcDbCircle
 10
6192.6814521745
 20
4877.5464391981
 30
0.0
 40
3.0
100
AcDbArc
 50
0.0
 51
180.0
  0
LINE
  5
4E5
330
1F
100
AcDbEntity
  8
0
  6
Continuous
 62
     7
370
    25
100
AcDbLine
 10
6189.6814521745
 20
4877.5464391981
 30
0.0
 11
6189.6814521745
 21
4853.5464391981
 31
0.0
  0
ARC
  5
4E6
330
1F
100
AcDbEntity
  8
0
  6
Continuous
 62
     7
370
    25
100
AcDbCircle
 10
6182.1077255205
 20
4855.3360475553
 30
0.0
 40
3.0
100
AcDbArc
 50
180.0
 51
0.0
  0
LINE
  5
4E7
330
1F
100
AcDbEntity
  8
0
  6
Continuous
 62
     7
370
    25
100
AcDbLine
 10
6185.1077255205
 20
4855.3360475553
 30
0.0
 11
6185.1077255205
 21
4879.3360475553
 31
0.0
  0
ARC
  5
4E8
330
1F
100
AcDbEntity
  8
0
  6
Continuous
 62
     7
370
    25
100
AcDbCircle
 10
6182.1077255205
 20
4879.3360475553
 30
0.0
 40
3.0
100
AcDbArc
 50
0.0
 51
180.0
  0
LINE
  5
4E9
330
1F
100
AcDbEntity
  8
0
  6
Continuous
 62
     7
370
    25
100
AcDbLine
 10
6179.1077255205
 20
4879.3360475553
 30
0.0
 11
6179.1077255205
 21
4855.3360475553
 31
0.0
  0
ARC
  5
4EA
330
1F
100
AcDbEntity
  8
0
  6
Continuous
 62
     7
370
    25
100
AcDbCircle
 10
6171.4940265611
 20
4856.8787327636
 30
0.0
 40
3.000000000000909
100
AcDbArc
 50
180.0
 51
0.0
  0
LINE
  5
4EB
330
1F
100
AcDbEntity
  8
0
  6
Continuous
 62
     7
370
    25
100
AcDbLine
 10
6174.4940265611
 20
4856.8787327636
 30
0.0
 11
6174.4940265611
 21
4880.8787327636
 31
0.0
  0
ARC
  5
4EC
330
1F
100
AcDbEntity
  8
0
  6
Continuous
 62
     7
370
    25
100
AcDbCircle
 10
6171.4940265611
 20
4880.8787327636
 30
0.0
 40
3.000000000000909
100
AcDbArc
 50
0.0
 51
180.0
  0
LINE
  5
4ED
330
1F
100
AcDbEntity
  8
0
  6
Continuous
 62
     7
370
    25
100
AcDbLine
 10
6168.4940265611
 20
4880.8787327636
 30
0.0
 11
6168.4940265611
 21
4856.8787327636
 31
0.0
  0
ARC
  5
4EE
330
1F
100
AcDbEntity
  8
0
  6
Continuous
 62
     7
370
    25
100
AcDbCircle
 10
6160.842459102
 20
4858.1408961066
 30
0.0
 40
3.000000000000909
100
AcDbArc
 50
180.0
 51
0.0
  0
LINE
  5
4EF
330
1F
100
AcDbEntity
  8
0
  6
Continuous
 62
     7
370
    25
100
AcDbLine
 10
6163.842459102
 20
4858.1408961066
 30
0.0
 11
6163.842459102
 21
4882.1408961066
 31
0.0
  0
ARC
  5
4F0
330
1F
100
AcDbEntity
  8
0
  6
Continuous
 62
     7
370
    25
100
AcDbCircle
 10
6160.842459102
 20
4882.1408961066
 30
0.0
 40
3.000000000000909
100
AcDbArc
 50
0.0
 51
180.0
  0
LINE
  5
4F1
330
1F
100
AcDbEntity
  8
0
  6
Continuous
 62
     7
370
    25
100
AcDbLine
 10
6157.842459102
 20
4882.1408961066
 30
0.0
 11
6157.842459102
 21
4858.1408961066
 31
0.0
  0
ARC
  5
4F2
330
1F
100
AcDbEntity
  8
0
  6
Continuous
 62
     7
370
    25
100
AcDbCircle
 10
6150.1593345598
 20
4859.0881961814
 30
0.0
 40
3.0
100
AcDbArc
 50
180.0
 51
0.0
  0
LINE
  5
4F3
330
1F
100
AcDbEntity
  8
0
  6
Continuous
 62
     7
370
    25
100
AcDbLine
 10
6153.1593345598
 20
4859.0881961814
 30
0.0
 11
6153.1593345598
 21
4883.0881961814
 31
0.0
  0
ARC
  5
4F4
330
1F
100
AcDbEntity
  8
0
  6
Continuous
 62
     7
370
    25
100
AcDbCircle
 10
6150.1593345598
 20
4883.0881961814
 30
0.0
 40
3.0
100
AcDbArc
 50
0.0
 51
180.0
  0
LINE
  5
4F5
330
1F
100
AcDbEntity
  8
0
  6
Continuous
 62
     7
370
    25
100
AcDbLine
 10
6147.1593345598
 20
4883.0881961814
 30
0.0
 11
6147.1593345598
 21
4859.0881961814
 31
0.0
  0
ARC
  5
4F6
330
1F
100
AcDbEntity
  8
0
  6
Continuous
 62
     7
370
    25
100
AcDbCircle
 10
6139.4520162538
 20
4859.6864492275
 30
0.0
 40
3.0
100
AcDbArc
 50
180.0
 51
0.0
  0
LINE
  5
4F7
330
1F
100
AcDbEntity
  8
0
  6
Continuous
 62
     7
370
    25
100
AcDbLine
 10
6142.4520162538
 20
4859.6864492275
 30
0.0
 11
6142.4520162538
 21
4883.6864492275
 31
0.0
  0
ARC
  5
4F8
330
1F
100
AcDbEntity
  8
0
  6
Continuous
 62
     7
370
    25
100
AcDbCircle
 10
6139.4520162538
 20
4883.6864492275
 30
0.0
 40
3.0
100
AcDbArc
 50
0.0
 51
180.0
  0
LINE
  5
4F9
330
1F
100
AcDbEntity
  8
0
  6
Continuous
 62
     7
370
    25
100
AcDbLine
 10
6136.4520162538
 20
4883.6864492275
 30
0.0
 11
6136.4520162538
 21
4859.6864492275
 31
0.0
  0
ARC
  5
4FA
330
1F
100
AcDbEntity
  8
0
  6
Continuous
 62
     7
370
    25
100
AcDbCircle
 10
6128.7299713091
 20
4859.9026973642
 30
0.0
 40
3.0
100
AcDbArc
 50
180.0
 51
0.0
  0
LINE
  5
4FB
330
1F
100
AcDbEntity
  8
0
  6
Continuous
 62
     7
370
    25
100
AcDbLine
 10
6131.7299713091
 20
4859.9026973642
 30
0.0
 11
6131.7299713091
 21
4883.9026973642
 31
0.0
  0
ARC
  5
4FC
330
1F
100
AcDbEntity
  8
0
  6
Continuous
 62
     7
370
    25
100
AcDbCircle
 10
6128.7299713091
 20
4883.9026973642
 30
0.0
 40
3.0
100
AcDbArc
 50
0.0
 51
180.0
  0
LINE
  5
4FD
330
1F
100
AcDbEntity
  8
0
  6
Continuous
 62
     7
370
    25
100
AcDbLine
 10
6125.7299713091
 20
4883.9026973642
 30
0.0
 11
6125.7299713091
 21
4859.9026973642
 31
0.0
  0
ARC
  5
4FE
330
1F
100
AcDbEntity
  8
0
  6
Continuous
 62
     7
370
    25
100
AcDbCircle
 10
6118.0068744615
 20
4859.7302745712
 30
0.0
 40
3.000000000000909
100
AcDbArc
 50
180.0
 51
0.0
  0
LINE
  5
4FF
330
1F
100
AcDbEntity
  8
0
  6
Continuous
 62
     7
370
    25
100
AcDbLine
 10
6121.0068744615
 20
4859.7302745712
 30
0.0
 11
6121.0068744615
 21
4883.7302745712
 31
0.0
  0
ARC
  5
500
330
1F
100
AcDbEntity
  8
0
  6
Continuous
 62
     7
370
    25
100
AcDbCircle
 10
6118.0068744615
 20
4883.7302745712
 30
0.0
 40
3.000000000000909
100
AcDbArc
 50
0.0
 51
180.0
  0
LINE
  5
501
330
1F
100
AcDbEntity
  8
0
  6
Continuous
 62
     7
370
    25
100
AcDbLine
 10
6115.0068744615
 20
4883.7302745712
 30
0.0
 11
6115.0068744615
 21
4859.7302745712
 31
0.0
  0
ARC
  5
502
330
1F
100
AcDbEntity
  8
0
  6
Continuous
 62
     7
370
    25
100
AcDbCircle
 10
6107.2942966417
 20
4859.1958127309
 30
0.0
 40
3.0
100
AcDbArc
 50
180.0
 51
0.0
  0
LINE
  5
503
330
1F
100
AcDbEntity
  8
0
  6
Continuous
 62
     7
370
    25
100
AcDbLine
 10
6110.2942966417
 20
4859.1958127309
 30
0.0
 11
6110.2942966417
 21
4883.1958127309
 31
0.0
  0
ARC
  5
504
330
1F
100
AcDbEntity
  8
0
  6
Continuous
 62
     7
370
    25
100
AcDbCircle
 10
6107.2942966417
 20
4883.1958127309
 30
0.0
 40
3.0
100
AcDbArc
 50
0.0
 51
180.0
  0
LINE
  5
505
330
1F
100
AcDbEntity
  8
0
  6
Continuous
 62
     7
370
    25
100
AcDbLine
 10
6104.2942966417
 20
4883.1958127309
 30
0.0
 11
6104.2942966417
 21
4859.1958127309
 31
0.0
  0
ARC
  5
506
330
1F
100
AcDbEntity
  8
0
  6
Continuous
 62
     7
370
    25
100
AcDbCircle
 10
6096.6048606828
 20
4858.3294548693
 30
0.0
 40
3.0
100
AcDbArc
 50
180.0
 51
0.0
  0
LINE
  5
507
330
1F
100
AcDbEntity
  8
0
  6
Continuous
 62
     7
370
    25
100
AcDbLine
 10
6099.6048606828
 20
4858.3294548693
 30
0.0
 11
6099.6048606828
 21
4882.3294548693
 31
0.0
  0
ARC
  5
508
330
1F
100
AcDbEntity
  8
0
  6
Continuous
 62
     7
370
    25
100
AcDbCircle
 10
6096.6048606828
 20
4882.3294548693
 30
0.0
 40
3.0
100
AcDbArc
 50
0.0
 51
180.0
  0
LINE
  5
509
330
1F
100
AcDbEntity
  8
0
  6
Continuous
 62
     7
370
    25
100
AcDbLine
 10
6093.6048606828
 20
4882.3294548693
 30
0.0
 11
6093.6048606828
 21
4858.3294548693
 31
0.0
  0
ARC
  5
50A
330
1F
100
AcDbEntity
  8
0
  6
Continuous
 62
     7
370
    25
100
AcDbCircle
 10
6085.942774196
 20
4857.1615173271
 30
0.0
 40
3.0
100
AcDbArc
 50
180.0
 51
0.0
  0
LINE
  5
50B
330
1F
100
AcDbEntity
  8
0
  6
Continuous
 62
     7
370
    25
100
AcDbLine
 10
6088.942774196
 20
4857.1615173271
 30
0.0
 11
6088.942774196
 21
4881.1615173271
 31
0.0
  0
ARC
  5
50C
330
1F
100
AcDbEntity
  8
0
  6
Continuous
 62
     7
370
    25
100
AcDbCircle
 10
6085.942774196
 20
4881.1615173271
 30
0.0
 40
3.0
100
AcDbArc
 50
0.0
 51
180.0
  0
LINE
  5
50D
330
1F
100
AcDbEntity
  8
0
  6
Continuous
 62
     7
370
    25
100
AcDbLine
 10
6082.942774196
 20
4881.1615173271
 30
0.0
 11
6082.942774196
 21
4857.1615173271
 31
0.0
  0
ARC
  5
50E
330
1F
100
AcDbEntity
  8
0
  6
Continuous
 62
     7
370
    25
100
AcDbCircle
 10
6075.3164524034
 20
4855.7229858446
 30
0.0
 40
3.0
100
AcDbArc
 50
180.0
 51
0.0
  0
LINE
  5
50F
330
1F
100
AcDbEntity
  8
0
  6
Continuous
 62
     7
370
    25
100
AcDbLine
 10
6078.3164524034
 20
4855.7229858446
 30
0.0
 11
6078.3164524034
 21
4879.7229858446
 31
0.0
  0
ARC
  5
510
330
1F
100
AcDbEntity
  8
0
  6
Continuous
 62
     7
370
    25
100
AcDbCircle
 10
6075.3164524034
 20
4879.7229858446
 30
0.0
 40
3.0
100
AcDbArc
 50
0.0
 51
180.0
  0
LINE
  5
511
330
1F
100
AcDbEntity
  8
0
  6
Continuous
 62
     7
370
    25
100
AcDbLine
 10
6072.3164524034
 20
4879.7229858446
 30
0.0
 11
6072.3164524034
 21
4855.7229858446
 31
0.0
  0
ARC
  5
512
330
1F
100
AcDbEntity
  8
0
  6
Continuous
 62
     7
370
    25
100
AcDbCircle
 10
6064.7237914995
 20
4854.0433741329
 30
0.0
 40
3.0
100
AcDbArc
 50
180.0
 51
0.0
  0
LINE
  5
513
330
1F
100
AcDbEntity
  8
0
  6
Continuous
 62
     7
370
    25
100
AcDbLine
 10
6067.7237914995
 20
4854.0433741329
 30
0.0
 11
6067.7237914995
 21
4878.0433741329
 31
0.0
  0
ARC
  5
514
330
1F
100
AcDbEntity
  8
0
  6
Continuous
 62
     7
370
    25
100
AcDbCircle
 10
6064.7237914995
 20
4878.0433741329
 30
0.0
 40
3.0
100
AcDbArc
 50
0.0
 51
180.0
  0
LINE
  5
515
330
1F
100
AcDbEntity
  8
0
  6
Continuous
 62
     7
370
    25
100
AcDbLine
 10
6061.7237914995
 20
4878.0433741329
 30
0.0
 11
6061.7237914995
 21
4854.0433741329
 31
0.0
  0
ARC
  5
516
330
1F
100
AcDbEntity
  8
0
  6
Continuous
 62
     7
370
    25
100
AcDbCircle
 10
6054.1647914842
 20
4852.1518738142
 30
0.0
 40
3.0
100
AcDbArc
 50
180.0
 51
0.0
  0
LINE
  5
517
330
1F
100
AcDbEntity
  8
0
  6
Continuous
 62
     7
370
    25
100
AcDbLine
 10
6057.1647914842
 20
4852.1518738142
 30
0.0
 11
6057.1647914842
 21
4876.1518738142
 31
0.0
  0
ARC
  5
518
330
1F
100
AcDbEntity
  8
0
  6
Continuous
 62
     7
370
    25
100
AcDbCircle
 10
6054.1647914842
 20
4876.1518738142
 30
0.0
 40
3.0
100
AcDbArc
 50
0.0
 51
180.0
  0
LINE
  5
519
330
1F
100
AcDbEntity
  8
0
  6
Continuous
 62
     7
370
    25
100
AcDbLine
 10
6051.1647914842
 20
4876.1518738142
 30
0.0
 11
6051.1647914842
 21
4852.1518738142
 31
0.0
  0
ARC
  5
51A
330
1F
100
AcDbEntity
  8
0
  6
Continuous
 62
     7
370
    25
100
AcDbCircle
 10
6043.6436599687
 20
4850.0780206847
 30
0.0
 40
3.0
100
AcDbArc
 50
180.0
 51
0.0
  0
LINE
  5
51B
330
1F
100
AcDbEntity
  8
0
  6
Continuous
 62
     7
370
    25
100
AcDbLine
 10
6046.6436599687
 20
4850.0780206847
 30
0.0
 11
6046.6436599687
 21
4874.0780206847
 31
0.0
  0
ARC
  5
51C
330
1F
100
AcDbEntity
  8
0
  6
Continuous
 62
     7
370
    25
100
AcDbCircle
 10
6043.6436599687
 20
4874.0780206847
 30
0.0
 40
3.0
100
AcDbArc
 50
0.0
 51
180.0
  0
LINE
  5
51D
330
1F
100
AcDbEntity
  8
0
  6
Continuous
 62
     7
370
    25
100
AcDbLine
 10
6040.6436599687
 20
4874.0780206847
 30
0.0
 11
6040.6436599687
 21
4850.0780206847
 31
0.0
  0
ARC
  5
51E
330
1F
100
AcDbEntity
  8
0
  6
Continuous
 62
     7
370
    25
100
AcDbCircle
 10
6033.1519817308
 20
4847.8483038285
 30
0.0
 40
3.000000000000909
100
AcDbArc
 50
180.0
 51
0.0
  0
LINE
  5
51F
330
1F
100
AcDbEntity
  8
0
  6
Continuous
 62
     7
370
    25
100
AcDbLine
 10
6036.1519817308
 20
4847.8483038285
 30
0.0
 11
6036.1519817308
 21
4871.8483038285
 31
0.0
  0
ARC
  5
520
330
1F
100
AcDbEntity
  8
0
  6
Continuous
 62
     7
370
    25
100
AcDbCircle
 10
6033.1519817308
 20
4871.8483038285
 30
0.0
 40
3.000000000000909
100
AcDbArc
 50
0.0
 51
180.0
  0
LINE
  5
521
330
1F
100
AcDbEntity
  8
0
  6
Continuous
 62
     7
370
    25
100
AcDbLine
 10
6030.1519817308
 20
4871.8483038285
 30
0.0
 11
6030.1519817308
 21
4847.8483038285
 31
0.0
  0
ARC
  5
522
330
1F
100
AcDbEntity
  8
0
  6
Continuous
 62
     7
370
    25
100
AcDbCircle
 10
6022.6897567704
 20
4845.4901903428
 30
0.0
 40
3.0
100
AcDbArc
 50
180.0
 51
0.0
  0
LINE
  5
523
330
1F
100
AcDbEntity
  8
0
  6
Continuous
 62
     7
370
    25
100
AcDbLine
 10
6025.6897567704
 20
4845.4901903428
 30
0.0
 11
6025.6897567704
 21
4869.4901903428
 31
0.0
  0
ARC
  5
524
330
1F
100
AcDbEntity
  8
0
  6
Continuous
 62
     7
370
    25
100
AcDbCircle
 10
6022.6897567704
 20
4869.4901903428
 30
0.0
 40
3.0
100
AcDbArc
 50
0.0
 51
180.0
  0
LINE
  5
525
330
1F
100
AcDbEntity
  8
0
  6
Continuous
 62
     7
370
    25
100
AcDbLine
 10
6019.6897567704
 20
4869.4901903428
 30
0.0
 11
6019.6897567704
 21
4845.4901903428
 31
0.0
  0
ARC
  5
526
330
1F
100
AcDbEntity
  8
0
  6
Continuous
 62
     7
370
    25
100
AcDbCircle
 10
6012.2506736711
 20
4843.0291884327
 30
0.0
 40
3.000000000000909
100
AcDbArc
 50
180.0
 51
0.0
  0
LINE
  5
527
330
1F
100
AcDbEntity
  8
0
  6
Continuous
 62
     7
370
    25
100
AcDbLine
 10
6015.2506736711
 20
4843.0291884327
 30
0.0
 11
6015.2506736711
 21
4867.0291884327
 31
0.0
  0
ARC
  5
528
330
1F
100
AcDbEntity
  8
0
  6
Continuous
 62
     7
370
    25
100
AcDbCircle
 10
6012.2506736711
 20
4867.0291884327
 30
0.0
 40
3.000000000000909
100
AcDbArc
 50
0.0
 51
180.0
  0
LINE
  5
529
330
1F
100
AcDbEntity
  8
0
  6
Continuous
 62
     7
370
    25
100
AcDbLine
 10
6009.2506736711
 20
4867.0291884327
 30
0.0
 11
6009.2506736711
 21
4843.0291884327
 31
0.0
  0
ARC
  5
52A
330
1F
100
AcDbEntity
  8
0
  6
Continuous
 62
     7
370
    25
100
AcDbCircle
 10
6001.8305248216
 20
4840.4907177803
 30
0.0
 40
3.000000000000909
100
AcDbArc
 50
180.0
 51
0.0
  0
LINE
  5
52B
330
1F
100
AcDbEntity
  8
0
  6
Continuous
 62
     7
370
    25
100
AcDbLine
 10
6004.8305248216
 20
4840.4907177803
 30
0.0
 11
6004.8305248216
 21
4864.4907177803
 31
0.0
  0
ARC
  5
52C
330
1F
100
AcDbEntity
  8
0
  6
Continuous
 62
     7
370
    25
100
AcDbCircle
 10
6001.8305248216
 20
4864.4907177803
 30
0.0
 40
3.000000000000909
100
AcDbArc
 50
0.0
 51
180.0
  0
LINE
  5
52D
330
1F
100
AcDbEntity
  8
0
  6
Continuous
 62
     7
370
    25
100
AcDbLine
 10
5998.8305248216
 20
4864.4907177803
 30
0.0
 11
5998.8305248216
 21
4840.4907177803
 31
0.0
  0
ARC
  5
52E
330
1F
100
AcDbEntity
  8
0
  6
Continuous
 62
     7
370
    25
100
AcDbCircle
 10
5991.4229988054
 20
4837.8992564587
 30
0.0
 40
3.0
100
AcDbArc
 50
180.0
 51
0.0
  0
LINE
  5
52F
330
1F
100
AcDbEntity
  8
0
  6
Continuous
 62
     7
370
    25
100
AcDbLine
 10
5994.4229988054
 20
4837.8992564587
 30
0.0
 11
5994.4229988054
 21
4861.8992564587
 31
0.0
  0
ARC
  5
530
330
1F
100
AcDbEntity
  8
0
  6
Continuous
 62
     7
370
    25
100
AcDbCircle
 10
5991.4229988054
 20
4861.8992564587
 30
0.0
 40
3.0
100
AcDbArc
 50
0.0
 51
180.0
  0
LINE
  5
531
330
1F
100
AcDbEntity
  8
0
  6
Continuous
 62
     7
370
    25
100
AcDbLine
 10
5988.4229988054
 20
4861.8992564587
 30
0.0
 11
5988.4229988054
 21
4837.8992564587
 31
0.0
  0
ARC
  5
532
330
1F
100
AcDbEntity
  8
0
  6
Continuous
 62
     7
370
    25
100
AcDbCircle
 10
5981.0217842057
 20
4835.278959686
 30
0.0
 40
3.000000000000909
100
AcDbArc
 50
180.0
 51
0.0
  0
LINE
  5
533
330
1F
100
AcDbEntity
  8
0
  6
Continuous
 62
     7
370
    25
100
AcDbLine
 10
5984.0217842057
 20
4835.278959686
 30
0.0
 11
5984.0217842057
 21
4859.278959686
 31
0.0
  0
ARC
  5
534
330
1F
100
AcDbEntity
  8
0
  6
Continuous
 62
     7
370
    25
100
AcDbCircle
 10
5981.0217842057
 20
4859.278959686
 30
0.0
 40
3.000000000000909
100
AcDbArc
 50
0.0
 51
180.0
  0
LINE
  5
535
330
1F
100
AcDbEntity
  8
0
  6
Continuous
 62
     7
370
    25
100
AcDbLine
 10
5978.0217842057
 20
4859.278959686
 30
0.0
 11
5978.0217842057
 21
4835.278959686
 31
0.0
  0
ARC
  5
536
330
1F
100
AcDbEntity
  8
0
  6
Continuous
 62
     7
370
    25
100
AcDbCircle
 10
5970.6226734117
 20
4832.6543454522
 30
0.0
 40
3.0
100
AcDbArc
 50
180.0
 51
0.0
  0
LINE
  5
537
330
1F
100
AcDbEntity
  8
0
  6
Continuous
 62
     7
370
    25
100
AcDbLine
 10
5973.6226734117
 20
4832.6543454522
 30
0.0
 11
5973.6226734117
 21
4856.6543454522
 31
0.0
  0
ARC
  5
538
330
1F
100
AcDbEntity
  8
0
  6
Continuous
 62
     7
370
    25
100
AcDbCircle
 10
5970.6226734117
 20
4856.6543454522
 30
0.0
 40
3.0
100
AcDbArc
 50
0.0
 51
180.0
  0
LINE
  5
539
330
1F
100
AcDbEntity
  8
0
  6
Continuous
 62
     7
370
    25
100
AcDbLine
 10
5967.6226734117
 20
4856.6543454522
 30
0.0
 11
5967.6226734117
 21
4832.6543454522
 31
0.0
  0
ARC
  5
53A
330
1F
100
AcDbEntity
  8
0
  6
Continuous
 62
     7
370
    25
100
AcDbCircle
 10
5960.2193550065
 20
4830.0493699165
 30
0.0
 40
3.0
100
AcDbArc
 50
180.0
 51
0.0
  0
LINE
  5
53B
330
1F
100
AcDbEntity
  8
0
  6
Continuous
 62
     7
370
    25
100
AcDbLine
 10
5963.2193550065
 20
4830.0493699165
 30
0.0
 11
5963.2193550065
 21
4854.0493699165
 31
0.0
  0
ARC
  5
53C
330
1F
100
AcDbEntity
  8
0
  6
Continuous
 62
     7
370
    25
100
AcDbCircle
 10
5960.2193550065
 20
4854.0493699165
 30
0.0
 40
3.0
100
AcDbArc
 50
0.0
 51
180.0
  0
LINE
  5
53D
330
1F
100
AcDbEntity
  8
0
  6
Continuous
 62
     7
370
    25
100
AcDbLine
 10
5957.2193550065
 20
4854.0493699165
 30
0.0
 11
5957.2193550065
 21
4830.0493699165
 31
0.0
  0
ARC
  5
53E
330
1F
100
AcDbEntity
  8
0
  6
Continuous
 62
     7
370
    25
100
AcDbCircle
 10
5949.8034137681
 20
4827.4875905175
 30
0.0
 40
3.0
100
AcDbArc
 50
180.0
 51
0.0
  0
LINE
  5
53F
330
1F
100
AcDbEntity
  8
0
  6
Continuous
 62
     7
370
    25
100
AcDbLine
 10
5952.8034137681
 20
4827.4875905175
 30
0.0
 11
5952.8034137681
 21
4851.4875905175
 31
0.0
  0
ARC
  5
540
330
1F
100
AcDbEntity
  8
0
  6
Continuous
 62
     7
370
    25
100
AcDbCircle
 10
5949.8034137681
 20
4851.4875905175
 30
0.0
 40
3.0
100
AcDbArc
 50
0.0
 51
180.0
  0
LINE
  5
541
330
1F
100
AcDbEntity
  8
0
  6
Continuous
 62
     7
370
    25
100
AcDbLine
 10
5946.8034137681
 20
4851.4875905175
 30
0.0
 11
5946.8034137681
 21
4827.4875905175
 31
0.0
  0
ARC
  5
542
330
1F
100
AcDbEntity
  8
0
  6
Continuous
 62
     7
370
    25
100
AcDbCircle
 10
5939.3727458909
 20
4824.994382747
 30
0.0
 40
3.0
100
AcDbArc
 50
180.0
 51
0.0
  0
LINE
  5
543
330
1F
100
AcDbEntity
  8
0
  6
Continuous
 62
     7
370
    25
100
AcDbLine
 10
5942.3727458909
 20
4824.994382747
 30
0.0
 11
5942.3727458909
 21
4848.994382747
 31
0.0
  0
ARC
  5
544
330
1F
100
AcDbEntity
  8
0
  6
Continuous
 62
     7
370
    25
100
AcDbCircle
 10
5939.3727458909
 20
4848.994382747
 30
0.0
 40
3.0
100
AcDbArc
 50
0.0
 51
180.0
  0
LINE
  5
545
330
1F
100
AcDbEntity
  8
0
  6
Continuous
 62
     7
370
    25
100
AcDbLine
 10
5936.3727458909
 20
4848.994382747
 30
0.0
 11
5936.3727458909
 21
4824.994382747
 31
0.0
  0
ARC
  5
546
330
1F
100
AcDbEntity
  8
0
  6
Continuous
 62
     7
370
    25
100
AcDbCircle
 10
5928.9189361527
 20
4822.5939844451
 30
0.0
 40
3.0
100
AcDbArc
 50
180.0
 51
0.0
  0
LINE
  5
547
330
1F
100
AcDbEntity
  8
0
  6
Continuous
 62
     7
370
    25
100
AcDbLine
 10
5931.9189361527
 20
4822.5939844451
 30
0.0
 11
5931.9189361527
 21
4846.5939844451
 31
0.0
  0
ARC
  5
548
330
1F
100
AcDbEntity
  8
0
  6
Continuous
 62
     7
370
    25
100
AcDbCircle
 10
5928.9189361527
 20
4846.5939844451
 30
0.0
 40
3.0
100
AcDbArc
 50
0.0
 51
180.0
  0
LINE
  5
549
330
1F
100
AcDbEntity
  8
0
  6
Continuous
 62
     7
370
    25
100
AcDbLine
 10
5925.9189361527
 20
4846.5939844451
 30
0.0
 11
5925.9189361527
 21
4822.5939844451
 31
0.0
  0
ARC
  5
54A
330
1F
100
AcDbEntity
  8
0
  6
Continuous
 62
     7
370
    25
100
AcDbCircle
 10
5918.4398807481
 20
4820.3126267707
 30
0.0
 40
3.0
100
AcDbArc
 50
180.0
 51
0.0
  0
LINE
  5
54B
330
1F
100
AcDbEntity
  8
0
  6
Continuous
 62
     7
370
    25
100
AcDbLine
 10
5921.4398807481
 20
4820.3126267707
 30
0.0
 11
5921.4398807481
 21
4844.3126267707
 31
0.0
  0
ARC
  5
54C
330
1F
100
AcDbEntity
  8
0
  6
Continuous
 62
     7
370
    25
100
AcDbCircle
 10
5918.4398807481
 20
4844.3126267707
 30
0.0
 40
3.0
100
AcDbArc
 50
0.0
 51
180.0
  0
LINE
  5
54D
330
1F
100
AcDbEntity
  8
0
  6
Continuous
 62
     7
370
    25
100
AcDbLine
 10
5915.4398807481
 20
4844.3126267707
 30
0.0
 11
5915.4398807481
 21
4820.3126267707
 31
0.0
  0
ARC
  5
54E
330
1F
100
AcDbEntity
  8
0
  6
Continuous
 62
     7
370
    25
100
AcDbCircle
 10
5907.9292682603
 20
4818.1761987723
 30
0.0
 40
3.0
100
AcDbArc
 50
180.0
 51
0.0
  0
LINE
  5
54F
330
1F
100
AcDbEntity
  8
0
  6
Continuous
 62
     7
370
    25
100
AcDbLine
 10
5910.9292682603
 20
4818.1761987723
 30
0.0
 11
5910.9292682603
 21
4842.1761987723
 31
0.0
  0
ARC
  5
550
330
1F
100
AcDbEntity
  8
0
  6
Continuous
 62
     7
370
    25
100
AcDbCircle
 10
5907.9292682603
 20
4842.1761987723
 30
0.0
 40
3.0
100
AcDbArc
 50
0.0
 51
180.0
  0
LINE
  5
551
330
1F
100
AcDbEntity
  8
0
  6
Continuous
 62
     7
370
    25
100
AcDbLine
 10
5904.9292682603
 20
4842.1761987723
 30
0.0
 11
5904.9292682603
 21
4818.1761987723
 31
0.0
  0
ARC
  5
552
330
1F
100
AcDbEntity
  8
0
  6
Continuous
 62
     7
370
    25
100
AcDbCircle
 10
5897.3849948838
 20
4816.2121763839
 30
0.0
 40
3.0
100
AcDbArc
 50
180.0
 51
0.0
  0
LINE
  5
553
330
1F
100
AcDbEntity
  8
0
  6
Continuous
 62
     7
370
    25
100
AcDbLine
 10
5900.3849948838
 20
4816.2121763839
 30
0.0
 11
5900.3849948838
 21
4840.2121763839
 31
0.0
  0
ARC
  5
554
330
1F
100
AcDbEntity
  8
0
  6
Continuous
 62
     7
370
    25
100
AcDbCircle
 10
5897.3849948838
 20
4840.2121763839
 30
0.0
 40
3.0
100
AcDbArc
 50
0.0
 51
180.0
  0
LINE
  5
555
330
1F
100
AcDbEntity
  8
0
  6
Continuous
 62
     7
370
    25
100
AcDbLine
 10
5894.3849948838
 20
4840.2121763839
 30
0.0
 11
5894.3849948838
 21
4816.2121763839
 31
0.0
  0
ARC
  5
556
330
1F
100
AcDbEntity
  8
0
  6
Continuous
 62
     7
370
    25
100
AcDbCircle
 10
5886.8070606187
 20
4814.4490205972
 30
0.0
 40
3.0
100
AcDbArc
 50
180.0
 51
0.0
  0
LINE
  5
557
330
1F
100
AcDbEntity
  8
0
  6
Continuous
 62
     7
370
    25
100
AcDbLine
 10
5889.8070606187
 20
4814.4490205972
 30
0.0
 11
5889.8070606187
 21
4838.4490205972
 31
0.0
  0
ARC
  5
558
330
1F
100
AcDbEntity
  8
0
  6
Continuous
 62
     7
370
    25
100
AcDbCircle
 10
5886.8070606187
 20
4838.4490205972
 30
0.0
 40
3.0
100
AcDbArc
 50
0.0
 51
180.0
  0
LINE
  5
559
330
1F
100
AcDbEntity
  8
0
  6
Continuous
 62
     7
370
    25
100
AcDbLine
 10
5883.8070606187
 20
4838.4490205972
 30
0.0
 11
5883.8070606187
 21
4814.4490205972
 31
0.0
  0
ARC
  5
55A
330
1F
100
AcDbEntity
  8
0
  6
Continuous
 62
     7
370
    25
100
AcDbCircle
 10
5876.1912578538
 20
4812.915152483
 30
0.0
 40
3.0
100
AcDbArc
 50
180.0
 51
0.0
  0
LINE
  5
55B
330
1F
100
AcDbEntity
  8
0
  6
Continuous
 62
     7
370
    25
100
AcDbLine
 10
5879.1912578538
 20
4812.915152483
 30
0.0
 11
5879.1912578538
 21
4836.915152483
 31
0.0
  0
ARC
  5
55C
330
1F
100
AcDbEntity
  8
0
  6
Continuous
 62
     7
370
    25
100
AcDbCircle
 10
5876.1912578538
 20
4836.915152483
 30
0.0
 40
3.0
100
AcDbArc
 50
0.0
 51
180.0
  0
LINE
  5
55D
330
1F
100
AcDbEntity
  8
0
  6
Continuous
 62
     7
370
    25
100
AcDbLine
 10
5873.1912578538
 20
4836.915152483
 30
0.0
 11
5873.1912578538
 21
4812.915152483
 31
0.0
  0
ARC
  5
55E
330
1F
100
AcDbEntity
  8
0
  6
Continuous
 62
     7
370
    25
100
AcDbCircle
 10
5865.5417942002
 20
4811.6408501735
 30
0.0
 40
3.0
100
AcDbArc
 50
180.0
 51
0.0
  0
LINE
  5
55F
330
1F
100
AcDbEntity
  8
0
  6
Continuous
 62
     7
370
    25
100
AcDbLine
 10
5868.5417942002
 20
4811.6408501735
 30
0.0
 11
5868.5417942002
 21
4835.6408501735
 31
0.0
  0
ARC
  5
560
330
1F
100
AcDbEntity
  8
0
  6
Continuous
 62
     7
370
    25
100
AcDbCircle
 10
5865.5417942002
 20
4835.6408501735
 30
0.0
 40
3.0
100
AcDbArc
 50
0.0
 51
180.0
  0
LINE
  5
561
330
1F
100
AcDbEntity
  8
0
  6
Continuous
 62
     7
370
    25
100
AcDbLine
 10
5862.5417942002
 20
4835.6408501735
 30
0.0
 11
5862.5417942002
 21
4811.6408501735
 31
0.0
  0
ARC
  5
562
330
1F
100
AcDbEntity
  8
0
  6
Continuous
 62
     7
370
    25
100
AcDbCircle
 10
5854.8628772691
 20
4810.6564999932
 30
0.0
 40
3.0
100
AcDbArc
 50
180.0
 51
0.0
  0
LINE
  5
563
330
1F
100
AcDbEntity
  8
0
  6
Continuous
 62
     7
370
    25
100
AcDbLine
 10
5857.8628772691
 20
4810.6564999932
 30
0.0
 11
5857.8628772691
 21
4834.6564999932
 31
0.0
  0
ARC
  5
564
330
1F
100
AcDbEntity
  8
0
  6
Continuous
 62
     7
370
    25
100
AcDbCircle
 10
5854.8628772691
 20
4834.6564999932
 30
0.0
 40
3.0
100
AcDbArc
 50
0.0
 51
180.0
  0
LINE
  5
565
330
1F
100
AcDbEntity
  8
0
  6
Continuous
 62
     7
370
    25
100
AcDbLine
 10
5851.8628772691
 20
4834.6564999932
 30
0.0
 11
5851.8628772691
 21
4810.6564999932
 31
0.0
  0
ARC
  5
566
330
1F
100
AcDbEntity
  8
0
  6
Continuous
 62
     7
370
    25
100
AcDbCircle
 10
5844.1587146714
 20
4809.9924885364
 30
0.0
 40
3.000000000000909
100
AcDbArc
 50
180.0
 51
0.0
  0
LINE
  5
567
330
1F
100
AcDbEntity
  8
0
  6
Continuous
 62
     7
370
    25
100
AcDbLine
 10
5847.1587146714
 20
4809.9924885364
 30
0.0
 11
5847.1587146714
 21
4833.9924885364
 31
0.0
  0
ARC
  5
568
330
1F
100
AcDbEntity
  8
0
  6
Continuous
 62
     7
370
    25
100
AcDbCircle
 10
5844.1587146714
 20
4833.9924885364
 30
0.0
 40
3.000000000000909
100
AcDbArc
 50
0.0
 51
180.0
  0
LINE
  5
569
330
1F
100
AcDbEntity
  8
0
  6
Continuous
 62
     7
370
    25
100
AcDbLine
 10
5841.1587146714
 20
4833.9924885364
 30
0.0
 11
5841.1587146714
 21
4809.9924885364
 31
0.0
  0
ARC
  5
56A
330
1F
100
AcDbEntity
  8
0
  6
Continuous
 62
     7
370
    25
100
AcDbCircle
 10
5833.4377216294
 20
4809.6791436282
 30
0.0
 40
3.0
100
AcDbArc
 50
180.0
 51
0.0
  0
LINE
  5
56B
330
1F
100
AcDbEntity
  8
0
  6
Continuous
 62
     7
370
    25
100
AcDbLine
 10
5836.4377216294
 20
4809.6791436282
 30
0.0
 11
5836.4377216294
 21
4833.6791436282
 31
0.0
  0
ARC
  5
56C
330
1F
100
AcDbEntity
  8
0
  6
Continuous
 62
     7
370
    25
100
AcDbCircle
 10
5833.4377216294
 20
4833.6791436282
 30
0.0
 40
3.0
100
AcDbArc
 50
0.0
 51
180.0
  0
LINE
  5
56D
330
1F
100
AcDbEntity
  8
0
  6
Continuous
 62
     7
370
    25
100
AcDbLine
 10
5830.4377216294
 20
4833.6791436282
 30
0.0
 11
5830.4377216294
 21
4809.6791436282
 31
0.0
  0
ARC
  5
56E
330
1F
100
AcDbEntity
  8
0
  6
Continuous
 62
     7
370
    25
100
AcDbCircle
 10
5822.7146247819
 20
4809.7457978436
 30
0.0
 40
3.0
100
AcDbArc
 50
180.0
 51
0.0
  0
LINE
  5
56F
330
1F
100
AcDbEntity
  8
0
  6
Continuous
 62
     7
370
    25
100
AcDbLine
 10
5825.7146247819
 20
4809.7457978436
 30
0.0
 11
5825.7146247819
 21
4833.7457978436
 31
0.0
  0
ARC
  5
570
330
1F
100
AcDbEntity
  8
0
  6
Continuous
 62
     7
370
    25
100
AcDbCircle
 10
5822.7146247819
 20
4833.7457978436
 30
0.0
 40
3.0
100
AcDbArc
 50
0.0
 51
180.0
  0
LINE
  5
571
330
1F
100
AcDbEntity
  8
0
  6
Continuous
 62
     7
370
    25
100
AcDbLine
 10
5819.7146247819
 20
4833.7457978436
 30
0.0
 11
5819.7146247819
 21
4809.7457978436
 31
0.0
  0
ARC
  5
572
330
1F
100
AcDbEntity
  8
0
  6
Continuous
 62
     7
370
    25
100
AcDbCircle
 10
5811.9999431565
 20
4810.2199994164
 30
0.0
 40
3.0
100
AcDbArc
 50
180.0
 51
0.0
  0
LINE
  5
573
330
1F
100
AcDbEntity
  8
0
  6
Continuous
 62
     7
370
    25
100
AcDbLine
 10
5814.9999431565
 20
4810.2199994164
 30
0.0
 11
5814.9999431565
 21
4834.2199994164
 31
0.0
  0
ARC
  5
574
330
1F
100
AcDbEntity
  8
0
  6
Continuous
 62
     7
370
    25
100
AcDbCircle
 10
5811.9999431565
 20
4834.2199994164
 30
0.0
 40
3.0
100
AcDbArc
 50
0.0
 51
180.0
  0
LINE
  5
575
330
1F
100
AcDbEntity
  8
0
  6
Continuous
 62
     7
370
    25
100
AcDbLine
 10
5808.9999431565
 20
4834.2199994164
 30
0.0
 11
5808.9999431565
 21
4810.2199994164
 31
0.0
  0
ARC
  5
576
330
1F
100
AcDbEntity
  8
0
  6
Continuous
 62
     7
370
    25
100
AcDbCircle
 10
5801.3136629059
 20
4811.1265622179
 30
0.0
 40
3.000000000000909
100
AcDbArc
 50
180.0
 51
0.0
  0
LINE
  5
577
330
1F
100
AcDbEntity
  8
0
  6
Continuous
 62
     7
370
    25
100
AcDbLine
 10
5804.3136629059
 20
4811.1265622179
 30
0.0
 11
5804.3136629059
 21
4835.1265622179
 31
0.0
  0
ARC
  5
578
330
1F
100
AcDbEntity
  8
0
  6
Continuous
 62
     7
370
    25
100
AcDbCircle
 10
5801.3136629059
 20
4835.1265622179
 30
0.0
 40
3.000000000000909
100
AcDbArc
 50
0.0
 51
180.0
  0
LINE
  5
579
330
1F
100
AcDbEntity
  8
0
  6
Continuous
 62
     7
370
    25
100
AcDbLine
 10
5798.3136629059
 20
4835.1265622179
 30
0.0
 11
5798.3136629059
 21
4811.1265622179
 31
0.0
  0
ARC
  5
57A
330
1F
100
AcDbEntity
  8
0
  6
Continuous
 62
     7
370
    25
100
AcDbCircle
 10
5790.6757701828
 20
4812.4866248556
 30
0.0
 40
3.0
100
AcDbArc
 50
180.0
 51
0.0
  0
LINE
  5
57B
330
1F
100
AcDbEntity
  8
0
  6
Continuous
 62
     7
370
    25
100
AcDbLine
 10
5793.6757701828
 20
4812.4866248556
 30
0.0
 11
5793.6757701828
 21
4836.4866248556
 31
0.0
  0
ARC
  5
57C
330
1F
100
AcDbEntity
  8
0
  6
Continuous
 62
     7
370
    25
100
AcDbCircle
 10
5790.6757701828
 20
4836.4866248556
 30
0.0
 40
3.0
100
AcDbArc
 50
0.0
 51
180.0
  0
LINE
  5
57D
330
1F
100
AcDbEntity
  8
0
  6
Continuous
 62
     7
370
    25
100
AcDbLine
 10
5787.6757701828
 20
4836.4866248556
 30
0.0
 11
5787.6757701828
 21
4812.4866248556
 31
0.0
  0
ARC
  5
57E
330
1F
100
AcDbEntity
  8
0
  6
Continuous
 62
     7
370
    25
100
AcDbCircle
 10
5780.1083549454
 20
4814.3167555788
 30
0.0
 40
3.0
100
AcDbArc
 50
180.0
 51
0.0
  0
LINE
  5
57F
330
1F
100
AcDbEntity
  8
0
  6
Continuous
 62
     7
370
    25
100
AcDbLine
 10
5783.1083549454
 20
4814.3167555788
 30
0.0
 11
5783.1083549454
 21
4838.3167555788
 31
0.0
  0
ARC
  5
580
330
1F
100
AcDbEntity
  8
0
  6
Continuous
 62
     7
370
    25
100
AcDbCircle
 10
5780.1083549454
 20
4838.3167555788
 30
0.0
 40
3.0
100
AcDbArc
 50
0.0
 51
180.0
  0
LINE
  5
581
330
1F
100
AcDbEntity
  8
0
  6
Continuous
 62
     7
370
    25
100
AcDbLine
 10
5777.1083549454
 20
4838.3167555788
 30
0.0
 11
5777.1083549454
 21
4814.3167555788
 31
0.0
  0
ARC
  5
582
330
1F
100
AcDbEntity
  8
0
  6
Continuous
 62
     7
370
    25
100
AcDbCircle
 10
5769.6356109574
 20
4816.6279901168
 30
0.0
 40
3.0
100
AcDbArc
 50
180.0
 51
0.0
  0
LINE
  5
583
330
1F
100
AcDbEntity
  8
0
  6
Continuous
 62
     7
370
    25
100
AcDbLine
 10
5772.6356109574
 20
4816.6279901168
 30
0.0
 11
5772.6356109574
 21
4840.6279901168
 31
0.0
  0
ARC
  5
584
330
1F
100
AcDbEntity
  8
0
  6
Continuous
 62
     7
370
    25
100
AcDbCircle
 10
5769.6356109574
 20
4840.6279901168
 30
0.0
 40
3.0
100
AcDbArc
 50
0.0
 51
180.0
  0
LINE
  5
585
330
1F
100
AcDbEntity
  8
0
  6
Continuous
 62
     7
370
    25
100
AcDbLine
 10
5766.6356109574
 20
4840.6279901168
 30
0.0
 11
5766.6356109574
 21
4816.6279901168
 31
0.0
  0
ARC
  5
586
330
1F
100
AcDbEntity
  8
0
  6
Continuous
 62
     7
370
    25
100
AcDbCircle
 10
5759.2827838852
 20
4819.4251565555
 30
0.0
 40
3.0
100
AcDbArc
 50
180.0
 51
0.0
  0
LINE
  5
587
330
1F
100
AcDbEntity
  8
0
  6
Continuous
 62
     7
370
    25
100
AcDbLine
 10
5762.2827838852
 20
4819.4251565555
 30
0.0
 11
5762.2827838852
 21
4843.4251565555
 31
0.0
  0
ARC
  5
588
330
1F
100
AcDbEntity
  8
0
  6
Continuous
 62
     7
370
    25
100
AcDbCircle
 10
5759.2827838852
 20
4843.4251565555
 30
0.0
 40
3.0
100
AcDbArc
 50
0.0
 51
180.0
  0
LINE
  5
589
330
1F
100
AcDbEntity
  8
0
  6
Continuous
 62
     7
370
    25
100
AcDbLine
 10
5756.2827838852
 20
4843.4251565555
 30
0.0
 11
5756.2827838852
 21
4819.4251565555
 31
0.0
  0
ARC
  5
58A
330
1F
100
AcDbEntity
  8
0
  6
Continuous
 62
     7
370
    25
100
AcDbCircle
 10
5749.0730155899
 20
4822.7072582996
 30
0.0
 40
3.0
100
AcDbArc
 50
180.0
 51
0.0
  0
LINE
  5
58B
330
1F
100
AcDbEntity
  8
0
  6
Continuous
 62
     7
370
    25
100
AcDbLine
 10
5752.0730155899
 20
4822.7072582996
 30
0.0
 11
5752.0730155899
 21
4846.7072582996
 31
0.0
  0
ARC
  5
58C
330
1F
100
AcDbEntity
  8
0
  6
Continuous
 62
     7
370
    25
100
AcDbCircle
 10
5749.0730155899
 20
4846.7072582996
 30
0.0
 40
3.0
100
AcDbArc
 50
0.0
 51
180.0
  0
LINE
  5
58D
330
1F
100
AcDbEntity
  8
0
  6
Continuous
 62
     7
370
    25
100
AcDbLine
 10
5746.0730155899
 20
4846.7072582996
 30
0.0
 11
5746.0730155899
 21
4822.7072582996
 31
0.0
  0
ARC
  5
58E
330
1F
100
AcDbEntity
  8
0
  6
Continuous
 62
     7
370
    25
100
AcDbCircle
 10
5739.0294479325
 20
4826.4668058025
 30
0.0
 40
3.0
100
AcDbArc
 50
180.0
 51
0.0
  0
LINE
  5
58F
330
1F
100
AcDbEntity
  8
0
  6
Continuous
 62
     7
370
    25
100
AcDbLine
 10
5742.0294479325
 20
4826.4668058025
 30
0.0
 11
5742.0294479325
 21
4850.4668058025
 31
0.0
  0
ARC
  5
590
330
1F
100
AcDbEntity
  8
0
  6
Continuous
 62
     7
370
    25
100
AcDbCircle
 10
5739.0294479325
 20
4850.4668058025
 30
0.0
 40
3.0
100
AcDbArc
 50
0.0
 51
180.0
  0
LINE
  5
591
330
1F
100
AcDbEntity
  8
0
  6
Continuous
 62
     7
370
    25
100
AcDbLine
 10
5736.0294479325
 20
4850.4668058025
 30
0.0
 11
5736.0294479325
 21
4826.4668058025
 31
0.0
  0
ARC
  5
592
330
1F
100
AcDbEntity
  8
0
  6
Continuous
 62
     7
370
    25
100
AcDbCircle
 10
5729.1731189682
 20
4830.6904957546
 30
0.0
 40
3.0
100
AcDbArc
 50
180.0
 51
0.0
  0
LINE
  5
593
330
1F
100
AcDbEntity
  8
0
  6
Continuous
 62
     7
370
    25
100
AcDbLine
 10
5732.1731189682
 20
4830.6904957546
 30
0.0
 11
5732.1731189682
 21
4854.6904957546
 31
0.0
  0
ARC
  5
594
330
1F
100
AcDbEntity
  8
0
  6
Continuous
 62
     7
370
    25
100
AcDbCircle
 10
5729.1731189682
 20
4854.6904957546
 30
0.0
 40
3.0
100
AcDbArc
 50
0.0
 51
180.0
  0
LINE
  5
595
330
1F
100
AcDbEntity
  8
0
  6
Continuous
 62
     7
370
    25
100
AcDbLine
 10
5726.1731189682
 20
4854.6904957546
 30
0.0
 11
5726.1731189682
 21
4830.6904957546
 31
0.0
  0
LINE
  5
596
330
1F
100
AcDbEntity
  8
0
  6
Continuous
 62
     7
370
    25
100
AcDbLine
 10
5706.8955320314
 20
4798.3617507023
 30
0.0
 11
5706.8955320314
 21
4799.5617507023
 31
0.0
  0
LINE
  5
597
330
1F
100
AcDbEntity
  8
0
  6
Continuous
 62
     7
370
    25
100
AcDbLine
 10
5707.7187553361
 20
4800.5617507024
 30
0.0
 11
5706.8955320314
 21
4799.5617507023
 31
0.0
  0
LINE
  5
598
330
1F
100
AcDbEntity
  8
0
  6
Continuous
 62
     7
370
    25
100
AcDbLine
 10
5707.7187553361
 20
4800.5617507023
 30
0.0
 11
5706.8955320314
 21
4798.3617507023
 31
0.0
  0
LINE
  5
599
330
1F
100
AcDbEntity
  8
0
  6
Continuous
 62
     7
370
    25
100
AcDbLine
 10
6841.1419786409
 20
4798.3617507023
 30
0.0
 11
6840.3187553362
 21
4800.5617507022
 31
0.0
  0
LINE
  5
59A
330
1F
100
AcDbEntity
  8
0
  6
Continuous
 62
     7
370
    25
100
AcDbLine
 10
6841.1419786409
 20
4798.3617507023
 30
0.0
 11
5706.8955320314
 21
4798.3617507023
 31
0.0
  0
LINE
  5
59B
330
1F
100
AcDbEntity
  8
0
  6
Continuous
 62
     7
370
    25
100
AcDbLine
 10
5706.718755336
 20
4799.7385273975
 30
0.0
 11
5707.7187553361
 21
4800.5617507024
 31
0.0
  0
LINE
  5
59C
330
1F
100
AcDbEntity
  8
0
  6
Continuous
 62
     7
370
    25
100
AcDbLine
 10
5705.518755336
 20
4799.7385273975
 30
0.0
 11
5706.718755336
 21
4799.7385273975
 31
0.0
  0
LINE
  5
59D
330
1F
100
AcDbEntity
  8
0
  6
Continuous
 62
     7
370
    25
100
AcDbLine
 10
6842.5187553363
 20
4799.7385273974
 30
0.0
 11
6841.3187553363
 21
4799.7385273974
 31
0.0
  0
LINE
  5
59E
330
1F
100
AcDbEntity
  8
0
  6
Continuous
 62
     7
370
    25
100
AcDbLine
 10
6840.3187553363
 20
4800.5617507022
 30
0.0
 11
6841.3187553363
 21
4799.7385273974
 31
0.0
  0
LINE
  5
59F
330
1F
100
AcDbEntity
  8
0
  6
Continuous
 62
     7
370
    25
100
AcDbLine
 10
6841.1419786409
 20
4799.5617507023
 30
0.0
 11
6840.3187553363
 21
4800.5617507022
 31
0.0
  0
LINE
  5
5A0
330
1F
100
AcDbEntity
  8
0
  6
Continuous
 62
     7
370
    25
100
AcDbLine
 10
6841.1419786409
 20
4798.3617507023
 30
0.0
 11
6841.1419786409
 21
4799.5617507023
 31
0.0
  0
LINE
  5
5A1
330
1F
100
AcDbEntity
  8
0
  6
Continuous
 62
     7
370
    25
100
AcDbLine
 10
6256.8187553361
 20
4850.8617507023
 30
0.0
 11
6256.8187553361
 21
4847.3617507023
 31
0.0
  0
LINE
  5
5A2
330
1F
100
AcDbEntity
  8
0
  6
Continuous
 62
     7
370
    25
100
AcDbLine
 10
6256.8187553361
 20
4850.8617507023
 30
0.0
 11
6258.4379714922
 21
4850.8617507023
 31
0.0
  0
LINE
  5
5A3
330
1F
100
AcDbEntity
  8
0
  6
Continuous
 62
     7
370
    25
100
AcDbLine
 10
6256.8187553361
 20
4847.3617507023
 30
0.0
 11
6256.1187553361
 21
4847.3617507023
 31
0.0
  0
LINE
  5
5A4
330
1F
100
AcDbEntity
  8
0
  6
Continuous
 62
     7
370
    25
100
AcDbLine
 10
6256.1187553361
 20
4847.3617507023
 30
0.0
 11
6256.1187553361
 21
4850.1617507023
 31
0.0
  0
ARC
  5
5A5
330
1F
100
AcDbEntity
  8
0
  6
Continuous
 62
     7
370
    25
100
AcDbCircle
 10
6256.8187553361
 20
4850.1617507023
 30
0.0
 40
0.6999999999998181
100
AcDbArc
 50
90.0
 51
180.0
  0
LINE
  5
5A6
330
1F
100
AcDbEntity
  8
0
  6
Continuous
 62
     7
370
    25
100
AcDbLine
 10
6288.4180741075
 20
4850.8617507023
 30
0.0
 11
6288.4180741075
 21
4847.3617507023
 31
0.0
  0
LINE
  5
5A7
330
1F
100
AcDbEntity
  8
0
  6
Continuous
 62
     7
370
    25
100
AcDbLine
 10
6288.4180741075
 20
4850.8617507023
 30
0.0
 11
6289.5995391802
 21
4850.8617507023
 31
0.0
  0
LINE
  5
5A8
330
1F
100
AcDbEntity
  8
0
  6
Continuous
 62
     7
370
    25
100
AcDbLine
 10
6287.7180741075
 20
4847.3617507023
 30
0.0
 11
6287.7180741075
 21
4850.1617507023
 31
0.0
  0
ARC
  5
5A9
330
1F
100
AcDbEntity
  8
0
  6
Continuous
 62
     7
370
    25
100
AcDbCircle
 10
6288.4180741075
 20
4850.1617507023
 30
0.0
 40
0.7000000000007276
100
AcDbArc
 50
90.0
 51
180.0
  0
LINE
  5
5AA
330
1F
100
AcDbEntity
  8
0
  6
Continuous
 62
     7
370
    25
100
AcDbLine
 10
6288.4180741075
 20
4847.3617507023
 30
0.0
 11
6287.7180741075
 21
4847.3617507023
 31
0.0
  0
LINE
  5
5AB
330
1F
100
AcDbEntity
  8
0
  6
Continuous
 62
     7
370
    25
100
AcDbLine
 10
6256.8187553361
 20
4847.3617507023
 30
0.0
 11
6256.8187553361
 21
4843.8617507023
 31
0.0
  0
ARC
  5
5AC
330
1F
100
AcDbEntity
  8
0
  6
Continuous
 62
     7
370
    25
100
AcDbCircle
 10
6256.8187553361
 20
4844.5617507023
 30
0.0
 40
0.6999999999998181
100
AcDbArc
 50
180.0
 51
270.0
  0
LINE
  5
5AD
330
1F
100
AcDbEntity
  8
0
  6
Continuous
 62
     7
370
    25
100
AcDbLine
 10
6256.1187553361
 20
4844.5617507023
 30
0.0
 11
6256.1187553361
 21
4847.3617507023
 31
0.0
  0
LINE
  5
5AE
330
1F
100
AcDbEntity
  8
0
  6
Continuous
 62
     7
370
    25
100
AcDbLine
 10
6289.5995391802
 20
4843.8617507023
 30
0.0
 11
6288.4180741075
 21
4843.8617507023
 31
0.0
  0
LINE
  5
5AF
330
1F
100
AcDbEntity
  8
0
  6
Continuous
 62
     7
370
    25
100
AcDbLine
 10
6288.4180741075
 20
4847.3617507023
 30
0.0
 11
6288.4180741075
 21
4843.8617507023
 31
0.0
  0
ARC
  5
5B0
330
1F
100
AcDbEntity
  8
0
  6
Continuous
 62
     7
370
    25
100
AcDbCircle
 10
6288.4180741075
 20
4844.5617507023
 30
0.0
 40
0.7000000000007276
100
AcDbArc
 50
180.0
 51
270.0
  0
LINE
  5
5B1
330
1F
100
AcDbEntity
  8
0
  6
Continuous
 62
     7
370
    25
100
AcDbLine
 10
6287.7180741075
 20
4844.5617507023
 30
0.0
 11
6287.7180741075
 21
4847.3617507023
 31
0.0
  0
LINE
  5
5B2
330
1F
100
AcDbEntity
  8
0
  6
Continuous
 62
     7
370
    25
100
AcDbLine
 10
6258.4379714922
 20
4843.8617507023
 30
0.0
 11
6256.8187553361
 21
4843.8617507023
 31
0.0
  0
LINE
  5
5B3
330
1F
100
AcDbEntity
  8
0
  6
Continuous
 62
     7
370
    25
100
AcDbLine
 10
6287.5911099143
 20
4848.3117507023
 30
0.0
 11
6287.5911099143
 21
4846.4117507023
 31
0.0
  0
LINE
  5
5B4
330
1F
100
AcDbEntity
  8
0
  6
Continuous
 62
     7
370
    25
100
AcDbLine
 10
6256.1187553361
 20
4844.5617507023
 30
0.0
 11
6255.4187553361
 21
4844.5617507023
 31
0.0
  0
LINE
  5
5B5
330
1F
100
AcDbEntity
  8
0
  6
Continuous
 62
     7
370
    25
100
AcDbLine
 10
6256.8187553361
 20
4850.8617507023
 30
0.0
 11
6256.8187553361
 21
4851.5617507023
 31
0.0
  0
LINE
  5
5B6
330
1F
100
AcDbEntity
  8
0
  6
Continuous
 62
     7
370
    25
100
AcDbLine
 10
6256.8187553361
 20
4851.5617507023
 30
0.0
 11
6257.8688085829
 21
4851.5617507023
 31
0.0
  0
ARC
  5
5B7
330
1F
100
AcDbEntity
  8
0
  6
Continuous
 62
     7
370
    25
100
AcDbCircle
 10
6272.5442175404
 20
4848.5729662836
 30
0.0
 40
14.97666385991073
100
AcDbArc
 50
168.488608232
 51
171.2094187131
  0
LINE
  5
5B8
330
1F
100
AcDbEntity
  8
0
  6
Continuous
 62
     7
370
    25
100
AcDbLine
 10
6258.1319173948
 20
4843.1617507023
 30
0.0
 11
6256.8187553361
 21
4843.1617507023
 31
0.0
  0
LINE
  5
5B9
330
1F
100
AcDbEntity
  8
0
  6
Continuous
 62
     7
370
    25
100
AcDbLine
 10
6256.8187553361
 20
4843.8617507023
 30
0.0
 11
6256.8187553361
 21
4843.1617507023
 31
0.0
  0
ARC
  5
5BA
330
1F
100
AcDbEntity
  8
0
  6
Continuous
 62
     7
370
    25
100
AcDbCircle
 10
6272.4137597958
 20
4847.2883246094
 30
0.0
 40
14.86605645680469
100
AcDbArc
 50
193.3263042335
 51
196.1160409617
  0
ARC
  5
5BB
330
1F
100
AcDbEntity
  8
0
  6
Continuous
 62
     7
370
    25
100
AcDbCircle
 10
6256.8187553361
 20
4844.5617507023
 30
0.0
 40
1.400000000000546
100
AcDbArc
 50
180.0
 51
270.0
  0
ARC
  5
5BC
330
1F
100
AcDbEntity
  8
0
  6
Continuous
 62
     7
370
    25
100
AcDbCircle
 10
6268.27011641
 20
4860.3058189288
 30
0.0
 40
2.114962488156814
100
AcDbArc
 50
113.9466658893
 51
122.6187463668
  0
ARC
  5
5BD
330
1F
100
AcDbEntity
  8
0
  6
Continuous
 62
     7
370
    25
100
AcDbCircle
 10
6274.0187553361
 20
4847.3617507023
 30
0.0
 40
19.94999999999991
100
AcDbArc
 50
299.71129725
 51
321.3514617827
  0
ARC
  5
5BE
330
1F
100
AcDbEntity
  8
0
  6
Continuous
 62
     7
370
    25
100
AcDbCircle
 10
6274.0187553361
 20
4847.3617507023
 30
0.0
 40
19.95000000000031
100
AcDbArc
 50
178.6916322146
 51
211.8086462372
  0
LINE
  5
5BF
330
1F
100
AcDbEntity
  8
0
  6
Continuous
 62
     7
370
    25
100
AcDbLine
 10
6258.4379714922
 20
4842.3468348423
 30
0.0
 11
6258.1319173948
 21
4843.1617507023
 31
0.0
  0
LWPOLYLINE
  5
5C0
330
1F
100
AcDbEntity
  8
0
  6
Continuous
 62
     7
370
    25
100
AcDbPolyline
 90
        3
 70
   128
 43
0.0
 10
6257.8688085829
 20
4851.5617507023
 10
6258.3405637447
 20
4853.2684510372
 10
6258.4379714922
 20
4853.4739524067
  0
ARC
  5
5C1
330
1F
100
AcDbEntity
  8
0
  6
Continuous
 62
     7
370
    25
100
AcDbCircle
 10
6273.2893659044
 20
4847.7906261715
 30
0.0
 40
15.56692608091899
100
AcDbArc
 50
113.3075534125
 51
132.2307016312
  0
ARC
  5
5C2
330
1F
100
AcDbEntity
  8
0
  6
Continuous
 62
     7
370
    25
100
AcDbCircle
 10
6274.0187553361
 20
4847.3617507023
 30
0.0
 40
16.27814545502464
100
AcDbArc
 50
16.8316601384
 51
42.2602911435
  0
LINE
  5
5C3
330
1F
100
AcDbEntity
  8
0
  6
Continuous
 62
     7
370
    25
100
AcDbLine
 10
6268.1829866114
 20
4862.5578627987
 30
0.0
 11
6267.4116825597
 21
4862.2387332184
 31
0.0
  0
LWPOLYLINE
  5
5C4
330
1F
100
AcDbEntity
  8
0
  6
Continuous
 62
     7
370
    25
100
AcDbPolyline
 90
        3
 70
   128
 43
0.0
 10
6275.3775157251
 20
4831.1404132217
 10
6277.4174237644
 20
4831.4423577375
 10
6277.9228572203
 20
4831.5587127687
  0
ARC
  5
5C5
330
1F
100
AcDbEntity
  8
0
  6
Continuous
 62
     7
370
    25
100
AcDbCircle
 10
6274.0187553361
 20
4847.3617507023
 30
0.0
 40
16.27814545502454
100
AcDbArc
 50
306.0554040475
 51
343.1683398615
  0
ELLIPSE
  5
5C6
330
1F
100
AcDbEntity
  8
0
  6
Continuous
 62
     7
370
    25
100
AcDbEllipse
 10
6271.7669387685
 20
4860.3058189288
 30
0.0
 11
7.431956459165121
 21
0.0
 31
0.0
210
0.0
220
0.0
230
1.0
 40
0.9998720779
 41
3.118775151141921
 42
4.187842385738499
  0
ELLIPSE
  5
5C7
330
1F
100
AcDbEntity
  8
0
  6
Continuous
 62
     7
370
    25
100
AcDbEllipse
 10
6271.7669387685
 20
4834.4176824759
 30
0.0
 11
7.431956459165121
 21
0.0
 31
0.0
210
0.0
220
0.0
230
1.0
 40
0.9998720779
 41
2.095342921441101
 42
3.159634691503422
  0
ARC
  5
5C8
330
1F
100
AcDbEntity
  8
0
  6
Continuous
 62
     7
370
    25
100
AcDbCircle
 10
6264.8399617196
 20
4855.4680075926
 30
0.0
 40
3.579462495002009
100
AcDbArc
 50
333.5544399289
 51
50.6354567782
  0
ARC
  5
5C9
330
1F
100
AcDbEntity
  8
0
  6
Continuous
 62
     7
370
    25
100
AcDbCircle
 10
6268.3906595839
 20
4860.3058767581
 30
0.0
 40
2.43442099673565
100
AcDbArc
 50
143.877510115
 51
238.2668902283
  0
ARC
  5
5CA
330
1F
100
AcDbEntity
  8
0
  6
Continuous
 62
     7
370
    25
100
AcDbCircle
 10
6264.8399617196
 20
4839.2554938121
 30
0.0
 40
3.579462495002009
100
AcDbArc
 50
309.3645432218
 51
26.4455600711
  0
ARC
  5
5CB
330
1F
100
AcDbEntity
  8
0
  6
Continuous
 62
     7
370
    25
100
AcDbCircle
 10
6268.3570742863
 20
4834.4367999105
 30
0.0
 40
2.400518789530011
100
AcDbArc
 50
121.2920457552
 51
196.984174804
  0
LINE
  5
5CC
330
1F
100
AcDbEntity
  8
0
  6
Continuous
 62
     7
370
    25
100
AcDbLine
 10
6267.1102436645
 20
4858.235383903
 30
0.0
 11
6268.8265632586
 21
4857.0451458701
 31
0.0
  0
LWPOLYLINE
  5
5CD
330
1F
100
AcDbEntity
  8
0
  6
Continuous
 62
     7
370
    25
100
AcDbPolyline
 90
        3
 70
   128
 43
0.0
 10
6268.8265632586
 20
4837.6881748884
 10
6268.753324715
 20
4837.6083905778
 10
6267.1102436645
 20
4836.4881175016
  0
ARC
  5
5CE
330
1F
100
AcDbEntity
  8
0
  6
Continuous
 62
     7
370
    25
100
AcDbCircle
 10
6274.0187553361
 20
4847.3617507023
 30
0.0
 40
20.10000000000036
100
AcDbArc
 50
180.0
 51
211.805673443
  0
ARC
  5
5CF
330
1F
100
AcDbEntity
  8
0
  6
Continuous
 62
     7
370
    25
100
AcDbCircle
 10
6274.0187553361
 20
4847.3617507023
 30
0.0
 40
20.10000000000021
100
AcDbArc
 50
299.6953992281
 51
320.8198470922
  0
ARC
  5
5D0
330
1F
100
AcDbEntity
  8
0
  6
Continuous
 62
     7
370
    25
100
AcDbCircle
 10
6274.0187553361
 20
4847.3617507023
 30
0.0
 40
20.10000000000008
100
AcDbArc
 50
353.7333232488
 51
6.2666767512
  0
ARC
  5
5D1
330
1F
100
AcDbEntity
  8
0
  6
Continuous
 62
     7
370
    25
100
AcDbCircle
 10
6274.0187553361
 20
4847.3617507023
 30
0.0
 40
20.10000000000036
100
AcDbArc
 50
140.8198470914
 51
180.0
  0
ARC
  5
5D2
330
1F
100
AcDbEntity
  8
0
  6
Continuous
 62
     7
370
    25
100
AcDbCircle
 10
6301.0187553361
 20
4847.3617507023
 30
0.0
 40
2.449999999999362
100
AcDbArc
 50
128.2893063631
 51
231.7106936369
  0
ARC
  5
5D3
330
1F
100
AcDbEntity
  8
0
  6
Continuous
 62
     7
370
    25
100
AcDbCircle
 10
6274.0187553361
 20
4847.3617507023
 30
0.0
 40
34.90000000000011
100
AcDbArc
 50
330.5681577807
 51
9.2693087163
  0
ARC
  5
5D4
330
1F
100
AcDbEntity
  8
0
  6
Continuous
 62
     7
370
    25
100
AcDbCircle
 10
6274.0187553361
 20
4847.3617507023
 30
0.0
 40
34.90000000000024
100
AcDbArc
 50
142.3605244258
 51
156.3952246782
  0
LINE
  5
5D5
330
1F
100
AcDbEntity
  8
0
  6
Continuous
 62
     7
370
    25
100
AcDbLine
 10
6299.5006555862
 20
4845.4387652242
 30
0.0
 11
6299.9986499743
 21
4845.134221791
 31
0.0
  0
LINE
  5
5D6
330
1F
100
AcDbEntity
  8
0
  6
Continuous
 62
     7
370
    25
100
AcDbLine
 10
6299.9986499743
 20
4849.5892796137
 30
0.0
 11
6299.5006555862
 21
4849.2847361805
 31
0.0
  0
ARC
  5
5D7
330
1F
100
AcDbEntity
  8
0
  6
Continuous
 62
     7
370
    25
100
AcDbCircle
 10
6247.0187553361
 20
4847.3617507023
 30
0.0
 40
2.450000000000323
100
AcDbArc
 50
65.3944076926
 51
294.6055923074
  0
LINE
  5
5D8
330
1F
100
AcDbEntity
  8
0
  6
Continuous
 62
     7
370
    25
100
AcDbLine
 10
6266.1242290867
 20
4859.1240787025
 30
0.0
 11
6267.5375811484
 21
4860.5374307642
 31
0.0
  0
LINE
  5
5D9
330
1F
100
AcDbEntity
  8
0
  6
Continuous
 62
     7
370
    25
100
AcDbLine
 10
6274.0453790552
 20
4850.7048964528
 30
0.0
 11
6274.0453790552
 21
4844.0186049518
 31
0.0
  0
CIRCLE
  5
5DA
330
1F
100
AcDbEntity
  8
0
  6
Continuous
 62
     7
370
    25
100
AcDbCircle
 10
6826.3187553361
 20
4760.3617507023
 30
0.0
 40
4.0
  0
CIRCLE
  5
5DB
330
1F
100
AcDbEntity
  8
0
  6
Continuous
 62
     7
370
    25
100
AcDbCircle
 10
6826.3187553361
 20
4760.3617507023
 30
0.0
 40
5.0
  0
ARC
  5
5DC
330
1F
100
AcDbEntity
  8
0
  6
Continuous
 62
     7
370
    25
100
AcDbCircle
 10
5721.7187553361
 20
4907.3617507023
 30
0.0
 40
4.000000000000184
100
AcDbArc
 50
270.0
 51
25.5142085466
  0
ARC
  5
5DD
330
1F
100
AcDbEntity
  8
0
  6
Continuous
 62
     7
370
    25
100
AcDbCircle
 10
5721.7187553361
 20
4907.3617507023
 30
0.0
 40
4.0
100
AcDbArc
 50
154.4857914583
 51
270.0
  0
CIRCLE
  5
5DE
330
1F
100
AcDbEntity
  8
0
  6
Continuous
 62
     7
370
    25
100
AcDbCircle
 10
5721.7187553361
 20
4760.3617507023
 30
0.0
 40
4.0
  0
CIRCLE
  5
5DF
330
1F
100
AcDbEntity
  8
0
  6
Continuous
 62
     7
370
    25
100
AcDbCircle
 10
5721.7187553361
 20
4760.3617507023
 30
0.0
 40
5.0
  0
LINE
  5
5E0
330
1F
100
AcDbEntity
  8
0
  6
Continuous
 62
     7
370
    25
100
AcDbLine
 10
5707.7187553361
 20
4745.3617507023
 30
0.0
 11
5757.7187553361
 21
4745.3617507023
 31
0.0
  0
LINE
  5
5E1
330
1F
100
AcDbEntity
  8
0
  6
Continuous
 62
     7
370
    25
100
AcDbLine
 10
5707.7187553361
 20
4775.3617507023
 30
0.0
 11
5707.7187553361
 21
4745.3617507023
 31
0.0
  0
LINE
  5
5E2
330
1F
100
AcDbEntity
  8
0
  6
Continuous
 62
     7
370
    25
100
AcDbLine
 10
5757.7187553361
 20
4775.3617507023
 30
0.0
 11
5731.7187553361
 21
4775.3617507023
 31
0.0
  0
LINE
  5
5E3
330
1F
100
AcDbEntity
  8
0
  6
Continuous
 62
     7
370
    25
100
AcDbLine
 10
5711.7187553361
 20
4775.3617507023
 30
0.0
 11
5707.7187553361
 21
4775.3617507023
 31
0.0
  0
LINE
  5
5E4
330
1F
100
AcDbEntity
  8
0
  6
Continuous
 62
     7
370
    25
100
AcDbLine
 10
5757.7187553361
 20
4745.3617507023
 30
0.0
 11
5757.7187553361
 21
4775.3617507023
 31
0.0
  0
CIRCLE
  5
5E5
330
1F
100
AcDbEntity
  8
0
  6
Continuous
 62
     7
370
    25
100
AcDbCircle
 10
5743.7187553361
 20
4760.3617507023
 30
0.0
 40
2.75
  0
ARC
  5
5E6
330
1F
100
AcDbEntity
  8
0
  6
Continuous
 62
     7
370
    25
100
AcDbCircle
 10
6826.3187553361
 20
4907.3617507023
 30
0.0
 40
4.0
100
AcDbArc
 50
270.0
 51
25.5142085417
  0
ARC
  5
5E7
330
1F
100
AcDbEntity
  8
0
  6
Continuous
 62
     7
370
    25
100
AcDbCircle
 10
6826.3187553361
 20
4907.3617507023
 30
0.0
 40
4.000000000000184
100
AcDbArc
 50
154.4857914534
 51
270.0
  0
LINE
  5
5E8
330
1F
100
AcDbEntity
  8
0
  6
Continuous
 62
     7
370
    25
100
AcDbLine
 10
6840.3187553361
 20
4922.3617507023
 30
0.0
 11
6790.3187553361
 21
4922.3617507023
 31
0.0
  0
LINE
  5
5E9
330
1F
100
AcDbEntity
  8
0
  6
Continuous
 62
     7
370
    25
100
AcDbLine
 10
6840.3187553361
 20
4920.0617507023
 30
0.0
 11
6840.3187553361
 21
4922.3617507023
 31
0.0
  0
LINE
  5
5EA
330
1F
100
AcDbEntity
  8
0
  6
Continuous
 62
     7
370
    25
100
AcDbLine
 10
6790.3187553361
 20
4922.3617507023
 30
0.0
 11
6790.3187553361
 21
4920.0617507023
 31
0.0
  0
LINE
  5
5EB
330
1F
100
AcDbEntity
  8
0
  6
Continuous
 62
     7
370
    25
100
AcDbLine
 10
5671.7187553361
 20
4920.0617507023
 30
0.0
 11
6876.3187553361
 21
4920.0617507023
 31
0.0
  0
LINE
  5
5EC
330
1F
100
AcDbEntity
  8
0
  6
Continuous
 62
     7
370
    25
100
AcDbLine
 10
6876.3187553361
 20
4920.0617507023
 30
0.0
 11
6876.3187553361
 21
4918.5617507023
 31
0.0
  0
LINE
  5
5ED
330
1F
100
AcDbEntity
  8
0
  6
Continuous
 62
     7
370
    25
100
AcDbLine
 10
5671.7187553361
 20
4920.0617507023
 30
0.0
 11
5671.7187553361
 21
4918.5617507023
 31
0.0
  0
LINE
  5
5EE
330
1F
100
AcDbEntity
  8
0
  6
Continuous
 62
     7
370
    25
100
AcDbLine
 10
5671.7187553361
 20
4918.5617507023
 30
0.0
 11
6876.3187553361
 21
4918.5617507023
 31
0.0
  0
LINE
  5
5EF
330
1F
100
AcDbEntity
  8
0
  6
Continuous
 62
     7
370
    25
100
AcDbLine
 10
6844.6187553361
 20
4898.3617507023
 30
0.0
 11
5703.4187553361
 21
4898.3617507023
 31
0.0
  0
ARC
  5
5F0
330
1F
100
AcDbEntity
  8
0
  6
Continuous
 62
     7
370
    25
100
AcDbCircle
 10
5703.4187553361
 20
4897.3617507023
 30
0.0
 40
1.000000000000909
100
AcDbArc
 50
90.0
 51
180.0
  0
ARC
  5
5F1
330
1F
100
AcDbEntity
  8
0
  6
Continuous
 62
     7
370
    25
100
AcDbCircle
 10
6844.6187553361
 20
4897.3617507023
 30
0.0
 40
1.000000000000909
100
AcDbArc
 50
0.0
 51
90.0
  0
LINE
  5
5F2
330
1F
100
AcDbEntity
  8
0
  6
Continuous
 62
     7
370
    25
100
AcDbLine
 10
6845.6187553361
 20
4897.3617507023
 30
0.0
 11
6845.6187553361
 21
4797.3617507023
 31
0.0
  0
LINE
  5
5F3
330
1F
100
AcDbEntity
  8
0
  6
Continuous
 62
     7
370
    25
100
AcDbLine
 10
5702.4187553361
 20
4797.3617507023
 30
0.0
 11
5702.4187553361
 21
4897.3617507023
 31
0.0
  0
ARC
  5
5F4
330
1F
100
AcDbEntity
  8
0
  6
Continuous
 62
     7
370
    25
100
AcDbCircle
 10
6844.6187553361
 20
4797.3617507023
 30
0.0
 40
1.000000000000909
100
AcDbArc
 50
270.0
 51
0.0
  0
ARC
  5
5F5
330
1F
100
AcDbEntity
  8
0
  6
Continuous
 62
     7
370
    25
100
AcDbCircle
 10
5703.4187553361
 20
4797.3617507023
 30
0.0
 40
1.000000000000909
100
AcDbArc
 50
180.0
 51
270.0
  0
LINE
  5
5F6
330
1F
100
AcDbEntity
  8
0
  6
Continuous
 62
     7
370
    25
100
AcDbLine
 10
6844.6187553361
 20
4796.3617507023
 30
0.0
 11
5703.4187553361
 21
4796.3617507023
 31
0.0
  0
LINE
  5
5F7
330
1F
100
AcDbEntity
  8
0
  6
Continuous
 62
     7
370
    25
100
AcDbLine
 10
5671.7187553361
 20
4776.1617507023
 30
0.0
 11
6876.3187553361
 21
4776.1617507023
 31
0.0
  0
CIRCLE
  5
5F8
330
1F
100
AcDbEntity
  8
0
  6
Continuous
 62
     7
370
    25
100
AcDbCircle
 10
6826.3187553361
 20
4906.8416965879
 30
0.0
 40
4.249999999999091
  0
CIRCLE
  5
5F9
330
1F
100
AcDbEntity
  8
0
  6
Continuous
 62
     7
370
    25
100
AcDbCircle
 10
5721.7187553361
 20
4906.8416965879
 30
0.0
 40
4.249999999999091
  0
LINE
  5
5FA
330
1F
100
AcDbEntity
  8
0
  6
Continuous
 62
     7
370
    25
100
AcDbLine
 10
6876.3187553361
 20
4776.1617507023
 30
0.0
 11
6876.3187553361
 21
4918.5617507023
 31
0.0
  0
LINE
  5
5FB
330
1F
100
AcDbEntity
  8
0
  6
Continuous
 62
     7
370
    25
100
AcDbLine
 10
5671.7187553361
 20
4918.5617507023
 30
0.0
 11
5671.7187553361
 21
4776.1617507023
 31
0.0
  0
LINE
  5
5FC
330
1F
100
AcDbEntity
  8
0
  6
Continuous
 62
     7
370
    25
100
AcDbLine
 10
6816.3187553361
 20
4773.381267251
 30
0.0
 11
6836.3187553361
 21
4773.381267251
 31
0.0
  0
LINE
  5
5FD
330
1F
100
AcDbEntity
  8
0
  6
Continuous
 62
     7
370
    25
100
AcDbLine
 10
6836.3187553361
 20
4776.1617507023
 30
0.0
 11
6836.3187553361
 21
4773.381267251
 31
0.0
  0
LINE
  5
5FE
330
1F
100
AcDbEntity
  8
0
  6
Continuous
 62
     7
370
    25
100
AcDbLine
 10
6816.3187553361
 20
4776.1617507023
 30
0.0
 11
6816.3187553361
 21
4773.381267251
 31
0.0
  0
LINE
  5
5FF
330
1F
100
AcDbEntity
  8
0
  6
Continuous
 62
     7
370
    25
100
AcDbLine
 10
5731.7187553361
 20
4773.381267251
 30
0.0
 11
5711.7187553361
 21
4773.381267251
 31
0.0
  0
LINE
  5
600
330
1F
100
AcDbEntity
  8
0
  6
Continuous
 62
     7
370
    25
100
AcDbLine
 10
5731.7187553361
 20
4776.1617507023
 30
0.0
 11
5731.7187553361
 21
4773.381267251
 31
0.0
  0
LINE
  5
601
330
1F
100
AcDbEntity
  8
0
  6
Continuous
 62
     7
370
    25
100
AcDbLine
 10
5711.7187553361
 20
4776.1617507023
 30
0.0
 11
5711.7187553361
 21
4773.381267251
 31
0.0
  0
LINE
  5
602
330
1F
100
AcDbEntity
  8
0
  6
Continuous
 62
     7
370
    25
100
AcDbLine
 10
5730.2187553361
 20
4755.4542734142
 30
0.0
 11
5721.7187553361
 21
4750.5467961261
 31
0.0
  0
LINE
  5
603
330
1F
100
AcDbEntity
  8
0
  6
Continuous
 62
     7
370
    25
100
AcDbLine
 10
5721.7187553361
 20
4750.5467961261
 30
0.0
 11
5713.2187553361
 21
4755.4542734142
 31
0.0
  0
LINE
  5
604
330
1F
100
AcDbEntity
  8
0
  6
Continuous
 62
     7
370
    25
100
AcDbLine
 10
5713.2187553361
 20
4755.4542734142
 30
0.0
 11
5713.2187553361
 21
4765.2692279905
 31
0.0
  0
LINE
  5
605
330
1F
100
AcDbEntity
  8
0
  6
Continuous
 62
     7
370
    25
100
AcDbLine
 10
5721.7187553361
 20
4770.1767052786
 30
0.0
 11
5730.2187553361
 21
4765.2692279905
 31
0.0
  0
LINE
  5
606
330
1F
100
AcDbEntity
  8
0
  6
Continuous
 62
     7
370
    25
100
AcDbLine
 10
5730.2187553361
 20
4765.2692279905
 30
0.0
 11
5730.2187553361
 21
4755.4542734142
 31
0.0
  0
LINE
  5
607
330
1F
100
AcDbEntity
  8
0
  6
Continuous
 62
     7
370
    25
100
AcDbLine
 10
5713.2187553361
 20
4765.2692279905
 30
0.0
 11
5721.7187553361
 21
4770.1767052786
 31
0.0
  0
LINE
  5
608
330
1F
100
AcDbEntity
  8
0
  6
Continuous
 62
     7
370
    25
100
AcDbLine
 10
6834.8187553361
 20
4755.4542734142
 30
0.0
 11
6834.8187553361
 21
4765.2692279905
 31
0.0
  0
LINE
  5
609
330
1F
100
AcDbEntity
  8
0
  6
Continuous
 62
     7
370
    25
100
AcDbLine
 10
6826.3187553361
 20
4750.5467961261
 30
0.0
 11
6834.8187553361
 21
4755.4542734142
 31
0.0
  0
LINE
  5
60A
330
1F
100
AcDbEntity
  8
0
  6
Continuous
 62
     7
370
    25
100
AcDbLine
 10
6817.8187553361
 20
4755.4542734142
 30
0.0
 11
6826.3187553361
 21
4750.5467961261
 31
0.0
  0
LINE
  5
60B
330
1F
100
AcDbEntity
  8
0
  6
Continuous
 62
     7
370
    25
100
AcDbLine
 10
6817.8187553361
 20
4765.2692279905
 30
0.0
 11
6817.8187553361
 21
4755.4542734142
 31
0.0
  0
LINE
  5
60C
330
1F
100
AcDbEntity
  8
0
  6
Continuous
 62
     7
370
    25
100
AcDbLine
 10
6826.3187553361
 20
4770.1767052786
 30
0.0
 11
6817.8187553361
 21
4765.2692279905
 31
0.0
  0
LINE
  5
60D
330
1F
100
AcDbEntity
  8
0
  6
Continuous
 62
     7
370
    25
100
AcDbLine
 10
6834.8187553361
 20
4765.2692279905
 30
0.0
 11
6826.3187553361
 21
4770.1767052786
 31
0.0
  0
LINE
  5
60E
330
1F
100
AcDbEntity
  8
0
  6
Continuous
 62
     7
370
    25
100
AcDbLine
 10
6816.3187553361
 20
4772.7199586896
 30
0.0
 11
6836.3187553361
 21
4772.7199586896
 31
0.0
  0
LINE
  5
60F
330
1F
100
AcDbEntity
  8
0
  6
Continuous
 62
     7
370
    25
100
AcDbLine
 10
6836.3187553361
 20
4773.381267251
 30
0.0
 11
6836.3187553361
 21
4772.7199586896
 31
0.0
  0
LINE
  5
610
330
1F
100
AcDbEntity
  8
0
  6
Continuous
 62
     7
370
    25
100
AcDbLine
 10
6816.3187553361
 20
4773.381267251
 30
0.0
 11
6816.3187553361
 21
4772.7199586896
 31
0.0
  0
LINE
  5
611
330
1F
100
AcDbEntity
  8
0
  6
Continuous
 62
     7
370
    25
100
AcDbLine
 10
5731.7187553361
 20
4772.7199586896
 30
0.0
 11
5711.7187553361
 21
4772.7199586896
 31
0.0
  0
LINE
  5
612
330
1F
100
AcDbEntity
  8
0
  6
Continuous
 62
     7
370
    25
100
AcDbLine
 10
5731.7187553361
 20
4773.381267251
 30
0.0
 11
5731.7187553361
 21
4772.7199586896
 31
0.0
  0
LINE
  5
613
330
1F
100
AcDbEntity
  8
0
  6
Continuous
 62
     7
370
    25
100
AcDbLine
 10
5711.7187553361
 20
4773.381267251
 30
0.0
 11
5711.7187553361
 21
4772.7199586896
 31
0.0
  0
LINE
  5
614
330
1F
100
AcDbEntity
  8
0
  6
Continuous
 62
     7
370
    25
100
AcDbLine
 10
6828.3507325016
 20
4751.7199586896
 30
0.0
 11
6836.3187553361
 21
4751.7199586896
 31
0.0
  0
LINE
  5
615
330
1F
100
AcDbEntity
  8
0
  6
Continuous
 62
     7
370
    25
100
AcDbLine
 10
6816.3187553361
 20
4751.7199586896
 30
0.0
 11
6824.2867781706
 21
4751.7199586896
 31
0.0
  0
LINE
  5
616
330
1F
100
AcDbEntity
  8
0
  6
Continuous
 62
     7
370
    25
100
AcDbLine
 10
6836.3187553361
 20
4772.7199586896
 30
0.0
 11
6836.3187553361
 21
4751.7199586896
 31
0.0
  0
LINE
  5
617
330
1F
100
AcDbEntity
  8
0
  6
Continuous
 62
     7
370
    25
100
AcDbLine
 10
6816.3187553361
 20
4772.7199586896
 30
0.0
 11
6816.3187553361
 21
4751.7199586896
 31
0.0
  0
LINE
  5
618
330
1F
100
AcDbEntity
  8
0
  6
Continuous
 62
     7
370
    25
100
AcDbLine
 10
5731.7187553361
 20
4751.7199586896
 30
0.0
 11
5723.7507325016
 21
4751.7199586896
 31
0.0
  0
LINE
  5
619
330
1F
100
AcDbEntity
  8
0
  6
Continuous
 62
     7
370
    25
100
AcDbLine
 10
5719.6867781706
 20
4751.7199586896
 30
0.0
 11
5711.7187553361
 21
4751.7199586896
 31
0.0
  0
LINE
  5
61A
330
1F
100
AcDbEntity
  8
0
  6
Continuous
 62
     7
370
    25
100
AcDbLine
 10
5731.7187553361
 20
4772.7199586896
 30
0.0
 11
5731.7187553361
 21
4751.7199586896
 31
0.0
  0
LINE
  5
61B
330
1F
100
AcDbEntity
  8
0
  6
Continuous
 62
     7
370
    25
100
AcDbLine
 10
5711.7187553361
 20
4772.7199586896
 30
0.0
 11
5711.7187553361
 21
4751.7199586896
 31
0.0
  0
LINE
  5
61C
330
1F
100
AcDbEntity
  8
0
  6
Continuous
 62
     8
370
    25
100
AcDbLine
 10
6256.8187553361
 20
4847.3617507023
 30
0.0
 11
6258.4379714922
 21
4847.3617507023
 31
0.0
  0
LINE
  5
61D
330
1F
100
AcDbEntity
  8
0
  6
Continuous
 62
     8
370
    25
100
AcDbLine
 10
6288.4180741075
 20
4847.3617507023
 30
0.0
 11
6289.5995391802
 21
4847.3617507023
 31
0.0
  0
LINE
  5
61E
330
1F
100
AcDbEntity
  8
0
  6
Continuous
 62
     8
370
    25
100
AcDbLine
 10
6255.8964771265
 20
4848.3645131333
 30
0.0
 11
6253.9993791321
 21
4848.469485509
 31
0.0
  0
LINE
  5
61F
330
1F
100
AcDbEntity
  8
0
  6
Continuous
 62
     8
370
    25
100
AcDbLine
 10
6293.9986499743
 20
4848.4673008702
 30
0.0
 11
6294.0381315401
 21
4848.469485509
 31
0.0
  0
LINE
  5
620
330
1F
100
AcDbEntity
  8
0
  6
Continuous
 62
     8
370
    25
100
AcDbLine
 10
6255.9464007579
 20
4848.3117507023
 30
0.0
 11
6255.9464007579
 21
4846.4117507023
 31
0.0
  0
LINE
  5
621
330
1F
100
AcDbEntity
  8
0
  6
Continuous
 62
     8
370
    25
100
AcDbLine
 10
6255.4187553361
 20
4844.5617507023
 30
0.0
 11
6255.4187553361
 21
4846.4844946439
 31
0.0
  0
LINE
  5
622
330
1F
100
AcDbEntity
  8
0
  6
Continuous
 62
     8
370
    25
100
AcDbLine
 10
6256.1187553361
 20
4850.1617507023
 30
0.0
 11
6256.0860338472
 21
4850.1617507023
 31
0.0
  0
LWPOLYLINE
  5
623
330
1F
100
AcDbEntity
  8
0
  6
Continuous
 62
     8
370
    25
100
AcDbPolyline
 90
        3
 70
   128
 43
0.0
 10
6256.8187553361
 20
4851.5617507023
 10
6256.5456288853
 20
4851.5348500949
 10
6256.3416690966
 20
4851.477953088
  0
LINE
  5
624
330
1F
100
AcDbEntity
  8
0
  6
Continuous
 62
     8
370
    25
100
AcDbLine
 10
6257.8688085827
 20
4851.5617507016
 30
0.0
 11
6258.4379714922
 21
4851.561750702
 31
0.0
  0
ELLIPSE
  5
625
330
1F
100
AcDbEntity
  8
0
  6
Continuous
 62
     8
370
    25
100
AcDbEllipse
 10
6264.2763521413
 20
4847.3617507023
 30
0.0
 11
7.524669661681401
 21
0.0
 31
0.0
210
0.0
220
0.0
230
1.0
 40
0.9998720779
 41
5.236935575030721
 42
5.361785361235394
  0
ELLIPSE
  5
626
330
1F
100
AcDbEntity
  8
0
  6
Continuous
 62
     8
370
    25
100
AcDbEllipse
 10
6264.2763521413
 20
4847.3617507023
 30
0.0
 11
7.524669661681401
 21
0.0
 31
0.0
210
0.0
220
0.0
230
1.0
 40
0.9998720779
 41
0.9213999459442068
 42
1.04624973214888
  0
ARC
  5
627
330
1F
100
AcDbEntity
  8
0
  6
Continuous
 62
     8
370
    25
100
AcDbCircle
 10
6274.0187553361
 20
4847.3617507023
 30
0.0
 40
25.5543560573178
100
AcDbArc
 50
4.3156322274
 51
18.4609416796
  0
ARC
  5
628
330
1F
100
AcDbEntity
  8
0
  6
Continuous
 62
     8
370
    25
100
AcDbCircle
 10
6274.0187553361
 20
4847.3617507023
 30
0.0
 40
25.55435605731794
100
AcDbArc
 50
321.4310691784
 51
355.6843677726
  0
ARC
  5
629
330
1F
100
AcDbEntity
  8
0
  6
Continuous
 62
     8
370
    25
100
AcDbCircle
 10
6274.0187553361
 20
4847.3617507023
 30
0.0
 40
25.5543560573174
100
AcDbArc
 50
132.8072780255
 51
147.6189494208
  0
LINE
  5
62A
330
1F
100
AcDbEntity
  8
0
  6
Continuous
 62
     8
370
    25
100
AcDbLine
 10
6257.3130379268
 20
4858.4487478539
 30
0.0
 11
6257.2530613701
 21
4858.4487478539
 31
0.0
  0
LINE
  5
62B
330
1F
100
AcDbEntity
  8
0
  6
Continuous
 62
     8
370
    25
100
AcDbLine
 10
6256.8063387412
 20
4837.2753630951
 30
0.0
 11
6256.6327038857
 21
4837.2753630951
 31
0.0
  0
LINE
  5
62C
330
1F
100
AcDbEntity
  8
0
  6
Continuous
 62
     8
370
    25
100
AcDbLine
 10
6256.6327038857
 20
4857.4481383096
 30
0.0
 11
6256.6905331239
 21
4857.4481383096
 31
0.0
  0
LINE
  5
62D
330
1F
100
AcDbEntity
  8
0
  6
Continuous
 62
     8
370
    25
100
AcDbLine
 10
6257.5944271793
 20
4858.9484432674
 30
0.0
 11
6257.6556549147
 21
4858.9484432674
 31
0.0
  0
LINE
  5
62E
330
1F
100
AcDbEntity
  8
0
  6
Continuous
 62
     8
370
    25
100
AcDbLine
 10
6267.2148824851
 20
4858.0334253041
 30
0.0
 11
6266.1242290867
 21
4859.1240787025
 31
0.0
  0
LINE
  5
62F
330
1F
100
AcDbEntity
  8
0
  6
Continuous
 62
     8
370
    25
100
AcDbLine
 10
6266.1242290867
 20
4835.5994227022
 30
0.0
 11
6267.2062416031
 21
4836.6814352186
 31
0.0
  0
LWPOLYLINE
  5
630
330
1F
100
AcDbEntity
  8
0
  6
Continuous
 62
     8
370
    25
100
AcDbPolyline
 90
        3
 70
   128
 43
0.0
 10
6266.3284016182
 20
4861.5308631868
 10
6266.9539372685
 20
4861.0664147424
 10
6267.5375811484
 20
4860.5374307642
  0
ARC
  5
631
330
1F
100
AcDbEntity
  8
0
  6
Continuous
 62
     8
370
    25
100
AcDbCircle
 10
6266.0187553361
 20
4850.7048964528
 30
0.0
 40
8.026623719119016
100
AcDbArc
 50
0.0
 51
26.3574116269
  0
LINE
  5
632
330
1F
100
AcDbEntity
  8
0
  6
Continuous
 62
     8
370
    25
100
AcDbLine
 10
6274.0453790552
 20
4850.7048964528
 30
0.0
 11
6273.2109474138
 21
4850.7048964528
 31
0.0
  0
LINE
  5
633
330
1F
100
AcDbEntity
  8
0
  6
Continuous
 62
     8
370
    25
100
AcDbLine
 10
6274.0453790552
 20
4844.0186049518
 30
0.0
 11
6273.2109474138
 21
4844.0186049518
 31
0.0
  0
LINE
  5
634
330
1F
100
AcDbEntity
  8
0
  6
Continuous
 62
     8
370
    25
100
AcDbLine
 10
6267.5375811484
 20
4860.5374307642
 30
0.0
 11
6268.8265632586
 21
4859.248448654
 31
0.0
  0
ARC
  5
635
330
1F
100
AcDbEntity
  8
0
  6
Continuous
 62
     8
370
    25
100
AcDbCircle
 10
6266.0187553361
 20
4844.0186049518
 30
0.0
 40
8.026623719119016
100
AcDbArc
 50
333.6425883732
 51
0.0
  0
LINE
  5
636
330
1F
100
AcDbEntity
  8
0
  6
Continuous
 62
     8
370
    25
100
AcDbLine
 10
6267.5073900275
 20
4834.2162617615
 30
0.0
 11
6266.1242290867
 21
4835.5994227022
 31
0.0
  0
LINE
  5
637
330
1F
100
AcDbEntity
  8
0
  6
Continuous
 62
     8
370
    25
100
AcDbLine
 10
6268.1266056619
 20
4834.775095154
 30
0.0
 11
6267.752648652
 21
4834.4011381441
 31
0.0
  0
LINE
  5
638
330
1F
100
AcDbEntity
  8
0
  6
Continuous
 62
     8
370
    25
100
AcDbLine
 10
6844.6187553361
 20
4898.3617507023
 30
0.0
 11
6844.6187553361
 21
4901.7617507023
 31
0.0
  0
LINE
  5
639
330
1F
100
AcDbEntity
  8
0
  6
Continuous
 62
     8
370
    25
100
AcDbLine
 10
5703.4187553361
 20
4898.3617507023
 30
0.0
 11
5703.4187553361
 21
4901.7617497184
 31
0.0
  0
LINE
  5
63A
330
1F
100
AcDbEntity
  8
0
  6
Continuous
 62
     8
370
    25
100
AcDbLine
 10
5702.4187553361
 20
4897.3617507023
 30
0.0
 11
5699.0187553361
 21
4897.3617507023
 31
0.0
  0
LINE
  5
63B
330
1F
100
AcDbEntity
  8
0
  6
Continuous
 62
     8
370
    25
100
AcDbLine
 10
6845.6187553361
 20
4897.3617507023
 30
0.0
 11
6849.0187553361
 21
4897.3617507023
 31
0.0
  0
LINE
  5
63C
330
1F
100
AcDbEntity
  8
0
  6
Continuous
 62
     8
370
    25
100
AcDbLine
 10
6845.6187553361
 20
4797.3617507023
 30
0.0
 11
6849.0187553361
 21
4797.3617507023
 31
0.0
  0
LINE
  5
63D
330
1F
100
AcDbEntity
  8
0
  6
Continuous
 62
     8
370
    25
100
AcDbLine
 10
5702.4187553361
 20
4797.3617507023
 30
0.0
 11
5699.0187553361
 21
4797.3617507023
 31
0.0
  0
LINE
  5
63E
330
1F
100
AcDbEntity
  8
0
  6
Continuous
 62
     8
370
    25
100
AcDbLine
 10
6844.6187553361
 20
4796.3617507023
 30
0.0
 11
6844.6187553361
 21
4792.9617507023
 31
0.0
  0
LINE
  5
63F
330
1F
100
AcDbEntity
  8
0
  6
Continuous
 62
     8
370
    25
100
AcDbLine
 10
5703.4187553361
 20
4796.3617507023
 30
0.0
 11
5703.4187553361
 21
4792.9617507023
 31
0.0
  0
ARC
  5
640
330
1F
100
AcDbEntity
  8
0
  6
Continuous
 62
     8
370
    25
100
AcDbCircle
 10
6274.0187553361
 20
4847.3617507023
 30
0.0
 40
40.00000000000013
100
AcDbArc
 50
323.3315085778
 51
335.4909692174
  0
ARC
  5
641
330
1F
100
AcDbEntity
  8
0
  6
Continuous
 62
     8
370
    25
100
AcDbCircle
 10
6274.0187553361
 20
4847.3617507023
 30
0.0
 40
40.00000000000017
100
AcDbArc
 50
155.4909692167
 51
188.3448786046
  0
ARC
  5
642
330
1F
100
AcDbEntity
  8
0
  6
Continuous
 62
     8
370
    25
100
AcDbCircle
 10
6274.0187553361
 20
4847.3617507023
 30
0.0
 40
35.20108727315827
100
AcDbArc
 50
329.7108859142
 51
8.9497449943
  0
ARC
  5
643
330
1F
100
AcDbEntity
  8
0
  6
Continuous
 62
     8
370
    25
100
AcDbCircle
 10
6274.0187553361
 20
4847.3617507023
 30
0.0
 40
35.20108727315854
100
AcDbArc
 50
142.4826339708
 51
155.2977369638
  0
ENDSEC
  0
SECTION
  2
OBJECTS
  0
DICTIONARY
  5
C
330
0
100
AcDbDictionary
281
     1
  3
ACAD_GROUP
350
D
  3
ACAD_LAYOUT
350
1A
  3
ACAD_MLINESTYLE
350
17
  3
ACAD_PLOTSETTINGS
350
19
  3
ACAD_PLOTSTYLENAME
350
E
  3
ACAD_SCALELIST
350
47
  3
DWGPROPS
350
644
  0
DICTIONARY
  5
D
102
{ACAD_REACTORS
330
C
102
}
330
C
100
AcDbDictionary
281
     1
  0
DICTIONARY
  5
1A
102
{ACAD_REACTORS
330
C
102
}
330
C
100
AcDbDictionary
281
     1
  3
Layout1
350
1E
  3
Layout2
350
26
  3
Model
350
22
  0
DICTIONARY
  5
17
102
{ACAD_REACTORS
330
C
102
}
330
C
100
AcDbDictionary
281
     1
  3
Standard
350
18
  0
DICTIONARY
  5
19
102
{ACAD_REACTORS
330
C
102
}
330
C
100
AcDbDictionary
281
     1
  0
ACDBDICTIONARYWDFLT
  5
E
102
{ACAD_REACTORS
330
C
102
}
330
C
100
AcDbDictionary
281
     1
  3
Normal
350
F
100
AcDbDictionaryWithDefault
340
F
  0
DICTIONARY
  5
47
102
{ACAD_REACTORS
330
C
102
}
330
C
100
AcDbDictionary
281
     1
  3
A0
350
48
  3
A1
350
49
  3
A2
350
4A
  3
A3
350
4B
  3
A4
350
4C
  3
A5
350
4D
  3
A6
350
4E
  3
A7
350
4F
  3
A8
350
50
  3
A9
350
51
  3
B0
350
52
  3
B1
350
53
  3
B2
350
54
  3
B3
350
55
  3
B4
350
56
  3
B5
350
57
  3
B6
350
58
  3
B7
350
59
  3
B8
350
5A
  3
B9
350
5B
  3
C0
350
5C
  3
C1
350
5D
  3
C2
350
5E
  3
C3
350
5F
  3
C4
350
60
  3
C5
350
61
  3
C6
350
62
  3
C7
350
63
  3
C8
350
64
  3
C9
350
65
  3
D0
350
66
  3
D1
350
67
  3
D2
350
68
  0
XRECORD
  5
644
102
{ACAD_REACTORS
330
C
102
}
330
C
100
AcDbXrecord
280
     1
  1
DWGPROPS COOKIE
  2

  3

  4

  6

  7

  8
radek.stransky
  9

300
=
301
=
302
=
303
=
304
=
305
=
306
=
307
=
308
=
309
=
 40
0.0
 41
2459107.45977015
 42
2459107.459770694
  1

 90
        0
  0
LAYOUT
  5
1E
102
{ACAD_REACTORS
330
1A
102
}
330
1A
100
AcDbPlotSettings
  1

  2
none_device
  4

  6

 40
0.0
 41
0.0
 42
0.0
 43
0.0
 44
0.0
 45
0.0
 46
0.0
 47
0.0
 48
0.0
 49
0.0
140
0.0
141
0.0
142
1.0
143
1.0
 70
   688
 72
     1
 73
     0
 74
     5
  7

 75
    16
147
1.0
148
0.0
149
0.0
100
AcDbLayout
  1
Layout1
 70
     1
 71
     1
 10
0.0
 20
0.0
 11
420.0
 21
297.0
 12
0.0
 22
0.0
 32
0.0
 14
1.0000000000E+20
 24
1.0000000000E+20
 34
1.0000000000E+20
 15
-1.0000000000E+20
 25
-1.0000000000E+20
 35
-1.0000000000E+20
146
0.0
 13
0.0
 23
0.0
 33
0.0
 16
1.0
 26
0.0
 36
0.0
 17
0.0
 27
1.0
 37
0.0
 76
     0
330
1B
  0
LAYOUT
  5
26
102
{ACAD_REACTORS
330
1A
102
}
330
1A
100
AcDbPlotSettings
  1

  2
none_device
  4

  6

 40
0.0
 41
0.0
 42
0.0
 43
0.0
 44
0.0
 45
0.0
 46
0.0
 47
0.0
 48
0.0
 49
0.0
140
0.0
141
0.0
142
1.0
143
1.0
 70
   688
 72
     1
 73
     0
 74
     5
  7

 75
    16
147
1.0
148
0.0
149
0.0
100
AcDbLayout
  1
Layout2
 70
     1
 71
     2
 10
0.0
 20
0.0
 11
0.0
 21
0.0
 12
0.0
 22
0.0
 32
0.0
 14
0.0
 24
0.0
 34
0.0
 15
0.0
 25
0.0
 35
0.0
146
0.0
 13
0.0
 23
0.0
 33
0.0
 16
1.0
 26
0.0
 36
0.0
 17
0.0
 27
1.0
 37
0.0
 76
     0
330
23
  0
LAYOUT
  5
22
102
{ACAD_REACTORS
330
1A
102
}
330
1A
100
AcDbPlotSettings
  1

  2
none_device
  4
Letter_(8.50_x_11.00_Inches)
  6

 40
6.35
 41
6.35
 42
6.35000508
 43
6.35000508
 44
215.9
 45
279.4
 46
0.0
 47
0.0
 48
0.0
 49
0.0
140
0.0
141
0.0
142
1.0
143
1.0
 70
  1712
 72
     1
 73
     0
 74
     0
  7

 75
     0
147
1.0
148
0.0
149
0.0
100
AcDbLayout
  1
Model
 70
     1
 71
     0
 10
0.0
 20
0.0
 11
20000.0
 21
10000.0
 12
0.0
 22
0.0
 32
0.0
 14
0.0
 24
0.0
 34
0.0
 15
20000.0
 25
10000.0
 35
0.0
146
0.0
 13
0.0
 23
0.0
 33
0.0
 16
1.0
 26
0.0
 36
0.0
 17
0.0
 27
1.0
 37
0.0
 76
     0
330
1F
331
29
  0
MLINESTYLE
  5
18
102
{ACAD_REACTORS
330
17
102
}
330
17
100
AcDbMlineStyle
  2
Standard
 70
     0
  3

 62
   256
 51
90.0
 52
90.0
 71
     2
 49
0.5
 62
   256
  6
BYLAYER
 49
-0.5
 62
   256
  6
BYLAYER
  0
ACDBPLACEHOLDER
  5
F
102
{ACAD_REACTORS
330
E
102
}
330
E
  0
SCALE
  5
48
102
{ACAD_REACTORS
330
47
102
}
330
47
100
AcDbScale
 70
     0
300
1:1
140
1.0
141
1.0
290
     1
  0
SCALE
  5
49
102
{ACAD_REACTORS
330
47
102
}
330
47
100
AcDbScale
 70
     0
300
1:2
140
1.0
141
2.0
290
     0
  0
SCALE
  5
4A
102
{ACAD_REACTORS
330
47
102
}
330
47
100
AcDbScale
 70
     0
300
1:4
140
1.0
141
4.0
290
     0
  0
SCALE
  5
4B
102
{ACAD_REACTORS
330
47
102
}
330
47
100
AcDbScale
 70
     0
300
1:5
140
1.0
141
5.0
290
     0
  0
SCALE
  5
4C
102
{ACAD_REACTORS
330
47
102
}
330
47
100
AcDbScale
 70
     0
300
1:8
140
1.0
141
8.0
290
     0
  0
SCALE
  5
4D
102
{ACAD_REACTORS
330
47
102
}
330
47
100
AcDbScale
 70
     0
300
1:10
140
1.0
141
10.0
290
     0
  0
SCALE
  5
4E
102
{ACAD_REACTORS
330
47
102
}
330
47
100
AcDbScale
 70
     0
300
1:16
140
1.0
141
16.0
290
     0
  0
SCALE
  5
4F
102
{ACAD_REACTORS
330
47
102
}
330
47
100
AcDbScale
 70
     0
300
1:20
140
1.0
141
20.0
290
     0
  0
SCALE
  5
50
102
{ACAD_REACTORS
330
47
102
}
330
47
100
AcDbScale
 70
     0
300
1:30
140
1.0
141
30.0
290
     0
  0
SCALE
  5
51
102
{ACAD_REACTORS
330
47
102
}
330
47
100
AcDbScale
 70
     0
300
1:40
140
1.0
141
40.0
290
     0
  0
SCALE
  5
52
102
{ACAD_REACTORS
330
47
102
}
330
47
100
AcDbScale
 70
     0
300
1:50
140
1.0
141
50.0
290
     0
  0
SCALE
  5
53
102
{ACAD_REACTORS
330
47
102
}
330
47
100
AcDbScale
 70
     0
300
1:100
140
1.0
141
100.0
290
     0
  0
SCALE
  5
54
102
{ACAD_REACTORS
330
47
102
}
330
47
100
AcDbScale
 70
     0
300
2:1
140
2.0
141
1.0
290
     0
  0
SCALE
  5
55
102
{ACAD_REACTORS
330
47
102
}
330
47
100
AcDbScale
 70
     0
300
4:1
140
4.0
141
1.0
290
     0
  0
SCALE
  5
56
102
{ACAD_REACTORS
330
47
102
}
330
47
100
AcDbScale
 70
     0
300
8:1
140
8.0
141
1.0
290
     0
  0
SCALE
  5
57
102
{ACAD_REACTORS
330
47
102
}
330
47
100
AcDbScale
 70
     0
300
10:1
140
10.0
141
1.0
290
     0
  0
SCALE
  5
58
102
{ACAD_REACTORS
330
47
102
}
330
47
100
AcDbScale
 70
     0
300
100:1
140
100.0
141
1.0
290
     0
  0
SCALE
  5
59
102
{ACAD_REACTORS
330
47
102
}
330
47
100
AcDbScale
 70
     0
300
1/128" = 1'-0"
140
0.0078125
141
12.0
290
     0
  0
SCALE
  5
5A
102
{ACAD_REACTORS
330
47
102
}
330
47
100
AcDbScale
 70
     0
300
1/64" = 1'-0"
140
0.015625
141
12.0
290
     0
  0
SCALE
  5
5B
102
{ACAD_REACTORS
330
47
102
}
330
47
100
AcDbScale
 70
     0
300
1/32" = 1'-0"
140
0.03125
141
12.0
290
     0
  0
SCALE
  5
5C
102
{ACAD_REACTORS
330
47
102
}
330
47
100
AcDbScale
 70
     0
300
1/16" = 1'-0"
140
0.0625
141
12.0
290
     0
  0
SCALE
  5
5D
102
{ACAD_REACTORS
330
47
102
}
330
47
100
AcDbScale
 70
     0
300
3/32" = 1'-0"
140
0.09375
141
12.0
290
     0
  0
SCALE
  5
5E
102
{ACAD_REACTORS
330
47
102
}
330
47
100
AcDbScale
 70
     0
300
1/8" = 1'-0"
140
0.125
141
12.0
290
     0
  0
SCALE
  5
5F
102
{ACAD_REACTORS
330
47
102
}
330
47
100
AcDbScale
 70
     0
300
3/16" = 1'-0"
140
0.1875
141
12.0
290
     0
  0
SCALE
  5
60
102
{ACAD_REACTORS
330
47
102
}
330
47
100
AcDbScale
 70
     0
300
1/4" = 1'-0"
140
0.25
141
12.0
290
     0
  0
SCALE
  5
61
102
{ACAD_REACTORS
330
47
102
}
330
47
100
AcDbScale
 70
     0
300
3/8" = 1'-0"
140
0.375
141
12.0
290
     0
  0
SCALE
  5
62
102
{ACAD_REACTORS
330
47
102
}
330
47
100
AcDbScale
 70
     0
300
1/2" = 1'-0"
140
0.5
141
12.0
290
     0
  0
SCALE
  5
63
102
{ACAD_REACTORS
330
47
102
}
330
47
100
AcDbScale
 70
     0
300
3/4" = 1'-0"
140
0.75
141
12.0
290
     0
  0
SCALE
  5
64
102
{ACAD_REACTORS
330
47
102
}
330
47
100
AcDbScale
 70
     0
300
1" = 1'-0"
140
1.0
141
12.0
290
     0
  0
SCALE
  5
65
102
{ACAD_REACTORS
330
47
102
}
330
47
100
AcDbScale
 70
     0
300
1-1/2" = 1'-0"
140
1.5
141
12.0
290
     0
  0
SCALE
  5
66
102
{ACAD_REACTORS
330
47
102
}
330
47
100
AcDbScale
 70
     0
300
3" = 1'-0"
140
3.0
141
12.0
290
     0
  0
SCALE
  5
67
102
{ACAD_REACTORS
330
47
102
}
330
47
100
AcDbScale
 70
     0
300
6" = 1'-0"
140
6.0
141
12.0
290
     0
  0
SCALE
  5
68
102
{ACAD_REACTORS
330
47
102
}
330
47
100
AcDbScale
 70
     0
300
1'-0" = 1'-0"
140
12.0
141
12.0
290
     0
  0
ENDSEC
  0
EOF
