  0
SECTION
  2
HEADER
  9
$ACADVER
  1
AC1015
  9
$ACADMAINTVER
 70
     6
  9
$DWGCODEPAGE
  3
ANSI_1250
  9
$INSBASE
 10
0.0
 20
0.0
 30
0.0
  9
$EXTMIN
 10
0.0
 20
0.0
 30
0.0
  9
$EXTMAX
 10
20000.0
 20
10000.0
 30
0.0
  9
$LIMMIN
 10
0.0
 20
0.0
  9
$LIMMAX
 10
20000.0
 20
10000.0
  9
$ORTHOMODE
 70
     0
  9
$REGENMODE
 70
     1
  9
$FILLMODE
 70
     1
  9
$QTEXTMODE
 70
     0
  9
$MIRRTEXT
 70
     1
  9
$LTSCALE
 40
1.0
  9
$ATTMODE
 70
     1
  9
$TEXTSIZE
 40
2.0
  9
$TRACEWID
 40
1.0
  9
$TEXTSTYLE
  7
Standard
  9
$CLAYER
  8
0
  9
$CELTYPE
  6
ByLayer
  9
$CECOLOR
 62
   256
  9
$CELTSCALE
 40
1.0
  9
$DISPSILH
 70
     0
  9
$DIMSCALE
 40
1.0
  9
$DIMASZ
 40
2.0
  9
$DIMEXO
 40
1.0
  9
$DIMDLI
 40
3.75
  9
$DIMRND
 40
0.0
  9
$DIMDLE
 40
0.0
  9
$DIMEXE
 40
1.0
  9
$DIMTP
 40
0.0
  9
$DIMTM
 40
0.0
  9
$DIMTXT
 40
2.0
  9
$DIMCEN
 40
2.5
  9
$DIMTSZ
 40
0.0
  9
$DIMTOL
 70
     0
  9
$DIMLIM
 70
     0
  9
$DIMTIH
 70
     1
  9
$DIMTOH
 70
     1
  9
$DIMSE1
 70
     0
  9
$DIMSE2
 70
     0
  9
$DIMTAD
 70
     1
  9
$DIMZIN
 70
     0
  9
$DIMBLK
  1

  9
$DIMASO
 70
     1
  9
$DIMSHO
 70
     1
  9
$DIMPOST
  1

  9
$DIMAPOST
  1

  9
$DIMALT
 70
     0
  9
$DIMALTD
 70
     3
  9
$DIMALTF
 40
0.0393700787
  9
$DIMLFAC
 40
1.0
  9
$DIMTOFL
 70
     1
  9
$DIMTVP
 40
0.0
  9
$DIMTIX
 70
     0
  9
$DIMSOXD
 70
     0
  9
$DIMSAH
 70
     0
  9
$DIMBLK1
  1

  9
$DIMBLK2
  1

  9
$DIMSTYLE
  2
ISO-25
  9
$DIMCLRD
 70
     0
  9
$DIMCLRE
 70
     0
  9
$DIMCLRT
 70
     0
  9
$DIMTFAC
 40
1.0
  9
$DIMGAP
 40
1.524
  9
$DIMJUST
 70
     0
  9
$DIMSD1
 70
     0
  9
$DIMSD2
 70
     0
  9
$DIMTOLJ
 70
     0
  9
$DIMTZIN
 70
     0
  9
$DIMALTZ
 70
     0
  9
$DIMALTTZ
 70
     0
  9
$DIMUPT
 70
     0
  9
$DIMDEC
 70
     2
  9
$DIMTDEC
 70
     0
  9
$DIMALTU
 70
     2
  9
$DIMALTTD
 70
     3
  9
$DIMTXSTY
  7
Standard
  9
$DIMAUNIT
 70
     0
  9
$DIMADEC
 70
     2
  9
$DIMALTRND
 40
0.0
  9
$DIMAZIN
 70
     0
  9
$DIMDSEP
 70
    44
  9
$DIMATFIT
 70
     3
  9
$DIMFRAC
 70
     0
  9
$DIMLDRBLK
  1

  9
$DIMLUNIT
 70
     2
  9
$DIMLWD
 70
    -2
  9
$DIMLWE
 70
    -2
  9
$DIMTMOVE
 70
     0
  9
$LUNITS
 70
     2
  9
$LUPREC
 70
     3
  9
$SKETCHINC
 40
1.0
  9
$FILLETRAD
 40
10.0
  9
$AUNITS
 70
     0
  9
$AUPREC
 70
     2
  9
$MENU
  1
.
  9
$ELEVATION
 40
0.0
  9
$PELEVATION
 40
0.0
  9
$THICKNESS
 40
0.0
  9
$LIMCHECK
 70
     0
  9
$CHAMFERA
 40
0.0
  9
$CHAMFERB
 40
0.0
  9
$CHAMFERC
 40
0.0
  9
$CHAMFERD
 40
0.0
  9
$SKPOLY
 70
     0
  9
$TDCREATE
 40
2459108.349690602
  9
$TDUCREATE
 40
2459108.266357269
  9
$TDUPDATE
 40
2459108.349690972
  9
$TDUUPDATE
 40
2459108.266357639
  9
$TDINDWG
 40
0.0000000116
  9
$TDUSRTIMER
 40
0.0000000116
  9
$USRTIMER
 70
     1
  9
$ANGBASE
 50
0.0
  9
$ANGDIR
 70
     0
  9
$PDMODE
 70
     0
  9
$PDSIZE
 40
-1.0
  9
$PLINEWID
 40
0.0
  9
$SPLFRAME
 70
     0
  9
$SPLINETYPE
 70
     6
  9
$SPLINESEGS
 70
     8
  9
$HANDSEED
  5
598
  9
$SURFTAB1
 70
     6
  9
$SURFTAB2
 70
     6
  9
$SURFTYPE
 70
     6
  9
$SURFU
 70
     6
  9
$SURFV
 70
     6
  9
$UCSBASE
  2

  9
$UCSNAME
  2

  9
$UCSORG
 10
0.0
 20
0.0
 30
0.0
  9
$UCSXDIR
 10
1.0
 20
0.0
 30
0.0
  9
$UCSYDIR
 10
0.0
 20
1.0
 30
0.0
  9
$UCSORTHOREF
  2

  9
$UCSORTHOVIEW
 70
     0
  9
$UCSORGTOP
 10
0.0
 20
0.0
 30
0.0
  9
$UCSORGBOTTOM
 10
0.0
 20
0.0
 30
0.0
  9
$UCSORGLEFT
 10
0.0
 20
0.0
 30
0.0
  9
$UCSORGRIGHT
 10
0.0
 20
0.0
 30
0.0
  9
$UCSORGFRONT
 10
0.0
 20
0.0
 30
0.0
  9
$UCSORGBACK
 10
0.0
 20
0.0
 30
0.0
  9
$PUCSBASE
  2

  9
$PUCSNAME
  2

  9
$PUCSORG
 10
0.0
 20
0.0
 30
0.0
  9
$PUCSXDIR
 10
1.0
 20
0.0
 30
0.0
  9
$PUCSYDIR
 10
0.0
 20
1.0
 30
0.0
  9
$PUCSORTHOREF
  2

  9
$PUCSORTHOVIEW
 70
     0
  9
$PUCSORGTOP
 10
0.0
 20
0.0
 30
0.0
  9
$PUCSORGBOTTOM
 10
0.0
 20
0.0
 30
0.0
  9
$PUCSORGLEFT
 10
0.0
 20
0.0
 30
0.0
  9
$PUCSORGRIGHT
 10
0.0
 20
0.0
 30
0.0
  9
$PUCSORGFRONT
 10
0.0
 20
0.0
 30
0.0
  9
$PUCSORGBACK
 10
0.0
 20
0.0
 30
0.0
  9
$USERI1
 70
     0
  9
$USERI2
 70
     0
  9
$USERI3
 70
     0
  9
$USERI4
 70
     0
  9
$USERI5
 70
     0
  9
$USERR1
 40
0.0
  9
$USERR2
 40
0.0
  9
$USERR3
 40
0.0
  9
$USERR4
 40
0.0
  9
$USERR5
 40
0.0
  9
$WORLDVIEW
 70
     1
  9
$SHADEDGE
 70
     3
  9
$SHADEDIF
 70
    70
  9
$TILEMODE
 70
     1
  9
$MAXACTVP
 70
    64
  9
$PINSBASE
 10
0.0
 20
0.0
 30
0.0
  9
$PLIMCHECK
 70
     0
  9
$PEXTMIN
 10
1.0000000000E+20
 20
1.0000000000E+20
 30
1.0000000000E+20
  9
$PEXTMAX
 10
-1.0000000000E+20
 20
-1.0000000000E+20
 30
-1.0000000000E+20
  9
$PLIMMIN
 10
0.0
 20
0.0
  9
$PLIMMAX
 10
420.0
 20
297.0
  9
$UNITMODE
 70
     0
  9
$VISRETAIN
 70
     1
  9
$PLINEGEN
 70
     0
  9
$PSLTSCALE
 70
     1
  9
$TREEDEPTH
 70
  3020
  9
$CMLSTYLE
  2
Standard
  9
$CMLJUST
 70
     0
  9
$CMLSCALE
 40
20.0
  9
$PROXYGRAPHICS
 70
     1
  9
$MEASUREMENT
 70
     1
  9
$CELWEIGHT
370
    -1
  9
$ENDCAPS
280
     0
  9
$JOINSTYLE
280
     0
  9
$LWDISPLAY
290
     1
  9
$INSUNITS
 70
     4
  9
$HYPERLINKBASE
  1

  9
$STYLESHEET
  1

  9
$XEDIT
290
     1
  9
$CEPSNTYPE
380
     0
  9
$PSTYLEMODE
290
     1
  9
$FINGERPRINTGUID
  2
{e062d1e9-3304-4a5e-9036-da23ba246e5d}
  9
$VERSIONGUID
  2
{FAEB1C32-E019-11D5-929B-00C0DF256EC4}
  9
$EXTNAMES
290
     1
  9
$PSVPSCALE
 40
0.0
  9
$OLESTARTUP
290
     0
  0
ENDSEC
  0
SECTION
  2
CLASSES
  0
CLASS
  1
ACDBDICTIONARYWDFLT
  2
AcDbDictionaryWithDefault
  3
ObjectDBX Classes
 90
        0
280
     0
281
     0
  0
CLASS
  1
VISUALSTYLE
  2
AcDbVisualStyle
  3
ObjectDBX Classes
 90
     4095
280
     0
281
     0
  0
CLASS
  1
MATERIAL
  2
AcDbMaterial
  3
ObjectDBX Classes
 90
     1153
280
     0
281
     0
  0
CLASS
  1
SCALE
  2
AcDbScale
  3
ObjectDBX Classes
 90
     1153
280
     0
281
     0
  0
CLASS
  1
TABLESTYLE
  2
AcDbTableStyle
  3
ObjectDBX Classes
 90
     4095
280
     0
281
     0
  0
CLASS
  1
MLEADERSTYLE
  2
AcDbMLeaderStyle
  3
ACDB_MLEADERSTYLE_CLASS
 90
     4095
280
     0
281
     0
  0
CLASS
  1
SUN
  2
AcDbSun
  3
SCENEOE
 90
     1153
280
     0
281
     0
  0
CLASS
  1
ACDBPLACEHOLDER
  2
AcDbPlaceHolder
  3
ObjectDBX Classes
 90
        0
280
     0
281
     0
  0
CLASS
  1
LAYOUT
  2
AcDbLayout
  3
ObjectDBX Classes
 90
        0
280
     0
281
     0
  0
ENDSEC
  0
SECTION
  2
TABLES
  0
TABLE
  2
VPORT
  5
8
330
0
100
AcDbSymbolTable
 70
     1
  0
VPORT
  5
29
330
8
100
AcDbSymbolTableRecord
100
AcDbViewportTableRecord
  2
*Active
 70
     0
 10
0.0
 20
0.0
 11
1.0
 21
1.0
 12
10000.0
 22
5000.0
 13
0.0
 23
0.0
 14
10.0
 24
10.0
 15
10.0
 25
10.0
 16
0.0
 26
0.0
 36
1.0
 17
0.0
 27
0.0
 37
0.0
 40
10000.0
 41
2.0
 42
50.0
 43
0.0
 44
0.0
 50
0.0
 51
0.0
 71
     0
 72
  2000
 73
     1
 74
     3
 75
     0
 76
     0
 77
     0
 78
     0
281
     0
 65
     1
110
0.0
120
0.0
130
0.0
111
1.0
121
0.0
131
0.0
112
0.0
122
1.0
132
0.0
 79
     0
146
0.0
  0
ENDTAB
  0
TABLE
  2
LTYPE
  5
5
330
0
100
AcDbSymbolTable
 70
     6
  0
LTYPE
  5
14
330
5
100
AcDbSymbolTableRecord
100
AcDbLinetypeTableRecord
  2
ByBlock
 70
     0
  3

 72
    65
 73
     0
 40
0.0
  0
LTYPE
  5
15
330
5
100
AcDbSymbolTableRecord
100
AcDbLinetypeTableRecord
  2
ByLayer
 70
     0
  3

 72
    65
 73
     0
 40
0.0
  0
LTYPE
  5
16
330
5
100
AcDbSymbolTableRecord
100
AcDbLinetypeTableRecord
  2
Continuous
 70
     0
  3
Solid line
 72
    65
 73
     0
 40
0.0
  0
LTYPE
  5
6E
330
5
100
AcDbSymbolTableRecord
100
AcDbLinetypeTableRecord
  2
HIDDEN
 70
     0
  3
Hidden __ __ __ __ __ __ __ __ __ __ __ __ __ __
 72
    65
 73
     2
 40
1.905
 49
1.27
 74
     0
 49
-0.635
 74
     0
  0
LTYPE
  5
6F
330
5
100
AcDbSymbolTableRecord
100
AcDbLinetypeTableRecord
  2
PHANTOM
 70
     0
  3
Phantom ______  __  __  ______  __  __  ______
 72
    65
 73
     6
 40
12.7
 49
6.35
 74
     0
 49
-1.27
 74
     0
 49
1.27
 74
     0
 49
-1.27
 74
     0
 49
1.27
 74
     0
 49
-1.27
 74
     0
  0
LTYPE
  5
70
330
5
100
AcDbSymbolTableRecord
100
AcDbLinetypeTableRecord
  2
CENTER
 70
     0
  3
Center ____ _ ____ _ ____ _ ____ _ ____ _ ____
 72
    65
 73
     4
 40
10.16
 49
6.35
 74
     0
 49
-1.27
 74
     0
 49
1.27
 74
     0
 49
-1.27
 74
     0
  0
LTYPE
  5
71
330
5
100
AcDbSymbolTableRecord
100
AcDbLinetypeTableRecord
  2
CENTERX2
 70
     0
  3
Center (2x) ________  __  ________  __  _____
 72
    65
 73
     4
 40
20.32
 49
12.7
 74
     0
 49
-2.54
 74
     0
 49
2.54
 74
     0
 49
-2.54
 74
     0
  0
LTYPE
  5
72
330
5
100
AcDbSymbolTableRecord
100
AcDbLinetypeTableRecord
  2
DOT2
 70
     0
  3
Dot (.5x) ........................................
 72
    65
 73
     2
 40
0.635
 49
0.0
 74
     0
 49
-0.635
 74
     0
  0
ENDTAB
  0
TABLE
  2
LAYER
  5
2
330
0
100
AcDbSymbolTable
 70
    13
  0
LAYER
  5
10
330
2
100
AcDbSymbolTableRecord
100
AcDbLayerTableRecord
  2
0
 70
     0
 62
     7
  6
Continuous
370
    -3
390
F
  0
LAYER
  5
73
330
2
100
AcDbSymbolTableRecord
100
AcDbLayerTableRecord
  2
FORMAT
 70
     0
 62
     7
  6
Continuous
370
    -3
390
F
  0
LAYER
  5
74
330
2
100
AcDbSymbolTableRecord
100
AcDbLayerTableRecord
  2
OSA
 70
     0
 62
     7
  6
CENTER
370
    -3
390
F
  0
LAYER
  5
75
330
2
100
AcDbSymbolTableRecord
100
AcDbLayerTableRecord
  2
0_35
 70
     0
 62
     7
  6
Continuous
370
    35
390
F
  0
LAYER
  5
76
330
2
100
AcDbSymbolTableRecord
100
AcDbLayerTableRecord
  2
0_5
 70
     0
 62
     7
  6
Continuous
370
    50
390
F
  0
LAYER
  5
77
330
2
100
AcDbSymbolTableRecord
100
AcDbLayerTableRecord
  2
0_25
 70
     0
 62
     7
  6
Continuous
370
    25
390
F
  0
LAYER
  5
78
330
2
100
AcDbSymbolTableRecord
100
AcDbLayerTableRecord
  2
0_18
 70
     0
 62
     7
  6
Continuous
370
    -3
390
F
  0
LAYER
  5
79
330
2
100
AcDbSymbolTableRecord
100
AcDbLayerTableRecord
  2
SLD-0
 70
     0
 62
   179
  6
Continuous
370
    -3
390
F
  0
LAYER
  5
7A
330
2
100
AcDbSymbolTableRecord
100
AcDbLayerTableRecord
  2
KOTY
 70
     0
 62
     7
  6
Continuous
370
    -3
390
F
  0
LAYER
  5
7B
330
2
100
AcDbSymbolTableRecord
100
AcDbLayerTableRecord
  2
SILNA
 70
     0
 62
   179
  6
Continuous
370
    -3
390
F
  0
LAYER
  5
7C
330
2
100
AcDbSymbolTableRecord
100
AcDbLayerTableRecord
  2
0_18_1
 70
     0
 62
   179
  6
Continuous
370
    -3
390
F
  0
LAYER
  5
7D
330
2
100
AcDbSymbolTableRecord
100
AcDbLayerTableRecord
  2
0_35_1
 70
     0
 62
   179
  6
Continuous
370
    35
390
F
  0
LAYER
  5
7E
330
2
100
AcDbSymbolTableRecord
100
AcDbLayerTableRecord
  2
0_5_1
 70
     0
 62
   179
  6
Continuous
370
    50
390
F
  0
ENDTAB
  0
TABLE
  2
STYLE
  5
3
330
0
100
AcDbSymbolTable
 70
     1
  0
STYLE
  5
11
330
3
100
AcDbSymbolTableRecord
100
AcDbTextStyleTableRecord
  2
Standard
 70
     0
 40
0.0
 41
1.0
 50
0.0
 71
     0
 42
2.0
  3
txt
  4

  0
ENDTAB
  0
TABLE
  2
VIEW
  5
6
330
0
100
AcDbSymbolTable
 70
     0
  0
ENDTAB
  0
TABLE
  2
UCS
  5
7
330
0
100
AcDbSymbolTable
 70
     0
  0
ENDTAB
  0
TABLE
  2
APPID
  5
9
330
0
100
AcDbSymbolTable
 70
     1
  0
APPID
  5
12
330
9
100
AcDbSymbolTableRecord
100
AcDbRegAppTableRecord
  2
ACAD
 70
     0
  0
ENDTAB
  0
TABLE
  2
DIMSTYLE
  5
A
330
0
100
AcDbSymbolTable
 70
     1
100
AcDbDimStyleTable
  0
DIMSTYLE
105
27
330
A
100
AcDbSymbolTableRecord
100
AcDbDimStyleTableRecord
  2
ISO-25
 70
     0
 41
2.5
 42
0.625
 43
3.75
 44
1.25
 73
     0
 74
     0
 77
     1
 78
     8
140
2.5
141
2.5
143
0.0393700787
147
0.625
171
     3
172
     1
178
     0
271
     2
272
     2
274
     3
278
    44
283
     0
284
     8
340
11
  0
ENDTAB
  0
TABLE
  2
BLOCK_RECORD
  5
1
330
0
100
AcDbSymbolTable
 70
     1
  0
BLOCK_RECORD
  5
1F
330
1
100
AcDbSymbolTableRecord
100
AcDbBlockTableRecord
  2
*Model_Space
340
22
  0
BLOCK_RECORD
  5
1B
330
1
100
AcDbSymbolTableRecord
100
AcDbBlockTableRecord
  2
*Paper_Space
340
1E
  0
BLOCK_RECORD
  5
23
330
1
100
AcDbSymbolTableRecord
100
AcDbBlockTableRecord
  2
*Paper_Space0
340
26
  0
ENDTAB
  0
ENDSEC
  0
SECTION
  2
BLOCKS
  0
BLOCK
  5
20
330
1F
100
AcDbEntity
  8
0
100
AcDbBlockBegin
  2
*Model_Space
 70
     0
 10
0.0
 20
0.0
 30
0.0
  3
*Model_Space
  1

  0
ENDBLK
  5
21
330
1F
100
AcDbEntity
  8
0
100
AcDbBlockEnd
  0
BLOCK
  5
1C
330
1B
100
AcDbEntity
 67
     1
  8
0
100
AcDbBlockBegin
  2
*Paper_Space
 70
     0
 10
0.0
 20
0.0
 30
0.0
  3
*Paper_Space
  1

  0
ENDBLK
  5
1D
330
1B
100
AcDbEntity
 67
     1
  8
0
100
AcDbBlockEnd
  0
BLOCK
  5
24
330
23
100
AcDbEntity
  8
0
100
AcDbBlockBegin
  2
*Paper_Space0
 70
     0
 10
0.0
 20
0.0
 30
0.0
  3
*Paper_Space0
  1

  0
ENDBLK
  5
25
330
23
100
AcDbEntity
  8
0
100
AcDbBlockEnd
  0
ENDSEC
  0
SECTION
  2
ENTITIES
  0
LINE
  5
7F
330
1F
100
AcDbEntity
  8
0
  6
Continuous
 62
     7
370
    25
100
AcDbLine
 10
6697.3187553361
 20
5247.7994420927
 30
0.0
 11
6694.6187553361
 21
5247.7994420927
 31
0.0
  0
LINE
  5
80
330
1F
100
AcDbEntity
  8
0
  6
Continuous
 62
     7
370
    25
100
AcDbLine
 10
5853.4187553361
 20
5247.7994420927
 30
0.0
 11
5850.7187553361
 21
5247.7994420927
 31
0.0
  0
LINE
  5
81
330
1F
100
AcDbEntity
  8
0
  6
Continuous
 62
     7
370
    25
100
AcDbLine
 10
6694.6187553361
 20
5247.7994420927
 30
0.0
 11
5853.4187553361
 21
5247.7994420927
 31
0.0
  0
LINE
  5
82
330
1F
100
AcDbEntity
  8
0
  6
Continuous
 62
     7
370
    25
100
AcDbLine
 10
6238.2332985674
 20
5230.5994420927
 30
0.0
 11
6240.7687553361
 21
5229.0492985395
 31
0.0
  0
LINE
  5
83
330
1F
100
AcDbEntity
  8
0
  6
Continuous
 62
     7
370
    25
100
AcDbLine
 10
6242.478791473
 20
5228.003805859
 30
0.0
 11
6244.13369517
 21
5226.9920203973
 31
0.0
  0
LINE
  5
84
330
1F
100
AcDbEntity
  8
0
  6
Continuous
 62
     7
370
    25
100
AcDbLine
 10
6303.9038155022
 20
5226.9920203973
 30
0.0
 11
6305.5587191992
 21
5228.003805859
 31
0.0
  0
LINE
  5
85
330
1F
100
AcDbEntity
  8
0
  6
Continuous
 62
     7
370
    25
100
AcDbLine
 10
6307.2687553361
 20
5229.0492985395
 30
0.0
 11
6309.8042121048
 21
5230.5994420927
 31
0.0
  0
LINE
  5
86
330
1F
100
AcDbEntity
  8
0
  6
Continuous
 62
     7
370
    25
100
AcDbLine
 10
6240.7687553361
 20
5229.0492985395
 30
0.0
 11
6240.7687553361
 21
5228.003805859
 31
0.0
  0
LINE
  5
87
330
1F
100
AcDbEntity
  8
0
  6
Continuous
 62
     7
370
    25
100
AcDbLine
 10
6307.2687553361
 20
5228.003805859
 30
0.0
 11
6307.2687553361
 21
5229.0492985395
 31
0.0
  0
LINE
  5
88
330
1F
100
AcDbEntity
  8
0
  6
Continuous
 62
     7
370
    25
100
AcDbLine
 10
6234.0187553361
 20
5226.495731245
 30
0.0
 11
6234.0187553361
 21
5225.9994420927
 31
0.0
  0
LINE
  5
89
330
1F
100
AcDbEntity
  8
0
  6
Continuous
 62
     7
370
    25
100
AcDbLine
 10
6314.0187553361
 20
5225.9994420927
 30
0.0
 11
6314.0187553361
 21
5226.495731245
 31
0.0
  0
ARC
  5
8A
330
1F
100
AcDbEntity
  8
0
  6
Continuous
 62
     7
370
    25
100
AcDbCircle
 10
6234.6690973836
 20
5226.550500793
 30
0.0
 40
0.05476954799542
100
AcDbArc
 50
270.0
 51
330.0000000003
  0
ARC
  5
8B
330
1F
100
AcDbEntity
  8
0
  6
Continuous
 62
     7
370
    25
100
AcDbCircle
 10
6313.3684132886
 20
5226.550500793
 30
0.0
 40
0.0547695479963295
100
AcDbArc
 50
210.0000000005
 51
270.0
  0
LINE
  5
8C
330
1F
100
AcDbEntity
  8
0
  6
Continuous
 62
     7
370
    25
100
AcDbLine
 10
6313.3209814687
 20
5226.523116019
 30
0.0
 11
6313.0818700835
 21
5226.9372690868
 31
0.0
  0
LINE
  5
8D
330
1F
100
AcDbEntity
  8
0
  6
Continuous
 62
     7
370
    25
100
AcDbLine
 10
6234.9556405887
 20
5226.9372690868
 30
0.0
 11
6234.7165292035
 21
5226.523116019
 31
0.0
  0
ARC
  5
8E
330
1F
100
AcDbEntity
  8
0
  6
Continuous
 62
     7
370
    25
100
AcDbCircle
 10
6235.0504726402
 20
5226.8825177764
 30
0.0
 40
0.1095026209371498
100
AcDbArc
 50
90.0
 51
150.0000000001
  0
ARC
  5
8F
330
1F
100
AcDbEntity
  8
0
  6
Continuous
 62
     7
370
    25
100
AcDbCircle
 10
6312.987038032
 20
5226.8825177764
 30
0.0
 40
0.1095026209371498
100
AcDbArc
 50
29.9999999999
 51
90.0
  0
LINE
  5
90
330
1F
100
AcDbEntity
  8
0
  6
Continuous
 62
     7
370
    25
100
AcDbLine
 10
6312.987038032
 20
5226.9920203973
 30
0.0
 11
6235.0504726402
 21
5226.9920203973
 31
0.0
  0
ARC
  5
91
330
1F
100
AcDbEntity
  8
0
  6
Continuous
 62
     7
370
    25
100
AcDbCircle
 10
6314.0573135552
 20
5209.0613713722
 30
0.0
 40
6.853085275273202
100
AcDbArc
 50
305.7382565022
 51
359.7686518058
  0
LINE
  5
92
330
1F
100
AcDbEntity
  8
0
  6
Continuous
 62
     7
370
    25
100
AcDbLine
 10
6320.940503559
 20
5209.0326765883
 30
0.0
 11
6321.0187553361
 21
5217.9994420927
 31
0.0
  0
ARC
  5
93
330
1F
100
AcDbEntity
  8
0
  6
Continuous
 62
     7
370
    25
100
AcDbCircle
 10
6321.0187553361
 20
5220.9994420927
 30
0.0
 40
2.000000000000909
100
AcDbArc
 50
0.0
 51
90.0
  0
LINE
  5
94
330
1F
100
AcDbEntity
  8
0
  6
Continuous
 62
     7
370
    25
100
AcDbLine
 10
6323.0187553361
 20
5217.9994420927
 30
0.0
 11
6323.0187553361
 21
5220.9994420927
 31
0.0
  0
LINE
  5
95
330
1F
100
AcDbEntity
  8
0
  6
Continuous
 62
     7
370
    25
100
AcDbLine
 10
6315.7687553361
 20
5222.9994420927
 30
0.0
 11
6315.7687553361
 21
5225.9994420927
 31
0.0
  0
LINE
  5
96
330
1F
100
AcDbEntity
  8
0
  6
Continuous
 62
     7
370
    25
100
AcDbLine
 10
6232.2687553361
 20
5225.9994420927
 30
0.0
 11
6232.2687553361
 21
5222.9994420927
 31
0.0
  0
LINE
  5
97
330
1F
100
AcDbEntity
  8
0
  6
Continuous
 62
     7
370
    25
100
AcDbLine
 10
6306.2595003184
 20
5150.8162034546
 30
0.0
 11
6307.4613636571
 21
5196.7135126483
 31
0.0
  0
ARC
  5
98
330
1F
100
AcDbEntity
  8
0
  6
Continuous
 62
     7
370
    25
100
AcDbCircle
 10
6299.2618990435
 20
5150.9994420927
 30
0.0
 40
7.000000000000909
100
AcDbArc
 50
270.0
 51
358.5
  0
ARC
  5
99
330
1F
100
AcDbEntity
  8
0
  6
Continuous
 62
     7
370
    25
100
AcDbCircle
 10
6142.4529357327
 20
5190.8502945412
 30
0.0
 40
27.0
100
AcDbArc
 50
73.1772087534
 51
90.0
  0
ARC
  5
9A
330
1F
100
AcDbEntity
  8
0
  6
Continuous
 62
     7
370
    25
100
AcDbCircle
 10
6142.4529357327
 20
5190.8502945412
 30
0.0
 40
27.00000000000062
100
AcDbArc
 50
228.2942528904
 51
287.8227912466
  0
ARC
  5
9B
330
1F
100
AcDbEntity
  8
0
  6
Continuous
 62
     7
370
    25
100
AcDbCircle
 10
6142.4529357327
 20
5190.8502945412
 30
0.0
 40
27.0
100
AcDbArc
 50
90.0
 51
132.7057471096
  0
ARC
  5
9C
330
1F
100
AcDbEntity
  8
0
  6
Continuous
 62
     7
370
    25
100
AcDbCircle
 10
6207.0187553361
 20
5215.9278209955
 30
0.0
 40
1.99999999999944
100
AcDbArc
 50
0.5
 51
92.0154937467
  0
ARC
  5
9D
330
1F
100
AcDbEntity
  8
0
  6
Continuous
 62
     7
370
    25
100
AcDbCircle
 10
6207.4465848332
 20
5166.9034164414
 30
0.0
 40
2.000000000001259
100
AcDbArc
 50
268.9845062533
 51
0.5
  0
LINE
  5
9E
330
1F
100
AcDbEntity
  8
0
  6
Continuous
 62
     7
370
    25
100
AcDbLine
 10
6209.4465086793
 20
5166.9208695124
 30
0.0
 11
6209.0186791822
 21
5215.9452740665
 31
0.0
  0
LINE
  5
9F
330
1F
100
AcDbEntity
  8
0
  6
Continuous
 62
     7
370
    25
100
AcDbLine
 10
6206.9484158409
 20
5217.9265837016
 30
0.0
 11
6181.9484158409
 21
5217.0467957338
 31
0.0
  0
LINE
  5
A0
330
1F
100
AcDbEntity
  8
0
  6
Continuous
 62
     7
370
    25
100
AcDbLine
 10
6182.3995924741
 20
5165.3470743739
 30
0.0
 11
6207.4111392702
 21
5164.903730563
 31
0.0
  0
ARC
  5
A1
330
1F
100
AcDbEntity
  8
0
  6
Continuous
 62
     7
370
    25
100
AcDbCircle
 10
6182.0187553361
 20
5215.0480330277
 30
0.0
 40
2.000000000000287
100
AcDbArc
 50
92.0154937467
 51
180.0
  0
ARC
  5
A2
330
1F
100
AcDbEntity
  8
0
  6
Continuous
 62
     7
370
    25
100
AcDbCircle
 10
6182.4350380371
 20
5167.3467602523
 30
0.0
 40
2.000000000000286
100
AcDbArc
 50
181.0
 51
268.9845062532
  0
LINE
  5
A3
330
1F
100
AcDbEntity
  8
0
  6
Continuous
 62
     7
370
    25
100
AcDbLine
 10
6180.0187553361
 20
5215.0480330277
 30
0.0
 11
6180.0187553361
 21
5211.1788880501
 31
0.0
  0
LINE
  5
A4
330
1F
100
AcDbEntity
  8
0
  6
Continuous
 62
     7
370
    25
100
AcDbLine
 10
6180.367816756
 20
5171.1804111275
 30
0.0
 11
6180.4353426467
 21
5167.3118554394
 31
0.0
  0
ARC
  5
A5
330
1F
100
AcDbEntity
  8
0
  6
Continuous
 62
     7
370
    25
100
AcDbCircle
 10
6158.4387992462
 20
5213.9548644475
 30
0.0
 40
0.250000000000034
100
AcDbArc
 50
90.0
 51
168.5000000001
  0
ARC
  5
A6
330
1F
100
AcDbEntity
  8
0
  6
Continuous
 62
     7
370
    25
100
AcDbCircle
 10
6158.8395948663
 20
5168.0282353602
 30
0.0
 40
0.2499999999996683
100
AcDbArc
 50
192.5
 51
271.0000000001
  0
LINE
  5
A7
330
1F
100
AcDbEntity
  8
0
  6
Continuous
 62
     7
370
    25
100
AcDbLine
 10
6158.8439579679
 20
5167.7782734364
 30
0.0
 11
6159.6816489914
 21
5167.7928953876
 31
0.0
  0
LINE
  5
A8
330
1F
100
AcDbEntity
  8
0
  6
Continuous
 62
     7
370
    25
100
AcDbLine
 10
6159.2766178735
 20
5214.2048644475
 30
0.0
 11
6158.4387992462
 21
5214.2048644475
 31
0.0
  0
ARC
  5
A9
330
1F
100
AcDbEntity
  8
0
  6
Continuous
 62
     7
370
    25
100
AcDbCircle
 10
6159.2766178735
 20
5213.9548644475
 30
0.0
 40
0.2500000000003411
100
AcDbArc
 50
10.5
 51
90.0
  0
ARC
  5
AA
330
1F
100
AcDbEntity
  8
0
  6
Continuous
 62
     7
370
    25
100
AcDbCircle
 10
6159.6772858898
 20
5168.0428573114
 30
0.0
 40
0.250000000000231
100
AcDbArc
 50
271.0000000001
 51
350.5000000002
  0
LINE
  5
AB
330
1F
100
AcDbEntity
  8
0
  6
Continuous
 62
     7
370
    25
100
AcDbLine
 10
6158.19381807
 20
5214.0047064311
 30
0.0
 11
6157.7776256225
 21
5211.9590551963
 31
0.0
  0
LINE
  5
AC
330
1F
100
AcDbEntity
  8
0
  6
Continuous
 62
     7
370
    25
100
AcDbLine
 10
6158.1436902683
 20
5170.0122015691
 30
0.0
 11
6158.5955208645
 21
5167.9741254567
 31
0.0
  0
LINE
  5
AD
330
1F
100
AcDbEntity
  8
0
  6
Continuous
 62
     7
370
    25
100
AcDbLine
 10
6159.9238572901
 20
5168.0015954099
 30
0.0
 11
6160.4266870424
 21
5171.0063875249
 31
0.0
  0
LINE
  5
AE
330
1F
100
AcDbEntity
  8
0
  6
Continuous
 62
     7
370
    25
100
AcDbLine
 10
6160.0776256225
 20
5211.0048644475
 30
0.0
 11
6159.5224316004
 21
5214.0004233288
 31
0.0
  0
ARC
  5
AF
330
1F
100
AcDbEntity
  8
0
  6
Continuous
 62
     7
370
    25
100
AcDbCircle
 10
6142.4529357327
 20
5190.8502945412
 30
0.0
 40
23.99999999999965
100
AcDbArc
 50
57.0896848103
 51
70.9987276534
  0
ARC
  5
B0
330
1F
100
AcDbEntity
  8
0
  6
Continuous
 62
     7
370
    25
100
AcDbCircle
 10
6142.4529357327
 20
5190.8502945412
 30
0.0
 40
23.99999999999999
100
AcDbArc
 50
290.0012723466
 51
303.9103151897
  0
LINE
  5
B1
330
1F
100
AcDbEntity
  8
0
  6
Continuous
 62
     7
370
    25
100
AcDbLine
 10
6247.9587877665
 20
5173.3603045953
 30
0.0
 11
6248.5555511569
 21
5150.5708301516
 31
0.0
  0
LWPOLYLINE
  5
B2
330
1F
100
AcDbEntity
  8
0
  6
Continuous
 62
     7
370
    25
100
AcDbPolyline
 90
        7
 70
   128
 43
0.0
 10
6248.5546292297
 20
5150.6102552623
 10
6248.7298527927
 20
5149.45138289
 10
6249.682352959
 20
5147.5519705093
 10
6251.4345951168
 20
5145.8133017446
 10
6253.372505967
 20
5144.6942660688
 10
6254.5536721013
 20
5144.2771100743
 10
6256.5859270358
 20
5143.9994420927
  0
LINE
  5
B3
330
1F
100
AcDbEntity
  8
0
  6
Continuous
 62
     7
370
    25
100
AcDbLine
 10
6215.075531391
 20
5211.4848238999
 30
0.0
 11
6209.0580632208
 21
5211.4323102507
 31
0.0
  0
LINE
  5
B4
330
1F
100
AcDbEntity
  8
0
  6
Continuous
 62
     7
370
    25
100
AcDbLine
 10
6209.4071246407
 20
5171.4338333282
 30
0.0
 11
6216.6498673256
 21
5171.497039786
 31
0.0
  0
ARC
  5
B5
330
1F
100
AcDbEntity
  8
0
  6
Continuous
 62
     7
370
    25
100
AcDbCircle
 10
6156.3077385655
 20
5212.2581070979
 30
0.0
 40
1.500000000000889
100
AcDbArc
 50
237.0896848103
 51
348.5
  0
ARC
  5
B6
330
1F
100
AcDbEntity
  8
0
  6
Continuous
 62
     7
370
    25
100
AcDbCircle
 10
6156.6792462576
 20
5169.6875421482
 30
0.0
 40
1.500000000000391
100
AcDbArc
 50
12.5
 51
123.9103151897
  0
LINE
  5
B7
330
1F
100
AcDbEntity
  8
0
  6
Continuous
 62
     7
370
    25
100
AcDbLine
 10
6180.0187553361
 20
5211.1788880501
 30
0.0
 11
6160.0776256225
 21
5211.0048644475
 31
0.0
  0
LINE
  5
B8
330
1F
100
AcDbEntity
  8
0
  6
Continuous
 62
     7
370
    25
100
AcDbLine
 10
6160.4266870424
 20
5171.0063875249
 30
0.0
 11
6180.367816756
 21
5171.1804111275
 31
0.0
  0
LINE
  5
B9
330
1F
100
AcDbEntity
  8
0
  6
Continuous
 62
     7
370
    25
100
AcDbLine
 10
6124.1406343974
 20
5210.6911518767
 30
0.0
 11
6055.5892852738
 21
5210.092913316
 31
0.0
  0
LINE
  5
BA
330
1F
100
AcDbEntity
  8
0
  6
Continuous
 62
     7
370
    25
100
AcDbLine
 10
6055.9383450323
 20
5170.0946267781
 30
0.0
 11
6124.4896941558
 21
5170.6928653388
 31
0.0
  0
LINE
  5
BB
330
1F
100
AcDbEntity
  8
0
  6
Continuous
 62
     7
370
    25
100
AcDbLine
 10
6055.5892852738
 20
5210.092913316
 30
0.0
 11
6052.103555101
 21
5209.7771837445
 31
0.0
  0
LINE
  5
BC
330
1F
100
AcDbEntity
  8
0
  6
Continuous
 62
     7
370
    25
100
AcDbLine
 10
6052.4476355123
 20
5170.3494738827
 30
0.0
 11
6055.9383450323
 21
5170.0946267781
 31
0.0
  0
LINE
  5
BD
330
1F
100
AcDbEntity
  8
0
  6
Continuous
 62
     7
370
    25
100
AcDbLine
 10
6052.103555101
 20
5209.7771837445
 30
0.0
 11
6052.103555101
 21
5207.5623986136
 31
0.0
  0
LINE
  5
BE
330
1F
100
AcDbEntity
  8
0
  6
Continuous
 62
     7
370
    25
100
AcDbLine
 10
6052.408982182
 20
5172.5639216911
 30
0.0
 11
6052.4476355123
 21
5170.3494738827
 31
0.0
  0
ARC
  5
BF
330
1F
100
AcDbEntity
  8
0
  6
Continuous
 62
     7
370
    25
100
AcDbCircle
 10
6215.05807832
 20
5213.484747746
 30
0.0
 40
2.000000000000349
100
AcDbArc
 50
270.5
 51
0.5
  0
ARC
  5
C0
330
1F
100
AcDbEntity
  8
0
  6
Continuous
 62
     7
370
    25
100
AcDbCircle
 10
6216.8306388976
 20
5169.8667380291
 30
0.0
 40
1.612651671722767
100
AcDbArc
 50
48.4360533117
 51
96.2068831894
  0
ARC
  5
C1
330
1F
100
AcDbEntity
  8
0
  6
Continuous
 62
     7
370
    25
100
AcDbCircle
 10
6222.9650514226
 20
5178.3389327585
 30
0.0
 40
8.836610069986147
100
AcDbArc
 50
235.0092265524
 51
282.7578591479
  0
LWPOLYLINE
  5
C2
330
1F
100
AcDbEntity
  8
0
  6
Continuous
 62
     7
370
    25
100
AcDbPolyline
 90
        3
 70
   128
 43
0.0
 10
6224.9633717952
 20
5169.7248300348
 10
6224.9688376205
 20
5169.7253367031
 10
6224.9584834298
 20
5169.7244743841
  0
LINE
  5
C3
330
1F
100
AcDbEntity
  8
0
  6
Continuous
 62
     7
370
    25
100
AcDbLine
 10
6681.3187553361
 20
5133.7994420927
 30
0.0
 11
6681.3187553361
 21
5203.7994420927
 31
0.0
  0
LINE
  5
C4
330
1F
100
AcDbEntity
  8
0
  6
Continuous
 62
     7
370
    25
100
AcDbLine
 10
6671.3187553361
 20
5203.7994420927
 30
0.0
 11
6671.3187553361
 21
5133.7994420927
 31
0.0
  0
LINE
  5
C5
330
1F
100
AcDbEntity
  8
0
  6
Continuous
 62
     7
370
    25
100
AcDbLine
 10
6681.3187553361
 20
5212.7994420927
 30
0.0
 11
6680.3187553361
 21
5213.7994420927
 31
0.0
  0
LINE
  5
C6
330
1F
100
AcDbEntity
  8
0
  6
Continuous
 62
     7
370
    25
100
AcDbLine
 10
6672.3187553361
 20
5213.7994420927
 30
0.0
 11
6671.3187553361
 21
5212.7994420927
 31
0.0
  0
LINE
  5
C7
330
1F
100
AcDbEntity
  8
0
  6
Continuous
 62
     7
370
    25
100
AcDbLine
 10
5876.7187553361
 20
5128.7994420927
 30
0.0
 11
5876.7187553361
 21
5203.7994420927
 31
0.0
  0
LINE
  5
C8
330
1F
100
AcDbEntity
  8
0
  6
Continuous
 62
     7
370
    25
100
AcDbLine
 10
5866.7187553361
 20
5203.7994420927
 30
0.0
 11
5866.7187553361
 21
5128.7994420927
 31
0.0
  0
LINE
  5
C9
330
1F
100
AcDbEntity
  8
0
  6
Continuous
 62
     7
370
    25
100
AcDbLine
 10
5876.7187553361
 20
5212.7994420927
 30
0.0
 11
5875.7187553361
 21
5213.7994420927
 31
0.0
  0
LINE
  5
CA
330
1F
100
AcDbEntity
  8
0
  6
Continuous
 62
     7
370
    25
100
AcDbLine
 10
5867.7187553361
 20
5213.7994420927
 30
0.0
 11
5866.7187553361
 21
5212.7994420927
 31
0.0
  0
LINE
  5
CB
330
1F
100
AcDbEntity
  8
0
  6
Continuous
 62
     7
370
    25
100
AcDbLine
 10
6667.8187553361
 20
5212.7994420927
 30
0.0
 11
6667.8187553361
 21
5205.7994420927
 31
0.0
  0
LINE
  5
CC
330
1F
100
AcDbEntity
  8
0
  6
Continuous
 62
     7
370
    25
100
AcDbLine
 10
6667.8187553361
 20
5212.7994420927
 30
0.0
 11
6676.3187553361
 21
5212.7994420927
 31
0.0
  0
LINE
  5
CD
330
1F
100
AcDbEntity
  8
0
  6
Continuous
 62
     7
370
    25
100
AcDbLine
 10
6676.3187553361
 20
5212.7994420927
 30
0.0
 11
6676.3187553361
 21
5205.7994420927
 31
0.0
  0
LINE
  5
CE
330
1F
100
AcDbEntity
  8
0
  6
Continuous
 62
     7
370
    25
100
AcDbLine
 10
6674.2867781706
 20
5205.7994420927
 30
0.0
 11
6676.3187553361
 21
5205.7994420927
 31
0.0
  0
LINE
  5
CF
330
1F
100
AcDbEntity
  8
0
  6
Continuous
 62
     7
370
    25
100
AcDbLine
 10
5873.7507325016
 20
5205.7994420927
 30
0.0
 11
5871.7187553361
 21
5205.7994420927
 31
0.0
  0
LINE
  5
D0
330
1F
100
AcDbEntity
  8
0
  6
Continuous
 62
     7
370
    25
100
AcDbLine
 10
5871.7187553361
 20
5212.7994420927
 30
0.0
 11
5871.7187553361
 21
5205.7994420927
 31
0.0
  0
LINE
  5
D1
330
1F
100
AcDbEntity
  8
0
  6
Continuous
 62
     7
370
    25
100
AcDbLine
 10
5880.2187553361
 20
5212.7994420927
 30
0.0
 11
5871.7187553361
 21
5212.7994420927
 31
0.0
  0
LINE
  5
D2
330
1F
100
AcDbEntity
  8
0
  6
Continuous
 62
     7
370
    25
100
AcDbLine
 10
5880.2187553361
 20
5212.7994420927
 30
0.0
 11
5880.2187553361
 21
5205.7994420927
 31
0.0
  0
LINE
  5
D3
330
1F
100
AcDbEntity
  8
0
  6
Continuous
 62
     7
370
    25
100
AcDbLine
 10
5863.2187553361
 20
5212.7994420927
 30
0.0
 11
5863.2187553361
 21
5205.7994420927
 31
0.0
  0
LINE
  5
D4
330
1F
100
AcDbEntity
  8
0
  6
Continuous
 62
     7
370
    25
100
AcDbLine
 10
5871.7187553361
 20
5205.7994420927
 30
0.0
 11
5869.6867781706
 21
5205.7994420927
 31
0.0
  0
LINE
  5
D5
330
1F
100
AcDbEntity
  8
0
  6
Continuous
 62
     7
370
    25
100
AcDbLine
 10
5871.7187553361
 20
5212.7994420927
 30
0.0
 11
5863.2187553361
 21
5212.7994420927
 31
0.0
  0
LINE
  5
D6
330
1F
100
AcDbEntity
  8
0
  6
Continuous
 62
     7
370
    25
100
AcDbLine
 10
6684.8187553361
 20
5212.7994420927
 30
0.0
 11
6684.8187553361
 21
5205.7994420927
 31
0.0
  0
LINE
  5
D7
330
1F
100
AcDbEntity
  8
0
  6
Continuous
 62
     7
370
    25
100
AcDbLine
 10
6676.3187553361
 20
5205.7994420927
 30
0.0
 11
6678.3507325016
 21
5205.7994420927
 31
0.0
  0
LINE
  5
D8
330
1F
100
AcDbEntity
  8
0
  6
Continuous
 62
     7
370
    25
100
AcDbLine
 10
6676.3187553361
 20
5212.7994420927
 30
0.0
 11
6684.8187553361
 21
5212.7994420927
 31
0.0
  0
LINE
  5
D9
330
1F
100
AcDbEntity
  8
0
  6
Continuous
 62
     7
370
    25
100
AcDbLine
 10
5881.7187553361
 20
5205.7994420927
 30
0.0
 11
5881.7187553361
 21
5203.7994420927
 31
0.0
  0
LINE
  5
DA
330
1F
100
AcDbEntity
  8
0
  6
Continuous
 62
     7
370
    25
100
AcDbLine
 10
5881.7187553361
 20
5203.7994420927
 30
0.0
 11
5861.7187553361
 21
5203.7994420927
 31
0.0
  0
LINE
  5
DB
330
1F
100
AcDbEntity
  8
0
  6
Continuous
 62
     7
370
    25
100
AcDbLine
 10
5861.7187553361
 20
5205.7994420927
 30
0.0
 11
5861.7187553361
 21
5203.7994420927
 31
0.0
  0
LINE
  5
DC
330
1F
100
AcDbEntity
  8
0
  6
Continuous
 62
     7
370
    25
100
AcDbLine
 10
5881.7187553361
 20
5205.7994420927
 30
0.0
 11
5873.7507325016
 21
5205.7994420927
 31
0.0
  0
LINE
  5
DD
330
1F
100
AcDbEntity
  8
0
  6
Continuous
 62
     7
370
    25
100
AcDbLine
 10
5869.6867781706
 20
5205.7994420927
 30
0.0
 11
5861.7187553361
 21
5205.7994420927
 31
0.0
  0
LINE
  5
DE
330
1F
100
AcDbEntity
  8
0
  6
Continuous
 62
     7
370
    25
100
AcDbLine
 10
6666.3187553361
 20
5205.7994420927
 30
0.0
 11
6666.3187553361
 21
5203.7994420927
 31
0.0
  0
LINE
  5
DF
330
1F
100
AcDbEntity
  8
0
  6
Continuous
 62
     7
370
    25
100
AcDbLine
 10
6678.3507325016
 20
5205.7994420927
 30
0.0
 11
6686.3187553361
 21
5205.7994420927
 31
0.0
  0
LINE
  5
E0
330
1F
100
AcDbEntity
  8
0
  6
Continuous
 62
     7
370
    25
100
AcDbLine
 10
6666.3187553361
 20
5205.7994420927
 30
0.0
 11
6674.2867781706
 21
5205.7994420927
 31
0.0
  0
LINE
  5
E1
330
1F
100
AcDbEntity
  8
0
  6
Continuous
 62
     7
370
    25
100
AcDbLine
 10
6686.3187553361
 20
5205.7994420927
 30
0.0
 11
6686.3187553361
 21
5203.7994420927
 31
0.0
  0
LINE
  5
E2
330
1F
100
AcDbEntity
  8
0
  6
Continuous
 62
     7
370
    25
100
AcDbLine
 10
6666.3187553361
 20
5203.7994420927
 30
0.0
 11
6686.3187553361
 21
5203.7994420927
 31
0.0
  0
LINE
  5
E3
330
1F
100
AcDbEntity
  8
0
  6
Continuous
 62
     7
370
    25
100
AcDbLine
 10
6666.3187553361
 20
5206.0493281103
 30
0.0
 11
6666.3187553361
 21
5205.7994420927
 31
0.0
  0
LINE
  5
E4
330
1F
100
AcDbEntity
  8
0
  6
Continuous
 62
     7
370
    25
100
AcDbLine
 10
6686.3187553361
 20
5206.0493281103
 30
0.0
 11
6686.3187553361
 21
5205.7994420927
 31
0.0
  0
LINE
  5
E5
330
1F
100
AcDbEntity
  8
0
  6
Continuous
 62
     7
370
    25
100
AcDbLine
 10
5881.7187553361
 20
5206.0493281103
 30
0.0
 11
5881.7187553361
 21
5205.7994420927
 31
0.0
  0
LINE
  5
E6
330
1F
100
AcDbEntity
  8
0
  6
Continuous
 62
     7
370
    25
100
AcDbLine
 10
5861.7187553361
 20
5206.0493281103
 30
0.0
 11
5861.7187553361
 21
5205.7994420927
 31
0.0
  0
LINE
  5
E7
330
1F
100
AcDbEntity
  8
0
  6
Continuous
 62
     7
370
    25
100
AcDbLine
 10
5881.7187553361
 20
5229.8497840399
 30
0.0
 11
5861.7187553361
 21
5229.8497840399
 31
0.0
  0
LINE
  5
E8
330
1F
100
AcDbEntity
  8
0
  6
Continuous
 62
     7
370
    25
100
AcDbLine
 10
5881.7187553361
 20
5229.8497840399
 30
0.0
 11
5881.7187553361
 21
5206.0493281103
 31
0.0
  0
LINE
  5
E9
330
1F
100
AcDbEntity
  8
0
  6
Continuous
 62
     7
370
    25
100
AcDbLine
 10
5861.7187553361
 20
5229.8497840399
 30
0.0
 11
5861.7187553361
 21
5206.0493281103
 31
0.0
  0
LINE
  5
EA
330
1F
100
AcDbEntity
  8
0
  6
Continuous
 62
     7
370
    25
100
AcDbLine
 10
6666.3187553361
 20
5229.8497840399
 30
0.0
 11
6686.3187553361
 21
5229.8497840399
 31
0.0
  0
LINE
  5
EB
330
1F
100
AcDbEntity
  8
0
  6
Continuous
 62
     7
370
    25
100
AcDbLine
 10
6666.3187553361
 20
5229.8497840399
 30
0.0
 11
6666.3187553361
 21
5206.0493281103
 31
0.0
  0
LINE
  5
EC
330
1F
100
AcDbEntity
  8
0
  6
Continuous
 62
     7
370
    25
100
AcDbLine
 10
6686.3187553361
 20
5229.8497840399
 30
0.0
 11
6686.3187553361
 21
5206.0493281103
 31
0.0
  0
LINE
  5
ED
330
1F
100
AcDbEntity
  8
0
  6
Continuous
 62
     7
370
    25
100
AcDbLine
 10
5821.7187553361
 20
5230.5994420927
 30
0.0
 11
6726.3187553361
 21
5230.5994420927
 31
0.0
  0
LINE
  5
EE
330
1F
100
AcDbEntity
  8
0
  6
Continuous
 62
     7
370
    25
100
AcDbLine
 10
6726.3187553361
 20
5231.7994420927
 30
0.0
 11
6726.3187553361
 21
5230.5994420927
 31
0.0
  0
LINE
  5
EF
330
1F
100
AcDbEntity
  8
0
  6
Continuous
 62
     7
370
    25
100
AcDbLine
 10
5821.7187553361
 20
5231.7994420927
 30
0.0
 11
6726.3187553361
 21
5231.7994420927
 31
0.0
  0
LINE
  5
F0
330
1F
100
AcDbEntity
  8
0
  6
Continuous
 62
     7
370
    25
100
AcDbLine
 10
5821.7187553361
 20
5231.7994420927
 30
0.0
 11
5821.7187553361
 21
5230.5994420927
 31
0.0
  0
LINE
  5
F1
330
1F
100
AcDbEntity
  8
0
  6
Continuous
 62
     7
370
    25
100
AcDbLine
 10
6698.9820107862
 20
5245.7479007613
 30
0.0
 11
6694.6187553361
 21
5245.7479007613
 31
0.0
  0
ARC
  5
F2
330
1F
100
AcDbEntity
  8
0
  6
Continuous
 62
     7
370
    25
100
AcDbCircle
 10
6697.3187553361
 20
5246.0994420927
 30
0.0
 40
1.700000000000728
100
AcDbArc
 50
348.0657534268
 51
90.0
  0
LINE
  5
F3
330
1F
100
AcDbEntity
  8
0
  6
Continuous
 62
     7
370
    25
100
AcDbLine
 10
5853.4187553361
 20
5245.7479007613
 30
0.0
 11
5849.055499886
 21
5245.7479007613
 31
0.0
  0
ARC
  5
F4
330
1F
100
AcDbEntity
  8
0
  6
Continuous
 62
     7
370
    25
100
AcDbCircle
 10
5850.7187553361
 20
5246.0994420927
 30
0.0
 40
1.700000000000728
100
AcDbArc
 50
90.0
 51
191.9342465732
  0
LINE
  5
F5
330
1F
100
AcDbEntity
  8
0
  6
Continuous
 62
     7
370
    25
100
AcDbLine
 10
6694.6187553361
 20
5245.7479007613
 30
0.0
 11
5853.4187553361
 21
5245.7479007613
 31
0.0
  0
LINE
  5
F6
330
1F
100
AcDbEntity
  8
0
  6
Continuous
 62
     7
370
    25
100
AcDbLine
 10
6698.0928180068
 20
5241.5408428581
 30
0.0
 11
6694.6187553361
 21
5241.5408428581
 31
0.0
  0
LINE
  5
F7
330
1F
100
AcDbEntity
  8
0
  6
Continuous
 62
     7
370
    25
100
AcDbLine
 10
6694.6187553361
 20
5245.7479007613
 30
0.0
 11
6694.6187553361
 21
5241.5408428581
 31
0.0
  0
LINE
  5
F8
330
1F
100
AcDbEntity
  8
0
  6
Continuous
 62
     7
370
    25
100
AcDbLine
 10
6698.9820107862
 20
5245.7479007613
 30
0.0
 11
6698.0928180068
 21
5241.5408428581
 31
0.0
  0
LINE
  5
F9
330
1F
100
AcDbEntity
  8
0
  6
Continuous
 62
     7
370
    25
100
AcDbLine
 10
5853.4187553361
 20
5241.5408428581
 30
0.0
 11
5849.9446926654
 21
5241.5408428581
 31
0.0
  0
LINE
  5
FA
330
1F
100
AcDbEntity
  8
0
  6
Continuous
 62
     7
370
    25
100
AcDbLine
 10
5849.055499886
 20
5245.7479007613
 30
0.0
 11
5849.9446926654
 21
5241.5408428581
 31
0.0
  0
LINE
  5
FB
330
1F
100
AcDbEntity
  8
0
  6
Continuous
 62
     7
370
    25
100
AcDbLine
 10
5853.4187553361
 20
5245.7479007613
 30
0.0
 11
5853.4187553361
 21
5241.5408428581
 31
0.0
  0
LINE
  5
FC
330
1F
100
AcDbEntity
  8
0
  6
Continuous
 62
     7
370
    25
100
AcDbLine
 10
6694.6187553361
 20
5241.5408428581
 30
0.0
 11
5853.4187553361
 21
5241.5408428581
 31
0.0
  0
LINE
  5
FD
330
1F
100
AcDbEntity
  8
0
  6
Continuous
 62
     7
370
    25
100
AcDbLine
 10
6696.8187553361
 20
5241.5408428581
 30
0.0
 11
6696.8187553361
 21
5231.7994420927
 31
0.0
  0
LINE
  5
FE
330
1F
100
AcDbEntity
  8
0
  6
Continuous
 62
     7
370
    25
100
AcDbLine
 10
5851.2187553361
 20
5241.5408428581
 30
0.0
 11
5851.2187553361
 21
5231.7994420927
 31
0.0
  0
LINE
  5
FF
330
1F
100
AcDbEntity
  8
0
  6
Continuous
 62
     7
370
    25
100
AcDbLine
 10
6666.3187553361
 20
5230.5994420927
 30
0.0
 11
6666.3187553361
 21
5229.8497840399
 31
0.0
  0
LINE
  5
100
330
1F
100
AcDbEntity
  8
0
  6
Continuous
 62
     7
370
    25
100
AcDbLine
 10
6686.3187553361
 20
5230.5994420927
 30
0.0
 11
6686.3187553361
 21
5229.8497840399
 31
0.0
  0
LINE
  5
101
330
1F
100
AcDbEntity
  8
0
  6
Continuous
 62
     7
370
    25
100
AcDbLine
 10
5881.7187553361
 20
5230.5994420927
 30
0.0
 11
5881.7187553361
 21
5229.8497840399
 31
0.0
  0
LINE
  5
102
330
1F
100
AcDbEntity
  8
0
  6
Continuous
 62
     7
370
    25
100
AcDbLine
 10
5861.7187553361
 20
5230.5994420927
 30
0.0
 11
5861.7187553361
 21
5229.8497840399
 31
0.0
  0
LINE
  5
103
330
1F
100
AcDbEntity
  8
0
  6
Continuous
 62
     7
370
    25
100
AcDbLine
 10
6692.7187553361
 20
5261.7994420927
 30
0.0
 11
6712.7187553361
 21
5261.7994420927
 31
0.0
  0
ARC
  5
104
330
1F
100
AcDbEntity
  8
0
  6
Continuous
 62
     7
370
    25
100
AcDbCircle
 10
6712.7187553361
 20
5266.7994420927
 30
0.0
 40
5.0
100
AcDbArc
 50
270.0
 51
90.0
  0
LINE
  5
105
330
1F
100
AcDbEntity
  8
0
  6
Continuous
 62
     7
370
    25
100
AcDbLine
 10
6712.7187553361
 20
5271.7994420927
 30
0.0
 11
6692.7187553361
 21
5271.7994420927
 31
0.0
  0
ARC
  5
106
330
1F
100
AcDbEntity
  8
0
  6
Continuous
 62
     7
370
    25
100
AcDbCircle
 10
6692.7187553361
 20
5266.7994420927
 30
0.0
 40
5.0
100
AcDbArc
 50
90.0
 51
270.0
  0
LINE
  5
107
330
1F
100
AcDbEntity
  8
0
  6
Continuous
 62
     7
370
    25
100
AcDbLine
 10
6651.7187553361
 20
5261.7994420927
 30
0.0
 11
6671.7187553361
 21
5261.7994420927
 31
0.0
  0
ARC
  5
108
330
1F
100
AcDbEntity
  8
0
  6
Continuous
 62
     7
370
    25
100
AcDbCircle
 10
6671.7187553361
 20
5266.7994420927
 30
0.0
 40
5.0
100
AcDbArc
 50
270.0
 51
90.0
  0
LINE
  5
109
330
1F
100
AcDbEntity
  8
0
  6
Continuous
 62
     7
370
    25
100
AcDbLine
 10
6671.7187553361
 20
5271.7994420927
 30
0.0
 11
6651.7187553361
 21
5271.7994420927
 31
0.0
  0
ARC
  5
10A
330
1F
100
AcDbEntity
  8
0
  6
Continuous
 62
     7
370
    25
100
AcDbCircle
 10
6651.7187553361
 20
5266.7994420927
 30
0.0
 40
5.0
100
AcDbArc
 50
90.0
 51
270.0
  0
LINE
  5
10B
330
1F
100
AcDbEntity
  8
0
  6
Continuous
 62
     7
370
    25
100
AcDbLine
 10
6610.7187553361
 20
5261.7994420927
 30
0.0
 11
6630.7187553361
 21
5261.7994420927
 31
0.0
  0
ARC
  5
10C
330
1F
100
AcDbEntity
  8
0
  6
Continuous
 62
     7
370
    25
100
AcDbCircle
 10
6630.7187553361
 20
5266.7994420927
 30
0.0
 40
5.0
100
AcDbArc
 50
270.0
 51
90.0
  0
LINE
  5
10D
330
1F
100
AcDbEntity
  8
0
  6
Continuous
 62
     7
370
    25
100
AcDbLine
 10
6630.7187553361
 20
5271.7994420927
 30
0.0
 11
6610.7187553361
 21
5271.7994420927
 31
0.0
  0
ARC
  5
10E
330
1F
100
AcDbEntity
  8
0
  6
Continuous
 62
     7
370
    25
100
AcDbCircle
 10
6610.7187553361
 20
5266.7994420927
 30
0.0
 40
5.0
100
AcDbArc
 50
90.0
 51
270.0
  0
LINE
  5
10F
330
1F
100
AcDbEntity
  8
0
  6
Continuous
 62
     7
370
    25
100
AcDbLine
 10
6569.7187553361
 20
5261.7994420927
 30
0.0
 11
6589.7187553361
 21
5261.7994420927
 31
0.0
  0
ARC
  5
110
330
1F
100
AcDbEntity
  8
0
  6
Continuous
 62
     7
370
    25
100
AcDbCircle
 10
6589.7187553361
 20
5266.7994420927
 30
0.0
 40
5.0
100
AcDbArc
 50
270.0
 51
90.0
  0
LINE
  5
111
330
1F
100
AcDbEntity
  8
0
  6
Continuous
 62
     7
370
    25
100
AcDbLine
 10
6589.7187553361
 20
5271.7994420927
 30
0.0
 11
6569.7187553361
 21
5271.7994420927
 31
0.0
  0
ARC
  5
112
330
1F
100
AcDbEntity
  8
0
  6
Continuous
 62
     7
370
    25
100
AcDbCircle
 10
6569.7187553361
 20
5266.7994420927
 30
0.0
 40
5.0
100
AcDbArc
 50
90.0
 51
270.0
  0
LINE
  5
113
330
1F
100
AcDbEntity
  8
0
  6
Continuous
 62
     7
370
    25
100
AcDbLine
 10
6528.7187553361
 20
5261.7994420927
 30
0.0
 11
6548.7187553361
 21
5261.7994420927
 31
0.0
  0
ARC
  5
114
330
1F
100
AcDbEntity
  8
0
  6
Continuous
 62
     7
370
    25
100
AcDbCircle
 10
6548.7187553361
 20
5266.7994420927
 30
0.0
 40
5.0
100
AcDbArc
 50
270.0
 51
90.0
  0
LINE
  5
115
330
1F
100
AcDbEntity
  8
0
  6
Continuous
 62
     7
370
    25
100
AcDbLine
 10
6548.7187553361
 20
5271.7994420927
 30
0.0
 11
6528.7187553361
 21
5271.7994420927
 31
0.0
  0
ARC
  5
116
330
1F
100
AcDbEntity
  8
0
  6
Continuous
 62
     7
370
    25
100
AcDbCircle
 10
6528.7187553361
 20
5266.7994420927
 30
0.0
 40
5.0
100
AcDbArc
 50
90.0
 51
270.0
  0
LINE
  5
117
330
1F
100
AcDbEntity
  8
0
  6
Continuous
 62
     7
370
    25
100
AcDbLine
 10
6487.7187553361
 20
5261.7994420927
 30
0.0
 11
6507.7187553361
 21
5261.7994420927
 31
0.0
  0
ARC
  5
118
330
1F
100
AcDbEntity
  8
0
  6
Continuous
 62
     7
370
    25
100
AcDbCircle
 10
6507.7187553361
 20
5266.7994420927
 30
0.0
 40
5.0
100
AcDbArc
 50
270.0
 51
90.0
  0
LINE
  5
119
330
1F
100
AcDbEntity
  8
0
  6
Continuous
 62
     7
370
    25
100
AcDbLine
 10
6507.7187553361
 20
5271.7994420927
 30
0.0
 11
6487.7187553361
 21
5271.7994420927
 31
0.0
  0
ARC
  5
11A
330
1F
100
AcDbEntity
  8
0
  6
Continuous
 62
     7
370
    25
100
AcDbCircle
 10
6487.7187553361
 20
5266.7994420927
 30
0.0
 40
5.0
100
AcDbArc
 50
90.0
 51
270.0
  0
LINE
  5
11B
330
1F
100
AcDbEntity
  8
0
  6
Continuous
 62
     7
370
    25
100
AcDbLine
 10
6446.7187553361
 20
5261.7994420927
 30
0.0
 11
6466.7187553361
 21
5261.7994420927
 31
0.0
  0
ARC
  5
11C
330
1F
100
AcDbEntity
  8
0
  6
Continuous
 62
     7
370
    25
100
AcDbCircle
 10
6466.7187553361
 20
5266.7994420927
 30
0.0
 40
5.000000000000909
100
AcDbArc
 50
270.0
 51
90.0
  0
LINE
  5
11D
330
1F
100
AcDbEntity
  8
0
  6
Continuous
 62
     7
370
    25
100
AcDbLine
 10
6466.7187553361
 20
5271.7994420927
 30
0.0
 11
6446.7187553361
 21
5271.7994420927
 31
0.0
  0
ARC
  5
11E
330
1F
100
AcDbEntity
  8
0
  6
Continuous
 62
     7
370
    25
100
AcDbCircle
 10
6446.7187553361
 20
5266.7994420927
 30
0.0
 40
5.000000000000909
100
AcDbArc
 50
90.0
 51
270.0
  0
LINE
  5
11F
330
1F
100
AcDbEntity
  8
0
  6
Continuous
 62
     7
370
    25
100
AcDbLine
 10
6405.7187553361
 20
5261.7994420927
 30
0.0
 11
6425.7187553361
 21
5261.7994420927
 31
0.0
  0
ARC
  5
120
330
1F
100
AcDbEntity
  8
0
  6
Continuous
 62
     7
370
    25
100
AcDbCircle
 10
6425.7187553361
 20
5266.7994420927
 30
0.0
 40
5.000000000000909
100
AcDbArc
 50
270.0
 51
90.0
  0
LINE
  5
121
330
1F
100
AcDbEntity
  8
0
  6
Continuous
 62
     7
370
    25
100
AcDbLine
 10
6425.7187553361
 20
5271.7994420927
 30
0.0
 11
6405.7187553361
 21
5271.7994420927
 31
0.0
  0
ARC
  5
122
330
1F
100
AcDbEntity
  8
0
  6
Continuous
 62
     7
370
    25
100
AcDbCircle
 10
6405.7187553361
 20
5266.7994420927
 30
0.0
 40
5.000000000000909
100
AcDbArc
 50
90.0
 51
270.0
  0
LINE
  5
123
330
1F
100
AcDbEntity
  8
0
  6
Continuous
 62
     7
370
    25
100
AcDbLine
 10
6364.7187553361
 20
5261.7994420927
 30
0.0
 11
6384.7187553361
 21
5261.7994420927
 31
0.0
  0
ARC
  5
124
330
1F
100
AcDbEntity
  8
0
  6
Continuous
 62
     7
370
    25
100
AcDbCircle
 10
6384.7187553361
 20
5266.7994420927
 30
0.0
 40
5.000000000000909
100
AcDbArc
 50
270.0
 51
90.0
  0
LINE
  5
125
330
1F
100
AcDbEntity
  8
0
  6
Continuous
 62
     7
370
    25
100
AcDbLine
 10
6384.7187553361
 20
5271.7994420927
 30
0.0
 11
6364.7187553361
 21
5271.7994420927
 31
0.0
  0
ARC
  5
126
330
1F
100
AcDbEntity
  8
0
  6
Continuous
 62
     7
370
    25
100
AcDbCircle
 10
6364.7187553361
 20
5266.7994420927
 30
0.0
 40
5.000000000000909
100
AcDbArc
 50
90.0
 51
270.0
  0
LINE
  5
127
330
1F
100
AcDbEntity
  8
0
  6
Continuous
 62
     7
370
    25
100
AcDbLine
 10
6323.7187553361
 20
5261.7994420927
 30
0.0
 11
6343.7187553361
 21
5261.7994420927
 31
0.0
  0
ARC
  5
128
330
1F
100
AcDbEntity
  8
0
  6
Continuous
 62
     7
370
    25
100
AcDbCircle
 10
6343.7187553361
 20
5266.7994420927
 30
0.0
 40
5.000000000000909
100
AcDbArc
 50
270.0
 51
90.0
  0
LINE
  5
129
330
1F
100
AcDbEntity
  8
0
  6
Continuous
 62
     7
370
    25
100
AcDbLine
 10
6343.7187553361
 20
5271.7994420927
 30
0.0
 11
6323.7187553361
 21
5271.7994420927
 31
0.0
  0
ARC
  5
12A
330
1F
100
AcDbEntity
  8
0
  6
Continuous
 62
     7
370
    25
100
AcDbCircle
 10
6323.7187553361
 20
5266.7994420927
 30
0.0
 40
5.000000000000909
100
AcDbArc
 50
90.0
 51
270.0
  0
LINE
  5
12B
330
1F
100
AcDbEntity
  8
0
  6
Continuous
 62
     7
370
    25
100
AcDbLine
 10
6282.7187553361
 20
5261.7994420927
 30
0.0
 11
6302.7187553361
 21
5261.7994420927
 31
0.0
  0
ARC
  5
12C
330
1F
100
AcDbEntity
  8
0
  6
Continuous
 62
     7
370
    25
100
AcDbCircle
 10
6302.7187553361
 20
5266.7994420927
 30
0.0
 40
5.000000000000909
100
AcDbArc
 50
270.0
 51
90.0
  0
LINE
  5
12D
330
1F
100
AcDbEntity
  8
0
  6
Continuous
 62
     7
370
    25
100
AcDbLine
 10
6302.7187553361
 20
5271.7994420927
 30
0.0
 11
6282.7187553361
 21
5271.7994420927
 31
0.0
  0
ARC
  5
12E
330
1F
100
AcDbEntity
  8
0
  6
Continuous
 62
     7
370
    25
100
AcDbCircle
 10
6282.7187553361
 20
5266.7994420927
 30
0.0
 40
5.000000000000909
100
AcDbArc
 50
90.0
 51
270.0
  0
LINE
  5
12F
330
1F
100
AcDbEntity
  8
0
  6
Continuous
 62
     7
370
    25
100
AcDbLine
 10
6241.7187553361
 20
5261.7994420927
 30
0.0
 11
6261.7187553361
 21
5261.7994420927
 31
0.0
  0
ARC
  5
130
330
1F
100
AcDbEntity
  8
0
  6
Continuous
 62
     7
370
    25
100
AcDbCircle
 10
6261.7187553361
 20
5266.7994420927
 30
0.0
 40
5.000000000000909
100
AcDbArc
 50
270.0
 51
90.0
  0
LINE
  5
131
330
1F
100
AcDbEntity
  8
0
  6
Continuous
 62
     7
370
    25
100
AcDbLine
 10
6261.7187553361
 20
5271.7994420927
 30
0.0
 11
6241.7187553361
 21
5271.7994420927
 31
0.0
  0
ARC
  5
132
330
1F
100
AcDbEntity
  8
0
  6
Continuous
 62
     7
370
    25
100
AcDbCircle
 10
6241.7187553361
 20
5266.7994420927
 30
0.0
 40
5.000000000000909
100
AcDbArc
 50
90.0
 51
270.0
  0
LINE
  5
133
330
1F
100
AcDbEntity
  8
0
  6
Continuous
 62
     7
370
    25
100
AcDbLine
 10
6200.7187553361
 20
5261.7994420927
 30
0.0
 11
6220.7187553361
 21
5261.7994420927
 31
0.0
  0
ARC
  5
134
330
1F
100
AcDbEntity
  8
0
  6
Continuous
 62
     7
370
    25
100
AcDbCircle
 10
6220.7187553361
 20
5266.7994420927
 30
0.0
 40
5.000000000000909
100
AcDbArc
 50
270.0
 51
90.0
  0
LINE
  5
135
330
1F
100
AcDbEntity
  8
0
  6
Continuous
 62
     7
370
    25
100
AcDbLine
 10
6220.7187553361
 20
5271.7994420927
 30
0.0
 11
6200.7187553361
 21
5271.7994420927
 31
0.0
  0
ARC
  5
136
330
1F
100
AcDbEntity
  8
0
  6
Continuous
 62
     7
370
    25
100
AcDbCircle
 10
6200.7187553361
 20
5266.7994420927
 30
0.0
 40
5.000000000000909
100
AcDbArc
 50
90.0
 51
270.0
  0
LINE
  5
137
330
1F
100
AcDbEntity
  8
0
  6
Continuous
 62
     7
370
    25
100
AcDbLine
 10
6159.7187553361
 20
5261.7994420927
 30
0.0
 11
6179.7187553361
 21
5261.7994420927
 31
0.0
  0
ARC
  5
138
330
1F
100
AcDbEntity
  8
0
  6
Continuous
 62
     7
370
    25
100
AcDbCircle
 10
6179.7187553361
 20
5266.7994420927
 30
0.0
 40
5.000000000000909
100
AcDbArc
 50
270.0
 51
90.0
  0
LINE
  5
139
330
1F
100
AcDbEntity
  8
0
  6
Continuous
 62
     7
370
    25
100
AcDbLine
 10
6179.7187553361
 20
5271.7994420927
 30
0.0
 11
6159.7187553361
 21
5271.7994420927
 31
0.0
  0
ARC
  5
13A
330
1F
100
AcDbEntity
  8
0
  6
Continuous
 62
     7
370
    25
100
AcDbCircle
 10
6159.7187553361
 20
5266.7994420927
 30
0.0
 40
5.000000000000909
100
AcDbArc
 50
90.0
 51
270.0
  0
LINE
  5
13B
330
1F
100
AcDbEntity
  8
0
  6
Continuous
 62
     7
370
    25
100
AcDbLine
 10
6118.7187553361
 20
5261.7994420927
 30
0.0
 11
6138.7187553361
 21
5261.7994420927
 31
0.0
  0
ARC
  5
13C
330
1F
100
AcDbEntity
  8
0
  6
Continuous
 62
     7
370
    25
100
AcDbCircle
 10
6138.7187553361
 20
5266.7994420927
 30
0.0
 40
5.000000000000909
100
AcDbArc
 50
270.0
 51
90.0
  0
LINE
  5
13D
330
1F
100
AcDbEntity
  8
0
  6
Continuous
 62
     7
370
    25
100
AcDbLine
 10
6138.7187553361
 20
5271.7994420927
 30
0.0
 11
6118.7187553361
 21
5271.7994420927
 31
0.0
  0
ARC
  5
13E
330
1F
100
AcDbEntity
  8
0
  6
Continuous
 62
     7
370
    25
100
AcDbCircle
 10
6118.7187553361
 20
5266.7994420927
 30
0.0
 40
5.000000000000909
100
AcDbArc
 50
90.0
 51
270.0
  0
LINE
  5
13F
330
1F
100
AcDbEntity
  8
0
  6
Continuous
 62
     7
370
    25
100
AcDbLine
 10
6077.7187553361
 20
5261.7994420927
 30
0.0
 11
6097.7187553361
 21
5261.7994420927
 31
0.0
  0
ARC
  5
140
330
1F
100
AcDbEntity
  8
0
  6
Continuous
 62
     7
370
    25
100
AcDbCircle
 10
6097.7187553361
 20
5266.7994420927
 30
0.0
 40
5.000000000000909
100
AcDbArc
 50
270.0
 51
90.0
  0
LINE
  5
141
330
1F
100
AcDbEntity
  8
0
  6
Continuous
 62
     7
370
    25
100
AcDbLine
 10
6097.7187553361
 20
5271.7994420927
 30
0.0
 11
6077.7187553361
 21
5271.7994420927
 31
0.0
  0
ARC
  5
142
330
1F
100
AcDbEntity
  8
0
  6
Continuous
 62
     7
370
    25
100
AcDbCircle
 10
6077.7187553361
 20
5266.7994420927
 30
0.0
 40
5.000000000000909
100
AcDbArc
 50
90.0
 51
270.0
  0
LINE
  5
143
330
1F
100
AcDbEntity
  8
0
  6
Continuous
 62
     7
370
    25
100
AcDbLine
 10
6036.7187553361
 20
5261.7994420927
 30
0.0
 11
6056.7187553361
 21
5261.7994420927
 31
0.0
  0
ARC
  5
144
330
1F
100
AcDbEntity
  8
0
  6
Continuous
 62
     7
370
    25
100
AcDbCircle
 10
6056.7187553361
 20
5266.7994420927
 30
0.0
 40
5.000000000000909
100
AcDbArc
 50
270.0
 51
90.0
  0
LINE
  5
145
330
1F
100
AcDbEntity
  8
0
  6
Continuous
 62
     7
370
    25
100
AcDbLine
 10
6056.7187553361
 20
5271.7994420927
 30
0.0
 11
6036.7187553361
 21
5271.7994420927
 31
0.0
  0
ARC
  5
146
330
1F
100
AcDbEntity
  8
0
  6
Continuous
 62
     7
370
    25
100
AcDbCircle
 10
6036.7187553361
 20
5266.7994420927
 30
0.0
 40
5.000000000000909
100
AcDbArc
 50
90.0
 51
270.0
  0
LINE
  5
147
330
1F
100
AcDbEntity
  8
0
  6
Continuous
 62
     7
370
    25
100
AcDbLine
 10
5995.7187553361
 20
5261.7994420927
 30
0.0
 11
6015.7187553361
 21
5261.7994420927
 31
0.0
  0
ARC
  5
148
330
1F
100
AcDbEntity
  8
0
  6
Continuous
 62
     7
370
    25
100
AcDbCircle
 10
6015.7187553361
 20
5266.7994420927
 30
0.0
 40
5.000000000000909
100
AcDbArc
 50
270.0
 51
90.0
  0
LINE
  5
149
330
1F
100
AcDbEntity
  8
0
  6
Continuous
 62
     7
370
    25
100
AcDbLine
 10
6015.7187553361
 20
5271.7994420927
 30
0.0
 11
5995.7187553361
 21
5271.7994420927
 31
0.0
  0
ARC
  5
14A
330
1F
100
AcDbEntity
  8
0
  6
Continuous
 62
     7
370
    25
100
AcDbCircle
 10
5995.7187553361
 20
5266.7994420927
 30
0.0
 40
5.000000000000909
100
AcDbArc
 50
90.0
 51
270.0
  0
LINE
  5
14B
330
1F
100
AcDbEntity
  8
0
  6
Continuous
 62
     7
370
    25
100
AcDbLine
 10
5954.7187553361
 20
5261.7994420927
 30
0.0
 11
5974.7187553361
 21
5261.7994420927
 31
0.0
  0
ARC
  5
14C
330
1F
100
AcDbEntity
  8
0
  6
Continuous
 62
     7
370
    25
100
AcDbCircle
 10
5974.7187553361
 20
5266.7994420927
 30
0.0
 40
5.000000000000909
100
AcDbArc
 50
270.0
 51
90.0
  0
LINE
  5
14D
330
1F
100
AcDbEntity
  8
0
  6
Continuous
 62
     7
370
    25
100
AcDbLine
 10
5974.7187553361
 20
5271.7994420927
 30
0.0
 11
5954.7187553361
 21
5271.7994420927
 31
0.0
  0
ARC
  5
14E
330
1F
100
AcDbEntity
  8
0
  6
Continuous
 62
     7
370
    25
100
AcDbCircle
 10
5954.7187553361
 20
5266.7994420927
 30
0.0
 40
5.000000000000909
100
AcDbArc
 50
90.0
 51
270.0
  0
LINE
  5
14F
330
1F
100
AcDbEntity
  8
0
  6
Continuous
 62
     7
370
    25
100
AcDbLine
 10
5913.7187553361
 20
5261.7994420927
 30
0.0
 11
5933.7187553361
 21
5261.7994420927
 31
0.0
  0
ARC
  5
150
330
1F
100
AcDbEntity
  8
0
  6
Continuous
 62
     7
370
    25
100
AcDbCircle
 10
5933.7187553361
 20
5266.7994420927
 30
0.0
 40
5.000000000000909
100
AcDbArc
 50
270.0
 51
90.0
  0
LINE
  5
151
330
1F
100
AcDbEntity
  8
0
  6
Continuous
 62
     7
370
    25
100
AcDbLine
 10
5933.7187553361
 20
5271.7994420927
 30
0.0
 11
5913.7187553361
 21
5271.7994420927
 31
0.0
  0
ARC
  5
152
330
1F
100
AcDbEntity
  8
0
  6
Continuous
 62
     7
370
    25
100
AcDbCircle
 10
5913.7187553361
 20
5266.7994420927
 30
0.0
 40
5.000000000000909
100
AcDbArc
 50
90.0
 51
270.0
  0
LINE
  5
153
330
1F
100
AcDbEntity
  8
0
  6
Continuous
 62
     7
370
    25
100
AcDbLine
 10
6692.7187553361
 20
5281.7994420927
 30
0.0
 11
6712.7187553361
 21
5281.7994420927
 31
0.0
  0
ARC
  5
154
330
1F
100
AcDbEntity
  8
0
  6
Continuous
 62
     7
370
    25
100
AcDbCircle
 10
6712.7187553361
 20
5286.7994420927
 30
0.0
 40
5.0
100
AcDbArc
 50
270.0
 51
90.0
  0
LINE
  5
155
330
1F
100
AcDbEntity
  8
0
  6
Continuous
 62
     7
370
    25
100
AcDbLine
 10
6712.7187553361
 20
5291.7994420927
 30
0.0
 11
6692.7187553361
 21
5291.7994420927
 31
0.0
  0
ARC
  5
156
330
1F
100
AcDbEntity
  8
0
  6
Continuous
 62
     7
370
    25
100
AcDbCircle
 10
6692.7187553361
 20
5286.7994420927
 30
0.0
 40
5.0
100
AcDbArc
 50
90.0
 51
270.0
  0
LINE
  5
157
330
1F
100
AcDbEntity
  8
0
  6
Continuous
 62
     7
370
    25
100
AcDbLine
 10
6651.7187553361
 20
5281.7994420927
 30
0.0
 11
6671.7187553361
 21
5281.7994420927
 31
0.0
  0
ARC
  5
158
330
1F
100
AcDbEntity
  8
0
  6
Continuous
 62
     7
370
    25
100
AcDbCircle
 10
6671.7187553361
 20
5286.7994420927
 30
0.0
 40
5.0
100
AcDbArc
 50
270.0
 51
90.0
  0
LINE
  5
159
330
1F
100
AcDbEntity
  8
0
  6
Continuous
 62
     7
370
    25
100
AcDbLine
 10
6671.7187553361
 20
5291.7994420927
 30
0.0
 11
6651.7187553361
 21
5291.7994420927
 31
0.0
  0
ARC
  5
15A
330
1F
100
AcDbEntity
  8
0
  6
Continuous
 62
     7
370
    25
100
AcDbCircle
 10
6651.7187553361
 20
5286.7994420927
 30
0.0
 40
5.0
100
AcDbArc
 50
90.0
 51
270.0
  0
LINE
  5
15B
330
1F
100
AcDbEntity
  8
0
  6
Continuous
 62
     7
370
    25
100
AcDbLine
 10
6610.7187553361
 20
5281.7994420927
 30
0.0
 11
6630.7187553361
 21
5281.7994420927
 31
0.0
  0
ARC
  5
15C
330
1F
100
AcDbEntity
  8
0
  6
Continuous
 62
     7
370
    25
100
AcDbCircle
 10
6630.7187553361
 20
5286.7994420927
 30
0.0
 40
5.0
100
AcDbArc
 50
270.0
 51
90.0
  0
LINE
  5
15D
330
1F
100
AcDbEntity
  8
0
  6
Continuous
 62
     7
370
    25
100
AcDbLine
 10
6630.7187553361
 20
5291.7994420927
 30
0.0
 11
6610.7187553361
 21
5291.7994420927
 31
0.0
  0
ARC
  5
15E
330
1F
100
AcDbEntity
  8
0
  6
Continuous
 62
     7
370
    25
100
AcDbCircle
 10
6610.7187553361
 20
5286.7994420927
 30
0.0
 40
5.0
100
AcDbArc
 50
90.0
 51
270.0
  0
LINE
  5
15F
330
1F
100
AcDbEntity
  8
0
  6
Continuous
 62
     7
370
    25
100
AcDbLine
 10
6569.7187553361
 20
5281.7994420927
 30
0.0
 11
6589.7187553361
 21
5281.7994420927
 31
0.0
  0
ARC
  5
160
330
1F
100
AcDbEntity
  8
0
  6
Continuous
 62
     7
370
    25
100
AcDbCircle
 10
6589.7187553361
 20
5286.7994420927
 30
0.0
 40
5.0
100
AcDbArc
 50
270.0
 51
90.0
  0
LINE
  5
161
330
1F
100
AcDbEntity
  8
0
  6
Continuous
 62
     7
370
    25
100
AcDbLine
 10
6589.7187553361
 20
5291.7994420927
 30
0.0
 11
6569.7187553361
 21
5291.7994420927
 31
0.0
  0
ARC
  5
162
330
1F
100
AcDbEntity
  8
0
  6
Continuous
 62
     7
370
    25
100
AcDbCircle
 10
6569.7187553361
 20
5286.7994420927
 30
0.0
 40
5.0
100
AcDbArc
 50
90.0
 51
270.0
  0
LINE
  5
163
330
1F
100
AcDbEntity
  8
0
  6
Continuous
 62
     7
370
    25
100
AcDbLine
 10
6528.7187553361
 20
5281.7994420927
 30
0.0
 11
6548.7187553361
 21
5281.7994420927
 31
0.0
  0
ARC
  5
164
330
1F
100
AcDbEntity
  8
0
  6
Continuous
 62
     7
370
    25
100
AcDbCircle
 10
6548.7187553361
 20
5286.7994420927
 30
0.0
 40
5.0
100
AcDbArc
 50
270.0
 51
90.0
  0
LINE
  5
165
330
1F
100
AcDbEntity
  8
0
  6
Continuous
 62
     7
370
    25
100
AcDbLine
 10
6548.7187553361
 20
5291.7994420927
 30
0.0
 11
6528.7187553361
 21
5291.7994420927
 31
0.0
  0
ARC
  5
166
330
1F
100
AcDbEntity
  8
0
  6
Continuous
 62
     7
370
    25
100
AcDbCircle
 10
6528.7187553361
 20
5286.7994420927
 30
0.0
 40
5.0
100
AcDbArc
 50
90.0
 51
270.0
  0
LINE
  5
167
330
1F
100
AcDbEntity
  8
0
  6
Continuous
 62
     7
370
    25
100
AcDbLine
 10
6487.7187553361
 20
5281.7994420927
 30
0.0
 11
6507.7187553361
 21
5281.7994420927
 31
0.0
  0
ARC
  5
168
330
1F
100
AcDbEntity
  8
0
  6
Continuous
 62
     7
370
    25
100
AcDbCircle
 10
6507.7187553361
 20
5286.7994420927
 30
0.0
 40
5.0
100
AcDbArc
 50
270.0
 51
90.0
  0
LINE
  5
169
330
1F
100
AcDbEntity
  8
0
  6
Continuous
 62
     7
370
    25
100
AcDbLine
 10
6507.7187553361
 20
5291.7994420927
 30
0.0
 11
6487.7187553361
 21
5291.7994420927
 31
0.0
  0
ARC
  5
16A
330
1F
100
AcDbEntity
  8
0
  6
Continuous
 62
     7
370
    25
100
AcDbCircle
 10
6487.7187553361
 20
5286.7994420927
 30
0.0
 40
5.0
100
AcDbArc
 50
90.0
 51
270.0
  0
LINE
  5
16B
330
1F
100
AcDbEntity
  8
0
  6
Continuous
 62
     7
370
    25
100
AcDbLine
 10
6446.7187553361
 20
5281.7994420927
 30
0.0
 11
6466.7187553361
 21
5281.7994420927
 31
0.0
  0
ARC
  5
16C
330
1F
100
AcDbEntity
  8
0
  6
Continuous
 62
     7
370
    25
100
AcDbCircle
 10
6466.7187553361
 20
5286.7994420927
 30
0.0
 40
5.0
100
AcDbArc
 50
270.0
 51
90.0
  0
LINE
  5
16D
330
1F
100
AcDbEntity
  8
0
  6
Continuous
 62
     7
370
    25
100
AcDbLine
 10
6466.7187553361
 20
5291.7994420927
 30
0.0
 11
6446.7187553361
 21
5291.7994420927
 31
0.0
  0
ARC
  5
16E
330
1F
100
AcDbEntity
  8
0
  6
Continuous
 62
     7
370
    25
100
AcDbCircle
 10
6446.7187553361
 20
5286.7994420927
 30
0.0
 40
5.0
100
AcDbArc
 50
90.0
 51
270.0
  0
LINE
  5
16F
330
1F
100
AcDbEntity
  8
0
  6
Continuous
 62
     7
370
    25
100
AcDbLine
 10
6405.7187553361
 20
5281.7994420927
 30
0.0
 11
6425.7187553361
 21
5281.7994420927
 31
0.0
  0
ARC
  5
170
330
1F
100
AcDbEntity
  8
0
  6
Continuous
 62
     7
370
    25
100
AcDbCircle
 10
6425.7187553361
 20
5286.7994420927
 30
0.0
 40
5.0
100
AcDbArc
 50
270.0
 51
90.0
  0
LINE
  5
171
330
1F
100
AcDbEntity
  8
0
  6
Continuous
 62
     7
370
    25
100
AcDbLine
 10
6425.7187553361
 20
5291.7994420927
 30
0.0
 11
6405.7187553361
 21
5291.7994420927
 31
0.0
  0
ARC
  5
172
330
1F
100
AcDbEntity
  8
0
  6
Continuous
 62
     7
370
    25
100
AcDbCircle
 10
6405.7187553361
 20
5286.7994420927
 30
0.0
 40
5.0
100
AcDbArc
 50
90.0
 51
270.0
  0
LINE
  5
173
330
1F
100
AcDbEntity
  8
0
  6
Continuous
 62
     7
370
    25
100
AcDbLine
 10
6364.7187553361
 20
5281.7994420927
 30
0.0
 11
6384.7187553361
 21
5281.7994420927
 31
0.0
  0
ARC
  5
174
330
1F
100
AcDbEntity
  8
0
  6
Continuous
 62
     7
370
    25
100
AcDbCircle
 10
6384.7187553361
 20
5286.7994420927
 30
0.0
 40
5.0
100
AcDbArc
 50
270.0
 51
90.0
  0
LINE
  5
175
330
1F
100
AcDbEntity
  8
0
  6
Continuous
 62
     7
370
    25
100
AcDbLine
 10
6384.7187553361
 20
5291.7994420927
 30
0.0
 11
6364.7187553361
 21
5291.7994420927
 31
0.0
  0
ARC
  5
176
330
1F
100
AcDbEntity
  8
0
  6
Continuous
 62
     7
370
    25
100
AcDbCircle
 10
6364.7187553361
 20
5286.7994420927
 30
0.0
 40
5.0
100
AcDbArc
 50
90.0
 51
270.0
  0
LINE
  5
177
330
1F
100
AcDbEntity
  8
0
  6
Continuous
 62
     7
370
    25
100
AcDbLine
 10
6323.7187553361
 20
5281.7994420927
 30
0.0
 11
6343.7187553361
 21
5281.7994420927
 31
0.0
  0
ARC
  5
178
330
1F
100
AcDbEntity
  8
0
  6
Continuous
 62
     7
370
    25
100
AcDbCircle
 10
6343.7187553361
 20
5286.7994420927
 30
0.0
 40
5.0
100
AcDbArc
 50
270.0
 51
90.0
  0
LINE
  5
179
330
1F
100
AcDbEntity
  8
0
  6
Continuous
 62
     7
370
    25
100
AcDbLine
 10
6343.7187553361
 20
5291.7994420927
 30
0.0
 11
6323.7187553361
 21
5291.7994420927
 31
0.0
  0
ARC
  5
17A
330
1F
100
AcDbEntity
  8
0
  6
Continuous
 62
     7
370
    25
100
AcDbCircle
 10
6323.7187553361
 20
5286.7994420927
 30
0.0
 40
5.0
100
AcDbArc
 50
90.0
 51
270.0
  0
LINE
  5
17B
330
1F
100
AcDbEntity
  8
0
  6
Continuous
 62
     7
370
    25
100
AcDbLine
 10
6282.7187553361
 20
5281.7994420927
 30
0.0
 11
6302.7187553361
 21
5281.7994420927
 31
0.0
  0
ARC
  5
17C
330
1F
100
AcDbEntity
  8
0
  6
Continuous
 62
     7
370
    25
100
AcDbCircle
 10
6302.7187553361
 20
5286.7994420927
 30
0.0
 40
5.0
100
AcDbArc
 50
270.0
 51
90.0
  0
LINE
  5
17D
330
1F
100
AcDbEntity
  8
0
  6
Continuous
 62
     7
370
    25
100
AcDbLine
 10
6302.7187553361
 20
5291.7994420927
 30
0.0
 11
6282.7187553361
 21
5291.7994420927
 31
0.0
  0
ARC
  5
17E
330
1F
100
AcDbEntity
  8
0
  6
Continuous
 62
     7
370
    25
100
AcDbCircle
 10
6282.7187553361
 20
5286.7994420927
 30
0.0
 40
5.0
100
AcDbArc
 50
90.0
 51
270.0
  0
LINE
  5
17F
330
1F
100
AcDbEntity
  8
0
  6
Continuous
 62
     7
370
    25
100
AcDbLine
 10
6241.7187553361
 20
5281.7994420927
 30
0.0
 11
6261.7187553361
 21
5281.7994420927
 31
0.0
  0
ARC
  5
180
330
1F
100
AcDbEntity
  8
0
  6
Continuous
 62
     7
370
    25
100
AcDbCircle
 10
6261.7187553361
 20
5286.7994420927
 30
0.0
 40
5.0
100
AcDbArc
 50
270.0
 51
90.0
  0
LINE
  5
181
330
1F
100
AcDbEntity
  8
0
  6
Continuous
 62
     7
370
    25
100
AcDbLine
 10
6261.7187553361
 20
5291.7994420927
 30
0.0
 11
6241.7187553361
 21
5291.7994420927
 31
0.0
  0
ARC
  5
182
330
1F
100
AcDbEntity
  8
0
  6
Continuous
 62
     7
370
    25
100
AcDbCircle
 10
6241.7187553361
 20
5286.7994420927
 30
0.0
 40
5.0
100
AcDbArc
 50
90.0
 51
270.0
  0
LINE
  5
183
330
1F
100
AcDbEntity
  8
0
  6
Continuous
 62
     7
370
    25
100
AcDbLine
 10
6200.7187553361
 20
5281.7994420927
 30
0.0
 11
6220.7187553361
 21
5281.7994420927
 31
0.0
  0
ARC
  5
184
330
1F
100
AcDbEntity
  8
0
  6
Continuous
 62
     7
370
    25
100
AcDbCircle
 10
6220.7187553361
 20
5286.7994420927
 30
0.0
 40
5.0
100
AcDbArc
 50
270.0
 51
90.0
  0
LINE
  5
185
330
1F
100
AcDbEntity
  8
0
  6
Continuous
 62
     7
370
    25
100
AcDbLine
 10
6220.7187553361
 20
5291.7994420927
 30
0.0
 11
6200.7187553361
 21
5291.7994420927
 31
0.0
  0
ARC
  5
186
330
1F
100
AcDbEntity
  8
0
  6
Continuous
 62
     7
370
    25
100
AcDbCircle
 10
6200.7187553361
 20
5286.7994420927
 30
0.0
 40
5.0
100
AcDbArc
 50
90.0
 51
270.0
  0
LINE
  5
187
330
1F
100
AcDbEntity
  8
0
  6
Continuous
 62
     7
370
    25
100
AcDbLine
 10
6159.7187553361
 20
5281.7994420927
 30
0.0
 11
6179.7187553361
 21
5281.7994420927
 31
0.0
  0
ARC
  5
188
330
1F
100
AcDbEntity
  8
0
  6
Continuous
 62
     7
370
    25
100
AcDbCircle
 10
6179.7187553361
 20
5286.7994420927
 30
0.0
 40
5.0
100
AcDbArc
 50
270.0
 51
90.0
  0
LINE
  5
189
330
1F
100
AcDbEntity
  8
0
  6
Continuous
 62
     7
370
    25
100
AcDbLine
 10
6179.7187553361
 20
5291.7994420927
 30
0.0
 11
6159.7187553361
 21
5291.7994420927
 31
0.0
  0
ARC
  5
18A
330
1F
100
AcDbEntity
  8
0
  6
Continuous
 62
     7
370
    25
100
AcDbCircle
 10
6159.7187553361
 20
5286.7994420927
 30
0.0
 40
5.0
100
AcDbArc
 50
90.0
 51
270.0
  0
LINE
  5
18B
330
1F
100
AcDbEntity
  8
0
  6
Continuous
 62
     7
370
    25
100
AcDbLine
 10
6118.7187553361
 20
5281.7994420927
 30
0.0
 11
6138.7187553361
 21
5281.7994420927
 31
0.0
  0
ARC
  5
18C
330
1F
100
AcDbEntity
  8
0
  6
Continuous
 62
     7
370
    25
100
AcDbCircle
 10
6138.7187553361
 20
5286.7994420927
 30
0.0
 40
5.0
100
AcDbArc
 50
270.0
 51
90.0
  0
LINE
  5
18D
330
1F
100
AcDbEntity
  8
0
  6
Continuous
 62
     7
370
    25
100
AcDbLine
 10
6138.7187553361
 20
5291.7994420927
 30
0.0
 11
6118.7187553361
 21
5291.7994420927
 31
0.0
  0
ARC
  5
18E
330
1F
100
AcDbEntity
  8
0
  6
Continuous
 62
     7
370
    25
100
AcDbCircle
 10
6118.7187553361
 20
5286.7994420927
 30
0.0
 40
5.0
100
AcDbArc
 50
90.0
 51
270.0
  0
LINE
  5
18F
330
1F
100
AcDbEntity
  8
0
  6
Continuous
 62
     7
370
    25
100
AcDbLine
 10
6077.7187553361
 20
5281.7994420927
 30
0.0
 11
6097.7187553361
 21
5281.7994420927
 31
0.0
  0
ARC
  5
190
330
1F
100
AcDbEntity
  8
0
  6
Continuous
 62
     7
370
    25
100
AcDbCircle
 10
6097.7187553361
 20
5286.7994420927
 30
0.0
 40
5.0
100
AcDbArc
 50
270.0
 51
90.0
  0
LINE
  5
191
330
1F
100
AcDbEntity
  8
0
  6
Continuous
 62
     7
370
    25
100
AcDbLine
 10
6097.7187553361
 20
5291.7994420927
 30
0.0
 11
6077.7187553361
 21
5291.7994420927
 31
0.0
  0
ARC
  5
192
330
1F
100
AcDbEntity
  8
0
  6
Continuous
 62
     7
370
    25
100
AcDbCircle
 10
6077.7187553361
 20
5286.7994420927
 30
0.0
 40
5.0
100
AcDbArc
 50
90.0
 51
270.0
  0
LINE
  5
193
330
1F
100
AcDbEntity
  8
0
  6
Continuous
 62
     7
370
    25
100
AcDbLine
 10
6036.7187553361
 20
5281.7994420927
 30
0.0
 11
6056.7187553361
 21
5281.7994420927
 31
0.0
  0
ARC
  5
194
330
1F
100
AcDbEntity
  8
0
  6
Continuous
 62
     7
370
    25
100
AcDbCircle
 10
6056.7187553361
 20
5286.7994420927
 30
0.0
 40
5.0
100
AcDbArc
 50
270.0
 51
90.0
  0
LINE
  5
195
330
1F
100
AcDbEntity
  8
0
  6
Continuous
 62
     7
370
    25
100
AcDbLine
 10
6056.7187553361
 20
5291.7994420927
 30
0.0
 11
6036.7187553361
 21
5291.7994420927
 31
0.0
  0
ARC
  5
196
330
1F
100
AcDbEntity
  8
0
  6
Continuous
 62
     7
370
    25
100
AcDbCircle
 10
6036.7187553361
 20
5286.7994420927
 30
0.0
 40
5.0
100
AcDbArc
 50
90.0
 51
270.0
  0
LINE
  5
197
330
1F
100
AcDbEntity
  8
0
  6
Continuous
 62
     7
370
    25
100
AcDbLine
 10
5995.7187553361
 20
5281.7994420927
 30
0.0
 11
6015.7187553361
 21
5281.7994420927
 31
0.0
  0
ARC
  5
198
330
1F
100
AcDbEntity
  8
0
  6
Continuous
 62
     7
370
    25
100
AcDbCircle
 10
6015.7187553361
 20
5286.7994420927
 30
0.0
 40
5.0
100
AcDbArc
 50
270.0
 51
90.0
  0
LINE
  5
199
330
1F
100
AcDbEntity
  8
0
  6
Continuous
 62
     7
370
    25
100
AcDbLine
 10
6015.7187553361
 20
5291.7994420927
 30
0.0
 11
5995.7187553361
 21
5291.7994420927
 31
0.0
  0
ARC
  5
19A
330
1F
100
AcDbEntity
  8
0
  6
Continuous
 62
     7
370
    25
100
AcDbCircle
 10
5995.7187553361
 20
5286.7994420927
 30
0.0
 40
5.0
100
AcDbArc
 50
90.0
 51
270.0
  0
LINE
  5
19B
330
1F
100
AcDbEntity
  8
0
  6
Continuous
 62
     7
370
    25
100
AcDbLine
 10
5954.7187553361
 20
5281.7994420927
 30
0.0
 11
5974.7187553361
 21
5281.7994420927
 31
0.0
  0
ARC
  5
19C
330
1F
100
AcDbEntity
  8
0
  6
Continuous
 62
     7
370
    25
100
AcDbCircle
 10
5974.7187553361
 20
5286.7994420927
 30
0.0
 40
5.0
100
AcDbArc
 50
270.0
 51
90.0
  0
LINE
  5
19D
330
1F
100
AcDbEntity
  8
0
  6
Continuous
 62
     7
370
    25
100
AcDbLine
 10
5974.7187553361
 20
5291.7994420927
 30
0.0
 11
5954.7187553361
 21
5291.7994420927
 31
0.0
  0
ARC
  5
19E
330
1F
100
AcDbEntity
  8
0
  6
Continuous
 62
     7
370
    25
100
AcDbCircle
 10
5954.7187553361
 20
5286.7994420927
 30
0.0
 40
5.0
100
AcDbArc
 50
90.0
 51
270.0
  0
LINE
  5
19F
330
1F
100
AcDbEntity
  8
0
  6
Continuous
 62
     7
370
    25
100
AcDbLine
 10
5913.7187553361
 20
5281.7994420927
 30
0.0
 11
5933.7187553361
 21
5281.7994420927
 31
0.0
  0
ARC
  5
1A0
330
1F
100
AcDbEntity
  8
0
  6
Continuous
 62
     7
370
    25
100
AcDbCircle
 10
5933.7187553361
 20
5286.7994420927
 30
0.0
 40
5.0
100
AcDbArc
 50
270.0
 51
90.0
  0
LINE
  5
1A1
330
1F
100
AcDbEntity
  8
0
  6
Continuous
 62
     7
370
    25
100
AcDbLine
 10
5933.7187553361
 20
5291.7994420927
 30
0.0
 11
5913.7187553361
 21
5291.7994420927
 31
0.0
  0
ARC
  5
1A2
330
1F
100
AcDbEntity
  8
0
  6
Continuous
 62
     7
370
    25
100
AcDbCircle
 10
5913.7187553361
 20
5286.7994420927
 30
0.0
 40
5.0
100
AcDbArc
 50
90.0
 51
270.0
  0
LINE
  5
1A3
330
1F
100
AcDbEntity
  8
0
  6
Continuous
 62
     7
370
    25
100
AcDbLine
 10
6698.1474748661
 20
5241.7994420927
 30
0.0
 11
6712.7187553361
 21
5241.7994420927
 31
0.0
  0
ARC
  5
1A4
330
1F
100
AcDbEntity
  8
0
  6
Continuous
 62
     7
370
    25
100
AcDbCircle
 10
6712.7187553361
 20
5246.7994420927
 30
0.0
 40
5.0
100
AcDbArc
 50
270.0
 51
90.0
  0
LINE
  5
1A5
330
1F
100
AcDbEntity
  8
0
  6
Continuous
 62
     7
370
    25
100
AcDbLine
 10
6712.7187553361
 20
5251.7994420927
 30
0.0
 11
6692.7187553361
 21
5251.7994420927
 31
0.0
  0
ARC
  5
1A6
330
1F
100
AcDbEntity
  8
0
  6
Continuous
 62
     7
370
    25
100
AcDbCircle
 10
6692.7187553361
 20
5246.7994420927
 30
0.0
 40
5.000000000001701
100
AcDbArc
 50
90.0
 51
168.4630409672
  0
ARC
  5
1A7
330
1F
100
AcDbEntity
  8
0
  6
Continuous
 62
     7
370
    25
100
AcDbCircle
 10
6671.7187553361
 20
5246.7994420927
 30
0.0
 40
5.0
100
AcDbArc
 50
11.5369590328
 51
90.0
  0
LINE
  5
1A8
330
1F
100
AcDbEntity
  8
0
  6
Continuous
 62
     7
370
    25
100
AcDbLine
 10
6671.7187553361
 20
5251.7994420927
 30
0.0
 11
6651.7187553361
 21
5251.7994420927
 31
0.0
  0
ARC
  5
1A9
330
1F
100
AcDbEntity
  8
0
  6
Continuous
 62
     7
370
    25
100
AcDbCircle
 10
6651.7187553361
 20
5246.7994420927
 30
0.0
 40
5.0
100
AcDbArc
 50
90.0
 51
168.4630409672
  0
ARC
  5
1AA
330
1F
100
AcDbEntity
  8
0
  6
Continuous
 62
     7
370
    25
100
AcDbCircle
 10
6630.7187553361
 20
5246.7994420927
 30
0.0
 40
5.0
100
AcDbArc
 50
11.5369590328
 51
90.0
  0
LINE
  5
1AB
330
1F
100
AcDbEntity
  8
0
  6
Continuous
 62
     7
370
    25
100
AcDbLine
 10
6630.7187553361
 20
5251.7994420927
 30
0.0
 11
6610.7187553361
 21
5251.7994420927
 31
0.0
  0
ARC
  5
1AC
330
1F
100
AcDbEntity
  8
0
  6
Continuous
 62
     7
370
    25
100
AcDbCircle
 10
6610.7187553361
 20
5246.7994420927
 30
0.0
 40
5.0
100
AcDbArc
 50
90.0
 51
168.4630409672
  0
ARC
  5
1AD
330
1F
100
AcDbEntity
  8
0
  6
Continuous
 62
     7
370
    25
100
AcDbCircle
 10
6589.7187553361
 20
5246.7994420927
 30
0.0
 40
5.0
100
AcDbArc
 50
11.5369590328
 51
90.0
  0
LINE
  5
1AE
330
1F
100
AcDbEntity
  8
0
  6
Continuous
 62
     7
370
    25
100
AcDbLine
 10
6589.7187553361
 20
5251.7994420927
 30
0.0
 11
6569.7187553361
 21
5251.7994420927
 31
0.0
  0
ARC
  5
1AF
330
1F
100
AcDbEntity
  8
0
  6
Continuous
 62
     7
370
    25
100
AcDbCircle
 10
6569.7187553361
 20
5246.7994420927
 30
0.0
 40
5.0
100
AcDbArc
 50
90.0
 51
168.4630409672
  0
ARC
  5
1B0
330
1F
100
AcDbEntity
  8
0
  6
Continuous
 62
     7
370
    25
100
AcDbCircle
 10
6548.7187553361
 20
5246.7994420927
 30
0.0
 40
5.00000000000081
100
AcDbArc
 50
11.5369590328
 51
90.0
  0
LINE
  5
1B1
330
1F
100
AcDbEntity
  8
0
  6
Continuous
 62
     7
370
    25
100
AcDbLine
 10
6548.7187553361
 20
5251.7994420927
 30
0.0
 11
6528.7187553361
 21
5251.7994420927
 31
0.0
  0
ARC
  5
1B2
330
1F
100
AcDbEntity
  8
0
  6
Continuous
 62
     7
370
    25
100
AcDbCircle
 10
6528.7187553361
 20
5246.7994420927
 30
0.0
 40
5.0
100
AcDbArc
 50
90.0
 51
168.4630409672
  0
ARC
  5
1B3
330
1F
100
AcDbEntity
  8
0
  6
Continuous
 62
     7
370
    25
100
AcDbCircle
 10
6507.7187553361
 20
5246.7994420927
 30
0.0
 40
5.0
100
AcDbArc
 50
11.5369590328
 51
90.0
  0
LINE
  5
1B4
330
1F
100
AcDbEntity
  8
0
  6
Continuous
 62
     7
370
    25
100
AcDbLine
 10
6507.7187553361
 20
5251.7994420927
 30
0.0
 11
6487.7187553361
 21
5251.7994420927
 31
0.0
  0
ARC
  5
1B5
330
1F
100
AcDbEntity
  8
0
  6
Continuous
 62
     7
370
    25
100
AcDbCircle
 10
6487.7187553361
 20
5246.7994420927
 30
0.0
 40
5.0
100
AcDbArc
 50
90.0
 51
168.4630409672
  0
ARC
  5
1B6
330
1F
100
AcDbEntity
  8
0
  6
Continuous
 62
     7
370
    25
100
AcDbCircle
 10
6466.7187553361
 20
5246.7994420927
 30
0.0
 40
5.0
100
AcDbArc
 50
11.5369590328
 51
90.0
  0
LINE
  5
1B7
330
1F
100
AcDbEntity
  8
0
  6
Continuous
 62
     7
370
    25
100
AcDbLine
 10
6466.7187553361
 20
5251.7994420927
 30
0.0
 11
6446.7187553361
 21
5251.7994420927
 31
0.0
  0
ARC
  5
1B8
330
1F
100
AcDbEntity
  8
0
  6
Continuous
 62
     7
370
    25
100
AcDbCircle
 10
6446.7187553361
 20
5246.7994420927
 30
0.0
 40
5.0
100
AcDbArc
 50
90.0
 51
168.4630409672
  0
ARC
  5
1B9
330
1F
100
AcDbEntity
  8
0
  6
Continuous
 62
     7
370
    25
100
AcDbCircle
 10
6425.7187553361
 20
5246.7994420927
 30
0.0
 40
5.0
100
AcDbArc
 50
11.5369590328
 51
90.0
  0
LINE
  5
1BA
330
1F
100
AcDbEntity
  8
0
  6
Continuous
 62
     7
370
    25
100
AcDbLine
 10
6425.7187553361
 20
5251.7994420927
 30
0.0
 11
6405.7187553361
 21
5251.7994420927
 31
0.0
  0
ARC
  5
1BB
330
1F
100
AcDbEntity
  8
0
  6
Continuous
 62
     7
370
    25
100
AcDbCircle
 10
6405.7187553361
 20
5246.7994420927
 30
0.0
 40
5.00000000000081
100
AcDbArc
 50
90.0
 51
168.4630409672
  0
ARC
  5
1BC
330
1F
100
AcDbEntity
  8
0
  6
Continuous
 62
     7
370
    25
100
AcDbCircle
 10
6384.7187553361
 20
5246.7994420927
 30
0.0
 40
5.0
100
AcDbArc
 50
11.5369590328
 51
90.0
  0
LINE
  5
1BD
330
1F
100
AcDbEntity
  8
0
  6
Continuous
 62
     7
370
    25
100
AcDbLine
 10
6384.7187553361
 20
5251.7994420927
 30
0.0
 11
6364.7187553361
 21
5251.7994420927
 31
0.0
  0
ARC
  5
1BE
330
1F
100
AcDbEntity
  8
0
  6
Continuous
 62
     7
370
    25
100
AcDbCircle
 10
6364.7187553361
 20
5246.7994420927
 30
0.0
 40
5.0
100
AcDbArc
 50
90.0
 51
168.4630409672
  0
ARC
  5
1BF
330
1F
100
AcDbEntity
  8
0
  6
Continuous
 62
     7
370
    25
100
AcDbCircle
 10
6343.7187553361
 20
5246.7994420927
 30
0.0
 40
5.00000000000081
100
AcDbArc
 50
11.5369590328
 51
90.0
  0
LINE
  5
1C0
330
1F
100
AcDbEntity
  8
0
  6
Continuous
 62
     7
370
    25
100
AcDbLine
 10
6343.7187553361
 20
5251.7994420927
 30
0.0
 11
6323.7187553361
 21
5251.7994420927
 31
0.0
  0
ARC
  5
1C1
330
1F
100
AcDbEntity
  8
0
  6
Continuous
 62
     7
370
    25
100
AcDbCircle
 10
6323.7187553361
 20
5246.7994420927
 30
0.0
 40
5.0
100
AcDbArc
 50
90.0
 51
168.4630409672
  0
ARC
  5
1C2
330
1F
100
AcDbEntity
  8
0
  6
Continuous
 62
     7
370
    25
100
AcDbCircle
 10
6302.7187553361
 20
5246.7994420927
 30
0.0
 40
5.0
100
AcDbArc
 50
11.5369590328
 51
90.0
  0
LINE
  5
1C3
330
1F
100
AcDbEntity
  8
0
  6
Continuous
 62
     7
370
    25
100
AcDbLine
 10
6302.7187553361
 20
5251.7994420927
 30
0.0
 11
6282.7187553361
 21
5251.7994420927
 31
0.0
  0
ARC
  5
1C4
330
1F
100
AcDbEntity
  8
0
  6
Continuous
 62
     7
370
    25
100
AcDbCircle
 10
6282.7187553361
 20
5246.7994420927
 30
0.0
 40
5.0
100
AcDbArc
 50
90.0
 51
168.4630409672
  0
ARC
  5
1C5
330
1F
100
AcDbEntity
  8
0
  6
Continuous
 62
     7
370
    25
100
AcDbCircle
 10
6261.7187553361
 20
5246.7994420927
 30
0.0
 40
5.00000000000081
100
AcDbArc
 50
11.5369590328
 51
90.0
  0
LINE
  5
1C6
330
1F
100
AcDbEntity
  8
0
  6
Continuous
 62
     7
370
    25
100
AcDbLine
 10
6261.7187553361
 20
5251.7994420927
 30
0.0
 11
6241.7187553361
 21
5251.7994420927
 31
0.0
  0
ARC
  5
1C7
330
1F
100
AcDbEntity
  8
0
  6
Continuous
 62
     7
370
    25
100
AcDbCircle
 10
6241.7187553361
 20
5246.7994420927
 30
0.0
 40
5.0
100
AcDbArc
 50
90.0
 51
168.4630409672
  0
ARC
  5
1C8
330
1F
100
AcDbEntity
  8
0
  6
Continuous
 62
     7
370
    25
100
AcDbCircle
 10
6220.7187553361
 20
5246.7994420927
 30
0.0
 40
5.0
100
AcDbArc
 50
11.5369590328
 51
90.0
  0
LINE
  5
1C9
330
1F
100
AcDbEntity
  8
0
  6
Continuous
 62
     7
370
    25
100
AcDbLine
 10
6220.7187553361
 20
5251.7994420927
 30
0.0
 11
6200.7187553361
 21
5251.7994420927
 31
0.0
  0
ARC
  5
1CA
330
1F
100
AcDbEntity
  8
0
  6
Continuous
 62
     7
370
    25
100
AcDbCircle
 10
6200.7187553361
 20
5246.7994420927
 30
0.0
 40
5.00000000000081
100
AcDbArc
 50
90.0
 51
168.4630409672
  0
ARC
  5
1CB
330
1F
100
AcDbEntity
  8
0
  6
Continuous
 62
     7
370
    25
100
AcDbCircle
 10
6179.7187553361
 20
5246.7994420927
 30
0.0
 40
5.0
100
AcDbArc
 50
11.5369590328
 51
90.0
  0
LINE
  5
1CC
330
1F
100
AcDbEntity
  8
0
  6
Continuous
 62
     7
370
    25
100
AcDbLine
 10
6179.7187553361
 20
5251.7994420927
 30
0.0
 11
6159.7187553361
 21
5251.7994420927
 31
0.0
  0
ARC
  5
1CD
330
1F
100
AcDbEntity
  8
0
  6
Continuous
 62
     7
370
    25
100
AcDbCircle
 10
6159.7187553361
 20
5246.7994420927
 30
0.0
 40
5.0
100
AcDbArc
 50
90.0
 51
168.4630409672
  0
ARC
  5
1CE
330
1F
100
AcDbEntity
  8
0
  6
Continuous
 62
     7
370
    25
100
AcDbCircle
 10
6138.7187553361
 20
5246.7994420927
 30
0.0
 40
5.0
100
AcDbArc
 50
11.5369590328
 51
90.0
  0
LINE
  5
1CF
330
1F
100
AcDbEntity
  8
0
  6
Continuous
 62
     7
370
    25
100
AcDbLine
 10
6138.7187553361
 20
5251.7994420927
 30
0.0
 11
6118.7187553361
 21
5251.7994420927
 31
0.0
  0
ARC
  5
1D0
330
1F
100
AcDbEntity
  8
0
  6
Continuous
 62
     7
370
    25
100
AcDbCircle
 10
6118.7187553361
 20
5246.7994420927
 30
0.0
 40
5.0
100
AcDbArc
 50
90.0
 51
168.4630409672
  0
ARC
  5
1D1
330
1F
100
AcDbEntity
  8
0
  6
Continuous
 62
     7
370
    25
100
AcDbCircle
 10
6097.7187553361
 20
5246.7994420927
 30
0.0
 40
5.0
100
AcDbArc
 50
11.5369590328
 51
90.0
  0
LINE
  5
1D2
330
1F
100
AcDbEntity
  8
0
  6
Continuous
 62
     7
370
    25
100
AcDbLine
 10
6097.7187553361
 20
5251.7994420927
 30
0.0
 11
6077.7187553361
 21
5251.7994420927
 31
0.0
  0
ARC
  5
1D3
330
1F
100
AcDbEntity
  8
0
  6
Continuous
 62
     7
370
    25
100
AcDbCircle
 10
6077.7187553361
 20
5246.7994420927
 30
0.0
 40
5.0
100
AcDbArc
 50
90.0
 51
168.4630409672
  0
ARC
  5
1D4
330
1F
100
AcDbEntity
  8
0
  6
Continuous
 62
     7
370
    25
100
AcDbCircle
 10
6056.7187553361
 20
5246.7994420927
 30
0.0
 40
5.00000000000081
100
AcDbArc
 50
11.5369590328
 51
90.0
  0
LINE
  5
1D5
330
1F
100
AcDbEntity
  8
0
  6
Continuous
 62
     7
370
    25
100
AcDbLine
 10
6056.7187553361
 20
5251.7994420927
 30
0.0
 11
6036.7187553361
 21
5251.7994420927
 31
0.0
  0
ARC
  5
1D6
330
1F
100
AcDbEntity
  8
0
  6
Continuous
 62
     7
370
    25
100
AcDbCircle
 10
6036.7187553361
 20
5246.7994420927
 30
0.0
 40
5.0
100
AcDbArc
 50
90.0
 51
168.4630409672
  0
ARC
  5
1D7
330
1F
100
AcDbEntity
  8
0
  6
Continuous
 62
     7
370
    25
100
AcDbCircle
 10
6015.7187553361
 20
5246.7994420927
 30
0.0
 40
5.0
100
AcDbArc
 50
11.5369590328
 51
90.0
  0
LINE
  5
1D8
330
1F
100
AcDbEntity
  8
0
  6
Continuous
 62
     7
370
    25
100
AcDbLine
 10
6015.7187553361
 20
5251.7994420927
 30
0.0
 11
5995.7187553361
 21
5251.7994420927
 31
0.0
  0
ARC
  5
1D9
330
1F
100
AcDbEntity
  8
0
  6
Continuous
 62
     7
370
    25
100
AcDbCircle
 10
5995.7187553361
 20
5246.7994420927
 30
0.0
 40
5.0
100
AcDbArc
 50
90.0
 51
168.4630409672
  0
ARC
  5
1DA
330
1F
100
AcDbEntity
  8
0
  6
Continuous
 62
     7
370
    25
100
AcDbCircle
 10
5974.7187553361
 20
5246.7994420927
 30
0.0
 40
5.0
100
AcDbArc
 50
11.5369590328
 51
90.0
  0
LINE
  5
1DB
330
1F
100
AcDbEntity
  8
0
  6
Continuous
 62
     7
370
    25
100
AcDbLine
 10
5974.7187553361
 20
5251.7994420927
 30
0.0
 11
5954.7187553361
 21
5251.7994420927
 31
0.0
  0
ARC
  5
1DC
330
1F
100
AcDbEntity
  8
0
  6
Continuous
 62
     7
370
    25
100
AcDbCircle
 10
5954.7187553361
 20
5246.7994420927
 30
0.0
 40
5.0
100
AcDbArc
 50
90.0
 51
168.4630409672
  0
ARC
  5
1DD
330
1F
100
AcDbEntity
  8
0
  6
Continuous
 62
     7
370
    25
100
AcDbCircle
 10
5933.7187553361
 20
5246.7994420927
 30
0.0
 40
5.0
100
AcDbArc
 50
11.5369590328
 51
90.0
  0
LINE
  5
1DE
330
1F
100
AcDbEntity
  8
0
  6
Continuous
 62
     7
370
    25
100
AcDbLine
 10
5933.7187553361
 20
5251.7994420927
 30
0.0
 11
5913.7187553361
 21
5251.7994420927
 31
0.0
  0
ARC
  5
1DF
330
1F
100
AcDbEntity
  8
0
  6
Continuous
 62
     7
370
    25
100
AcDbCircle
 10
5913.7187553361
 20
5246.7994420927
 30
0.0
 40
5.000000000001701
100
AcDbArc
 50
90.0
 51
168.4630409672
  0
LINE
  5
1E0
330
1F
100
AcDbEntity
  8
0
  6
Continuous
 62
     7
370
    25
100
AcDbLine
 10
5821.7187553361
 20
5300.5994420927
 30
0.0
 11
6726.3187553361
 21
5300.5994420927
 31
0.0
  0
ARC
  5
1E1
330
1F
100
AcDbEntity
  8
0
  6
Continuous
 62
     7
370
    25
100
AcDbCircle
 10
5851.7187553361
 20
5286.7994420927
 30
0.0
 40
5.0
100
AcDbArc
 50
270.0
 51
90.0
  0
LINE
  5
1E2
330
1F
100
AcDbEntity
  8
0
  6
Continuous
 62
     7
370
    25
100
AcDbLine
 10
5851.7187553361
 20
5291.7994420927
 30
0.0
 11
5831.7187553361
 21
5291.7994420927
 31
0.0
  0
ARC
  5
1E3
330
1F
100
AcDbEntity
  8
0
  6
Continuous
 62
     7
370
    25
100
AcDbCircle
 10
5831.7187553361
 20
5286.7994420927
 30
0.0
 40
5.0
100
AcDbArc
 50
90.0
 51
270.0
  0
LINE
  5
1E4
330
1F
100
AcDbEntity
  8
0
  6
Continuous
 62
     7
370
    25
100
AcDbLine
 10
5831.7187553361
 20
5281.7994420927
 30
0.0
 11
5851.7187553361
 21
5281.7994420927
 31
0.0
  0
ARC
  5
1E5
330
1F
100
AcDbEntity
  8
0
  6
Continuous
 62
     7
370
    25
100
AcDbCircle
 10
5851.7187553361
 20
5266.7994420927
 30
0.0
 40
5.000000000000909
100
AcDbArc
 50
270.0
 51
90.0
  0
LINE
  5
1E6
330
1F
100
AcDbEntity
  8
0
  6
Continuous
 62
     7
370
    25
100
AcDbLine
 10
5851.7187553361
 20
5271.7994420927
 30
0.0
 11
5831.7187553361
 21
5271.7994420927
 31
0.0
  0
ARC
  5
1E7
330
1F
100
AcDbEntity
  8
0
  6
Continuous
 62
     7
370
    25
100
AcDbCircle
 10
5831.7187553361
 20
5266.7994420927
 30
0.0
 40
5.000000000000909
100
AcDbArc
 50
90.0
 51
270.0
  0
LINE
  5
1E8
330
1F
100
AcDbEntity
  8
0
  6
Continuous
 62
     7
370
    25
100
AcDbLine
 10
5831.7187553361
 20
5261.7994420927
 30
0.0
 11
5851.7187553361
 21
5261.7994420927
 31
0.0
  0
ARC
  5
1E9
330
1F
100
AcDbEntity
  8
0
  6
Continuous
 62
     7
370
    25
100
AcDbCircle
 10
5851.7187553361
 20
5246.7994420927
 30
0.0
 40
5.00000000000081
100
AcDbArc
 50
11.5369590328
 51
90.0
  0
LINE
  5
1EA
330
1F
100
AcDbEntity
  8
0
  6
Continuous
 62
     7
370
    25
100
AcDbLine
 10
5851.7187553361
 20
5251.7994420927
 30
0.0
 11
5831.7187553361
 21
5251.7994420927
 31
0.0
  0
ARC
  5
1EB
330
1F
100
AcDbEntity
  8
0
  6
Continuous
 62
     7
370
    25
100
AcDbCircle
 10
5831.7187553361
 20
5246.7994420927
 30
0.0
 40
5.0
100
AcDbArc
 50
90.0
 51
270.0
  0
LINE
  5
1EC
330
1F
100
AcDbEntity
  8
0
  6
Continuous
 62
     7
370
    25
100
AcDbLine
 10
5831.7187553361
 20
5241.7994420927
 30
0.0
 11
5849.8900358061
 21
5241.7994420927
 31
0.0
  0
ARC
  5
1ED
330
1F
100
AcDbEntity
  8
0
  6
Continuous
 62
     7
370
    25
100
AcDbCircle
 10
5892.7187553361
 20
5246.7994420927
 30
0.0
 40
5.00000000000081
100
AcDbArc
 50
11.5369590328
 51
90.0
  0
LINE
  5
1EE
330
1F
100
AcDbEntity
  8
0
  6
Continuous
 62
     7
370
    25
100
AcDbLine
 10
5892.7187553361
 20
5251.7994420927
 30
0.0
 11
5872.7187553361
 21
5251.7994420927
 31
0.0
  0
ARC
  5
1EF
330
1F
100
AcDbEntity
  8
0
  6
Continuous
 62
     7
370
    25
100
AcDbCircle
 10
5872.7187553361
 20
5246.7994420927
 30
0.0
 40
5.0
100
AcDbArc
 50
90.0
 51
168.4630409672
  0
ARC
  5
1F0
330
1F
100
AcDbEntity
  8
0
  6
Continuous
 62
     7
370
    25
100
AcDbCircle
 10
5892.7187553361
 20
5286.7994420927
 30
0.0
 40
5.0
100
AcDbArc
 50
270.0
 51
90.0
  0
LINE
  5
1F1
330
1F
100
AcDbEntity
  8
0
  6
Continuous
 62
     7
370
    25
100
AcDbLine
 10
5892.7187553361
 20
5291.7994420927
 30
0.0
 11
5872.7187553361
 21
5291.7994420927
 31
0.0
  0
ARC
  5
1F2
330
1F
100
AcDbEntity
  8
0
  6
Continuous
 62
     7
370
    25
100
AcDbCircle
 10
5872.7187553361
 20
5286.7994420927
 30
0.0
 40
5.0
100
AcDbArc
 50
90.0
 51
270.0
  0
LINE
  5
1F3
330
1F
100
AcDbEntity
  8
0
  6
Continuous
 62
     7
370
    25
100
AcDbLine
 10
5872.7187553361
 20
5281.7994420927
 30
0.0
 11
5892.7187553361
 21
5281.7994420927
 31
0.0
  0
ARC
  5
1F4
330
1F
100
AcDbEntity
  8
0
  6
Continuous
 62
     7
370
    25
100
AcDbCircle
 10
5892.7187553361
 20
5266.7994420927
 30
0.0
 40
5.000000000000909
100
AcDbArc
 50
270.0
 51
90.0
  0
LINE
  5
1F5
330
1F
100
AcDbEntity
  8
0
  6
Continuous
 62
     7
370
    25
100
AcDbLine
 10
5892.7187553361
 20
5271.7994420927
 30
0.0
 11
5872.7187553361
 21
5271.7994420927
 31
0.0
  0
ARC
  5
1F6
330
1F
100
AcDbEntity
  8
0
  6
Continuous
 62
     7
370
    25
100
AcDbCircle
 10
5872.7187553361
 20
5266.7994420927
 30
0.0
 40
5.000000000000909
100
AcDbArc
 50
90.0
 51
270.0
  0
LINE
  5
1F7
330
1F
100
AcDbEntity
  8
0
  6
Continuous
 62
     7
370
    25
100
AcDbLine
 10
5872.7187553361
 20
5261.7994420927
 30
0.0
 11
5892.7187553361
 21
5261.7994420927
 31
0.0
  0
LINE
  5
1F8
330
1F
100
AcDbEntity
  8
0
  6
Continuous
 62
     7
370
    25
100
AcDbLine
 10
6726.3187553361
 20
5300.5994420927
 30
0.0
 11
6726.3187553361
 21
5231.7994420927
 31
0.0
  0
LINE
  5
1F9
330
1F
100
AcDbEntity
  8
0
  6
Continuous
 62
     7
370
    25
100
AcDbLine
 10
5821.7187553361
 20
5231.7994420927
 30
0.0
 11
5821.7187553361
 21
5300.5994420927
 31
0.0
  0
LINE
  5
1FA
330
1F
100
AcDbEntity
  8
0
  6
Continuous
 62
     7
370
    25
100
AcDbLine
 10
6307.2687553361
 20
5228.003805859
 30
0.0
 11
6240.7687553361
 21
5228.003805859
 31
0.0
  0
LINE
  5
1FB
330
1F
100
AcDbEntity
  8
0
  6
Continuous
 62
     7
370
    25
100
AcDbLine
 10
6234.0187553361
 20
5226.495731245
 30
0.0
 11
6314.0187553361
 21
5226.495731245
 31
0.0
  0
LWPOLYLINE
  5
1FC
330
1F
100
AcDbEntity
  8
0
  6
Continuous
 62
     7
370
    25
100
AcDbPolyline
 90
       18
 70
   128
 43
0.0
 10
6317.7728701909
 20
5203.2989149751
 10
6317.8179474112
 20
5203.3297948121
 10
6317.0746431675
 20
5202.8267816506
 10
6315.5331883308
 20
5201.8006261862
 10
6313.4513558374
 20
5200.4468850163
 10
6310.813533529
 20
5198.7831937465
 10
6307.714577978
 20
5196.9001311353
 10
6304.1299940575
 20
5194.818326852
 10
6300.166592331
 20
5192.62863267
 10
6295.901327706
 20
5190.3990989528
 10
6289.4196487345
 20
5187.2588153027
 10
6282.5436487513
 20
5184.2312301293
 10
6275.8778265166
 20
5181.5868912103
 10
6269.1422089835
 20
5179.1871456617
 10
6262.71152514
 20
5177.1476879949
 10
6256.5475900396
 20
5175.4109099715
 10
6250.8859445234
 20
5174.003256867
 10
6245.8615497504
 20
5172.8978461541
  0
LWPOLYLINE
  5
1FD
330
1F
100
AcDbEntity
  8
0
  6
Continuous
 62
     7
370
    25
100
AcDbPolyline
 90
        9
 70
   128
 43
0.0
 10
6239.2281711583
 20
5179.6922772075
 10
6239.4919429644
 20
5178.2197669863
 10
6239.9821298386
 20
5176.8173371852
 10
6240.6763318122
 20
5175.5490743506
 10
6241.54282608
 20
5174.4729340288
 10
6242.5420166316
 20
5173.6380923831
 10
6243.6282436615
 20
5173.0826990006
 10
6244.7518700762
 20
5172.8321335788
 10
6245.8615497504
 20
5172.8978461541
  0
LINE
  5
1FE
330
1F
100
AcDbEntity
  8
0
  6
Continuous
 62
     7
370
    25
100
AcDbLine
 10
6239.2281711583
 20
5179.6922772075
 30
0.0
 11
6238.978939987
 21
5217.9994420927
 31
0.0
  0
ARC
  5
1FF
330
1F
100
AcDbEntity
  8
0
  6
Continuous
 62
     7
370
    25
100
AcDbCircle
 10
6240.07644716
 20
5221.2367915091
 30
0.0
 40
1.791632486068305
100
AcDbArc
 50
100.3196220904
 51
187.6127302624
  0
LINE
  5
200
330
1F
100
AcDbEntity
  8
0
  6
Continuous
 62
     7
370
    25
100
AcDbLine
 10
6239.7554956289
 20
5222.9994420927
 30
0.0
 11
6321.0187553361
 21
5222.9994420927
 31
0.0
  0
LINE
  5
201
330
1F
100
AcDbEntity
  8
0
  6
Continuous
 62
     7
370
    25
100
AcDbLine
 10
6238.3006058891
 20
5217.9994420927
 30
0.0
 11
6323.0187553361
 21
5217.9994420927
 31
0.0
  0
LINE
  5
202
330
1F
100
AcDbEntity
  8
0
  6
Continuous
 62
     7
370
    25
100
AcDbLine
 10
6238.3006058891
 20
5220.9994420927
 30
0.0
 11
6238.3006058891
 21
5217.9994420927
 31
0.0
  0
LINE
  5
203
330
1F
100
AcDbEntity
  8
0
  6
Continuous
 62
     7
370
    25
100
AcDbLine
 10
6232.2687553361
 20
5225.9994420927
 30
0.0
 11
6315.7687553361
 21
5225.9994420927
 31
0.0
  0
LINE
  5
204
330
1F
100
AcDbEntity
  8
0
  6
Continuous
 62
     7
370
    25
100
AcDbLine
 10
6250.1743875592
 20
5150.8162034546
 30
0.0
 11
6249.7305071389
 21
5173.7363495965
 31
0.0
  0
LINE
  5
205
330
1F
100
AcDbEntity
  8
0
  6
Continuous
 62
     7
370
    25
100
AcDbLine
 10
6238.3006058891
 20
5220.9994420927
 30
0.0
 11
6220.7625077158
 21
5220.9994420927
 31
0.0
  0
ARC
  5
206
330
1F
100
AcDbEntity
  8
0
  6
Continuous
 62
     7
370
    25
100
AcDbCircle
 10
6223.8177785637
 20
5221.4833384388
 30
0.0
 40
3.093353459925436
100
AcDbArc
 50
150.6517591702
 51
188.9997984492
  0
LINE
  5
207
330
1F
100
AcDbEntity
  8
0
  6
Continuous
 62
     7
370
    25
100
AcDbLine
 10
6221.1214356073
 20
5222.9994420927
 30
0.0
 11
6239.7554956289
 21
5222.9994420927
 31
0.0
  0
LINE
  5
208
330
1F
100
AcDbEntity
  8
0
  6
Continuous
 62
     7
370
    25
100
AcDbLine
 10
6220.7625077158
 20
5220.9994420927
 30
0.0
 11
6220.7625077158
 21
5217.9994420927
 31
0.0
  0
LINE
  5
209
330
1F
100
AcDbEntity
  8
0
  6
Continuous
 62
     7
370
    25
100
AcDbLine
 10
6220.7625077158
 20
5217.9994420927
 30
0.0
 11
6238.3006058891
 21
5217.9994420927
 31
0.0
  0
ARC
  5
20A
330
1F
100
AcDbEntity
  8
0
  6
Continuous
 62
     7
370
    25
100
AcDbCircle
 10
6207.3936298623
 20
5304.416119032
 30
0.0
 40
128.7224717715542
100
AcDbArc
 50
276.5444516408
 51
284.318474563
  0
LINE
  5
20B
330
1F
100
AcDbEntity
  8
0
  6
Continuous
 62
     7
370
    25
100
AcDbLine
 10
6222.0646474319
 20
5176.5324375771
 30
0.0
 11
6222.0034090068
 21
5217.9994420927
 31
0.0
  0
LWPOLYLINE
  5
20C
330
1F
100
AcDbEntity
  8
0
  6
Continuous
 62
     7
370
    25
100
AcDbPolyline
 90
        6
 70
   128
 43
0.0
 10
6222.0646474319
 20
5176.5324375771
 10
6222.2378171069
 20
5175.188973021
 10
6222.5043085579
 20
5173.8485377856
 10
6223.230756787
 20
5171.6224314335
 10
6224.1303911652
 20
5170.1803989899
 10
6225.0664761678
 20
5169.7354391237
  0
ARC
  5
20D
330
1F
100
AcDbEntity
  8
0
  6
Continuous
 62
     7
370
    25
100
AcDbCircle
 10
6205.4363668663
 20
5368.7697547798
 30
0.0
 40
199.9999999996781
100
AcDbArc
 50
275.6326806458
 51
281.6613043232
  0
LINE
  5
20E
330
1F
100
AcDbEntity
  8
0
  6
Continuous
 62
     7
370
    25
100
AcDbLine
 10
6299.2618990435
 20
5143.9994420927
 30
0.0
 11
6256.5859270358
 21
5143.9994420927
 31
0.0
  0
ARC
  5
20F
330
1F
100
AcDbEntity
  8
0
  6
Continuous
 62
     7
370
    25
100
AcDbCircle
 10
6256.8854772398
 20
5150.704769226
 30
0.0
 40
6.712014771168448
100
AcDbArc
 50
179.0487201603
 51
267.4420996519
  0
LINE
  5
210
330
1F
100
AcDbEntity
  8
0
  6
Continuous
 62
     7
370
    25
100
AcDbLine
 10
6150.2670753606
 20
5216.694814693
 30
0.0
 11
6150.7169342992
 21
5165.1460861758
 31
0.0
  0
LINE
  5
211
330
1F
100
AcDbEntity
  8
0
  6
Continuous
 62
     7
370
    25
100
AcDbLine
 10
6124.1406343974
 20
5210.6911518767
 30
0.0
 11
6124.4896941558
 21
5170.6928653388
 31
0.0
  0
LINE
  5
212
330
1F
100
AcDbEntity
  8
0
  6
Continuous
 62
     7
370
    25
100
AcDbLine
 10
6215.0187553361
 20
5220.9994420927
 30
0.0
 11
6215.0187553361
 21
5217.9994420927
 31
0.0
  0
LINE
  5
213
330
1F
100
AcDbEntity
  8
0
  6
Continuous
 62
     7
370
    25
100
AcDbLine
 10
6220.7625077158
 20
5220.9994420927
 30
0.0
 11
6215.0187553361
 21
5220.9994420927
 31
0.0
  0
LINE
  5
214
330
1F
100
AcDbEntity
  8
0
  6
Continuous
 62
     7
370
    25
100
AcDbLine
 10
6215.0187553361
 20
5217.9994420927
 30
0.0
 11
6220.7625077158
 21
5217.9994420927
 31
0.0
  0
ARC
  5
215
330
1F
100
AcDbEntity
  8
0
  6
Continuous
 62
     7
370
    25
100
AcDbCircle
 10
6217.0187553361
 20
5220.9994420927
 30
0.0
 40
2.000000000000909
100
AcDbArc
 50
90.0
 51
180.0
  0
LINE
  5
216
330
1F
100
AcDbEntity
  8
0
  6
Continuous
 62
     7
370
    25
100
AcDbLine
 10
6217.0187553361
 20
5222.9994420927
 30
0.0
 11
6221.1214356073
 21
5222.9994420927
 31
0.0
  0
LINE
  5
217
330
1F
100
AcDbEntity
  8
0
  6
Continuous
 62
     7
370
    25
100
AcDbLine
 10
6180.367816756
 20
5171.1804111275
 30
0.0
 11
6180.0187553361
 21
5211.1788880501
 31
0.0
  0
LINE
  5
218
330
1F
100
AcDbEntity
  8
0
  6
Continuous
 62
     7
370
    25
100
AcDbLine
 10
6160.0776256225
 20
5211.0048644475
 30
0.0
 11
6160.4266870424
 21
5171.0063875249
 31
0.0
  0
ARC
  5
219
330
1F
100
AcDbEntity
  8
0
  6
Continuous
 62
     7
370
    25
100
AcDbCircle
 10
6220.6942476887
 20
5220.2725354273
 30
0.0
 40
43.76156024870865
100
AcDbArc
 50
265.6588877915
 51
271.794519202
  0
LWPOLYLINE
  5
21A
330
1F
100
AcDbEntity
  8
0
  6
Continuous
 62
     7
370
    25
100
AcDbPolyline
 90
       11
 70
   128
 43
0.0
 10
6217.1183232808
 20
5206.5900857163
 10
6217.2756194896
 20
5204.5459684464
 10
6217.6396865851
 20
5202.3537643256
 10
6218.3510606342
 20
5198.9386980482
 10
6219.0238711509
 20
5195.3231139123
 10
6219.2969571782
 20
5192.7890494266
 10
6219.3229421487
 20
5190.1896126429
 10
6218.7048671643
 20
5185.18831514
 10
6218.0542560291
 20
5181.8281453917
 10
6217.5167526775
 20
5178.5548522935
 10
6217.3817542264
 20
5176.6365196461
  0
LINE
  5
21B
330
1F
100
AcDbEntity
  8
0
  6
Continuous
 62
     7
370
    25
100
AcDbLine
 10
6217.1183232808
 20
5206.5900857163
 30
0.0
 11
6217.0187553361
 21
5217.9994420927
 31
0.0
  0
ARC
  5
21C
330
1F
100
AcDbEntity
  8
0
  6
Continuous
 62
     7
370
    25
100
AcDbCircle
 10
6224.3794223422
 20
5176.7016401717
 30
0.0
 40
6.999999999998608
100
AcDbArc
 50
181.914945567
 51
275.6326806459
  0
LWPOLYLINE
  5
21D
330
1F
100
AcDbEntity
  8
0
  6
Continuous
 62
     7
370
    25
100
AcDbPolyline
 90
        4
 70
   128
 43
0.0
 10
6217.3817629049
 20
5176.6365238281
 10
6217.3817622372
 20
5176.6364785739
 10
6217.3833347494
 20
5176.4678109383
 10
6217.3833362467
 20
5176.467766233
  0
LWPOLYLINE
  5
21E
330
1F
100
AcDbEntity
  8
0
  6
Continuous
 62
     7
370
    25
100
AcDbPolyline
 90
       12
 70
   128
 43
0.0
 10
6215.3707559867
 20
5177.9705704716
 10
6215.5609290267
 20
5179.7146721789
 10
6216.2809055865
 20
5182.6213807274
 10
6217.1898760065
 20
5185.7464269353
 10
6217.7247271125
 20
5187.9792341511
 10
6218.0380611415
 20
5190.2937653676
 10
6218.0047626296
 20
5192.6462346668
 10
6217.6498913252
 20
5194.960309078
 10
6216.7567617548
 20
5198.2595640621
 10
6215.813584782
 20
5201.3503969661
 10
6215.3325011085
 20
5203.3464597124
 10
6215.1303687679
 20
5205.2010828993
  0
ARC
  5
21F
330
1F
100
AcDbEntity
  8
0
  6
Continuous
 62
     7
370
    25
100
AcDbCircle
 10
6215.379857893
 20
5206.9611030543
 30
0.0
 40
1.777615191624956
100
AcDbArc
 50
261.9318731471
 51
347.952862863
  0
ARC
  5
220
330
1F
100
AcDbEntity
  8
0
  6
Continuous
 62
     7
370
    25
100
AcDbCircle
 10
6215.62363942
 20
5176.1690239508
 30
0.0
 40
1.819208590991405
100
AcDbArc
 50
14.8907936099
 51
97.9904121159
  0
LINE
  5
221
330
1F
100
AcDbEntity
  8
0
  6
Continuous
 62
     7
370
    25
100
AcDbLine
 10
6215.3724892376
 20
5177.7721709099
 30
0.0
 11
6215.370773051
 21
5177.9705703682
 31
0.0
  0
LINE
  5
222
330
1F
100
AcDbEntity
  8
0
  6
Continuous
 62
     7
370
    25
100
AcDbLine
 10
6215.7718976569
 20
5175.6152807386
 30
0.0
 11
6215.3724833559
 21
5177.7721707739
 31
0.0
  0
LINE
  5
223
330
1F
100
AcDbEntity
  8
0
  6
Continuous
 62
     7
370
    25
100
AcDbLine
 10
6055.5892852738
 20
5210.092913316
 30
0.0
 11
6055.9383450323
 21
5170.0946267781
 31
0.0
  0
LINE
  5
224
330
1F
100
AcDbEntity
  8
0
  6
Continuous
 62
     7
370
    25
100
AcDbLine
 10
6052.103555101
 20
5209.7771837445
 30
0.0
 11
6052.4476355123
 21
5170.3494738827
 31
0.0
  0
LINE
  5
225
330
1F
100
AcDbEntity
  8
0
  6
Continuous
 62
     7
370
    25
100
AcDbLine
 10
6052.103555101
 20
5207.5623986136
 30
0.0
 11
6052.408982182
 21
5172.5639216911
 31
0.0
  0
ARC
  5
226
330
1F
100
AcDbEntity
  8
0
  6
Continuous
 62
     7
370
    25
100
AcDbCircle
 10
6215.6724657455
 20
5176.0325230256
 30
0.0
 40
1.765353851704842
100
AcDbArc
 50
14.2723990243
 51
99.7836484595
  0
ARC
  5
227
330
1F
100
AcDbEntity
  8
0
  6
Continuous
 62
     7
370
    25
100
AcDbCircle
 10
6216.1314120213
 20
5173.9522614256
 30
0.0
 40
1.701435809414504
100
AcDbArc
 50
23.1834570491
 51
102.1985801329
  0
LINE
  5
228
330
1F
100
AcDbEntity
  8
0
  6
Continuous
 62
     7
370
    25
100
AcDbLine
 10
5876.7187553361
 20
5133.7994420927
 30
0.0
 11
5880.2187553361
 21
5133.7994420927
 31
0.0
  0
LINE
  5
229
330
1F
100
AcDbEntity
  8
0
  6
Continuous
 62
     7
370
    25
100
AcDbLine
 10
5880.2187553361
 20
5133.7994420927
 30
0.0
 11
5880.2187553361
 21
5128.7994420927
 31
0.0
  0
LINE
  5
22A
330
1F
100
AcDbEntity
  8
0
  6
Continuous
 62
     7
370
    25
100
AcDbLine
 10
5863.2187553361
 20
5133.7994420927
 30
0.0
 11
5863.2187553361
 21
5128.7994420927
 31
0.0
  0
LINE
  5
22B
330
1F
100
AcDbEntity
  8
0
  6
Continuous
 62
     7
370
    25
100
AcDbLine
 10
5863.2187553361
 20
5133.7994420927
 30
0.0
 11
5866.7187553361
 21
5133.7994420927
 31
0.0
  0
LINE
  5
22C
330
1F
100
AcDbEntity
  8
0
  6
Continuous
 62
     7
370
    25
100
AcDbLine
 10
6667.8187553361
 20
5133.7994420927
 30
0.0
 11
6667.8187553361
 21
5126.7994420927
 31
0.0
  0
LINE
  5
22D
330
1F
100
AcDbEntity
  8
0
  6
Continuous
 62
     7
370
    25
100
AcDbLine
 10
6667.8187553361
 20
5133.7994420927
 30
0.0
 11
6676.3187553361
 21
5133.7994420927
 31
0.0
  0
LINE
  5
22E
330
1F
100
AcDbEntity
  8
0
  6
Continuous
 62
     7
370
    25
100
AcDbLine
 10
6676.3187553361
 20
5133.7994420927
 30
0.0
 11
6676.3187553361
 21
5126.7994420927
 31
0.0
  0
LINE
  5
22F
330
1F
100
AcDbEntity
  8
0
  6
Continuous
 62
     7
370
    25
100
AcDbLine
 10
6667.8187553361
 20
5126.7994420927
 30
0.0
 11
6676.3187553361
 21
5126.7994420927
 31
0.0
  0
LINE
  5
230
330
1F
100
AcDbEntity
  8
0
  6
Continuous
 62
     7
370
    25
100
AcDbLine
 10
6684.8187553361
 20
5133.7994420927
 30
0.0
 11
6684.8187553361
 21
5126.7994420927
 31
0.0
  0
LINE
  5
231
330
1F
100
AcDbEntity
  8
0
  6
Continuous
 62
     7
370
    25
100
AcDbLine
 10
6676.3187553361
 20
5126.7994420927
 30
0.0
 11
6684.8187553361
 21
5126.7994420927
 31
0.0
  0
LINE
  5
232
330
1F
100
AcDbEntity
  8
0
  6
Continuous
 62
     7
370
    25
100
AcDbLine
 10
6676.3187553361
 20
5133.7994420927
 30
0.0
 11
6684.8187553361
 21
5133.7994420927
 31
0.0
  0
LINE
  5
233
330
1F
100
AcDbEntity
  8
0
  6
Continuous
 62
     7
370
    25
100
AcDbLine
 10
6676.3187553361
 20
5213.7994420927
 30
0.0
 11
6680.3187553361
 21
5213.7994420927
 31
0.0
  0
LINE
  5
234
330
1F
100
AcDbEntity
  8
0
  6
Continuous
 62
     7
370
    25
100
AcDbLine
 10
6672.3187553361
 20
5213.7994420927
 30
0.0
 11
6676.3187553361
 21
5213.7994420927
 31
0.0
  0
LINE
  5
235
330
1F
100
AcDbEntity
  8
0
  6
Continuous
 62
     7
370
    25
100
AcDbLine
 10
6640.3187553361
 20
5128.7994420927
 30
0.0
 11
6640.3187553361
 21
5126.7994420927
 31
0.0
  0
LINE
  5
236
330
1F
100
AcDbEntity
  8
0
  6
Continuous
 62
     7
370
    25
100
AcDbLine
 10
6640.3187553361
 20
5128.7994420927
 30
0.0
 11
6667.8187553361
 21
5128.7994420927
 31
0.0
  0
LINE
  5
237
330
1F
100
AcDbEntity
  8
0
  6
Continuous
 62
     7
370
    25
100
AcDbLine
 10
6684.8187553361
 20
5128.7994420927
 30
0.0
 11
6690.3187553361
 21
5128.7994420927
 31
0.0
  0
LINE
  5
238
330
1F
100
AcDbEntity
  8
0
  6
Continuous
 62
     7
370
    25
100
AcDbLine
 10
6690.3187553361
 20
5128.7994420927
 30
0.0
 11
6690.3187553361
 21
5126.7994420927
 31
0.0
  0
LINE
  5
239
330
1F
100
AcDbEntity
  8
0
  6
Continuous
 62
     7
370
    25
100
AcDbLine
 10
6640.3187553361
 20
5126.7994420927
 30
0.0
 11
6667.8187553361
 21
5126.7994420927
 31
0.0
  0
LINE
  5
23A
330
1F
100
AcDbEntity
  8
0
  6
Continuous
 62
     7
370
    25
100
AcDbLine
 10
6684.8187553361
 20
5126.7994420927
 30
0.0
 11
6690.3187553361
 21
5126.7994420927
 31
0.0
  0
LINE
  5
23B
330
1F
100
AcDbEntity
  8
0
  6
Continuous
 62
     7
370
    25
100
AcDbLine
 10
5857.7187553361
 20
5128.7994420927
 30
0.0
 11
5857.7187553361
 21
5126.7994420927
 31
0.0
  0
LINE
  5
23C
330
1F
100
AcDbEntity
  8
0
  6
Continuous
 62
     7
370
    25
100
AcDbLine
 10
5857.7187553361
 20
5128.7994420927
 30
0.0
 11
5907.7187553361
 21
5128.7994420927
 31
0.0
  0
LINE
  5
23D
330
1F
100
AcDbEntity
  8
0
  6
Continuous
 62
     7
370
    25
100
AcDbLine
 10
5907.7187553361
 20
5128.7994420927
 30
0.0
 11
5907.7187553361
 21
5126.7994420927
 31
0.0
  0
LINE
  5
23E
330
1F
100
AcDbEntity
  8
0
  6
Continuous
 62
     7
370
    25
100
AcDbLine
 10
5857.7187553361
 20
5126.7994420927
 30
0.0
 11
5907.7187553361
 21
5126.7994420927
 31
0.0
  0
LINE
  5
23F
330
1F
100
AcDbEntity
  8
0
  6
Continuous
 62
     7
370
    25
100
AcDbLine
 10
5867.7187553361
 20
5213.7994420927
 30
0.0
 11
5875.7187553361
 21
5213.7994420927
 31
0.0
  0
LINE
  5
240
330
1F
100
AcDbEntity
  8
0
  6
Continuous
 62
     8
370
    25
100
AcDbLine
 10
6666.3187553361
 20
5206.0493281103
 30
0.0
 11
6667.8187553361
 21
5206.0493281103
 31
0.0
  0
LINE
  5
241
330
1F
100
AcDbEntity
  8
0
  6
Continuous
 62
     8
370
    25
100
AcDbLine
 10
6684.8187553361
 20
5206.0493281103
 30
0.0
 11
6686.3187553361
 21
5206.0493281103
 31
0.0
  0
LINE
  5
242
330
1F
100
AcDbEntity
  8
0
  6
Continuous
 62
     8
370
    25
100
AcDbLine
 10
5881.7187553361
 20
5206.0493281103
 30
0.0
 11
5880.2187553361
 21
5206.0493281103
 31
0.0
  0
LINE
  5
243
330
1F
100
AcDbEntity
  8
0
  6
Continuous
 62
     8
370
    25
100
AcDbLine
 10
5863.2187553361
 20
5206.0493281103
 30
0.0
 11
5861.7187553361
 21
5206.0493281103
 31
0.0
  0
LINE
  5
244
330
1F
100
AcDbEntity
  8
0
  6
Continuous
 62
     8
370
    25
100
AcDbLine
 10
6694.6187553361
 20
5247.7994420927
 30
0.0
 11
6694.6187553361
 21
5245.7479007613
 31
0.0
  0
LINE
  5
245
330
1F
100
AcDbEntity
  8
0
  6
Continuous
 62
     8
370
    25
100
AcDbLine
 10
5853.4187553361
 20
5247.7994420927
 30
0.0
 11
5853.4187553361
 21
5245.7479007613
 31
0.0
  0
LINE
  5
246
330
1F
100
AcDbEntity
  8
0
  6
Continuous
 62
     8
370
    25
100
AcDbLine
 10
6694.6187553361
 20
5241.5408428581
 30
0.0
 11
6694.6187553361
 21
5231.7994420927
 31
0.0
  0
LINE
  5
247
330
1F
100
AcDbEntity
  8
0
  6
Continuous
 62
     8
370
    25
100
AcDbLine
 10
5853.4187553361
 20
5241.5408428581
 30
0.0
 11
5853.4187553361
 21
5231.7994420927
 31
0.0
  0
LINE
  5
248
330
1F
100
AcDbEntity
  8
0
  6
Continuous
 62
     8
370
    25
100
AcDbLine
 10
6234.7165292035
 20
5226.523116019
 30
0.0
 11
6313.3209814687
 21
5226.523116019
 31
0.0
  0
LINE
  5
249
330
1F
100
AcDbEntity
  8
0
  6
Continuous
 62
     8
370
    25
100
AcDbLine
 10
6234.9556405887
 20
5226.9372690868
 30
0.0
 11
6313.0818700835
 21
5226.9372690868
 31
0.0
  0
LWPOLYLINE
  5
24A
330
1F
100
AcDbEntity
  8
0
  6
Continuous
 62
     8
370
    25
100
AcDbPolyline
 90
       21
 70
   128
 43
0.0
 10
6239.2281711583
 20
5179.6922772075
 10
6244.8184801106
 20
5180.7353857179
 10
6251.3617451663
 20
5182.1173837913
 10
6258.2381055483
 20
5183.7611018164
 10
6265.6601580369
 20
5185.7614512324
 10
6273.1951379386
 20
5188.0404152525
 10
6280.8705471193
 20
5190.6289927436
 10
6288.5790349941
 20
5193.5122560854
 10
6292.3725753885
 20
5195.0399401079
 10
6296.0256362785
 20
5196.5809861583
 10
6299.6547344444
 20
5198.1821855839
 10
6303.0844385434
 20
5199.7611850038
 10
6306.3851815572
 20
5201.3433221771
 10
6309.4223907289
 20
5202.8544822144
 10
6312.085423543
 20
5204.2246125666
 10
6314.4495177519
 20
5205.4769802283
 10
6316.5581699416
 20
5206.6234220748
 10
6318.2851979403
 20
5207.5834599385
 10
6320.0229739419
 20
5208.5689759832
 10
6320.8744351873
 20
5209.0591076625
 10
6320.8304561075
 20
5209.033684494
  0
LINE
  5
24B
330
1F
100
AcDbEntity
  8
0
  6
Continuous
 62
     8
370
    25
100
AcDbLine
 10
6323.0187553361
 20
5220.9994420927
 30
0.0
 11
6238.3006058891
 21
5220.9994420927
 31
0.0
  0
LINE
  5
24C
330
1F
100
AcDbEntity
  8
0
  6
Continuous
 62
     8
370
    25
100
AcDbLine
 10
6250.1743875592
 20
5150.8162034546
 30
0.0
 11
6306.2595003184
 21
5150.8162034546
 31
0.0
  0
LINE
  5
24D
330
1F
100
AcDbEntity
  8
0
  6
Continuous
 62
     8
370
    25
100
AcDbLine
 10
6207.4111392702
 20
5164.903730563
 30
0.0
 11
6206.9484158409
 21
5217.9265837016
 31
0.0
  0
LINE
  5
24E
330
1F
100
AcDbEntity
  8
0
  6
Continuous
 62
     8
370
    25
100
AcDbLine
 10
6181.9484158409
 20
5217.0467957338
 30
0.0
 11
6182.3995924741
 21
5165.3470743739
 31
0.0
  0
LINE
  5
24F
330
1F
100
AcDbEntity
  8
0
  6
Continuous
 62
     8
370
    25
100
AcDbLine
 10
6180.4353426467
 20
5167.3118554394
 30
0.0
 11
6180.0187553361
 21
5215.0480330277
 31
0.0
  0
LINE
  5
250
330
1F
100
AcDbEntity
  8
0
  6
Continuous
 62
     8
370
    25
100
AcDbLine
 10
6158.4387992462
 20
5214.2048644475
 30
0.0
 11
6158.8439579679
 21
5167.7782734364
 31
0.0
  0
LINE
  5
251
330
1F
100
AcDbEntity
  8
0
  6
Continuous
 62
     8
370
    25
100
AcDbLine
 10
6158.19381807
 20
5214.0047064311
 30
0.0
 11
6158.5955208645
 21
5167.9741254567
 31
0.0
  0
LINE
  5
252
330
1F
100
AcDbEntity
  8
0
  6
Continuous
 62
     8
370
    25
100
AcDbLine
 10
6159.2766178735
 20
5214.2048644475
 30
0.0
 11
6159.6816489914
 21
5167.7928953876
 31
0.0
  0
LINE
  5
253
330
1F
100
AcDbEntity
  8
0
  6
Continuous
 62
     8
370
    25
100
AcDbLine
 10
6159.5224316004
 20
5214.0004233288
 30
0.0
 11
6159.9238572901
 21
5168.0015954099
 31
0.0
  0
LINE
  5
254
330
1F
100
AcDbEntity
  8
0
  6
Continuous
 62
     8
370
    25
100
AcDbLine
 10
6157.7776256225
 20
5211.9590551963
 30
0.0
 11
6158.1436902683
 21
5170.0122015691
 31
0.0
  0
LINE
  5
255
330
1F
100
AcDbEntity
  8
0
  6
Continuous
 62
     8
370
    25
100
AcDbLine
 10
6155.4927501636
 20
5210.9988240063
 30
0.0
 11
6155.8424044621
 21
5170.9324099361
 31
0.0
  0
ARC
  5
256
330
1F
100
AcDbEntity
  8
0
  6
Continuous
 62
     8
370
    25
100
AcDbCircle
 10
6249.9684159886
 20
5146.3229345399
 30
0.0
 40
4.497987308476249
100
AcDbArc
 50
87.3753972298
 51
107.4379694262
  0
LINE
  5
257
330
1F
100
AcDbEntity
  8
0
  6
Continuous
 62
     8
370
    25
100
AcDbLine
 10
6215.1303687679
 20
5205.2010828993
 30
0.0
 11
6215.075531391
 21
5211.4848238999
 31
0.0
  0
LWPOLYLINE
  5
258
330
1F
100
AcDbEntity
  8
0
  6
Continuous
 62
     8
370
    25
100
AcDbPolyline
 90
        6
 70
   128
 43
0.0
 10
6216.6493861121
 20
5171.5521814002
 10
6216.6553650177
 20
5171.5165558936
 10
6216.5931599036
 20
5171.8856250127
 10
6216.4438585374
 20
5172.7406297645
 10
6216.2041408676
 20
5173.9697794088
 10
6215.7718976569
 20
5175.6152807386
  0
ARC
  5
259
330
1F
100
AcDbEntity
  8
0
  6
Continuous
 62
     8
370
    25
100
AcDbCircle
 10
6203.8847664707
 20
5171.9277264701
 30
0.0
 40
14.07105711225061
100
AcDbArc
 50
356.7353387325
 51
11.0392685401
  0
LINE
  5
25A
330
1F
100
AcDbEntity
  8
0
  6
Continuous
 62
     7
370
    25
100
AcDbLine
 10
7054.0829620199
 20
5247.7994420927
 30
0.0
 11
6954.0829620199
 21
5247.7994420927
 31
0.0
  0
LINE
  5
25B
330
1F
100
AcDbEntity
  8
0
  6
Continuous
 62
     7
370
    25
100
AcDbLine
 10
6954.0829620199
 20
5247.7994420927
 30
0.0
 11
6951.3829620199
 21
5247.7994420927
 31
0.0
  0
LINE
  5
25C
330
1F
100
AcDbEntity
  8
0
  6
Continuous
 62
     7
370
    25
100
AcDbLine
 10
7056.7829620199
 20
5247.7994420927
 30
0.0
 11
7054.0829620199
 21
5247.7994420927
 31
0.0
  0
LINE
  5
25D
330
1F
100
AcDbEntity
  8
0
  6
Continuous
 62
     7
370
    25
100
AcDbLine
 10
7001.0829620199
 20
5223.5994420927
 30
0.0
 11
7001.0829620199
 21
5208.5994420927
 31
0.0
  0
LINE
  5
25E
330
1F
100
AcDbEntity
  8
0
  6
Continuous
 62
     7
370
    25
100
AcDbLine
 10
7007.0829620199
 20
5208.5994420927
 30
0.0
 11
7007.0829620199
 21
5223.5994420927
 31
0.0
  0
LINE
  5
25F
330
1F
100
AcDbEntity
  8
0
  6
Continuous
 62
     7
370
    25
100
AcDbLine
 10
6972.5429981568
 20
5228.003805859
 30
0.0
 11
6974.1979018538
 21
5226.9920203973
 31
0.0
  0
LINE
  5
260
330
1F
100
AcDbEntity
  8
0
  6
Continuous
 62
     7
370
    25
100
AcDbLine
 10
7033.9680221859
 20
5226.9920203973
 30
0.0
 11
7035.622925883
 21
5228.003805859
 31
0.0
  0
LINE
  5
261
330
1F
100
AcDbEntity
  8
0
  6
Continuous
 62
     7
370
    25
100
AcDbLine
 10
6970.8329620199
 20
5228.5994420927
 30
0.0
 11
6970.8329620199
 21
5228.003805859
 31
0.0
  0
LINE
  5
262
330
1F
100
AcDbEntity
  8
0
  6
Continuous
 62
     7
370
    25
100
AcDbLine
 10
7037.3329620199
 20
5228.003805859
 30
0.0
 11
7037.3329620199
 21
5228.5994420927
 31
0.0
  0
LINE
  5
263
330
1F
100
AcDbEntity
  8
0
  6
Continuous
 62
     7
370
    25
100
AcDbLine
 10
6964.0829620199
 20
5226.495731245
 30
0.0
 11
6964.0829620199
 21
5225.9994420927
 31
0.0
  0
LINE
  5
264
330
1F
100
AcDbEntity
  8
0
  6
Continuous
 62
     7
370
    25
100
AcDbLine
 10
7044.0829620199
 20
5225.9994420927
 30
0.0
 11
7044.0829620199
 21
5226.495731245
 31
0.0
  0
ARC
  5
265
330
1F
100
AcDbEntity
  8
0
  6
Continuous
 62
     7
370
    25
100
AcDbCircle
 10
6964.7333040673
 20
5226.550500793
 30
0.0
 40
0.0547695479963295
100
AcDbArc
 50
270.0
 51
329.999999999
  0
ARC
  5
266
330
1F
100
AcDbEntity
  8
0
  6
Continuous
 62
     7
370
    25
100
AcDbCircle
 10
7043.4326199724
 20
5226.550500793
 30
0.0
 40
0.0547695479963295
100
AcDbArc
 50
210.0000000005
 51
270.0
  0
LINE
  5
267
330
1F
100
AcDbEntity
  8
0
  6
Continuous
 62
     7
370
    25
100
AcDbLine
 10
7043.3851881525
 20
5226.523116019
 30
0.0
 11
7043.1460767673
 21
5226.9372690868
 31
0.0
  0
LINE
  5
268
330
1F
100
AcDbEntity
  8
0
  6
Continuous
 62
     7
370
    25
100
AcDbLine
 10
6965.0198472725
 20
5226.9372690868
 30
0.0
 11
6964.7807358873
 21
5226.523116019
 31
0.0
  0
ARC
  5
269
330
1F
100
AcDbEntity
  8
0
  6
Continuous
 62
     7
370
    25
100
AcDbCircle
 10
6965.114679324
 20
5226.8825177764
 30
0.0
 40
0.1095026209379374
100
AcDbArc
 50
90.0
 51
150.0000000003
  0
ARC
  5
26A
330
1F
100
AcDbEntity
  8
0
  6
Continuous
 62
     7
370
    25
100
AcDbCircle
 10
7043.0512447158
 20
5226.8825177764
 30
0.0
 40
0.109502620936837
100
AcDbArc
 50
30.0000000001
 51
90.0
  0
LINE
  5
26B
330
1F
100
AcDbEntity
  8
0
  6
Continuous
 62
     7
370
    25
100
AcDbLine
 10
7043.0512447158
 20
5226.9920203973
 30
0.0
 11
7009.8564647118
 21
5226.9920203973
 31
0.0
  0
LINE
  5
26C
330
1F
100
AcDbEntity
  8
0
  6
Continuous
 62
     7
370
    25
100
AcDbLine
 10
6998.309459328
 20
5226.9920203973
 30
0.0
 11
6965.114679324
 21
5226.9920203973
 31
0.0
  0
LINE
  5
26D
330
1F
100
AcDbEntity
  8
0
  6
Continuous
 62
     7
370
    25
100
AcDbLine
 10
6984.0830572158
 20
5190.6920086077
 30
0.0
 11
6984.0830572158
 21
5190.093770047
 31
0.0
  0
LINE
  5
26E
330
1F
100
AcDbEntity
  8
0
  6
Continuous
 62
     7
370
    25
100
AcDbLine
 10
7024.0828668239
 20
5190.093770047
 30
0.0
 11
7024.0828668239
 21
5190.6920086077
 31
0.0
  0
ARC
  5
26F
330
1F
100
AcDbEntity
  8
0
  6
Continuous
 62
     7
370
    25
100
AcDbCircle
 10
7004.0829620199
 20
5190.8502945412
 30
0.0
 40
27.0
100
AcDbArc
 50
0.0
 51
83.6206297916
  0
ARC
  5
270
330
1F
100
AcDbEntity
  8
0
  6
Continuous
 62
     7
370
    25
100
AcDbCircle
 10
7004.0829620199
 20
5190.8502945412
 30
0.0
 40
27.0
100
AcDbArc
 50
96.3793702084
 51
0.0
  0
ARC
  5
271
330
1F
100
AcDbEntity
  8
0
  6
Continuous
 62
     7
370
    25
100
AcDbCircle
 10
7039.7072646108
 20
5120.6684936445
 30
0.0
 40
52.79442234722227
100
AcDbArc
 50
98.6113344955
 51
109.5792512048
  0
ARC
  5
272
330
1F
100
AcDbEntity
  8
0
  6
Continuous
 62
     7
370
    25
100
AcDbCircle
 10
6968.7314679909
 20
5121.7091496521
 30
0.0
 40
51.72268379407276
100
AcDbArc
 50
70.3260562123
 51
81.523490746
  0
LINE
  5
273
330
1F
100
AcDbEntity
  8
0
  6
Continuous
 62
     7
370
    25
100
AcDbLine
 10
7045.8329620199
 20
5222.9994420927
 30
0.0
 11
7045.8329620199
 21
5225.9994420927
 31
0.0
  0
LINE
  5
274
330
1F
100
AcDbEntity
  8
0
  6
Continuous
 62
     7
370
    25
100
AcDbLine
 10
6962.3329620199
 20
5225.9994420927
 30
0.0
 11
6962.3329620199
 21
5222.9994420927
 31
0.0
  0
LWPOLYLINE
  5
275
330
1F
100
AcDbEntity
  8
0
  6
Continuous
 62
     7
370
    25
100
AcDbPolyline
 90
       14
 70
   128
 43
0.0
 10
6957.3784155148
 20
5188.333528274
 10
6957.3931261717
 20
5187.3232870704
 10
6957.7360713831
 20
5185.3427113402
 10
6958.3785380711
 20
5183.4926528822
 10
6959.2877558644
 20
5181.7922906254
 10
6960.4386643385
 20
5180.2442837646
 10
6961.8258875601
 20
5178.8357232882
 10
6963.4664125828
 20
5177.5494555714
 10
6965.3983354038
 20
5176.3712340909
 10
6967.6622274482
 20
5175.300122285
 10
6970.2571252242
 20
5174.355149046
 10
6973.090131573
 20
5173.5664490693
 10
6976.1246452555
 20
5172.9152319412
 10
6976.3940306105
 20
5172.8703111762
  0
LWPOLYLINE
  5
276
330
1F
100
AcDbEntity
  8
0
  6
Continuous
 62
     7
370
    25
100
AcDbPolyline
 90
       13
 70
   128
 43
0.0
 10
7031.7514856027
 20
5172.8801516464
 10
7033.3131276051
 20
5173.1690181167
 10
7036.1905998061
 20
5173.8519074327
 10
7038.9559137725
 20
5174.7101645523
 10
7041.4608084579
 20
5175.7312138368
 10
7043.8252514635
 20
5177.0011174002
 10
7045.6513858601
 20
5178.2859878092
 10
7047.1788923432
 20
5179.6788174684
 10
7048.4336192807
 20
5181.1798106912
 10
7049.4285629555
 20
5182.7892916781
 10
7050.2247204652
 20
5184.6854861808
 10
7050.6823284248
 20
5186.6218144975
 10
7050.8042319003
 20
5188.3427907335
  0
LINE
  5
277
330
1F
100
AcDbEntity
  8
0
  6
Continuous
 62
     7
370
    25
100
AcDbLine
 10
6957.1992579906
 20
5204.6732437898
 30
0.0
 11
6957.3420543202
 21
5188.3104051381
 31
0.0
  0
LINE
  5
278
330
1F
100
AcDbEntity
  8
0
  6
Continuous
 62
     7
370
    25
100
AcDbLine
 10
7050.8239214987
 20
5188.316338443
 30
0.0
 11
7051.0829620199
 21
5217.9994420927
 31
0.0
  0
ARC
  5
279
330
1F
100
AcDbEntity
  8
0
  6
Continuous
 62
     7
370
    25
100
AcDbCircle
 10
6957.0829620199
 20
5220.9994420927
 30
0.0
 40
2.000000000000131
100
AcDbArc
 50
120.0010464822
 51
180.0
  0
ARC
  5
27A
330
1F
100
AcDbEntity
  8
0
  6
Continuous
 62
     7
370
    25
100
AcDbCircle
 10
7051.0829620199
 20
5220.9994420927
 30
0.0
 40
2.000000000000909
100
AcDbArc
 50
0.0
 51
90.0
  0
LINE
  5
27B
330
1F
100
AcDbEntity
  8
0
  6
Continuous
 62
     7
370
    25
100
AcDbLine
 10
7053.0829620199
 20
5217.9994420927
 30
0.0
 11
7053.0829620199
 21
5220.9994420927
 31
0.0
  0
LINE
  5
27C
330
1F
100
AcDbEntity
  8
0
  6
Continuous
 62
     7
370
    25
100
AcDbLine
 10
6955.0829620199
 20
5220.9994420927
 30
0.0
 11
6955.0829620199
 21
5217.9994420927
 31
0.0
  0
LINE
  5
27D
330
1F
100
AcDbEntity
  8
0
  6
Continuous
 62
     7
370
    25
100
AcDbLine
 10
6971.2329418332
 20
5174.0834847989
 30
0.0
 11
6971.8422170376
 21
5150.8162034546
 31
0.0
  0
LINE
  5
27E
330
1F
100
AcDbEntity
  8
0
  6
Continuous
 62
     7
370
    25
100
AcDbLine
 10
7036.3237070021
 20
5150.8162034546
 30
0.0
 11
7036.9329513779
 21
5174.0823074992
 31
0.0
  0
ARC
  5
27F
330
1F
100
AcDbEntity
  8
0
  6
Continuous
 62
     7
370
    25
100
AcDbCircle
 10
7029.3261057273
 20
5150.9994420927
 30
0.0
 40
7.000000000000909
100
AcDbArc
 50
270.0
 51
358.5
  0
ARC
  5
280
330
1F
100
AcDbEntity
  8
0
  6
Continuous
 62
     7
370
    25
100
AcDbCircle
 10
6978.8398183124
 20
5150.9994420927
 30
0.0
 40
7.000000000000909
100
AcDbArc
 50
181.5
 51
270.0
  0
LINE
  5
281
330
1F
100
AcDbEntity
  8
0
  6
Continuous
 62
     7
370
    25
100
AcDbLine
 10
6949.0829620199
 20
5133.7994420927
 30
0.0
 11
6949.0829620199
 21
5203.7994420927
 31
0.0
  0
LINE
  5
282
330
1F
100
AcDbEntity
  8
0
  6
Continuous
 62
     7
370
    25
100
AcDbLine
 10
6939.0829620199
 20
5203.7994420927
 30
0.0
 11
6939.0829620199
 21
5133.7994420927
 31
0.0
  0
LINE
  5
283
330
1F
100
AcDbEntity
  8
0
  6
Continuous
 62
     7
370
    25
100
AcDbLine
 10
6949.0829620199
 20
5212.7994420927
 30
0.0
 11
6948.0829620199
 21
5213.7994420927
 31
0.0
  0
LINE
  5
284
330
1F
100
AcDbEntity
  8
0
  6
Continuous
 62
     7
370
    25
100
AcDbLine
 10
6940.0829620199
 20
5213.7994420927
 30
0.0
 11
6939.0829620199
 21
5212.7994420927
 31
0.0
  0
LINE
  5
285
330
1F
100
AcDbEntity
  8
0
  6
Continuous
 62
     7
370
    25
100
AcDbLine
 10
7096.0829620199
 20
5212.7994420927
 30
0.0
 11
7095.0829620199
 21
5213.7994420927
 31
0.0
  0
LINE
  5
286
330
1F
100
AcDbEntity
  8
0
  6
Continuous
 62
     7
370
    25
100
AcDbLine
 10
7087.0829620199
 20
5213.7994420927
 30
0.0
 11
7086.0829620199
 21
5212.7994420927
 31
0.0
  0
LINE
  5
287
330
1F
100
AcDbEntity
  8
0
  6
Continuous
 62
     7
370
    25
100
AcDbLine
 10
7096.0829620199
 20
5128.7994420927
 30
0.0
 11
7096.0829620199
 21
5203.7994420927
 31
0.0
  0
LINE
  5
288
330
1F
100
AcDbEntity
  8
0
  6
Continuous
 62
     7
370
    25
100
AcDbLine
 10
7086.0829620199
 20
5203.7994420927
 30
0.0
 11
7086.0829620199
 21
5128.7994420927
 31
0.0
  0
LINE
  5
289
330
1F
100
AcDbEntity
  8
0
  6
Continuous
 62
     7
370
    25
100
AcDbLine
 10
6931.3829620199
 20
5230.5994420927
 30
0.0
 11
6931.3829620199
 21
5300.5994420927
 31
0.0
  0
LINE
  5
28A
330
1F
100
AcDbEntity
  8
0
  6
Continuous
 62
     7
370
    25
100
AcDbLine
 10
6931.3829620199
 20
5300.5994420927
 30
0.0
 11
6932.8829620199
 21
5300.5994420927
 31
0.0
  0
LINE
  5
28B
330
1F
100
AcDbEntity
  8
0
  6
Continuous
 62
     7
370
    25
100
AcDbLine
 10
6932.8829620199
 20
5231.7994420927
 30
0.0
 11
6932.8829620199
 21
5300.5994420927
 31
0.0
  0
LINE
  5
28C
330
1F
100
AcDbEntity
  8
0
  6
Continuous
 62
     7
370
    25
100
AcDbLine
 10
6932.8829620199
 20
5231.7994420927
 30
0.0
 11
7075.2829620199
 21
5231.7994420927
 31
0.0
  0
LINE
  5
28D
330
1F
100
AcDbEntity
  8
0
  6
Continuous
 62
     7
370
    25
100
AcDbLine
 10
7075.2829620199
 20
5231.7994420927
 30
0.0
 11
7075.2829620199
 21
5230.5994420927
 31
0.0
  0
LINE
  5
28E
330
1F
100
AcDbEntity
  8
0
  6
Continuous
 62
     7
370
    25
100
AcDbLine
 10
6931.3829620199
 20
5230.5994420927
 30
0.0
 11
7075.2829620199
 21
5230.5994420927
 31
0.0
  0
LINE
  5
28F
330
1F
100
AcDbEntity
  8
0
  6
Continuous
 62
     7
370
    25
100
AcDbLine
 10
7054.0829620199
 20
5245.7479007613
 30
0.0
 11
6954.0829620199
 21
5245.7479007613
 31
0.0
  0
LINE
  5
290
330
1F
100
AcDbEntity
  8
0
  6
Continuous
 62
     7
370
    25
100
AcDbLine
 10
6954.0829620199
 20
5245.7479007613
 30
0.0
 11
6949.7197065698
 21
5245.7479007613
 31
0.0
  0
ARC
  5
291
330
1F
100
AcDbEntity
  8
0
  6
Continuous
 62
     7
370
    25
100
AcDbCircle
 10
6951.364592687
 20
5246.106677123
 30
0.0
 40
1.683558973213902
100
AcDbArc
 50
89.3750030156
 51
192.3044287048
  0
LINE
  5
292
330
1F
100
AcDbEntity
  8
0
  6
Continuous
 62
     7
370
    25
100
AcDbLine
 10
7058.44621747
 20
5245.7479007613
 30
0.0
 11
7054.0829620199
 21
5245.7479007613
 31
0.0
  0
ARC
  5
293
330
1F
100
AcDbEntity
  8
0
  6
Continuous
 62
     7
370
    25
100
AcDbCircle
 10
7056.7829620199
 20
5246.0994420927
 30
0.0
 40
1.700000000001019
100
AcDbArc
 50
348.0657534268
 51
90.0
  0
LINE
  5
294
330
1F
100
AcDbEntity
  8
0
  6
Continuous
 62
     7
370
    25
100
AcDbLine
 10
6954.0829620199
 20
5241.5408428581
 30
0.0
 11
6950.6088993492
 21
5241.5408428581
 31
0.0
  0
LINE
  5
295
330
1F
100
AcDbEntity
  8
0
  6
Continuous
 62
     7
370
    25
100
AcDbLine
 10
6949.7197065698
 20
5245.7479007613
 30
0.0
 11
6950.6088993492
 21
5241.5408428581
 31
0.0
  0
LINE
  5
296
330
1F
100
AcDbEntity
  8
0
  6
Continuous
 62
     7
370
    25
100
AcDbLine
 10
6954.0829620199
 20
5245.7479007613
 30
0.0
 11
6954.0829620199
 21
5241.5408428581
 31
0.0
  0
LINE
  5
297
330
1F
100
AcDbEntity
  8
0
  6
Continuous
 62
     7
370
    25
100
AcDbLine
 10
7054.0829620199
 20
5241.5408428581
 30
0.0
 11
6954.0829620199
 21
5241.5408428581
 31
0.0
  0
LINE
  5
298
330
1F
100
AcDbEntity
  8
0
  6
Continuous
 62
     7
370
    25
100
AcDbLine
 10
7054.0829620199
 20
5245.7479007613
 30
0.0
 11
7054.0829620199
 21
5241.5408428581
 31
0.0
  0
LINE
  5
299
330
1F
100
AcDbEntity
  8
0
  6
Continuous
 62
     7
370
    25
100
AcDbLine
 10
7057.5570246905
 20
5241.5408428581
 30
0.0
 11
7054.0829620199
 21
5241.5408428581
 31
0.0
  0
LINE
  5
29A
330
1F
100
AcDbEntity
  8
0
  6
Continuous
 62
     7
370
    25
100
AcDbLine
 10
7058.44621747
 20
5245.7479007613
 30
0.0
 11
7057.5570246905
 21
5241.5408428581
 31
0.0
  0
LINE
  5
29B
330
1F
100
AcDbEntity
  8
0
  6
Continuous
 62
     7
370
    25
100
AcDbLine
 10
6951.8829620199
 20
5241.5408428581
 30
0.0
 11
6951.8829620199
 21
5231.7994420927
 31
0.0
  0
LINE
  5
29C
330
1F
100
AcDbEntity
  8
0
  6
Continuous
 62
     7
370
    25
100
AcDbLine
 10
7056.2829620199
 20
5241.5408428581
 30
0.0
 11
7056.2829620199
 21
5231.7994420927
 31
0.0
  0
LINE
  5
29D
330
1F
100
AcDbEntity
  8
0
  6
Continuous
 62
     7
370
    25
100
AcDbLine
 10
6934.0828268492
 20
5205.7994420927
 30
0.0
 11
6955.0828268492
 21
5205.7994420927
 31
0.0
  0
ARC
  5
29E
330
1F
100
AcDbEntity
  8
0
  6
Continuous
 62
     7
370
    25
100
AcDbCircle
 10
6955.0828268492
 20
5206.7994420927
 30
0.0
 40
1.000000000000197
100
AcDbArc
 50
270.0
 51
359.9996276583
  0
LINE
  5
29F
330
1F
100
AcDbEntity
  8
0
  6
Continuous
 62
     7
370
    25
100
AcDbLine
 10
6956.0828268491
 20
5206.7994355941
 30
0.0
 11
6956.0829620199
 21
5227.5994615885
 31
0.0
  0
ARC
  5
2A0
330
1F
100
AcDbEntity
  8
0
  6
Continuous
 62
     7
370
    25
100
AcDbCircle
 10
6959.0829620199
 20
5227.5994420927
 30
0.0
 40
3.000000000000909
100
AcDbArc
 50
90.0
 51
179.9996276583
  0
ARC
  5
2A1
330
1F
100
AcDbEntity
  8
0
  6
Continuous
 62
     7
370
    25
100
AcDbCircle
 10
7049.0829620199
 20
5227.5994420927
 30
0.0
 40
3.0
100
AcDbArc
 50
48.6002523617
 51
90.0
  0
LINE
  5
2A2
330
1F
100
AcDbEntity
  8
0
  6
Continuous
 62
     7
370
    25
100
AcDbLine
 10
7051.0668877041
 20
5229.8497840399
 30
0.0
 11
7078.0634454712
 21
5206.0493281103
 31
0.0
  0
ARC
  5
2A3
330
1F
100
AcDbEntity
  8
0
  6
Continuous
 62
     7
370
    25
100
AcDbCircle
 10
7078.7247540326
 20
5206.7994420927
 30
0.0
 40
1.000000000000033
100
AcDbArc
 50
228.6002523617
 51
270.0
  0
LINE
  5
2A4
330
1F
100
AcDbEntity
  8
0
  6
Continuous
 62
     7
370
    25
100
AcDbLine
 10
7078.7247540326
 20
5205.7994420927
 30
0.0
 11
7099.7247540326
 21
5205.7994420927
 31
0.0
  0
LINE
  5
2A5
330
1F
100
AcDbEntity
  8
0
  6
Continuous
 62
     7
370
    25
100
AcDbLine
 10
7099.7247540326
 20
5205.7994420927
 30
0.0
 11
7099.7247540326
 21
5203.7994420927
 31
0.0
  0
LINE
  5
2A6
330
1F
100
AcDbEntity
  8
0
  6
Continuous
 62
     7
370
    25
100
AcDbLine
 10
7099.7247540326
 20
5203.7994420927
 30
0.0
 11
7078.7247540326
 21
5203.7994420927
 31
0.0
  0
ARC
  5
2A7
330
1F
100
AcDbEntity
  8
0
  6
Continuous
 62
     7
370
    25
100
AcDbCircle
 10
7078.7247540326
 20
5206.7994420927
 30
0.0
 40
3.0
100
AcDbArc
 50
228.6002523617
 51
270.0
  0
LINE
  5
2A8
330
1F
100
AcDbEntity
  8
0
  6
Continuous
 62
     7
370
    25
100
AcDbLine
 10
7076.7408283484
 20
5204.5491001455
 30
0.0
 11
7049.7442705813
 21
5228.3495560751
 31
0.0
  0
ARC
  5
2A9
330
1F
100
AcDbEntity
  8
0
  6
Continuous
 62
     7
370
    25
100
AcDbCircle
 10
7049.0829620199
 20
5227.5994420927
 30
0.0
 40
1.000000000000033
100
AcDbArc
 50
48.6002523617
 51
90.0
  0
LINE
  5
2AA
330
1F
100
AcDbEntity
  8
0
  6
Continuous
 62
     7
370
    25
100
AcDbLine
 10
7049.0829620199
 20
5228.5994420927
 30
0.0
 11
6959.0829620199
 21
5228.5994420927
 31
0.0
  0
ARC
  5
2AB
330
1F
100
AcDbEntity
  8
0
  6
Continuous
 62
     7
370
    25
100
AcDbCircle
 10
6959.0829620199
 20
5227.5994420927
 30
0.0
 40
1.000000000000197
100
AcDbArc
 50
90.0
 51
179.9996276583
  0
LINE
  5
2AC
330
1F
100
AcDbEntity
  8
0
  6
Continuous
 62
     7
370
    25
100
AcDbLine
 10
6958.0829620199
 20
5227.5994485913
 30
0.0
 11
6958.0828268491
 21
5206.799422597
 31
0.0
  0
ARC
  5
2AD
330
1F
100
AcDbEntity
  8
0
  6
Continuous
 62
     7
370
    25
100
AcDbCircle
 10
6955.0828268492
 20
5206.7994420927
 30
0.0
 40
3.000000000000592
100
AcDbArc
 50
270.0
 51
359.9996276583
  0
LINE
  5
2AE
330
1F
100
AcDbEntity
  8
0
  6
Continuous
 62
     7
370
    25
100
AcDbLine
 10
6955.0828268492
 20
5203.7994420927
 30
0.0
 11
6934.0828268492
 21
5203.7994420927
 31
0.0
  0
LINE
  5
2AF
330
1F
100
AcDbEntity
  8
0
  6
Continuous
 62
     7
370
    25
100
AcDbLine
 10
6934.0828268492
 20
5203.7994420927
 30
0.0
 11
6934.0828268492
 21
5205.7994420927
 31
0.0
  0
LINE
  5
2B0
330
1F
100
AcDbEntity
  8
0
  6
Continuous
 62
     7
370
    25
100
AcDbLine
 10
6939.1754847318
 20
5212.7994420927
 30
0.0
 11
6939.1754847318
 21
5205.7994420927
 31
0.0
  0
LINE
  5
2B1
330
1F
100
AcDbEntity
  8
0
  6
Continuous
 62
     7
370
    25
100
AcDbLine
 10
6948.990439308
 20
5212.7994420927
 30
0.0
 11
6948.990439308
 21
5205.7994420927
 31
0.0
  0
LINE
  5
2B2
330
1F
100
AcDbEntity
  8
0
  6
Continuous
 62
     7
370
    25
100
AcDbLine
 10
6948.990439308
 20
5212.7994420927
 30
0.0
 11
6939.1754847318
 21
5212.7994420927
 31
0.0
  0
LINE
  5
2B3
330
1F
100
AcDbEntity
  8
0
  6
Continuous
 62
     7
370
    25
100
AcDbLine
 10
6934.2680074437
 20
5212.7994420927
 30
0.0
 11
6934.2680074437
 21
5205.7994420927
 31
0.0
  0
LINE
  5
2B4
330
1F
100
AcDbEntity
  8
0
  6
Continuous
 62
     7
370
    25
100
AcDbLine
 10
6939.1754847318
 20
5212.7994420927
 30
0.0
 11
6934.2680074437
 21
5212.7994420927
 31
0.0
  0
LINE
  5
2B5
330
1F
100
AcDbEntity
  8
0
  6
Continuous
 62
     7
370
    25
100
AcDbLine
 10
6953.8979165961
 20
5212.7994420927
 30
0.0
 11
6953.8979165961
 21
5205.7994420927
 31
0.0
  0
LINE
  5
2B6
330
1F
100
AcDbEntity
  8
0
  6
Continuous
 62
     7
370
    25
100
AcDbLine
 10
6953.8979165961
 20
5212.7994420927
 30
0.0
 11
6948.990439308
 21
5212.7994420927
 31
0.0
  0
LINE
  5
2B7
330
1F
100
AcDbEntity
  8
0
  6
Continuous
 62
     7
370
    25
100
AcDbLine
 10
7081.2680074437
 20
5212.7994420927
 30
0.0
 11
7081.2680074437
 21
5205.7994420927
 31
0.0
  0
LINE
  5
2B8
330
1F
100
AcDbEntity
  8
0
  6
Continuous
 62
     7
370
    25
100
AcDbLine
 10
7086.1754847318
 20
5212.7994420927
 30
0.0
 11
7081.2680074437
 21
5212.7994420927
 31
0.0
  0
LINE
  5
2B9
330
1F
100
AcDbEntity
  8
0
  6
Continuous
 62
     7
370
    25
100
AcDbLine
 10
7086.1754847318
 20
5212.7994420927
 30
0.0
 11
7086.1754847318
 21
5205.7994420927
 31
0.0
  0
LINE
  5
2BA
330
1F
100
AcDbEntity
  8
0
  6
Continuous
 62
     7
370
    25
100
AcDbLine
 10
7095.990439308
 20
5212.7994420927
 30
0.0
 11
7095.990439308
 21
5205.7994420927
 31
0.0
  0
LINE
  5
2BB
330
1F
100
AcDbEntity
  8
0
  6
Continuous
 62
     7
370
    25
100
AcDbLine
 10
7095.990439308
 20
5212.7994420927
 30
0.0
 11
7086.1754847318
 21
5212.7994420927
 31
0.0
  0
LINE
  5
2BC
330
1F
100
AcDbEntity
  8
0
  6
Continuous
 62
     7
370
    25
100
AcDbLine
 10
7100.8979165961
 20
5212.7994420927
 30
0.0
 11
7100.8979165961
 21
5205.7994420927
 31
0.0
  0
LINE
  5
2BD
330
1F
100
AcDbEntity
  8
0
  6
Continuous
 62
     7
370
    25
100
AcDbLine
 10
7100.8979165961
 20
5205.7994420927
 30
0.0
 11
7099.7247540326
 21
5205.7994420927
 31
0.0
  0
LINE
  5
2BE
330
1F
100
AcDbEntity
  8
0
  6
Continuous
 62
     7
370
    25
100
AcDbLine
 10
7100.8979165961
 20
5212.7994420927
 30
0.0
 11
7095.990439308
 21
5212.7994420927
 31
0.0
  0
LINE
  5
2BF
330
1F
100
AcDbEntity
  8
0
  6
Continuous
 62
     7
370
    25
100
AcDbLine
 10
7006.9697133658
 20
5223.5994420927
 30
0.0
 11
7006.9697133658
 21
5228.5994420927
 31
0.0
  0
LINE
  5
2C0
330
1F
100
AcDbEntity
  8
0
  6
Continuous
 62
     7
370
    25
100
AcDbLine
 10
7001.1962106739
 20
5223.5994420927
 30
0.0
 11
7001.1962106739
 21
5228.5994420927
 31
0.0
  0
LINE
  5
2C1
330
1F
100
AcDbEntity
  8
0
  6
Continuous
 62
     7
370
    25
100
AcDbLine
 10
7001.1962106739
 20
5223.5994420927
 30
0.0
 11
7006.9697133658
 21
5223.5994420927
 31
0.0
  0
LINE
  5
2C2
330
1F
100
AcDbEntity
  8
0
  6
Continuous
 62
     7
370
    25
100
AcDbLine
 10
7009.8564647118
 20
5223.5994420927
 30
0.0
 11
7009.8564647118
 21
5228.5994420927
 31
0.0
  0
LINE
  5
2C3
330
1F
100
AcDbEntity
  8
0
  6
Continuous
 62
     7
370
    25
100
AcDbLine
 10
7006.9697133658
 20
5223.5994420927
 30
0.0
 11
7009.8564647118
 21
5223.5994420927
 31
0.0
  0
LINE
  5
2C4
330
1F
100
AcDbEntity
  8
0
  6
Continuous
 62
     7
370
    25
100
AcDbLine
 10
6998.309459328
 20
5223.5994420927
 30
0.0
 11
6998.309459328
 21
5228.5994420927
 31
0.0
  0
LINE
  5
2C5
330
1F
100
AcDbEntity
  8
0
  6
Continuous
 62
     7
370
    25
100
AcDbLine
 10
6998.309459328
 20
5223.5994420927
 30
0.0
 11
7001.1962106739
 21
5223.5994420927
 31
0.0
  0
LINE
  5
2C6
330
1F
100
AcDbEntity
  8
0
  6
Continuous
 62
     7
370
    25
100
AcDbLine
 10
7001.0829620199
 20
5208.5994420927
 30
0.0
 11
7007.0829620199
 21
5208.5994420927
 31
0.0
  0
LINE
  5
2C7
330
1F
100
AcDbEntity
  8
0
  6
Continuous
 62
     7
370
    25
100
AcDbLine
 10
7037.3329620199
 20
5228.003805859
 30
0.0
 11
7009.8564647118
 21
5228.003805859
 31
0.0
  0
LINE
  5
2C8
330
1F
100
AcDbEntity
  8
0
  6
Continuous
 62
     7
370
    25
100
AcDbLine
 10
6998.309459328
 20
5228.003805859
 30
0.0
 11
6970.8329620199
 21
5228.003805859
 31
0.0
  0
LINE
  5
2C9
330
1F
100
AcDbEntity
  8
0
  6
Continuous
 62
     7
370
    25
100
AcDbLine
 10
6964.0829620199
 20
5226.495731245
 30
0.0
 11
6998.309459328
 21
5226.495731245
 31
0.0
  0
LINE
  5
2CA
330
1F
100
AcDbEntity
  8
0
  6
Continuous
 62
     7
370
    25
100
AcDbLine
 10
7009.8564647118
 20
5226.495731245
 30
0.0
 11
7044.0829620199
 21
5226.495731245
 31
0.0
  0
LWPOLYLINE
  5
2CB
330
1F
100
AcDbEntity
  8
0
  6
Continuous
 62
     7
370
    25
100
AcDbPolyline
 90
        8
 70
   128
 43
0.0
 10
7014.1680008298
 20
5203.929205835
 10
7013.7272490842
 20
5203.9257997403
 10
7010.1565175723
 20
5203.9000206795
 10
7006.4222269468
 20
5203.8747415932
 10
7002.6349619667
 20
5203.8504714573
 10
6998.9037411803
 20
5203.825497033
 10
6995.3193281289
 20
5203.7998005934
 10
6994.0580603235
 20
5203.7900768358
  0
LINE
  5
2CC
330
1F
100
AcDbEntity
  8
0
  6
Continuous
 62
     7
370
    25
100
AcDbLine
 10
7004.0829620199
 20
5202.4994420927
 30
0.0
 11
7013.7738071635
 21
5202.4994420927
 31
0.0
  0
LINE
  5
2CD
330
1F
100
AcDbEntity
  8
0
  6
Continuous
 62
     7
370
    25
100
AcDbLine
 10
6994.3921168763
 20
5202.4994420927
 30
0.0
 11
7004.0829620199
 21
5202.4994420927
 31
0.0
  0
LWPOLYLINE
  5
2CE
330
1F
100
AcDbEntity
  8
0
  6
Continuous
 62
     7
370
    25
100
AcDbPolyline
 90
        7
 70
   128
 43
0.0
 10
6994.950423987
 20
5204.8401608872
 10
6995.204706389
 20
5204.8431920886
 10
6999.6003545083
 20
5204.8914444611
 10
7004.0829620199
 20
5204.9369420886
 10
7008.5655695314
 20
5204.9824397162
 10
7012.9612176507
 20
5205.0306920886
 10
7013.0284430804
 20
5205.0314934568
  0
LWPOLYLINE
  5
2CF
330
1F
100
AcDbEntity
  8
0
  6
Continuous
 62
     7
370
    25
100
AcDbPolyline
 90
        5
 70
   128
 43
0.0
 10
6995.3187734734
 20
5205.031944242
 10
6999.6003545083
 20
5205.0789444651
 10
7004.0829620199
 20
5205.1244420927
 10
7008.5655695314
 20
5205.1699397203
 10
7012.6236867183
 20
5205.2144869125
  0
LWPOLYLINE
  5
2D0
330
1F
100
AcDbEntity
  8
0
  6
Continuous
 62
     7
370
    25
100
AcDbPolyline
 90
        7
 70
   128
 43
0.0
 10
6994.1911297054
 20
5204.3580834195
 10
6995.5154066133
 20
5204.3744420907
 10
6999.7572262202
 20
5204.4226944631
 10
7004.0829620199
 20
5204.4681920907
 10
7008.4086978196
 20
5204.5136897182
 10
7012.6505174264
 20
5204.5619420907
 10
7013.7692704446
 20
5204.5757619441
  0
LWPOLYLINE
  5
2D1
330
1F
100
AcDbEntity
  8
0
  6
Continuous
 62
     7
370
    25
100
AcDbPolyline
 90
        4
 70
   128
 43
0.0
 10
6996.9686716425
 20
5205.890973554
 10
6999.7572262202
 20
5205.9226944631
 10
7004.0829620199
 20
5205.9681920907
 10
7007.054089523
 20
5205.9994420927
  0
LWPOLYLINE
  5
2D2
330
1F
100
AcDbEntity
  8
0
  6
Continuous
 62
     7
370
    25
100
AcDbPolyline
 90
        7
 70
   128
 43
0.0
 10
6994.1794439652
 20
5203.9829390666
 10
6995.5154066133
 20
5203.9994420907
 10
6999.7572262202
 20
5204.0476944631
 10
7004.0829620199
 20
5204.0931920907
 10
7008.4086978196
 20
5204.1386897182
 10
7012.6505174264
 20
5204.1869420907
 10
7013.979604771
 20
5204.2033601847
  0
LWPOLYLINE
  5
2D3
330
1F
100
AcDbEntity
  8
0
  6
Continuous
 62
     7
370
    25
100
AcDbPolyline
 90
        5
 70
   128
 43
0.0
 10
6996.2323388096
 20
5205.5075974774
 10
6999.7572262202
 20
5205.5476944631
 10
7004.0829620199
 20
5205.5931920907
 10
7008.4086978196
 20
5205.6386897182
 10
7011.604987214
 20
5205.6750487718
  0
ARC
  5
2D4
330
1F
100
AcDbEntity
  8
0
  6
Continuous
 62
     7
370
    25
100
AcDbCircle
 10
7004.0829620199
 20
5190.0628532626
 30
0.0
 40
19.71434232641925
100
AcDbArc
 50
98.7529037444
 51
81.2470962556
  0
CIRCLE
  5
2D5
330
1F
100
AcDbEntity
  8
0
  6
Continuous
 62
     7
370
    25
100
AcDbCircle
 10
7004.0828988008
 20
5190.0627181762
 30
0.0
 40
17.49968043751101
  0
ARC
  5
2D6
330
1F
100
AcDbEntity
  8
0
  6
Continuous
 62
     7
370
    25
100
AcDbCircle
 10
7004.0829620199
 20
5190.0932873615
 30
0.0
 40
19.999637628104
100
AcDbArc
 50
98.6270840614
 51
81.3729159386
  0
ARC
  5
2D7
330
1F
100
AcDbEntity
  8
0
  6
Continuous
 62
     7
370
    25
100
AcDbCircle
 10
7004.0835222748
 20
5190.6917373586
 30
0.0
 40
19.99934455094945
100
AcDbArc
 50
0.0007770969
 51
81.3744119802
  0
ARC
  5
2D8
330
1F
100
AcDbEntity
  8
0
  6
Continuous
 62
     7
370
    25
100
AcDbCircle
 10
7004.0824739037
 20
5190.6916753367
 30
0.0
 40
19.99941669060367
100
AcDbArc
 50
98.6257657018
 51
179.9990452211
  0
ARC
  5
2D9
330
1F
100
AcDbEntity
  8
0
  6
Continuous
 62
     7
370
    25
100
AcDbCircle
 10
7001.6433452757
 20
5190.9405135765
 30
0.0
 40
15.04056685107899
100
AcDbArc
 50
177.7865545128
 51
205.5322813903
  0
ARC
  5
2DA
330
1F
100
AcDbEntity
  8
0
  6
Continuous
 62
     7
370
    25
100
AcDbCircle
 10
7004.0829620199
 20
5191.5213547988
 30
0.0
 40
17.50023986067525
100
AcDbArc
 50
203.8052968746
 51
336.1947031255
  0
ARC
  5
2DB
330
1F
100
AcDbEntity
  8
0
  6
Continuous
 62
     7
370
    25
100
AcDbCircle
 10
7005.7366542942
 20
5191.0467466698
 30
0.0
 40
15.79739587783275
100
AcDbArc
 50
335.3486948419
 51
1.7302785812
  0
ARC
  5
2DC
330
1F
100
AcDbEntity
  8
0
  6
Continuous
 62
     7
370
    25
100
AcDbCircle
 10
7004.0830126548
 20
5191.4134355054
 30
0.0
 40
26.5131443354321
100
AcDbArc
 50
59.5202020097
 51
83.5030967339
  0
ARC
  5
2DD
330
1F
100
AcDbEntity
  8
0
  6
Continuous
 62
     7
370
    25
100
AcDbCircle
 10
7004.0829051615
 20
5191.4134548661
 30
0.0
 40
26.51312449345745
100
AcDbArc
 50
96.248458015
 51
120.4798076071
  0
LINE
  5
2DE
330
1F
100
AcDbEntity
  8
0
  6
Continuous
 62
     7
370
    25
100
AcDbLine
 10
6980.0633456849
 20
5220.9994420927
 30
0.0
 11
6980.0633456849
 21
5217.9994420927
 31
0.0
  0
LINE
  5
2DF
330
1F
100
AcDbEntity
  8
0
  6
Continuous
 62
     7
370
    25
100
AcDbLine
 10
6986.9496975432
 20
5220.9994420927
 30
0.0
 11
6980.0633456849
 21
5220.9994420927
 31
0.0
  0
LINE
  5
2E0
330
1F
100
AcDbEntity
  8
0
  6
Continuous
 62
     7
370
    25
100
AcDbLine
 10
6986.9496975432
 20
5220.9994420927
 30
0.0
 11
6986.9496975432
 21
5217.9994420927
 31
0.0
  0
LINE
  5
2E1
330
1F
100
AcDbEntity
  8
0
  6
Continuous
 62
     7
370
    25
100
AcDbLine
 10
6980.0633456849
 20
5217.9994420927
 30
0.0
 11
6986.9496975432
 21
5217.9994420927
 31
0.0
  0
LINE
  5
2E2
330
1F
100
AcDbEntity
  8
0
  6
Continuous
 62
     7
370
    25
100
AcDbLine
 10
6982.0308747873
 20
5222.9994420927
 30
0.0
 11
6986.9496975432
 21
5222.9994420927
 31
0.0
  0
LINE
  5
2E3
330
1F
100
AcDbEntity
  8
0
  6
Continuous
 62
     7
370
    25
100
AcDbLine
 10
6986.9496975432
 20
5222.9994420927
 30
0.0
 11
6986.9496975432
 21
5220.9994420927
 31
0.0
  0
ARC
  5
2E4
330
1F
100
AcDbEntity
  8
0
  6
Continuous
 62
     7
370
    25
100
AcDbCircle
 10
6982.0472442061
 20
5221.0155457466
 30
0.0
 40
1.983963878171779
100
AcDbArc
 50
90.4727451247
 51
180.4650697253
  0
LINE
  5
2E5
330
1F
100
AcDbEntity
  8
0
  6
Continuous
 62
     7
370
    25
100
AcDbLine
 10
6986.9496975432
 20
5222.9994420927
 30
0.0
 11
7001.0829620199
 21
5222.9994420927
 31
0.0
  0
LINE
  5
2E6
330
1F
100
AcDbEntity
  8
0
  6
Continuous
 62
     7
370
    25
100
AcDbLine
 10
7007.0829620199
 20
5222.9994420927
 30
0.0
 11
7021.2162264965
 21
5222.9994420927
 31
0.0
  0
LINE
  5
2E7
330
1F
100
AcDbEntity
  8
0
  6
Continuous
 62
     7
370
    25
100
AcDbLine
 10
7021.2162264965
 20
5222.9994420927
 30
0.0
 11
7021.2162264965
 21
5220.9994420927
 31
0.0
  0
LINE
  5
2E8
330
1F
100
AcDbEntity
  8
0
  6
Continuous
 62
     7
370
    25
100
AcDbLine
 10
7021.2162264965
 20
5220.9994420927
 30
0.0
 11
7021.2162264965
 21
5217.9994420927
 31
0.0
  0
LINE
  5
2E9
330
1F
100
AcDbEntity
  8
0
  6
Continuous
 62
     7
370
    25
100
AcDbLine
 10
6986.9496975432
 20
5217.9994420927
 30
0.0
 11
7001.0829620199
 21
5217.9994420927
 31
0.0
  0
LINE
  5
2EA
330
1F
100
AcDbEntity
  8
0
  6
Continuous
 62
     7
370
    25
100
AcDbLine
 10
7007.0829620199
 20
5217.9994420927
 30
0.0
 11
7021.2162264965
 21
5217.9994420927
 31
0.0
  0
LINE
  5
2EB
330
1F
100
AcDbEntity
  8
0
  6
Continuous
 62
     7
370
    25
100
AcDbLine
 10
7021.2162264965
 20
5222.9994420927
 30
0.0
 11
7026.1350492525
 21
5222.9994420927
 31
0.0
  0
ARC
  5
2EC
330
1F
100
AcDbEntity
  8
0
  6
Continuous
 62
     7
370
    25
100
AcDbCircle
 10
7026.1186798337
 20
5221.0155457466
 30
0.0
 40
1.98396387817129
100
AcDbArc
 50
359.5349302747
 51
89.5272548754
  0
LINE
  5
2ED
330
1F
100
AcDbEntity
  8
0
  6
Continuous
 62
     7
370
    25
100
AcDbLine
 10
7028.1025783548
 20
5220.9994420927
 30
0.0
 11
7021.2162264965
 21
5220.9994420927
 31
0.0
  0
LINE
  5
2EE
330
1F
100
AcDbEntity
  8
0
  6
Continuous
 62
     7
370
    25
100
AcDbLine
 10
7028.1025783548
 20
5220.9994420927
 30
0.0
 11
7028.1025783548
 21
5217.9994420927
 31
0.0
  0
LINE
  5
2EF
330
1F
100
AcDbEntity
  8
0
  6
Continuous
 62
     7
370
    25
100
AcDbLine
 10
7021.2162264965
 20
5217.9994420927
 30
0.0
 11
7028.1025783548
 21
5217.9994420927
 31
0.0
  0
LWPOLYLINE
  5
2F0
330
1F
100
AcDbEntity
  8
0
  6
Continuous
 62
     7
370
    25
100
AcDbPolyline
 90
        3
 70
   128
 43
0.0
 10
7021.8560028234
 20
5170.4008276112
 10
7021.5240074144
 20
5170.1803989899
 10
7021.1479568607
 20
5170.1149960099
  0
LWPOLYLINE
  5
2F1
330
1F
100
AcDbEntity
  8
0
  6
Continuous
 62
     7
370
    25
100
AcDbPolyline
 90
        3
 70
   128
 43
0.0
 10
6986.3099212164
 20
5170.4008276112
 10
6986.6419166253
 20
5170.1803989899
 10
6987.0394581259
 20
5170.1112582891
  0
LINE
  5
2F2
330
1F
100
AcDbEntity
  8
0
  6
Continuous
 62
     7
370
    25
100
AcDbLine
 10
6970.5387553654
 20
5220.9994420927
 30
0.0
 11
6970.5387553654
 21
5217.9994420927
 31
0.0
  0
LINE
  5
2F3
330
1F
100
AcDbEntity
  8
0
  6
Continuous
 62
     7
370
    25
100
AcDbLine
 10
6980.0633456849
 20
5220.9994420927
 30
0.0
 11
6970.5387553654
 21
5220.9994420927
 31
0.0
  0
LINE
  5
2F4
330
1F
100
AcDbEntity
  8
0
  6
Continuous
 62
     7
370
    25
100
AcDbLine
 10
6970.5387553654
 20
5217.9994420927
 30
0.0
 11
6980.0633456849
 21
5217.9994420927
 31
0.0
  0
ARC
  5
2F5
330
1F
100
AcDbEntity
  8
0
  6
Continuous
 62
     7
370
    25
100
AcDbCircle
 10
6972.2966896639
 20
5221.2640296745
 30
0.0
 40
1.777734397023496
100
AcDbArc
 50
102.5271579556
 51
188.5593696971
  0
LINE
  5
2F6
330
1F
100
AcDbEntity
  8
0
  6
Continuous
 62
     7
370
    25
100
AcDbLine
 10
6971.9110948959
 20
5222.9994420927
 30
0.0
 11
6982.0308747873
 21
5222.9994420927
 31
0.0
  0
ARC
  5
2F7
330
1F
100
AcDbEntity
  8
0
  6
Continuous
 62
     7
370
    25
100
AcDbCircle
 10
7035.8661817193
 20
5221.2619350339
 30
0.0
 40
1.780443090941385
100
AcDbArc
 50
351.5219073503
 51
77.3915649969
  0
LINE
  5
2F8
330
1F
100
AcDbEntity
  8
0
  6
Continuous
 62
     7
370
    25
100
AcDbLine
 10
7037.6271686744
 20
5220.9994420927
 30
0.0
 11
7028.1025783548
 21
5220.9994420927
 31
0.0
  0
LINE
  5
2F9
330
1F
100
AcDbEntity
  8
0
  6
Continuous
 62
     7
370
    25
100
AcDbLine
 10
7026.1350492525
 20
5222.9994420927
 30
0.0
 11
7036.2548291438
 21
5222.9994420927
 31
0.0
  0
LINE
  5
2FA
330
1F
100
AcDbEntity
  8
0
  6
Continuous
 62
     7
370
    25
100
AcDbLine
 10
7037.6271686744
 20
5220.9994420927
 30
0.0
 11
7037.6271686744
 21
5217.9994420927
 31
0.0
  0
LINE
  5
2FB
330
1F
100
AcDbEntity
  8
0
  6
Continuous
 62
     7
370
    25
100
AcDbLine
 10
7028.1025783548
 20
5217.9994420927
 30
0.0
 11
7037.6271686744
 21
5217.9994420927
 31
0.0
  0
LINE
  5
2FC
330
1F
100
AcDbEntity
  8
0
  6
Continuous
 62
     7
370
    25
100
AcDbLine
 10
6972.9814722944
 20
5179.6922772075
 30
0.0
 11
6972.7586688866
 21
5217.9994420927
 31
0.0
  0
LINE
  5
2FD
330
1F
100
AcDbEntity
  8
0
  6
Continuous
 62
     7
370
    25
100
AcDbLine
 10
7035.1844517454
 20
5179.6922772075
 30
0.0
 11
7035.4072551532
 21
5217.9994420927
 31
0.0
  0
LINE
  5
2FE
330
1F
100
AcDbEntity
  8
0
  6
Continuous
 62
     7
370
    25
100
AcDbLine
 10
6996.8536989496
 20
5205.9994420927
 30
0.0
 11
7011.3122250901
 21
5205.9994420927
 31
0.0
  0
LINE
  5
2FF
330
1F
100
AcDbEntity
  8
0
  6
Continuous
 62
     7
370
    25
100
AcDbLine
 10
7009.8564647118
 20
5225.9994420927
 30
0.0
 11
7045.8329620199
 21
5225.9994420927
 31
0.0
  0
LINE
  5
300
330
1F
100
AcDbEntity
  8
0
  6
Continuous
 62
     7
370
    25
100
AcDbLine
 10
6962.3329620199
 20
5225.9994420927
 30
0.0
 11
6998.309459328
 21
5225.9994420927
 31
0.0
  0
LINE
  5
301
330
1F
100
AcDbEntity
  8
0
  6
Continuous
 62
     7
370
    25
100
AcDbLine
 10
7036.2548291438
 20
5222.9994420927
 30
0.0
 11
7051.0829620199
 21
5222.9994420927
 31
0.0
  0
LINE
  5
302
330
1F
100
AcDbEntity
  8
0
  6
Continuous
 62
     7
370
    25
100
AcDbLine
 10
6958.0829321263
 20
5222.9994420927
 30
0.0
 11
6971.9110948959
 21
5222.9994420927
 31
0.0
  0
LINE
  5
303
330
1F
100
AcDbEntity
  8
0
  6
Continuous
 62
     7
370
    25
100
AcDbLine
 10
7037.6271686744
 20
5217.9994420927
 30
0.0
 11
7053.0829620199
 21
5217.9994420927
 31
0.0
  0
LINE
  5
304
330
1F
100
AcDbEntity
  8
0
  6
Continuous
 62
     7
370
    25
100
AcDbLine
 10
6955.0829620199
 20
5217.9994420927
 30
0.0
 11
6956.0828996334
 21
5217.9994420927
 31
0.0
  0
LINE
  5
305
330
1F
100
AcDbEntity
  8
0
  6
Continuous
 62
     7
370
    25
100
AcDbLine
 10
6958.0829620199
 20
5217.9994420927
 30
0.0
 11
6970.5387553654
 21
5217.9994420927
 31
0.0
  0
LINE
  5
306
330
1F
100
AcDbEntity
  8
0
  6
Continuous
 62
     7
370
    25
100
AcDbLine
 10
6992.8237070021
 20
5150.8162034546
 30
0.0
 11
6993.2247100167
 21
5166.1298907534
 31
0.0
  0
ARC
  5
307
330
1F
100
AcDbEntity
  8
0
  6
Continuous
 62
     7
370
    25
100
AcDbCircle
 10
6987.6030837958
 20
5199.2275751864
 30
0.0
 40
48.69205088734512
100
AcDbArc
 50
263.8450785085
 51
276.1549214915
  0
ARC
  5
308
330
1F
100
AcDbEntity
  8
0
  6
Continuous
 62
     7
370
    25
100
AcDbCircle
 10
7020.5628402439
 20
5199.2275751033
 30
0.0
 40
48.69205080478952
100
AcDbArc
 50
263.845078498
 51
276.154921502
  0
LINE
  5
309
330
1F
100
AcDbEntity
  8
0
  6
Continuous
 62
     7
370
    25
100
AcDbLine
 10
7015.3422170376
 20
5150.8162034546
 30
0.0
 11
7014.9412140231
 21
5166.1298907534
 31
0.0
  0
LINE
  5
30A
330
1F
100
AcDbEntity
  8
0
  6
Continuous
 62
     7
370
    25
100
AcDbLine
 10
6993.5214691832
 20
5177.567354234
 30
0.0
 11
6994.3921168763
 21
5202.4994420927
 31
0.0
  0
LINE
  5
30B
330
1F
100
AcDbEntity
  8
0
  6
Continuous
 62
     7
370
    25
100
AcDbLine
 10
7014.6444548565
 20
5177.567354234
 30
0.0
 11
7013.7738071635
 21
5202.4994420927
 31
0.0
  0
LWPOLYLINE
  5
30C
330
1F
100
AcDbEntity
  8
0
  6
Continuous
 62
     7
370
    25
100
AcDbPolyline
 90
        6
 70
   128
 43
0.0
 10
6985.8261057273
 20
5143.9994420927
 10
6984.5484881049
 20
5144.4920046844
 10
6983.4439684448
 20
5145.9293494154
 10
6982.6799503115
 20
5148.138336684
 10
6982.4670395152
 20
5149.4420556363
 10
6982.3824605895
 20
5150.8162034546
  0
ARC
  5
30D
330
1F
100
AcDbEntity
  8
0
  6
Continuous
 62
     7
370
    25
100
AcDbCircle
 10
6985.8261057273
 20
5150.9994420927
 30
0.0
 40
7.000000000002253
100
AcDbArc
 50
270.0
 51
358.5
  0
LWPOLYLINE
  5
30E
330
1F
100
AcDbEntity
  8
0
  6
Continuous
 62
     7
370
    25
100
AcDbPolyline
 90
        6
 70
   128
 43
0.0
 10
7025.7834634502
 20
5150.8162034546
 10
7025.6988872504
 20
5149.4420739451
 10
7025.4859805344
 20
5148.1383595362
 10
7024.721955595
 20
5145.9293494154
 10
7023.6174359349
 20
5144.4920046844
 10
7022.3398183124
 20
5143.9994420927
  0
ARC
  5
30F
330
1F
100
AcDbEntity
  8
0
  6
Continuous
 62
     7
370
    25
100
AcDbCircle
 10
7022.3398183124
 20
5150.9994420927
 30
0.0
 40
7.0
100
AcDbArc
 50
181.5
 51
270.0
  0
LINE
  5
310
330
1F
100
AcDbEntity
  8
0
  6
Continuous
 62
     7
370
    25
100
AcDbLine
 10
6985.8261057273
 20
5143.9994420927
 30
0.0
 11
6978.8398183124
 21
5143.9994420927
 31
0.0
  0
LINE
  5
311
330
1F
100
AcDbEntity
  8
0
  6
Continuous
 62
     7
370
    25
100
AcDbLine
 10
7029.3261057273
 20
5143.9994420927
 30
0.0
 11
7022.3398183124
 21
5143.9994420927
 31
0.0
  0
LINE
  5
312
330
1F
100
AcDbEntity
  8
0
  6
Continuous
 62
     7
370
    25
100
AcDbLine
 10
6992.8237070021
 20
5150.8162034546
 30
0.0
 11
6994.2176605234
 21
5150.8162034546
 31
0.0
  0
LWPOLYLINE
  5
313
330
1F
100
AcDbEntity
  8
0
  6
Continuous
 62
     7
370
    25
100
AcDbPolyline
 90
        9
 70
   128
 43
0.0
 10
6989.26960921
 20
5143.9994420927
 10
6990.2193651247
 20
5144.1295128788
 10
6991.1338251827
 20
5144.5148914056
 10
6991.9790052302
 20
5145.1412558196
 10
6992.723495772
 20
5145.9853284887
 10
6993.3396292452
 20
5147.0157410716
 10
6993.8045082312
 20
5148.194200261
 10
6994.1008563943
 20
5149.4769108819
 10
6994.2176605234
 20
5150.8162034546
  0
LINE
  5
314
330
1F
100
AcDbEntity
  8
0
  6
Continuous
 62
     7
370
    25
100
AcDbLine
 10
6989.26960921
 20
5143.9994420927
 30
0.0
 11
6985.8261057273
 21
5143.9994420927
 31
0.0
  0
LINE
  5
315
330
1F
100
AcDbEntity
  8
0
  6
Continuous
 62
     7
370
    25
100
AcDbLine
 10
7013.9482635163
 20
5150.8162034546
 30
0.0
 11
7015.3422170376
 21
5150.8162034546
 31
0.0
  0
LWPOLYLINE
  5
316
330
1F
100
AcDbEntity
  8
0
  6
Continuous
 62
     7
370
    25
100
AcDbPolyline
 90
        9
 70
   128
 43
0.0
 10
7013.9482635163
 20
5150.8162034546
 10
7014.0650676455
 20
5149.4769108819
 10
7014.3614158086
 20
5148.194200261
 10
7014.8262947946
 20
5147.0157410716
 10
7015.4424282678
 20
5145.9853284887
 10
7016.1869188095
 20
5145.1412558196
 10
7017.032098857
 20
5144.5148914056
 10
7017.9465589151
 20
5144.1295128788
 10
7018.8963148298
 20
5143.9994420927
  0
LINE
  5
317
330
1F
100
AcDbEntity
  8
0
  6
Continuous
 62
     7
370
    25
100
AcDbLine
 10
7022.3398183124
 20
5143.9994420927
 30
0.0
 11
7018.8963148298
 21
5143.9994420927
 31
0.0
  0
LINE
  5
318
330
1F
100
AcDbEntity
  8
0
  6
Continuous
 62
     7
370
    25
100
AcDbLine
 10
6994.2176605234
 20
5150.8162034546
 30
0.0
 11
6997.9603012106
 21
5150.8162034546
 31
0.0
  0
LINE
  5
319
330
1F
100
AcDbEntity
  8
0
  6
Continuous
 62
     7
370
    25
100
AcDbLine
 10
7010.2056228292
 20
5150.8162034546
 30
0.0
 11
7013.9482635163
 21
5150.8162034546
 31
0.0
  0
LWPOLYLINE
  5
31A
330
1F
100
AcDbEntity
  8
0
  6
Continuous
 62
     7
370
    25
100
AcDbPolyline
 90
        9
 70
   128
 43
0.0
 10
6993.0122498971
 20
5143.9994420927
 10
6993.9620058118
 20
5144.1295128788
 10
6994.8764658698
 20
5144.5148914056
 10
6995.7216459173
 20
5145.1412558196
 10
6996.4661364591
 20
5145.9853284887
 10
6997.0822699323
 20
5147.0157410716
 10
6997.5471489183
 20
5148.194200261
 10
6997.8434970814
 20
5149.4769108819
 10
6997.9603012106
 20
5150.8162034546
  0
LINE
  5
31B
330
1F
100
AcDbEntity
  8
0
  6
Continuous
 62
     7
370
    25
100
AcDbLine
 10
6993.0122498971
 20
5143.9994420927
 30
0.0
 11
6989.26960921
 21
5143.9994420927
 31
0.0
  0
LWPOLYLINE
  5
31C
330
1F
100
AcDbEntity
  8
0
  6
Continuous
 62
     7
370
    25
100
AcDbPolyline
 90
        9
 70
   128
 43
0.0
 10
7010.2056228292
 20
5150.8162034546
 10
7010.3224269583
 20
5149.4769108819
 10
7010.6187751214
 20
5148.194200261
 10
7011.0836541075
 20
5147.0157410716
 10
7011.6997875807
 20
5145.9853284887
 10
7012.4442781224
 20
5145.1412558196
 10
7013.2894581699
 20
5144.5148914056
 10
7014.203918228
 20
5144.1295128788
 10
7015.1536741427
 20
5143.9994420927
  0
LINE
  5
31D
330
1F
100
AcDbEntity
  8
0
  6
Continuous
 62
     7
370
    25
100
AcDbLine
 10
7018.8963148298
 20
5143.9994420927
 30
0.0
 11
7015.1536741427
 21
5143.9994420927
 31
0.0
  0
LINE
  5
31E
330
1F
100
AcDbEntity
  8
0
  6
Continuous
 62
     7
370
    25
100
AcDbLine
 10
6997.9603012106
 20
5150.8162034546
 30
0.0
 11
7001.325602707
 21
5150.8162034546
 31
0.0
  0
LINE
  5
31F
330
1F
100
AcDbEntity
  8
0
  6
Continuous
 62
     7
370
    25
100
AcDbLine
 10
7006.8403213328
 20
5150.8162034546
 30
0.0
 11
7010.2056228292
 21
5150.8162034546
 31
0.0
  0
LINE
  5
320
330
1F
100
AcDbEntity
  8
0
  6
Continuous
 62
     7
370
    25
100
AcDbLine
 10
7001.325602707
 20
5143.9994420927
 30
0.0
 11
7001.325602707
 21
5150.8162034546
 31
0.0
  0
LINE
  5
321
330
1F
100
AcDbEntity
  8
0
  6
Continuous
 62
     7
370
    25
100
AcDbLine
 10
7001.325602707
 20
5143.9994420927
 30
0.0
 11
6993.0122498971
 21
5143.9994420927
 31
0.0
  0
LINE
  5
322
330
1F
100
AcDbEntity
  8
0
  6
Continuous
 62
     7
370
    25
100
AcDbLine
 10
7006.8403213328
 20
5150.8162034546
 30
0.0
 11
7006.8403213328
 21
5143.9994420927
 31
0.0
  0
LINE
  5
323
330
1F
100
AcDbEntity
  8
0
  6
Continuous
 62
     7
370
    25
100
AcDbLine
 10
7015.1536741427
 20
5143.9994420927
 30
0.0
 11
7006.8403213328
 21
5143.9994420927
 31
0.0
  0
LINE
  5
324
330
1F
100
AcDbEntity
  8
0
  6
Continuous
 62
     7
370
    25
100
AcDbLine
 10
7001.325602707
 20
5150.8162034546
 30
0.0
 11
7006.8403213328
 21
5150.8162034546
 31
0.0
  0
LINE
  5
325
330
1F
100
AcDbEntity
  8
0
  6
Continuous
 62
     7
370
    25
100
AcDbLine
 10
7006.8403213328
 20
5143.9994420927
 30
0.0
 11
7001.325602707
 21
5143.9994420927
 31
0.0
  0
LINE
  5
326
330
1F
100
AcDbEntity
  8
0
  6
Continuous
 62
     7
370
    25
100
AcDbLine
 10
6939.1754847318
 20
5133.7994420927
 30
0.0
 11
6939.1754847318
 21
5126.7994420927
 31
0.0
  0
LINE
  5
327
330
1F
100
AcDbEntity
  8
0
  6
Continuous
 62
     7
370
    25
100
AcDbLine
 10
6939.1754847318
 20
5133.7994420927
 30
0.0
 11
6948.990439308
 21
5133.7994420927
 31
0.0
  0
LINE
  5
328
330
1F
100
AcDbEntity
  8
0
  6
Continuous
 62
     7
370
    25
100
AcDbLine
 10
6948.990439308
 20
5133.7994420927
 30
0.0
 11
6948.990439308
 21
5126.7994420927
 31
0.0
  0
LINE
  5
329
330
1F
100
AcDbEntity
  8
0
  6
Continuous
 62
     7
370
    25
100
AcDbLine
 10
6939.1754847318
 20
5126.7994420927
 30
0.0
 11
6948.990439308
 21
5126.7994420927
 31
0.0
  0
LINE
  5
32A
330
1F
100
AcDbEntity
  8
0
  6
Continuous
 62
     7
370
    25
100
AcDbLine
 10
6934.2680074437
 20
5133.7994420927
 30
0.0
 11
6934.2680074437
 21
5126.7994420927
 31
0.0
  0
LINE
  5
32B
330
1F
100
AcDbEntity
  8
0
  6
Continuous
 62
     7
370
    25
100
AcDbLine
 10
6934.2680074437
 20
5133.7994420927
 30
0.0
 11
6939.1754847318
 21
5133.7994420927
 31
0.0
  0
LINE
  5
32C
330
1F
100
AcDbEntity
  8
0
  6
Continuous
 62
     7
370
    25
100
AcDbLine
 10
6934.2680074437
 20
5126.7994420927
 30
0.0
 11
6939.1754847318
 21
5126.7994420927
 31
0.0
  0
LINE
  5
32D
330
1F
100
AcDbEntity
  8
0
  6
Continuous
 62
     7
370
    25
100
AcDbLine
 10
6953.8979165961
 20
5133.7994420927
 30
0.0
 11
6953.8979165961
 21
5126.7994420927
 31
0.0
  0
LINE
  5
32E
330
1F
100
AcDbEntity
  8
0
  6
Continuous
 62
     7
370
    25
100
AcDbLine
 10
6948.990439308
 20
5133.7994420927
 30
0.0
 11
6953.8979165961
 21
5133.7994420927
 31
0.0
  0
LINE
  5
32F
330
1F
100
AcDbEntity
  8
0
  6
Continuous
 62
     7
370
    25
100
AcDbLine
 10
6948.990439308
 20
5126.7994420927
 30
0.0
 11
6953.8979165961
 21
5126.7994420927
 31
0.0
  0
LINE
  5
330
330
1F
100
AcDbEntity
  8
0
  6
Continuous
 62
     7
370
    25
100
AcDbLine
 10
6940.0829620199
 20
5213.7994420927
 30
0.0
 11
6948.0829620199
 21
5213.7994420927
 31
0.0
  0
LINE
  5
331
330
1F
100
AcDbEntity
  8
0
  6
Continuous
 62
     7
370
    25
100
AcDbLine
 10
7081.2680074437
 20
5133.7994420927
 30
0.0
 11
7081.2680074437
 21
5128.7994420927
 31
0.0
  0
LINE
  5
332
330
1F
100
AcDbEntity
  8
0
  6
Continuous
 62
     7
370
    25
100
AcDbLine
 10
7081.2680074437
 20
5133.7994420927
 30
0.0
 11
7086.0829620199
 21
5133.7994420927
 31
0.0
  0
LINE
  5
333
330
1F
100
AcDbEntity
  8
0
  6
Continuous
 62
     7
370
    25
100
AcDbLine
 10
7100.8979165961
 20
5133.7994420927
 30
0.0
 11
7100.8979165961
 21
5128.7994420927
 31
0.0
  0
LINE
  5
334
330
1F
100
AcDbEntity
  8
0
  6
Continuous
 62
     7
370
    25
100
AcDbLine
 10
7096.0829620199
 20
5133.7994420927
 30
0.0
 11
7100.8979165961
 21
5133.7994420927
 31
0.0
  0
LINE
  5
335
330
1F
100
AcDbEntity
  8
0
  6
Continuous
 62
     7
370
    25
100
AcDbLine
 10
6929.0829620199
 20
5128.7994420927
 30
0.0
 11
6929.0829620199
 21
5126.7994420927
 31
0.0
  0
LINE
  5
336
330
1F
100
AcDbEntity
  8
0
  6
Continuous
 62
     7
370
    25
100
AcDbLine
 10
6959.0829620199
 20
5128.7994420927
 30
0.0
 11
6959.0829620199
 21
5126.7994420927
 31
0.0
  0
LINE
  5
337
330
1F
100
AcDbEntity
  8
0
  6
Continuous
 62
     7
370
    25
100
AcDbLine
 10
6929.0829620199
 20
5126.7994420927
 30
0.0
 11
6934.2680074437
 21
5126.7994420927
 31
0.0
  0
LINE
  5
338
330
1F
100
AcDbEntity
  8
0
  6
Continuous
 62
     7
370
    25
100
AcDbLine
 10
6953.8979165961
 20
5126.7994420927
 30
0.0
 11
6959.0829620199
 21
5126.7994420927
 31
0.0
  0
LINE
  5
339
330
1F
100
AcDbEntity
  8
0
  6
Continuous
 62
     7
370
    25
100
AcDbLine
 10
6929.0829620199
 20
5128.7994420927
 30
0.0
 11
6934.2680074437
 21
5128.7994420927
 31
0.0
  0
LINE
  5
33A
330
1F
100
AcDbEntity
  8
0
  6
Continuous
 62
     7
370
    25
100
AcDbLine
 10
6953.8979165961
 20
5128.7994420927
 30
0.0
 11
6959.0829620199
 21
5128.7994420927
 31
0.0
  0
LINE
  5
33B
330
1F
100
AcDbEntity
  8
0
  6
Continuous
 62
     7
370
    25
100
AcDbLine
 10
7076.0829620199
 20
5128.7994420927
 30
0.0
 11
7076.0829620199
 21
5126.7994420927
 31
0.0
  0
LINE
  5
33C
330
1F
100
AcDbEntity
  8
0
  6
Continuous
 62
     7
370
    25
100
AcDbLine
 10
7076.0829620199
 20
5128.7994420927
 30
0.0
 11
7106.0829620199
 21
5128.7994420927
 31
0.0
  0
LINE
  5
33D
330
1F
100
AcDbEntity
  8
0
  6
Continuous
 62
     7
370
    25
100
AcDbLine
 10
7106.0829620199
 20
5128.7994420927
 30
0.0
 11
7106.0829620199
 21
5126.7994420927
 31
0.0
  0
LINE
  5
33E
330
1F
100
AcDbEntity
  8
0
  6
Continuous
 62
     7
370
    25
100
AcDbLine
 10
7076.0829620199
 20
5126.7994420927
 30
0.0
 11
7106.0829620199
 21
5126.7994420927
 31
0.0
  0
LINE
  5
33F
330
1F
100
AcDbEntity
  8
0
  6
Continuous
 62
     7
370
    25
100
AcDbLine
 10
7087.0829620199
 20
5213.7994420927
 30
0.0
 11
7095.0829620199
 21
5213.7994420927
 31
0.0
  0
LINE
  5
340
330
1F
100
AcDbEntity
  8
0
  6
Continuous
 62
     8
370
    25
100
AcDbLine
 10
6954.0829620199
 20
5247.7994420927
 30
0.0
 11
6954.0829620199
 21
5245.7479007613
 31
0.0
  0
LINE
  5
341
330
1F
100
AcDbEntity
  8
0
  6
Continuous
 62
     8
370
    25
100
AcDbLine
 10
7054.0829620199
 20
5247.7994420927
 30
0.0
 11
7054.0829620199
 21
5245.7479007613
 31
0.0
  0
LINE
  5
342
330
1F
100
AcDbEntity
  8
0
  6
Continuous
 62
     8
370
    25
100
AcDbLine
 10
6954.0829620199
 20
5241.5408428581
 30
0.0
 11
6954.0829620199
 21
5231.7994420927
 31
0.0
  0
LINE
  5
343
330
1F
100
AcDbEntity
  8
0
  6
Continuous
 62
     8
370
    25
100
AcDbLine
 10
7054.0829620199
 20
5241.5408428581
 30
0.0
 11
7054.0829620199
 21
5231.7994420927
 31
0.0
  0
LINE
  5
344
330
1F
100
AcDbEntity
  8
0
  6
Continuous
 62
     8
370
    25
100
AcDbLine
 10
6964.7807358873
 20
5226.523116019
 30
0.0
 11
6998.309459328
 21
5226.523116019
 31
0.0
  0
LINE
  5
345
330
1F
100
AcDbEntity
  8
0
  6
Continuous
 62
     8
370
    25
100
AcDbLine
 10
7009.8564647118
 20
5226.523116019
 30
0.0
 11
7043.3851881525
 21
5226.523116019
 31
0.0
  0
LINE
  5
346
330
1F
100
AcDbEntity
  8
0
  6
Continuous
 62
     8
370
    25
100
AcDbLine
 10
6965.0198472725
 20
5226.9372690868
 30
0.0
 11
6998.309459328
 21
5226.9372690868
 31
0.0
  0
LINE
  5
347
330
1F
100
AcDbEntity
  8
0
  6
Continuous
 62
     8
370
    25
100
AcDbLine
 10
7009.8564647118
 20
5226.9372690868
 30
0.0
 11
7043.1460767673
 21
5226.9372690868
 31
0.0
  0
ARC
  5
348
330
1F
100
AcDbEntity
  8
0
  6
Continuous
 62
     8
370
    25
100
AcDbCircle
 10
7004.0832951867
 20
5191.0059591657
 30
0.0
 40
17.49966683632589
100
AcDbArc
 50
269.9989091761
 51
359.9989091346
  0
ARC
  5
349
330
1F
100
AcDbEntity
  8
0
  6
Continuous
 62
     8
370
    25
100
AcDbCircle
 10
7004.082627948
 20
5191.0059573462
 30
0.0
 40
17.49966501687359
100
AcDbArc
 50
180.0011153103
 51
270.0010937871
  0
LINE
  5
34A
330
1F
100
AcDbEntity
  8
0
  6
Continuous
 62
     8
370
    25
100
AcDbLine
 10
7021.2162264965
 20
5220.9994420927
 30
0.0
 11
7007.0829620199
 21
5220.9994420927
 31
0.0
  0
LINE
  5
34B
330
1F
100
AcDbEntity
  8
0
  6
Continuous
 62
     8
370
    25
100
AcDbLine
 10
7001.0829620199
 20
5220.9994420927
 30
0.0
 11
6986.9496975432
 21
5220.9994420927
 31
0.0
  0
LINE
  5
34C
330
1F
100
AcDbEntity
  8
0
  6
Continuous
 62
     8
370
    25
100
AcDbLine
 10
7025.9109605871
 20
5206.741753837
 30
0.0
 11
7026.0077880198
 21
5217.9994420927
 31
0.0
  0
LINE
  5
34D
330
1F
100
AcDbEntity
  8
0
  6
Continuous
 62
     8
370
    25
100
AcDbLine
 10
7020.0943227217
 20
5212.5904952872
 30
0.0
 11
7020.0943227217
 21
5217.9994420927
 31
0.0
  0
LINE
  5
34E
330
1F
100
AcDbEntity
  8
0
  6
Continuous
 62
     8
370
    25
100
AcDbLine
 10
6982.2549634527
 20
5206.741753837
 30
0.0
 11
6982.15813602
 21
5217.9994420927
 31
0.0
  0
LINE
  5
34F
330
1F
100
AcDbEntity
  8
0
  6
Continuous
 62
     8
370
    25
100
AcDbLine
 10
6988.0716013181
 20
5212.5904952872
 30
0.0
 11
6988.0716013181
 21
5217.9994420927
 31
0.0
  0
ARC
  5
350
330
1F
100
AcDbEntity
  8
0
  6
Continuous
 62
     8
370
    25
100
AcDbCircle
 10
7019.6433549252
 20
5175.8009903633
 30
0.0
 40
5.835886262677255
100
AcDbArc
 50
292.2807405458
 51
346.2292893367
  0
ARC
  5
351
330
1F
100
AcDbEntity
  8
0
  6
Continuous
 62
     8
370
    25
100
AcDbCircle
 10
6988.5241686761
 20
5175.8025881093
 30
0.0
 40
5.83797124790389
100
AcDbArc
 50
193.7452696728
 51
247.7106782336
  0
ARC
  5
352
330
1F
100
AcDbEntity
  8
0
  6
Continuous
 62
     8
370
    25
100
AcDbCircle
 10
7045.2298945206
 20
5131.8783834411
 30
0.0
 40
48.85774613773658
100
AcDbArc
 50
101.8649724379
 51
111.5369123433
  0
LWPOLYLINE
  5
353
330
1F
100
AcDbEntity
  8
0
  6
Continuous
 62
     8
370
    25
100
AcDbPolyline
 90
        8
 70
   128
 43
0.0
 10
7035.1844517454
 20
5179.6922772075
 10
7035.2202430569
 20
5178.2197669863
 10
7035.0412167564
 20
5176.8173371852
 10
7034.6555537721
 20
5175.5490743506
 10
7034.0808776661
 20
5174.4729340288
 10
7033.3434492944
 20
5173.6380923831
 10
7032.4769667698
 20
5173.0826990006
 10
7031.7997224995
 20
5172.8714806823
  0
ARC
  5
354
330
1F
100
AcDbEntity
  8
0
  6
Continuous
 62
     8
370
    25
100
AcDbCircle
 10
6963.0185378807
 20
5132.1529222063
 30
0.0
 40
48.57211479918918
100
AcDbArc
 50
68.5846849951
 51
78.1636904354
  0
LWPOLYLINE
  5
355
330
1F
100
AcDbEntity
  8
0
  6
Continuous
 62
     8
370
    25
100
AcDbPolyline
 90
        8
 70
   128
 43
0.0
 10
6972.9814722944
 20
5179.6922772075
 10
6972.9456809829
 20
5178.2197669863
 10
6973.1247072833
 20
5176.8173371852
 10
6973.5103702677
 20
5175.5490743506
 10
6974.0850463737
 20
5174.4729340288
 10
6974.8224747454
 20
5173.6380923831
 10
6975.68895727
 20
5173.0826990006
 10
6976.3579437506
 20
5172.8730503802
  0
LWPOLYLINE
  5
356
330
1F
100
AcDbEntity
  8
0
  6
Continuous
 62
     8
370
    25
100
AcDbPolyline
 90
        7
 70
   128
 43
0.0
 10
7035.1844517454
 20
5179.6922772075
 10
7040.4956112292
 20
5180.7353857179
 10
7044.9035815099
 20
5182.1173837913
 10
7048.0371857501
 20
5183.7611018164
 10
7050.0478111246
 20
5185.7614512324
 10
7050.8142561796
 20
5188.0404152525
 10
7050.7567468791
 20
5188.3539097554
  0
LWPOLYLINE
  5
357
330
1F
100
AcDbEntity
  8
0
  6
Continuous
 62
     8
370
    25
100
AcDbPolyline
 90
       11
 70
   128
 43
0.0
 10
6957.3706602724
 20
5188.3329252497
 10
6957.349465677
 20
5188.0839392265
 10
6957.6218344166
 20
5186.7517191418
 10
6958.3233800178
 20
5185.4658346141
 10
6959.4513477709
 20
5184.2811123339
 10
6960.832514113
 20
5183.3053116359
 10
6962.5519407562
 20
5182.4185565736
 10
6964.6754888501
 20
5181.5970707303
 10
6967.1357866379
 20
5180.8703467689
 10
6969.8978775526
 20
5180.2397661453
 10
6972.9814722944
 20
5179.6922772075
  0
LINE
  5
358
330
1F
100
AcDbEntity
  8
0
  6
Continuous
 62
     8
370
    25
100
AcDbLine
 10
6970.5387553654
 20
5220.9994420927
 30
0.0
 11
6958.0829191292
 21
5220.9994420927
 31
0.0
  0
LINE
  5
359
330
1F
100
AcDbEntity
  8
0
  6
Continuous
 62
     8
370
    25
100
AcDbLine
 10
6956.0829191291
 20
5220.9994420927
 30
0.0
 11
6955.0829620199
 21
5220.9994420927
 31
0.0
  0
LINE
  5
35A
330
1F
100
AcDbEntity
  8
0
  6
Continuous
 62
     8
370
    25
100
AcDbLine
 10
7053.0829620199
 20
5220.9994420927
 30
0.0
 11
7037.6271686744
 21
5220.9994420927
 31
0.0
  0
LINE
  5
35B
330
1F
100
AcDbEntity
  8
0
  6
Continuous
 62
     8
370
    25
100
AcDbLine
 10
6982.3824605895
 20
5150.8162034546
 30
0.0
 11
6982.0151984768
 21
5171.6536051867
 31
0.0
  0
LINE
  5
35C
330
1F
100
AcDbEntity
  8
0
  6
Continuous
 62
     8
370
    25
100
AcDbLine
 10
7025.7834634502
 20
5150.8162034546
 30
0.0
 11
7036.3237070021
 21
5150.8162034546
 31
0.0
  0
LINE
  5
35D
330
1F
100
AcDbEntity
  8
0
  6
Continuous
 62
     8
370
    25
100
AcDbLine
 10
6971.8422170376
 20
5150.8162034546
 30
0.0
 11
6982.3824605895
 21
5150.8162034546
 31
0.0
  0
LINE
  5
35E
330
1F
100
AcDbEntity
  8
0
  6
Continuous
 62
     8
370
    25
100
AcDbLine
 10
7025.7834634502
 20
5150.8162034546
 30
0.0
 11
7026.1508087363
 21
5171.6583242034
 31
0.0
  0
LINE
  5
35F
330
1F
100
AcDbEntity
  8
0
  6
Continuous
 62
     8
370
    25
100
AcDbLine
 10
6994.2176605234
 20
5150.8162034546
 30
0.0
 11
6994.4916104414
 21
5165.6113172462
 31
0.0
  0
LINE
  5
360
330
1F
100
AcDbEntity
  8
0
  6
Continuous
 62
     8
370
    25
100
AcDbLine
 10
7013.9482635163
 20
5150.8162034546
 30
0.0
 11
7013.6743135984
 21
5165.6113172462
 31
0.0
  0
LINE
  5
361
330
1F
100
AcDbEntity
  8
0
  6
Continuous
 62
     8
370
    25
100
AcDbLine
 10
6994.4027227539
 20
5176.9421932542
 30
0.0
 11
6995.0338005623
 21
5202.4994420927
 31
0.0
  0
LINE
  5
362
330
1F
100
AcDbEntity
  8
0
  6
Continuous
 62
     8
370
    25
100
AcDbLine
 10
7013.7632012858
 20
5176.9421932542
 30
0.0
 11
7013.1321234774
 21
5202.4994420927
 31
0.0
  0
LINE
  5
363
330
1F
100
AcDbEntity
  8
0
  6
Continuous
 62
     8
370
    25
100
AcDbLine
 10
6998.5099454775
 20
5174.9322267491
 30
0.0
 11
6999.1906548118
 21
5202.4994420927
 31
0.0
  0
LINE
  5
364
330
1F
100
AcDbEntity
  8
0
  6
Continuous
 62
     8
370
    25
100
AcDbLine
 10
7009.6559785622
 20
5174.9322267491
 30
0.0
 11
7008.975269228
 21
5202.4994420927
 31
0.0
  0
LINE
  5
365
330
1F
100
AcDbEntity
  8
0
  6
Continuous
 62
     8
370
    25
100
AcDbLine
 10
6997.9603012106
 20
5150.8162034546
 30
0.0
 11
6998.2135990333
 21
5164.4959670383
 31
0.0
  0
LINE
  5
366
330
1F
100
AcDbEntity
  8
0
  6
Continuous
 62
     8
370
    25
100
AcDbLine
 10
7010.2056228292
 20
5150.8162034546
 30
0.0
 11
7009.9523250064
 21
5164.4959670383
 31
0.0
  0
LINE
  5
367
330
1F
100
AcDbEntity
  8
0
  6
Continuous
 62
     8
370
    25
100
AcDbLine
 10
7000.7398162694
 20
5174.343445678
 30
0.0
 11
7000.7398162694
 21
5202.4994420927
 31
0.0
  0
LINE
  5
368
330
1F
100
AcDbEntity
  8
0
  6
Continuous
 62
     8
370
    25
100
AcDbLine
 10
7007.4261077704
 20
5174.343445678
 30
0.0
 11
7007.4261077704
 21
5202.4994420927
 31
0.0
  0
LINE
  5
369
330
1F
100
AcDbEntity
  8
0
  6
Continuous
 62
     8
370
    25
100
AcDbLine
 10
7001.325602707
 20
5150.8162034546
 30
0.0
 11
7001.325602707
 21
5163.9914604336
 31
0.0
  0
LINE
  5
36A
330
1F
100
AcDbEntity
  8
0
  6
Continuous
 62
     8
370
    25
100
AcDbLine
 10
7006.8403213328
 20
5150.8162034546
 30
0.0
 11
7006.8403213328
 21
5163.9914604336
 31
0.0
  0
LINE
  5
36B
330
1F
100
AcDbEntity
  8
0
  6
CENTERX2
 62
     7
100
AcDbLine
 10
6256.0187553361
 20
4881.7247585232
 30
0.0
 11
6256.0187553361
 21
4853.9401935925
 31
0.0
  0
ARC
  5
36C
330
1F
100
AcDbEntity
  8
0
  6
Continuous
 62
     7
370
    25
100
AcDbCircle
 10
5853.4187553361
 20
4918.3478959791
 30
0.0
 40
4.399999999999636
100
AcDbArc
 50
90.0
 51
180.0
  0
LINE
  5
36D
330
1F
100
AcDbEntity
  8
0
  6
Continuous
 62
     7
370
    25
100
AcDbLine
 10
6694.6187553361
 20
4922.7478959791
 30
0.0
 11
5853.4187053361
 21
4922.7478959791
 31
0.0
  0
ARC
  5
36E
330
1F
100
AcDbEntity
  8
0
  6
Continuous
 62
     7
370
    25
100
AcDbCircle
 10
6694.6187553361
 20
4918.3478959791
 30
0.0
 40
4.400000000000546
100
AcDbArc
 50
0.0
 51
90.0
  0
LINE
  5
36F
330
1F
100
AcDbEntity
  8
0
  6
Continuous
 62
     7
370
    25
100
AcDbLine
 10
5849.0187553361
 20
4918.3478959791
 30
0.0
 11
5849.0187553361
 21
4818.3478959792
 31
0.0
  0
LINE
  5
370
330
1F
100
AcDbEntity
  8
0
  6
Continuous
 62
     7
370
    25
100
AcDbLine
 10
6699.0187553361
 20
4818.3478959792
 30
0.0
 11
6699.0187553361
 21
4918.3478959791
 31
0.0
  0
ARC
  5
371
330
1F
100
AcDbEntity
  8
0
  6
Continuous
 62
     7
370
    25
100
AcDbCircle
 10
6694.6187553361
 20
4818.3478959792
 30
0.0
 40
4.400000000000546
100
AcDbArc
 50
270.0
 51
0.0
  0
ARC
  5
372
330
1F
100
AcDbEntity
  8
0
  6
Continuous
 62
     7
370
    25
100
AcDbCircle
 10
5853.4187553361
 20
4818.3478959792
 30
0.0
 40
4.400000000000546
100
AcDbArc
 50
180.0
 51
270.0
  0
LINE
  5
373
330
1F
100
AcDbEntity
  8
0
  6
Continuous
 62
     7
370
    25
100
AcDbLine
 10
5853.4187553361
 20
4813.9478959791
 30
0.0
 11
6694.6187553361
 21
4813.9478959791
 31
0.0
  0
ARC
  5
374
330
1F
100
AcDbEntity
  8
0
  6
Continuous
 62
     7
370
    25
100
AcDbCircle
 10
6274.0187553361
 20
4868.3478959791
 30
0.0
 40
18.15000000000062
100
AcDbArc
 50
129.1086831024
 51
164.0229281893
  0
LWPOLYLINE
  5
375
330
1F
100
AcDbEntity
  8
0
  6
Continuous
 62
     7
370
    25
100
AcDbPolyline
 90
        3
 70
   128
 43
0.0
 10
6291.0428249587
 20
4874.6410314049
 10
6291.7819258412
 20
4872.0751300217
 10
6292.1410335457
 20
4869.3506584101
  0
ARC
  5
376
330
1F
100
AcDbEntity
  8
0
  6
Continuous
 62
     7
370
    25
100
AcDbCircle
 10
6274.0187553361
 20
4868.3478959791
 30
0.0
 40
20.05000000000063
100
AcDbArc
 50
126.5565495815
 51
150.4899542604
  0
ARC
  5
377
330
1F
100
AcDbEntity
  8
0
  6
Continuous
 62
     7
370
    25
100
AcDbCircle
 10
6292.0911099143
 20
4869.3478959791
 30
0.0
 40
0.0500000000001819
100
AcDbArc
 50
270.0
 51
3.1671253038
  0
ARC
  5
378
330
1F
100
AcDbEntity
  8
0
  6
Continuous
 62
     7
370
    25
100
AcDbCircle
 10
6292.0911099143
 20
4869.3478959791
 30
0.0
 40
1.950000000000596
100
AcDbArc
 50
270.0
 51
316.8209470635
  0
LINE
  5
379
330
1F
100
AcDbEntity
  8
0
  6
Continuous
 62
     7
370
    25
100
AcDbLine
 10
6287.5911099143
 20
4867.3978959791
 30
0.0
 11
6287.7180741075
 21
4867.3978959791
 31
0.0
  0
LINE
  5
37A
330
1F
100
AcDbEntity
  8
0
  6
Continuous
 62
     7
370
    25
100
AcDbLine
 10
6291.9180741075
 20
4867.3978959791
 30
0.0
 11
6292.0911099143
 21
4867.3978959791
 31
0.0
  0
LINE
  5
37B
330
1F
100
AcDbEntity
  8
0
  6
Continuous
 62
     7
370
    25
100
AcDbLine
 10
6292.0911099143
 20
4869.2978959791
 30
0.0
 11
6291.9180741075
 21
4869.2978959791
 31
0.0
  0
LINE
  5
37C
330
1F
100
AcDbEntity
  8
0
  6
Continuous
 62
     7
370
    25
100
AcDbLine
 10
6287.7180741075
 20
4869.2978959791
 30
0.0
 11
6287.5911099143
 21
4869.2978959791
 31
0.0
  0
LINE
  5
37D
330
1F
100
AcDbEntity
  8
0
  6
Continuous
 62
     7
370
    25
100
AcDbLine
 10
6260.3187553361
 20
4867.3978959791
 30
0.0
 11
6260.4464007579
 21
4867.3978959791
 31
0.0
  0
LINE
  5
37E
330
1F
100
AcDbEntity
  8
0
  6
Continuous
 62
     7
370
    25
100
AcDbLine
 10
6260.4464007579
 20
4869.2978959791
 30
0.0
 11
6260.3187553361
 21
4869.2978959791
 31
0.0
  0
LINE
  5
37F
330
1F
100
AcDbEntity
  8
0
  6
Continuous
 62
     7
370
    25
100
AcDbLine
 10
5821.7187553361
 20
4941.0478959791
 30
0.0
 11
6726.3187553361
 21
4941.0478959791
 31
0.0
  0
LINE
  5
380
330
1F
100
AcDbEntity
  8
0
  6
Continuous
 62
     7
370
    25
100
AcDbLine
 10
6726.3187553361
 20
4941.0478959791
 30
0.0
 11
6726.3187553361
 21
4939.5478959791
 31
0.0
  0
LINE
  5
381
330
1F
100
AcDbEntity
  8
0
  6
Continuous
 62
     7
370
    25
100
AcDbLine
 10
5821.7187553361
 20
4939.5478959791
 30
0.0
 11
6726.3187553361
 21
4939.5478959791
 31
0.0
  0
LINE
  5
382
330
1F
100
AcDbEntity
  8
0
  6
Continuous
 62
     7
370
    25
100
AcDbLine
 10
5821.7187553361
 20
4941.0478959791
 30
0.0
 11
5821.7187553361
 21
4939.5478959791
 31
0.0
  0
ARC
  5
383
330
1F
100
AcDbEntity
  8
0
  6
Continuous
 62
     7
370
    25
100
AcDbCircle
 10
5853.4187553361
 20
4918.3478959791
 30
0.0
 40
1.000000000000909
100
AcDbArc
 50
90.0
 51
180.0
  0
LINE
  5
384
330
1F
100
AcDbEntity
  8
0
  6
Continuous
 62
     7
370
    25
100
AcDbLine
 10
6694.6187553361
 20
4919.3478959792
 30
0.0
 11
5853.4187553361
 21
4919.3478959792
 31
0.0
  0
ARC
  5
385
330
1F
100
AcDbEntity
  8
0
  6
Continuous
 62
     7
370
    25
100
AcDbCircle
 10
6694.6187553361
 20
4918.3478959791
 30
0.0
 40
1.000000000000909
100
AcDbArc
 50
0.0
 51
90.0
  0
LINE
  5
386
330
1F
100
AcDbEntity
  8
0
  6
Continuous
 62
     7
370
    25
100
AcDbLine
 10
5852.4187553361
 20
4818.3478959792
 30
0.0
 11
5852.4187553361
 21
4918.3478959791
 31
0.0
  0
LINE
  5
387
330
1F
100
AcDbEntity
  8
0
  6
Continuous
 62
     7
370
    25
100
AcDbLine
 10
6695.6187553361
 20
4918.3478959791
 30
0.0
 11
6695.6187553361
 21
4818.3478959792
 31
0.0
  0
ARC
  5
388
330
1F
100
AcDbEntity
  8
0
  6
Continuous
 62
     7
370
    25
100
AcDbCircle
 10
6694.6187553361
 20
4818.3478959792
 30
0.0
 40
1.000000000000909
100
AcDbArc
 50
270.0
 51
0.0
  0
ARC
  5
389
330
1F
100
AcDbEntity
  8
0
  6
Continuous
 62
     7
370
    25
100
AcDbCircle
 10
5853.4187553361
 20
4818.3478959792
 30
0.0
 40
1.000000000000909
100
AcDbArc
 50
180.0
 51
270.0
  0
LINE
  5
38A
330
1F
100
AcDbEntity
  8
0
  6
Continuous
 62
     7
370
    25
100
AcDbLine
 10
6694.6187553361
 20
4817.3478959791
 30
0.0
 11
5853.4187553361
 21
4817.3478959791
 31
0.0
  0
LINE
  5
38B
330
1F
100
AcDbEntity
  8
0
  6
Continuous
 62
     7
370
    25
100
AcDbLine
 10
5821.7187553361
 20
4797.1478959791
 30
0.0
 11
6726.3187553361
 21
4797.1478959791
 31
0.0
  0
CIRCLE
  5
38C
330
1F
100
AcDbEntity
  8
0
  6
Continuous
 62
     7
370
    25
100
AcDbCircle
 10
6676.3187553361
 20
4927.8278418647
 30
0.0
 40
4.25
  0
CIRCLE
  5
38D
330
1F
100
AcDbEntity
  8
0
  6
Continuous
 62
     7
370
    25
100
AcDbCircle
 10
5871.7187553361
 20
4927.8278418647
 30
0.0
 40
4.25
  0
LINE
  5
38E
330
1F
100
AcDbEntity
  8
0
  6
Continuous
 62
     7
370
    25
100
AcDbLine
 10
6726.3187553361
 20
4797.1478959791
 30
0.0
 11
6726.3187553361
 21
4939.5478959791
 31
0.0
  0
LINE
  5
38F
330
1F
100
AcDbEntity
  8
0
  6
Continuous
 62
     7
370
    25
100
AcDbLine
 10
5821.7187553361
 20
4939.5478959791
 30
0.0
 11
5821.7187553361
 21
4797.1478959791
 31
0.0
  0
LINE
  5
390
330
1F
100
AcDbEntity
  8
0
  6
Continuous
 62
     7
370
    25
100
AcDbLine
 10
6666.3187553361
 20
4794.3674125278
 30
0.0
 11
6686.3187553361
 21
4794.3674125278
 31
0.0
  0
LINE
  5
391
330
1F
100
AcDbEntity
  8
0
  6
Continuous
 62
     7
370
    25
100
AcDbLine
 10
6686.3187553361
 20
4797.1478959791
 30
0.0
 11
6686.3187553361
 21
4794.3674125278
 31
0.0
  0
LINE
  5
392
330
1F
100
AcDbEntity
  8
0
  6
Continuous
 62
     7
370
    25
100
AcDbLine
 10
6666.3187553361
 20
4797.1478959791
 30
0.0
 11
6666.3187553361
 21
4794.3674125278
 31
0.0
  0
LINE
  5
393
330
1F
100
AcDbEntity
  8
0
  6
Continuous
 62
     7
370
    25
100
AcDbLine
 10
5881.7187553361
 20
4794.3674125278
 30
0.0
 11
5861.7187553361
 21
4794.3674125278
 31
0.0
  0
LINE
  5
394
330
1F
100
AcDbEntity
  8
0
  6
Continuous
 62
     7
370
    25
100
AcDbLine
 10
5861.7187553361
 20
4797.1478959791
 30
0.0
 11
5861.7187553361
 21
4794.3674125278
 31
0.0
  0
LINE
  5
395
330
1F
100
AcDbEntity
  8
0
  6
Continuous
 62
     7
370
    25
100
AcDbLine
 10
5881.7187553361
 20
4797.1478959791
 30
0.0
 11
5881.7187553361
 21
4794.3674125278
 31
0.0
  0
LINE
  5
396
330
1F
100
AcDbEntity
  8
0
  6
Continuous
 62
     7
370
    25
100
AcDbLine
 10
6676.3187553361
 20
4791.1628505554
 30
0.0
 11
6667.8187553361
 21
4786.2553732673
 31
0.0
  0
LINE
  5
397
330
1F
100
AcDbEntity
  8
0
  6
Continuous
 62
     7
370
    25
100
AcDbLine
 10
6684.8187553361
 20
4776.440418691
 30
0.0
 11
6684.8187553361
 21
4786.2553732673
 31
0.0
  0
LINE
  5
398
330
1F
100
AcDbEntity
  8
0
  6
Continuous
 62
     7
370
    25
100
AcDbLine
 10
6676.3187553361
 20
4771.5329414029
 30
0.0
 11
6684.8187553361
 21
4776.440418691
 31
0.0
  0
LINE
  5
399
330
1F
100
AcDbEntity
  8
0
  6
Continuous
 62
     7
370
    25
100
AcDbLine
 10
6667.8187553361
 20
4776.440418691
 30
0.0
 11
6676.3187553361
 21
4771.5329414029
 31
0.0
  0
LINE
  5
39A
330
1F
100
AcDbEntity
  8
0
  6
Continuous
 62
     7
370
    25
100
AcDbLine
 10
6667.8187553361
 20
4786.2553732673
 30
0.0
 11
6667.8187553361
 21
4776.440418691
 31
0.0
  0
LINE
  5
39B
330
1F
100
AcDbEntity
  8
0
  6
Continuous
 62
     7
370
    25
100
AcDbLine
 10
6684.8187553361
 20
4786.2553732673
 30
0.0
 11
6676.3187553361
 21
4791.1628505554
 31
0.0
  0
LINE
  5
39C
330
1F
100
AcDbEntity
  8
0
  6
Continuous
 62
     7
370
    25
100
AcDbLine
 10
5880.2187553361
 20
4776.440418691
 30
0.0
 11
5871.7187553361
 21
4771.5329414029
 31
0.0
  0
LINE
  5
39D
330
1F
100
AcDbEntity
  8
0
  6
Continuous
 62
     7
370
    25
100
AcDbLine
 10
5871.7187553361
 20
4771.5329414029
 30
0.0
 11
5863.2187553361
 21
4776.440418691
 31
0.0
  0
LINE
  5
39E
330
1F
100
AcDbEntity
  8
0
  6
Continuous
 62
     7
370
    25
100
AcDbLine
 10
5863.2187553361
 20
4776.440418691
 30
0.0
 11
5863.2187553361
 21
4786.2553732673
 31
0.0
  0
LINE
  5
39F
330
1F
100
AcDbEntity
  8
0
  6
Continuous
 62
     7
370
    25
100
AcDbLine
 10
5880.2187553361
 20
4786.2553732673
 30
0.0
 11
5880.2187553361
 21
4776.440418691
 31
0.0
  0
LINE
  5
3A0
330
1F
100
AcDbEntity
  8
0
  6
Continuous
 62
     7
370
    25
100
AcDbLine
 10
5871.7187553361
 20
4791.1628505554
 30
0.0
 11
5880.2187553361
 21
4786.2553732673
 31
0.0
  0
LINE
  5
3A1
330
1F
100
AcDbEntity
  8
0
  6
Continuous
 62
     7
370
    25
100
AcDbLine
 10
5863.2187553361
 20
4786.2553732673
 30
0.0
 11
5871.7187553361
 21
4791.1628505554
 31
0.0
  0
LINE
  5
3A2
330
1F
100
AcDbEntity
  8
0
  6
Continuous
 62
     7
370
    25
100
AcDbLine
 10
5881.7187553361
 20
4793.7061039664
 30
0.0
 11
5861.7187553361
 21
4793.7061039664
 31
0.0
  0
LINE
  5
3A3
330
1F
100
AcDbEntity
  8
0
  6
Continuous
 62
     7
370
    25
100
AcDbLine
 10
5861.7187553361
 20
4794.3674125278
 30
0.0
 11
5861.7187553361
 21
4793.7061039664
 31
0.0
  0
LINE
  5
3A4
330
1F
100
AcDbEntity
  8
0
  6
Continuous
 62
     7
370
    25
100
AcDbLine
 10
5881.7187553361
 20
4794.3674125278
 30
0.0
 11
5881.7187553361
 21
4793.7061039664
 31
0.0
  0
LINE
  5
3A5
330
1F
100
AcDbEntity
  8
0
  6
Continuous
 62
     7
370
    25
100
AcDbLine
 10
6666.3187553361
 20
4793.7061039664
 30
0.0
 11
6686.3187553361
 21
4793.7061039664
 31
0.0
  0
LINE
  5
3A6
330
1F
100
AcDbEntity
  8
0
  6
Continuous
 62
     7
370
    25
100
AcDbLine
 10
6686.3187553361
 20
4794.3674125278
 30
0.0
 11
6686.3187553361
 21
4793.7061039664
 31
0.0
  0
LINE
  5
3A7
330
1F
100
AcDbEntity
  8
0
  6
Continuous
 62
     7
370
    25
100
AcDbLine
 10
6666.3187553361
 20
4794.3674125278
 30
0.0
 11
6666.3187553361
 21
4793.7061039664
 31
0.0
  0
LINE
  5
3A8
330
1F
100
AcDbEntity
  8
0
  6
Continuous
 62
     7
370
    25
100
AcDbLine
 10
6678.3507325016
 20
4772.7061039664
 30
0.0
 11
6686.3187553361
 21
4772.7061039664
 31
0.0
  0
LINE
  5
3A9
330
1F
100
AcDbEntity
  8
0
  6
Continuous
 62
     7
370
    25
100
AcDbLine
 10
6666.3187553361
 20
4772.7061039664
 30
0.0
 11
6674.2867781706
 21
4772.7061039664
 31
0.0
  0
LINE
  5
3AA
330
1F
100
AcDbEntity
  8
0
  6
Continuous
 62
     7
370
    25
100
AcDbLine
 10
6686.3187553361
 20
4793.7061039664
 30
0.0
 11
6686.3187553361
 21
4772.7061039664
 31
0.0
  0
LINE
  5
3AB
330
1F
100
AcDbEntity
  8
0
  6
Continuous
 62
     7
370
    25
100
AcDbLine
 10
6666.3187553361
 20
4793.7061039664
 30
0.0
 11
6666.3187553361
 21
4772.7061039664
 31
0.0
  0
LINE
  5
3AC
330
1F
100
AcDbEntity
  8
0
  6
Continuous
 62
     7
370
    25
100
AcDbLine
 10
5881.7187553361
 20
4772.7061039664
 30
0.0
 11
5873.7507325016
 21
4772.7061039664
 31
0.0
  0
LINE
  5
3AD
330
1F
100
AcDbEntity
  8
0
  6
Continuous
 62
     7
370
    25
100
AcDbLine
 10
5869.6867781706
 20
4772.7061039664
 30
0.0
 11
5861.7187553361
 21
4772.7061039664
 31
0.0
  0
LINE
  5
3AE
330
1F
100
AcDbEntity
  8
0
  6
Continuous
 62
     7
370
    25
100
AcDbLine
 10
5861.7187553361
 20
4793.7061039664
 30
0.0
 11
5861.7187553361
 21
4772.7061039664
 31
0.0
  0
LINE
  5
3AF
330
1F
100
AcDbEntity
  8
0
  6
Continuous
 62
     7
370
    25
100
AcDbLine
 10
5881.7187553361
 20
4793.7061039664
 30
0.0
 11
5881.7187553361
 21
4772.7061039664
 31
0.0
  0
LINE
  5
3B0
330
1F
100
AcDbEntity
  8
0
  6
Continuous
 62
     7
370
    25
100
AcDbLine
 10
5856.8955320313
 20
4917.3478959793
 30
0.0
 11
5857.718755336
 21
4915.1478959793
 31
0.0
  0
LINE
  5
3B1
330
1F
100
AcDbEntity
  8
0
  6
Continuous
 62
     7
370
    25
100
AcDbLine
 10
5856.8955320313
 20
4917.3478959793
 30
0.0
 11
6691.141978641
 21
4917.3478959793
 31
0.0
  0
LINE
  5
3B2
330
1F
100
AcDbEntity
  8
0
  6
Continuous
 62
     7
370
    25
100
AcDbLine
 10
6690.3187553361
 20
4915.1478959793
 30
0.0
 11
6691.1419786409
 21
4917.3478959793
 31
0.0
  0
LINE
  5
3B3
330
1F
100
AcDbEntity
  8
0
  6
Continuous
 62
     7
370
    25
100
AcDbLine
 10
5857.718755336
 20
4915.1478959793
 30
0.0
 11
6690.3187553363
 21
4915.1478959792
 31
0.0
  0
LINE
  5
3B4
330
1F
100
AcDbEntity
  8
0
  6
Continuous
 62
     7
370
    25
100
AcDbLine
 10
6691.141978641
 20
4917.3478959793
 30
0.0
 11
6691.1419786409
 21
4916.1478959793
 31
0.0
  0
LINE
  5
3B5
330
1F
100
AcDbEntity
  8
0
  6
Continuous
 62
     7
370
    25
100
AcDbLine
 10
6690.3187553361
 20
4915.1478959793
 30
0.0
 11
6691.1419786409
 21
4916.1478959793
 31
0.0
  0
LINE
  5
3B6
330
1F
100
AcDbEntity
  8
0
  6
Continuous
 62
     7
370
    25
100
AcDbLine
 10
5856.8955320313
 20
4916.1478959793
 30
0.0
 11
5857.7187553361
 21
4915.1478959792
 31
0.0
  0
LINE
  5
3B7
330
1F
100
AcDbEntity
  8
0
  6
Continuous
 62
     7
370
    25
100
AcDbLine
 10
5856.8955320313
 20
4917.3478959793
 30
0.0
 11
5856.8955320313
 21
4916.1478959793
 31
0.0
  0
LINE
  5
3B8
330
1F
100
AcDbEntity
  8
0
  6
Continuous
 62
     7
370
    25
100
AcDbLine
 10
6692.5187553363
 20
4915.9711192841
 30
0.0
 11
6690.3187553363
 21
4915.1478959792
 31
0.0
  0
LINE
  5
3B9
330
1F
100
AcDbEntity
  8
0
  6
Continuous
 62
     7
370
    25
100
AcDbLine
 10
6691.3187553363
 20
4915.9711192841
 30
0.0
 11
6690.3187553362
 21
4915.1478959791
 31
0.0
  0
LINE
  5
3BA
330
1F
100
AcDbEntity
  8
0
  6
Continuous
 62
     7
370
    25
100
AcDbLine
 10
6692.5187553363
 20
4915.9711192841
 30
0.0
 11
6691.3187553363
 21
4915.9711192841
 31
0.0
  0
LINE
  5
3BB
330
1F
100
AcDbEntity
  8
0
  6
Continuous
 62
     7
370
    25
100
AcDbLine
 10
5855.518755336
 20
4820.7246726743
 30
0.0
 11
5857.718755336
 21
4821.5478959791
 31
0.0
  0
LINE
  5
3BC
330
1F
100
AcDbEntity
  8
0
  6
Continuous
 62
     7
370
    25
100
AcDbLine
 10
5855.518755336
 20
4820.7246726743
 30
0.0
 11
5855.518755336
 21
4915.9711192839
 31
0.0
  0
LINE
  5
3BD
330
1F
100
AcDbEntity
  8
0
  6
Continuous
 62
     7
370
    25
100
AcDbLine
 10
5857.718755336
 20
4915.1478959792
 30
0.0
 11
5855.518755336
 21
4915.9711192839
 31
0.0
  0
LINE
  5
3BE
330
1F
100
AcDbEntity
  8
0
  6
Continuous
 62
     7
370
    25
100
AcDbLine
 10
5857.718755336
 20
4821.5478959791
 30
0.0
 11
5857.718755336
 21
4915.1478959793
 31
0.0
  0
LINE
  5
3BF
330
1F
100
AcDbEntity
  8
0
  6
Continuous
 62
     7
370
    25
100
AcDbLine
 10
6692.5187553363
 20
4915.9711192841
 30
0.0
 11
6692.5187553363
 21
4820.7246726743
 31
0.0
  0
LINE
  5
3C0
330
1F
100
AcDbEntity
  8
0
  6
Continuous
 62
     7
370
    25
100
AcDbLine
 10
6690.3187553363
 20
4821.5478959791
 30
0.0
 11
6692.5187553363
 21
4820.7246726743
 31
0.0
  0
LINE
  5
3C1
330
1F
100
AcDbEntity
  8
0
  6
Continuous
 62
     7
370
    25
100
AcDbLine
 10
6690.3187553363
 20
4915.1478959792
 30
0.0
 11
6690.3187553363
 21
4821.5478959791
 31
0.0
  0
LINE
  5
3C2
330
1F
100
AcDbEntity
  8
0
  6
Continuous
 62
     7
370
    25
100
AcDbLine
 10
5855.518755336
 20
4915.9711192839
 30
0.0
 11
5856.718755336
 21
4915.9711192839
 31
0.0
  0
LINE
  5
3C3
330
1F
100
AcDbEntity
  8
0
  6
Continuous
 62
     7
370
    25
100
AcDbLine
 10
5857.718755336
 20
4915.1478959792
 30
0.0
 11
5856.718755336
 21
4915.9711192839
 31
0.0
  0
LINE
  5
3C4
330
1F
100
AcDbEntity
  8
0
  6
Continuous
 62
     7
370
    25
100
AcDbLine
 10
6690.3187553363
 20
4821.5478959791
 30
0.0
 11
5857.718755336
 21
4821.5478959791
 31
0.0
  0
ARC
  5
3C5
330
1F
100
AcDbEntity
  8
0
  6
Continuous
 62
     7
370
    25
100
AcDbCircle
 10
5869.518755336
 20
4856.3478959792
 30
0.0
 40
3.0
100
AcDbArc
 50
180.0
 51
0.0
  0
LINE
  5
3C6
330
1F
100
AcDbEntity
  8
0
  6
Continuous
 62
     7
370
    25
100
AcDbLine
 10
5872.518755336
 20
4856.3478959792
 30
0.0
 11
5872.518755336
 21
4880.3478959792
 31
0.0
  0
ARC
  5
3C7
330
1F
100
AcDbEntity
  8
0
  6
Continuous
 62
     7
370
    25
100
AcDbCircle
 10
5869.518755336
 20
4880.3478959792
 30
0.0
 40
3.0
100
AcDbArc
 50
0.0
 51
180.0
  0
LINE
  5
3C8
330
1F
100
AcDbEntity
  8
0
  6
Continuous
 62
     7
370
    25
100
AcDbLine
 10
5866.518755336
 20
4880.3478959792
 30
0.0
 11
5866.518755336
 21
4856.3478959792
 31
0.0
  0
ARC
  5
3C9
330
1F
100
AcDbEntity
  8
0
  6
Continuous
 62
     7
370
    25
100
AcDbCircle
 10
6672.5187553363
 20
4856.3478959792
 30
0.0
 40
3.000000000000909
100
AcDbArc
 50
180.0
 51
0.0
  0
LINE
  5
3CA
330
1F
100
AcDbEntity
  8
0
  6
Continuous
 62
     7
370
    25
100
AcDbLine
 10
6675.5187553363
 20
4856.3478959792
 30
0.0
 11
6675.5187553363
 21
4880.3478959792
 31
0.0
  0
ARC
  5
3CB
330
1F
100
AcDbEntity
  8
0
  6
Continuous
 62
     7
370
    25
100
AcDbCircle
 10
6672.5187553363
 20
4880.3478959792
 30
0.0
 40
3.000000000000909
100
AcDbArc
 50
0.0
 51
180.0
  0
LINE
  5
3CC
330
1F
100
AcDbEntity
  8
0
  6
Continuous
 62
     7
370
    25
100
AcDbLine
 10
6669.5187553363
 20
4880.3478959792
 30
0.0
 11
6669.5187553363
 21
4856.3478959792
 31
0.0
  0
ARC
  5
3CD
330
1F
100
AcDbEntity
  8
0
  6
Continuous
 62
     7
370
    25
100
AcDbCircle
 10
6662.2903154674
 20
4860.2839958669
 30
0.0
 40
3.0
100
AcDbArc
 50
180.0
 51
0.0
  0
LINE
  5
3CE
330
1F
100
AcDbEntity
  8
0
  6
Continuous
 62
     7
370
    25
100
AcDbLine
 10
6665.2903154674
 20
4860.2839958669
 30
0.0
 11
6665.2903154674
 21
4884.2839958669
 31
0.0
  0
ARC
  5
3CF
330
1F
100
AcDbEntity
  8
0
  6
Continuous
 62
     7
370
    25
100
AcDbCircle
 10
6662.2903154674
 20
4884.2839958669
 30
0.0
 40
3.0
100
AcDbArc
 50
0.0
 51
180.0
  0
LINE
  5
3D0
330
1F
100
AcDbEntity
  8
0
  6
Continuous
 62
     7
370
    25
100
AcDbLine
 10
6659.2903154674
 20
4884.2839958669
 30
0.0
 11
6659.2903154674
 21
4860.2839958669
 31
0.0
  0
ARC
  5
3D1
330
1F
100
AcDbEntity
  8
0
  6
Continuous
 62
     7
370
    25
100
AcDbCircle
 10
6651.9906952153
 20
4864.0315149674
 30
0.0
 40
3.0
100
AcDbArc
 50
180.0
 51
0.0
  0
LINE
  5
3D2
330
1F
100
AcDbEntity
  8
0
  6
Continuous
 62
     7
370
    25
100
AcDbLine
 10
6654.9906952153
 20
4864.0315149674
 30
0.0
 11
6654.9906952153
 21
4888.0315149674
 31
0.0
  0
ARC
  5
3D3
330
1F
100
AcDbEntity
  8
0
  6
Continuous
 62
     7
370
    25
100
AcDbCircle
 10
6651.9906952153
 20
4888.0315149674
 30
0.0
 40
3.0
100
AcDbArc
 50
0.0
 51
180.0
  0
LINE
  5
3D4
330
1F
100
AcDbEntity
  8
0
  6
Continuous
 62
     7
370
    25
100
AcDbLine
 10
6648.9906952153
 20
4888.0315149674
 30
0.0
 11
6648.9906952153
 21
4864.0315149674
 31
0.0
  0
ARC
  5
3D5
330
1F
100
AcDbEntity
  8
0
  6
Continuous
 62
     7
370
    25
100
AcDbCircle
 10
6641.6120844277
 20
4867.5486994563
 30
0.0
 40
3.000000000000909
100
AcDbArc
 50
180.0
 51
0.0
  0
LINE
  5
3D6
330
1F
100
AcDbEntity
  8
0
  6
Continuous
 62
     7
370
    25
100
AcDbLine
 10
6644.6120844277
 20
4867.5486994563
 30
0.0
 11
6644.6120844277
 21
4891.5486994563
 31
0.0
  0
ARC
  5
3D7
330
1F
100
AcDbEntity
  8
0
  6
Continuous
 62
     7
370
    25
100
AcDbCircle
 10
6641.6120844277
 20
4891.5486994563
 30
0.0
 40
3.000000000000909
100
AcDbArc
 50
0.0
 51
180.0
  0
LINE
  5
3D8
330
1F
100
AcDbEntity
  8
0
  6
Continuous
 62
     7
370
    25
100
AcDbLine
 10
6638.6120844277
 20
4891.5486994563
 30
0.0
 11
6638.6120844277
 21
4867.5486994563
 31
0.0
  0
ARC
  5
3D9
330
1F
100
AcDbEntity
  8
0
  6
Continuous
 62
     7
370
    25
100
AcDbCircle
 10
6631.1419035202
 20
4870.7885983472
 30
0.0
 40
3.0
100
AcDbArc
 50
180.0
 51
0.0
  0
LINE
  5
3DA
330
1F
100
AcDbEntity
  8
0
  6
Continuous
 62
     7
370
    25
100
AcDbLine
 10
6634.1419035202
 20
4870.7885983472
 30
0.0
 11
6634.1419035202
 21
4894.7885983472
 31
0.0
  0
ARC
  5
3DB
330
1F
100
AcDbEntity
  8
0
  6
Continuous
 62
     7
370
    25
100
AcDbCircle
 10
6631.1419035202
 20
4894.7885983472
 30
0.0
 40
3.0
100
AcDbArc
 50
0.0
 51
180.0
  0
LINE
  5
3DC
330
1F
100
AcDbEntity
  8
0
  6
Continuous
 62
     7
370
    25
100
AcDbLine
 10
6628.1419035202
 20
4894.7885983472
 30
0.0
 11
6628.1419035202
 21
4870.7885983472
 31
0.0
  0
ARC
  5
3DD
330
1F
100
AcDbEntity
  8
0
  6
Continuous
 62
     7
370
    25
100
AcDbCircle
 10
6620.574056676
 20
4873.6950961085
 30
0.0
 40
3.0
100
AcDbArc
 50
180.0
 51
0.0
  0
LINE
  5
3DE
330
1F
100
AcDbEntity
  8
0
  6
Continuous
 62
     7
370
    25
100
AcDbLine
 10
6623.574056676
 20
4873.6950961085
 30
0.0
 11
6623.574056676
 21
4897.6950961085
 31
0.0
  0
ARC
  5
3DF
330
1F
100
AcDbEntity
  8
0
  6
Continuous
 62
     7
370
    25
100
AcDbCircle
 10
6620.574056676
 20
4897.6950961085
 30
0.0
 40
3.0
100
AcDbArc
 50
0.0
 51
180.0
  0
LINE
  5
3E0
330
1F
100
AcDbEntity
  8
0
  6
Continuous
 62
     7
370
    25
100
AcDbLine
 10
6617.574056676
 20
4897.6950961085
 30
0.0
 11
6617.574056676
 21
4873.6950961085
 31
0.0
  0
ARC
  5
3E1
330
1F
100
AcDbEntity
  8
0
  6
Continuous
 62
     7
370
    25
100
AcDbCircle
 10
6609.9067719282
 20
4876.2046776514
 30
0.0
 40
3.0
100
AcDbArc
 50
180.0
 51
0.0
  0
LINE
  5
3E2
330
1F
100
AcDbEntity
  8
0
  6
Continuous
 62
     7
370
    25
100
AcDbLine
 10
6612.9067719282
 20
4876.2046776514
 30
0.0
 11
6612.9067719282
 21
4900.2046776514
 31
0.0
  0
ARC
  5
3E3
330
1F
100
AcDbEntity
  8
0
  6
Continuous
 62
     7
370
    25
100
AcDbCircle
 10
6609.9067719282
 20
4900.2046776514
 30
0.0
 40
3.0
100
AcDbArc
 50
0.0
 51
180.0
  0
LINE
  5
3E4
330
1F
100
AcDbEntity
  8
0
  6
Continuous
 62
     7
370
    25
100
AcDbLine
 10
6606.9067719282
 20
4900.2046776514
 30
0.0
 11
6606.9067719282
 21
4876.2046776514
 31
0.0
  0
ARC
  5
3E5
330
1F
100
AcDbEntity
  8
0
  6
Continuous
 62
     7
370
    25
100
AcDbCircle
 10
6599.1407721627
 20
4878.2486043861
 30
0.0
 40
3.0
100
AcDbArc
 50
180.0
 51
0.0
  0
LINE
  5
3E6
330
1F
100
AcDbEntity
  8
0
  6
Continuous
 62
     7
370
    25
100
AcDbLine
 10
6602.1407721627
 20
4878.2486043861
 30
0.0
 11
6602.1407721627
 21
4902.2486043861
 31
0.0
  0
ARC
  5
3E7
330
1F
100
AcDbEntity
  8
0
  6
Continuous
 62
     7
370
    25
100
AcDbCircle
 10
6599.1407721627
 20
4902.2486043861
 30
0.0
 40
3.0
100
AcDbArc
 50
0.0
 51
180.0
  0
LINE
  5
3E8
330
1F
100
AcDbEntity
  8
0
  6
Continuous
 62
     7
370
    25
100
AcDbLine
 10
6596.1407721627
 20
4902.2486043861
 30
0.0
 11
6596.1407721627
 21
4878.2486043861
 31
0.0
  0
ARC
  5
3E9
330
1F
100
AcDbEntity
  8
0
  6
Continuous
 62
     7
370
    25
100
AcDbCircle
 10
6588.2858578084
 20
4879.7546551798
 30
0.0
 40
3.0
100
AcDbArc
 50
180.0
 51
0.0
  0
LINE
  5
3EA
330
1F
100
AcDbEntity
  8
0
  6
Continuous
 62
     7
370
    25
100
AcDbLine
 10
6591.2858578084
 20
4879.7546551798
 30
0.0
 11
6591.2858578084
 21
4903.7546551798
 31
0.0
  0
ARC
  5
3EB
330
1F
100
AcDbEntity
  8
0
  6
Continuous
 62
     7
370
    25
100
AcDbCircle
 10
6588.2858578084
 20
4903.7546551798
 30
0.0
 40
3.0
100
AcDbArc
 50
0.0
 51
180.0
  0
LINE
  5
3EC
330
1F
100
AcDbEntity
  8
0
  6
Continuous
 62
     7
370
    25
100
AcDbLine
 10
6585.2858578084
 20
4903.7546551798
 30
0.0
 11
6585.2858578084
 21
4879.7546551798
 31
0.0
  0
ARC
  5
3ED
330
1F
100
AcDbEntity
  8
0
  6
Continuous
 62
     7
370
    25
100
AcDbCircle
 10
6577.3642881377
 20
4880.6523626105
 30
0.0
 40
3.0
100
AcDbArc
 50
180.0
 51
0.0
  0
LINE
  5
3EE
330
1F
100
AcDbEntity
  8
0
  6
Continuous
 62
     7
370
    25
100
AcDbLine
 10
6580.3642881377
 20
4880.6523626105
 30
0.0
 11
6580.3642881377
 21
4904.6523626105
 31
0.0
  0
ARC
  5
3EF
330
1F
100
AcDbEntity
  8
0
  6
Continuous
 62
     7
370
    25
100
AcDbCircle
 10
6577.3642881377
 20
4904.6523626105
 30
0.0
 40
3.0
100
AcDbArc
 50
0.0
 51
180.0
  0
LINE
  5
3F0
330
1F
100
AcDbEntity
  8
0
  6
Continuous
 62
     7
370
    25
100
AcDbLine
 10
6574.3642881377
 20
4904.6523626105
 30
0.0
 11
6574.3642881377
 21
4880.6523626105
 31
0.0
  0
ARC
  5
3F1
330
1F
100
AcDbEntity
  8
0
  6
Continuous
 62
     7
370
    25
100
AcDbCircle
 10
6566.4089383248
 20
4880.8807828593
 30
0.0
 40
3.0
100
AcDbArc
 50
180.0
 51
0.0
  0
LINE
  5
3F2
330
1F
100
AcDbEntity
  8
0
  6
Continuous
 62
     7
370
    25
100
AcDbLine
 10
6569.4089383248
 20
4880.8807828593
 30
0.0
 11
6569.4089383248
 21
4904.8807828593
 31
0.0
  0
ARC
  5
3F3
330
1F
100
AcDbEntity
  8
0
  6
Continuous
 62
     7
370
    25
100
AcDbCircle
 10
6566.4089383248
 20
4904.8807828593
 30
0.0
 40
3.0
100
AcDbArc
 50
0.0
 51
180.0
  0
LINE
  5
3F4
330
1F
100
AcDbEntity
  8
0
  6
Continuous
 62
     7
370
    25
100
AcDbLine
 10
6563.4089383248
 20
4904.8807828593
 30
0.0
 11
6563.4089383248
 21
4880.8807828593
 31
0.0
  0
ARC
  5
3F5
330
1F
100
AcDbEntity
  8
0
  6
Continuous
 62
     7
370
    25
100
AcDbCircle
 10
6555.4601892293
 20
4880.3962723491
 30
0.0
 40
3.0
100
AcDbArc
 50
180.0
 51
0.0
  0
LINE
  5
3F6
330
1F
100
AcDbEntity
  8
0
  6
Continuous
 62
     7
370
    25
100
AcDbLine
 10
6558.4601892293
 20
4880.3962723491
 30
0.0
 11
6558.4601892293
 21
4904.3962723491
 31
0.0
  0
ARC
  5
3F7
330
1F
100
AcDbEntity
  8
0
  6
Continuous
 62
     7
370
    25
100
AcDbCircle
 10
6555.4601892293
 20
4904.3962723491
 30
0.0
 40
3.0
100
AcDbArc
 50
0.0
 51
180.0
  0
LINE
  5
3F8
330
1F
100
AcDbEntity
  8
0
  6
Continuous
 62
     7
370
    25
100
AcDbLine
 10
6552.4601892293
 20
4904.3962723491
 30
0.0
 11
6552.4601892293
 21
4880.3962723491
 31
0.0
  0
ARC
  5
3F9
330
1F
100
AcDbEntity
  8
0
  6
Continuous
 62
     7
370
    25
100
AcDbCircle
 10
6544.5703228745
 20
4879.1849829637
 30
0.0
 40
3.0
100
AcDbArc
 50
180.0
 51
0.0
  0
LINE
  5
3FA
330
1F
100
AcDbEntity
  8
0
  6
Continuous
 62
     7
370
    25
100
AcDbLine
 10
6547.5703228745
 20
4879.1849829637
 30
0.0
 11
6547.5703228745
 21
4903.1849829637
 31
0.0
  0
ARC
  5
3FB
330
1F
100
AcDbEntity
  8
0
  6
Continuous
 62
     7
370
    25
100
AcDbCircle
 10
6544.5703228745
 20
4903.1849829637
 30
0.0
 40
3.0
100
AcDbArc
 50
0.0
 51
180.0
  0
LINE
  5
3FC
330
1F
100
AcDbEntity
  8
0
  6
Continuous
 62
     7
370
    25
100
AcDbLine
 10
6541.5703228745
 20
4903.1849829637
 30
0.0
 11
6541.5703228745
 21
4879.1849829637
 31
0.0
  0
ARC
  5
3FD
330
1F
100
AcDbEntity
  8
0
  6
Continuous
 62
     7
370
    25
100
AcDbCircle
 10
6533.7719568438
 20
4877.3144091158
 30
0.0
 40
3.0
100
AcDbArc
 50
180.0
 51
0.0
  0
LINE
  5
3FE
330
1F
100
AcDbEntity
  8
0
  6
Continuous
 62
     7
370
    25
100
AcDbLine
 10
6536.7719568438
 20
4877.3144091158
 30
0.0
 11
6536.7719568438
 21
4901.3144091158
 31
0.0
  0
ARC
  5
3FF
330
1F
100
AcDbEntity
  8
0
  6
Continuous
 62
     7
370
    25
100
AcDbCircle
 10
6533.7719568438
 20
4901.3144091158
 30
0.0
 40
3.0
100
AcDbArc
 50
0.0
 51
180.0
  0
LINE
  5
400
330
1F
100
AcDbEntity
  8
0
  6
Continuous
 62
     7
370
    25
100
AcDbLine
 10
6530.7719568438
 20
4901.3144091158
 30
0.0
 11
6530.7719568438
 21
4877.3144091158
 31
0.0
  0
ARC
  5
401
330
1F
100
AcDbEntity
  8
0
  6
Continuous
 62
     7
370
    25
100
AcDbCircle
 10
6523.0835164029
 20
4874.894657611
 30
0.0
 40
3.0
100
AcDbArc
 50
180.0
 51
0.0
  0
LINE
  5
402
330
1F
100
AcDbEntity
  8
0
  6
Continuous
 62
     7
370
    25
100
AcDbLine
 10
6526.0835164029
 20
4874.894657611
 30
0.0
 11
6526.0835164029
 21
4898.894657611
 31
0.0
  0
ARC
  5
403
330
1F
100
AcDbEntity
  8
0
  6
Continuous
 62
     7
370
    25
100
AcDbCircle
 10
6523.0835164029
 20
4898.894657611
 30
0.0
 40
3.0
100
AcDbArc
 50
0.0
 51
180.0
  0
LINE
  5
404
330
1F
100
AcDbEntity
  8
0
  6
Continuous
 62
     7
370
    25
100
AcDbLine
 10
6520.0835164029
 20
4898.894657611
 30
0.0
 11
6520.0835164029
 21
4874.894657611
 31
0.0
  0
ARC
  5
405
330
1F
100
AcDbEntity
  8
0
  6
Continuous
 62
     7
370
    25
100
AcDbCircle
 10
6512.5051901084
 20
4872.0298702527
 30
0.0
 40
3.000000000000909
100
AcDbArc
 50
180.0
 51
0.0
  0
LINE
  5
406
330
1F
100
AcDbEntity
  8
0
  6
Continuous
 62
     7
370
    25
100
AcDbLine
 10
6515.5051901084
 20
4872.0298702527
 30
0.0
 11
6515.5051901084
 21
4896.0298702527
 31
0.0
  0
ARC
  5
407
330
1F
100
AcDbEntity
  8
0
  6
Continuous
 62
     7
370
    25
100
AcDbCircle
 10
6512.5051901084
 20
4896.0298702527
 30
0.0
 40
3.000000000000909
100
AcDbArc
 50
0.0
 51
180.0
  0
LINE
  5
408
330
1F
100
AcDbEntity
  8
0
  6
Continuous
 62
     7
370
    25
100
AcDbLine
 10
6509.5051901084
 20
4896.0298702527
 30
0.0
 11
6509.5051901084
 21
4872.0298702527
 31
0.0
  0
ARC
  5
409
330
1F
100
AcDbEntity
  8
0
  6
Continuous
 62
     7
370
    25
100
AcDbCircle
 10
6502.0279154329
 20
4868.8161034052
 30
0.0
 40
3.000000000000909
100
AcDbArc
 50
180.0
 51
0.0
  0
LINE
  5
40A
330
1F
100
AcDbEntity
  8
0
  6
Continuous
 62
     7
370
    25
100
AcDbLine
 10
6505.0279154329
 20
4868.8161034052
 30
0.0
 11
6505.0279154329
 21
4892.8161034052
 31
0.0
  0
ARC
  5
40B
330
1F
100
AcDbEntity
  8
0
  6
Continuous
 62
     7
370
    25
100
AcDbCircle
 10
6502.0279154329
 20
4892.8161034052
 30
0.0
 40
3.000000000000909
100
AcDbArc
 50
0.0
 51
180.0
  0
LINE
  5
40C
330
1F
100
AcDbEntity
  8
0
  6
Continuous
 62
     7
370
    25
100
AcDbLine
 10
6499.0279154329
 20
4892.8161034052
 30
0.0
 11
6499.0279154329
 21
4868.8161034052
 31
0.0
  0
ARC
  5
40D
330
1F
100
AcDbEntity
  8
0
  6
Continuous
 62
     7
370
    25
100
AcDbCircle
 10
6491.6349629131
 20
4865.3409060609
 30
0.0
 40
3.0
100
AcDbArc
 50
180.0
 51
0.0
  0
LINE
  5
40E
330
1F
100
AcDbEntity
  8
0
  6
Continuous
 62
     7
370
    25
100
AcDbLine
 10
6494.6349629131
 20
4865.3409060609
 30
0.0
 11
6494.6349629131
 21
4889.3409060609
 31
0.0
  0
ARC
  5
40F
330
1F
100
AcDbEntity
  8
0
  6
Continuous
 62
     7
370
    25
100
AcDbCircle
 10
6491.6349629131
 20
4889.3409060609
 30
0.0
 40
3.0
100
AcDbArc
 50
0.0
 51
180.0
  0
LINE
  5
410
330
1F
100
AcDbEntity
  8
0
  6
Continuous
 62
     7
370
    25
100
AcDbLine
 10
6488.6349629131
 20
4889.3409060609
 30
0.0
 11
6488.6349629131
 21
4865.3409060609
 31
0.0
  0
ARC
  5
411
330
1F
100
AcDbEntity
  8
0
  6
Continuous
 62
     7
370
    25
100
AcDbCircle
 10
6481.3019804134
 20
4861.6835952953
 30
0.0
 40
3.000000000000909
100
AcDbArc
 50
180.0
 51
0.0
  0
LINE
  5
412
330
1F
100
AcDbEntity
  8
0
  6
Continuous
 62
     7
370
    25
100
AcDbLine
 10
6484.3019804134
 20
4861.6835952953
 30
0.0
 11
6484.3019804134
 21
4885.6835952953
 31
0.0
  0
ARC
  5
413
330
1F
100
AcDbEntity
  8
0
  6
Continuous
 62
     7
370
    25
100
AcDbCircle
 10
6481.3019804134
 20
4885.6835952953
 30
0.0
 40
3.000000000000909
100
AcDbArc
 50
0.0
 51
180.0
  0
LINE
  5
414
330
1F
100
AcDbEntity
  8
0
  6
Continuous
 62
     7
370
    25
100
AcDbLine
 10
6478.3019804134
 20
4885.6835952953
 30
0.0
 11
6478.3019804134
 21
4861.6835952953
 31
0.0
  0
ARC
  5
415
330
1F
100
AcDbEntity
  8
0
  6
Continuous
 62
     7
370
    25
100
AcDbCircle
 10
6471.0077730689
 20
4857.9203626074
 30
0.0
 40
3.0
100
AcDbArc
 50
180.0
 51
0.0
  0
LINE
  5
416
330
1F
100
AcDbEntity
  8
0
  6
Continuous
 62
     7
370
    25
100
AcDbLine
 10
6474.0077730689
 20
4857.9203626074
 30
0.0
 11
6474.0077730689
 21
4881.9203626074
 31
0.0
  0
ARC
  5
417
330
1F
100
AcDbEntity
  8
0
  6
Continuous
 62
     7
370
    25
100
AcDbCircle
 10
6471.0077730689
 20
4881.9203626074
 30
0.0
 40
3.0
100
AcDbArc
 50
0.0
 51
180.0
  0
LINE
  5
418
330
1F
100
AcDbEntity
  8
0
  6
Continuous
 62
     7
370
    25
100
AcDbLine
 10
6468.0077730689
 20
4881.9203626074
 30
0.0
 11
6468.0077730689
 21
4857.9203626074
 31
0.0
  0
ARC
  5
419
330
1F
100
AcDbEntity
  8
0
  6
Continuous
 62
     7
370
    25
100
AcDbCircle
 10
6460.7266384093
 20
4854.1234244229
 30
0.0
 40
3.0
100
AcDbArc
 50
180.0
 51
0.0
  0
LINE
  5
41A
330
1F
100
AcDbEntity
  8
0
  6
Continuous
 62
     7
370
    25
100
AcDbLine
 10
6463.7266384093
 20
4854.1234244229
 30
0.0
 11
6463.7266384093
 21
4878.1234244229
 31
0.0
  0
ARC
  5
41B
330
1F
100
AcDbEntity
  8
0
  6
Continuous
 62
     7
370
    25
100
AcDbCircle
 10
6460.7266384093
 20
4878.1234244229
 30
0.0
 40
3.0
100
AcDbArc
 50
0.0
 51
180.0
  0
LINE
  5
41C
330
1F
100
AcDbEntity
  8
0
  6
Continuous
 62
     7
370
    25
100
AcDbLine
 10
6457.7266384093
 20
4878.1234244229
 30
0.0
 11
6457.7266384093
 21
4854.1234244229
 31
0.0
  0
ARC
  5
41D
330
1F
100
AcDbEntity
  8
0
  6
Continuous
 62
     7
370
    25
100
AcDbCircle
 10
6450.4329905965
 20
4850.364576889
 30
0.0
 40
3.0
100
AcDbArc
 50
180.0
 51
0.0
  0
LINE
  5
41E
330
1F
100
AcDbEntity
  8
0
  6
Continuous
 62
     7
370
    25
100
AcDbLine
 10
6453.4329905965
 20
4850.364576889
 30
0.0
 11
6453.4329905965
 21
4874.364576889
 31
0.0
  0
ARC
  5
41F
330
1F
100
AcDbEntity
  8
0
  6
Continuous
 62
     7
370
    25
100
AcDbCircle
 10
6450.4329905965
 20
4874.364576889
 30
0.0
 40
3.0
100
AcDbArc
 50
0.0
 51
180.0
  0
LINE
  5
420
330
1F
100
AcDbEntity
  8
0
  6
Continuous
 62
     7
370
    25
100
AcDbLine
 10
6447.4329905965
 20
4874.364576889
 30
0.0
 11
6447.4329905965
 21
4850.364576889
 31
0.0
  0
ARC
  5
421
330
1F
100
AcDbEntity
  8
0
  6
Continuous
 62
     7
370
    25
100
AcDbCircle
 10
6440.0983162302
 20
4846.7162094568
 30
0.0
 40
3.0
100
AcDbArc
 50
180.0
 51
0.0
  0
LINE
  5
422
330
1F
100
AcDbEntity
  8
0
  6
Continuous
 62
     7
370
    25
100
AcDbLine
 10
6443.0983162302
 20
4846.7162094568
 30
0.0
 11
6443.0983162302
 21
4870.7162094568
 31
0.0
  0
ARC
  5
423
330
1F
100
AcDbEntity
  8
0
  6
Continuous
 62
     7
370
    25
100
AcDbCircle
 10
6440.0983162302
 20
4870.7162094568
 30
0.0
 40
3.0
100
AcDbArc
 50
0.0
 51
180.0
  0
LINE
  5
424
330
1F
100
AcDbEntity
  8
0
  6
Continuous
 62
     7
370
    25
100
AcDbLine
 10
6437.0983162302
 20
4870.7162094568
 30
0.0
 11
6437.0983162302
 21
4846.7162094568
 31
0.0
  0
ARC
  5
425
330
1F
100
AcDbEntity
  8
0
  6
Continuous
 62
     7
370
    25
100
AcDbCircle
 10
6429.69883427
 20
4843.2562223392
 30
0.0
 40
3.000000000000909
100
AcDbArc
 50
180.0
 51
0.0
  0
LINE
  5
426
330
1F
100
AcDbEntity
  8
0
  6
Continuous
 62
     7
370
    25
100
AcDbLine
 10
6432.69883427
 20
4843.2562223392
 30
0.0
 11
6432.69883427
 21
4867.2562223392
 31
0.0
  0
ARC
  5
427
330
1F
100
AcDbEntity
  8
0
  6
Continuous
 62
     7
370
    25
100
AcDbCircle
 10
6429.69883427
 20
4867.2562223392
 30
0.0
 40
3.000000000000909
100
AcDbArc
 50
0.0
 51
180.0
  0
LINE
  5
428
330
1F
100
AcDbEntity
  8
0
  6
Continuous
 62
     7
370
    25
100
AcDbLine
 10
6426.69883427
 20
4867.2562223392
 30
0.0
 11
6426.69883427
 21
4843.2562223392
 31
0.0
  0
ARC
  5
429
330
1F
100
AcDbEntity
  8
0
  6
Continuous
 62
     7
370
    25
100
AcDbCircle
 10
6419.2124328058
 20
4840.0688152289
 30
0.0
 40
3.0
100
AcDbArc
 50
180.0
 51
0.0
  0
LINE
  5
42A
330
1F
100
AcDbEntity
  8
0
  6
Continuous
 62
     7
370
    25
100
AcDbLine
 10
6422.2124328058
 20
4840.0688152289
 30
0.0
 11
6422.2124328058
 21
4864.0688152289
 31
0.0
  0
ARC
  5
42B
330
1F
100
AcDbEntity
  8
0
  6
Continuous
 62
     7
370
    25
100
AcDbCircle
 10
6419.2124328058
 20
4864.0688152289
 30
0.0
 40
3.0
100
AcDbArc
 50
0.0
 51
180.0
  0
LINE
  5
42C
330
1F
100
AcDbEntity
  8
0
  6
Continuous
 62
     7
370
    25
100
AcDbLine
 10
6416.2124328058
 20
4864.0688152289
 30
0.0
 11
6416.2124328058
 21
4840.0688152289
 31
0.0
  0
ARC
  5
42D
330
1F
100
AcDbEntity
  8
0
  6
Continuous
 62
     7
370
    25
100
AcDbCircle
 10
6408.6232362925
 20
4837.2474311096
 30
0.0
 40
3.000000000000909
100
AcDbArc
 50
180.0
 51
0.0
  0
LINE
  5
42E
330
1F
100
AcDbEntity
  8
0
  6
Continuous
 62
     7
370
    25
100
AcDbLine
 10
6411.6232362925
 20
4837.2474311096
 30
0.0
 11
6411.6232362925
 21
4861.2474311096
 31
0.0
  0
ARC
  5
42F
330
1F
100
AcDbEntity
  8
0
  6
Continuous
 62
     7
370
    25
100
AcDbCircle
 10
6408.6232362925
 20
4861.2474311096
 30
0.0
 40
3.000000000000909
100
AcDbArc
 50
0.0
 51
180.0
  0
LINE
  5
430
330
1F
100
AcDbEntity
  8
0
  6
Continuous
 62
     7
370
    25
100
AcDbLine
 10
6405.6232362925
 20
4861.2474311096
 30
0.0
 11
6405.6232362925
 21
4837.2474311096
 31
0.0
  0
ARC
  5
431
330
1F
100
AcDbEntity
  8
0
  6
Continuous
 62
     7
370
    25
100
AcDbCircle
 10
6397.9200554973
 20
4834.8950339082
 30
0.0
 40
3.0
100
AcDbArc
 50
180.0
 51
0.0
  0
LINE
  5
432
330
1F
100
AcDbEntity
  8
0
  6
Continuous
 62
     7
370
    25
100
AcDbLine
 10
6400.9200554973
 20
4834.8950339082
 30
0.0
 11
6400.9200554973
 21
4858.8950339082
 31
0.0
  0
ARC
  5
433
330
1F
100
AcDbEntity
  8
0
  6
Continuous
 62
     7
370
    25
100
AcDbCircle
 10
6397.9200554973
 20
4858.8950339082
 30
0.0
 40
3.0
100
AcDbArc
 50
0.0
 51
180.0
  0
LINE
  5
434
330
1F
100
AcDbEntity
  8
0
  6
Continuous
 62
     7
370
    25
100
AcDbLine
 10
6394.9200554973
 20
4858.8950339082
 30
0.0
 11
6394.9200554973
 21
4834.8950339082
 31
0.0
  0
ARC
  5
435
330
1F
100
AcDbEntity
  8
0
  6
Continuous
 62
     7
370
    25
100
AcDbCircle
 10
6387.105464867
 20
4833.1256223694
 30
0.0
 40
3.0
100
AcDbArc
 50
180.0
 51
0.0
  0
LINE
  5
436
330
1F
100
AcDbEntity
  8
0
  6
Continuous
 62
     7
370
    25
100
AcDbLine
 10
6390.105464867
 20
4833.1256223694
 30
0.0
 11
6390.105464867
 21
4857.1256223694
 31
0.0
  0
ARC
  5
437
330
1F
100
AcDbEntity
  8
0
  6
Continuous
 62
     7
370
    25
100
AcDbCircle
 10
6387.105464867
 20
4857.1256223694
 30
0.0
 40
3.0
100
AcDbArc
 50
0.0
 51
180.0
  0
LINE
  5
438
330
1F
100
AcDbEntity
  8
0
  6
Continuous
 62
     7
370
    25
100
AcDbLine
 10
6384.105464867
 20
4857.1256223694
 30
0.0
 11
6384.105464867
 21
4833.1256223694
 31
0.0
  0
ARC
  5
439
330
1F
100
AcDbEntity
  8
0
  6
Continuous
 62
     7
370
    25
100
AcDbCircle
 10
6376.1987306362
 20
4832.0609201434
 30
0.0
 40
3.0
100
AcDbArc
 50
180.0
 51
0.0
  0
LINE
  5
43A
330
1F
100
AcDbEntity
  8
0
  6
Continuous
 62
     7
370
    25
100
AcDbLine
 10
6379.1987306362
 20
4832.0609201434
 30
0.0
 11
6379.1987306362
 21
4856.0609201434
 31
0.0
  0
ARC
  5
43B
330
1F
100
AcDbEntity
  8
0
  6
Continuous
 62
     7
370
    25
100
AcDbCircle
 10
6376.1987306362
 20
4856.0609201434
 30
0.0
 40
3.0
100
AcDbArc
 50
0.0
 51
180.0
  0
LINE
  5
43C
330
1F
100
AcDbEntity
  8
0
  6
Continuous
 62
     7
370
    25
100
AcDbLine
 10
6373.1987306362
 20
4856.0609201434
 30
0.0
 11
6373.1987306362
 21
4832.0609201434
 31
0.0
  0
ARC
  5
43D
330
1F
100
AcDbEntity
  8
0
  6
Continuous
 62
     7
370
    25
100
AcDbCircle
 10
6365.2446910042
 20
4831.8177852949
 30
0.0
 40
3.0
100
AcDbArc
 50
180.0
 51
0.0
  0
LINE
  5
43E
330
1F
100
AcDbEntity
  8
0
  6
Continuous
 62
     7
370
    25
100
AcDbLine
 10
6368.2446910042
 20
4831.8177852949
 30
0.0
 11
6368.2446910042
 21
4855.8177852949
 31
0.0
  0
ARC
  5
43F
330
1F
100
AcDbEntity
  8
0
  6
Continuous
 62
     7
370
    25
100
AcDbCircle
 10
6365.2446910042
 20
4855.8177852949
 30
0.0
 40
3.0
100
AcDbArc
 50
0.0
 51
180.0
  0
LINE
  5
440
330
1F
100
AcDbEntity
  8
0
  6
Continuous
 62
     7
370
    25
100
AcDbLine
 10
6362.2446910042
 20
4855.8177852949
 30
0.0
 11
6362.2446910042
 21
4831.8177852949
 31
0.0
  0
ARC
  5
441
330
1F
100
AcDbEntity
  8
0
  6
Continuous
 62
     7
370
    25
100
AcDbCircle
 10
6354.3020942912
 20
4832.4018728236
 30
0.0
 40
3.0
100
AcDbArc
 50
180.0
 51
0.0
  0
LINE
  5
442
330
1F
100
AcDbEntity
  8
0
  6
Continuous
 62
     7
370
    25
100
AcDbLine
 10
6357.3020942912
 20
4832.4018728236
 30
0.0
 11
6357.3020942912
 21
4856.4018728236
 31
0.0
  0
ARC
  5
443
330
1F
100
AcDbEntity
  8
0
  6
Continuous
 62
     7
370
    25
100
AcDbCircle
 10
6354.3020942912
 20
4856.4018728236
 30
0.0
 40
3.0
100
AcDbArc
 50
0.0
 51
180.0
  0
LINE
  5
444
330
1F
100
AcDbEntity
  8
0
  6
Continuous
 62
     7
370
    25
100
AcDbLine
 10
6351.3020942912
 20
4856.4018728236
 30
0.0
 11
6351.3020942912
 21
4832.4018728236
 31
0.0
  0
ARC
  5
445
330
1F
100
AcDbEntity
  8
0
  6
Continuous
 62
     7
370
    25
100
AcDbCircle
 10
6343.4240166112
 20
4833.7176174529
 30
0.0
 40
3.0
100
AcDbArc
 50
180.0
 51
0.0
  0
LINE
  5
446
330
1F
100
AcDbEntity
  8
0
  6
Continuous
 62
     7
370
    25
100
AcDbLine
 10
6346.4240166112
 20
4833.7176174529
 30
0.0
 11
6346.4240166112
 21
4857.7176174529
 31
0.0
  0
ARC
  5
447
330
1F
100
AcDbEntity
  8
0
  6
Continuous
 62
     7
370
    25
100
AcDbCircle
 10
6343.4240166112
 20
4857.7176174529
 30
0.0
 40
3.0
100
AcDbArc
 50
0.0
 51
180.0
  0
LINE
  5
448
330
1F
100
AcDbEntity
  8
0
  6
Continuous
 62
     7
370
    25
100
AcDbLine
 10
6340.4240166112
 20
4857.7176174529
 30
0.0
 11
6340.4240166112
 21
4833.7176174529
 31
0.0
  0
ARC
  5
449
330
1F
100
AcDbEntity
  8
0
  6
Continuous
 62
     7
370
    25
100
AcDbCircle
 10
6332.6391320655
 20
4835.6595179345
 30
0.0
 40
3.0
100
AcDbArc
 50
180.0
 51
0.0
  0
LINE
  5
44A
330
1F
100
AcDbEntity
  8
0
  6
Continuous
 62
     7
370
    25
100
AcDbLine
 10
6335.6391320655
 20
4835.6595179345
 30
0.0
 11
6335.6391320655
 21
4859.6595179345
 31
0.0
  0
ARC
  5
44B
330
1F
100
AcDbEntity
  8
0
  6
Continuous
 62
     7
370
    25
100
AcDbCircle
 10
6332.6391320655
 20
4859.6595179345
 30
0.0
 40
3.0
100
AcDbArc
 50
0.0
 51
180.0
  0
LINE
  5
44C
330
1F
100
AcDbEntity
  8
0
  6
Continuous
 62
     7
370
    25
100
AcDbLine
 10
6329.6391320655
 20
4859.6595179345
 30
0.0
 11
6329.6391320655
 21
4835.6595179345
 31
0.0
  0
ARC
  5
44D
330
1F
100
AcDbEntity
  8
0
  6
Continuous
 62
     7
370
    25
100
AcDbCircle
 10
6321.9594640527
 20
4838.1231222897
 30
0.0
 40
3.0
100
AcDbArc
 50
180.0
 51
0.0
  0
LINE
  5
44E
330
1F
100
AcDbEntity
  8
0
  6
Continuous
 62
     7
370
    25
100
AcDbLine
 10
6324.9594640527
 20
4838.1231222897
 30
0.0
 11
6324.9594640527
 21
4862.1231222897
 31
0.0
  0
ARC
  5
44F
330
1F
100
AcDbEntity
  8
0
  6
Continuous
 62
     7
370
    25
100
AcDbCircle
 10
6321.9594640527
 20
4862.1231222897
 30
0.0
 40
3.0
100
AcDbArc
 50
0.0
 51
180.0
  0
LINE
  5
450
330
1F
100
AcDbEntity
  8
0
  6
Continuous
 62
     7
370
    25
100
AcDbLine
 10
6318.9594640527
 20
4862.1231222897
 30
0.0
 11
6318.9594640527
 21
4838.1231222897
 31
0.0
  0
ARC
  5
451
330
1F
100
AcDbEntity
  8
0
  6
Continuous
 62
     7
370
    25
100
AcDbCircle
 10
6311.3880195567
 20
4841.008457616
 30
0.0
 40
3.000000000000909
100
AcDbArc
 50
180.0
 51
0.0
  0
LINE
  5
452
330
1F
100
AcDbEntity
  8
0
  6
Continuous
 62
     7
370
    25
100
AcDbLine
 10
6314.3880195567
 20
4841.008457616
 30
0.0
 11
6314.3880195567
 21
4865.008457616
 31
0.0
  0
ARC
  5
453
330
1F
100
AcDbEntity
  8
0
  6
Continuous
 62
     7
370
    25
100
AcDbCircle
 10
6311.3880195567
 20
4865.008457616
 30
0.0
 40
3.000000000000909
100
AcDbArc
 50
0.0
 51
180.0
  0
LINE
  5
454
330
1F
100
AcDbEntity
  8
0
  6
Continuous
 62
     7
370
    25
100
AcDbLine
 10
6308.3880195567
 20
4865.008457616
 30
0.0
 11
6308.3880195567
 21
4841.008457616
 31
0.0
  0
ARC
  5
455
330
1F
100
AcDbEntity
  8
0
  6
Continuous
 62
     7
370
    25
100
AcDbCircle
 10
6300.9113434653
 20
4844.2248139708
 30
0.0
 40
3.000000000000909
100
AcDbArc
 50
180.0
 51
0.0
  0
LINE
  5
456
330
1F
100
AcDbEntity
  8
0
  6
Continuous
 62
     7
370
    25
100
AcDbLine
 10
6303.9113434653
 20
4844.2248139708
 30
0.0
 11
6303.9113434653
 21
4868.2248139708
 31
0.0
  0
ARC
  5
457
330
1F
100
AcDbEntity
  8
0
  6
Continuous
 62
     7
370
    25
100
AcDbCircle
 10
6300.9113434653
 20
4868.2248139708
 30
0.0
 40
3.000000000000909
100
AcDbArc
 50
0.0
 51
180.0
  0
LINE
  5
458
330
1F
100
AcDbEntity
  8
0
  6
Continuous
 62
     7
370
    25
100
AcDbLine
 10
6297.9113434653
 20
4868.2248139708
 30
0.0
 11
6297.9113434653
 21
4844.2248139708
 31
0.0
  0
ARC
  5
459
330
1F
100
AcDbEntity
  8
0
  6
Continuous
 62
     7
370
    25
100
AcDbCircle
 10
6290.5130866637
 20
4847.6881722245
 30
0.0
 40
3.0
100
AcDbArc
 50
180.0
 51
0.0
  0
LINE
  5
45A
330
1F
100
AcDbEntity
  8
0
  6
Continuous
 62
     7
370
    25
100
AcDbLine
 10
6293.5130866637
 20
4847.6881722245
 30
0.0
 11
6293.5130866637
 21
4871.6881722245
 31
0.0
  0
ARC
  5
45B
330
1F
100
AcDbEntity
  8
0
  6
Continuous
 62
     7
370
    25
100
AcDbCircle
 10
6290.5130866637
 20
4871.6881722245
 30
0.0
 40
3.0
100
AcDbArc
 50
0.0
 51
180.0
  0
LINE
  5
45C
330
1F
100
AcDbEntity
  8
0
  6
Continuous
 62
     7
370
    25
100
AcDbLine
 10
6287.5130866637
 20
4871.6881722245
 30
0.0
 11
6287.5130866637
 21
4847.6881722245
 31
0.0
  0
ARC
  5
45D
330
1F
100
AcDbEntity
  8
0
  6
Continuous
 62
     7
370
    25
100
AcDbCircle
 10
6280.1725041732
 20
4851.3209191148
 30
0.0
 40
3.0
100
AcDbArc
 50
180.0
 51
0.0
  0
LINE
  5
45E
330
1F
100
AcDbEntity
  8
0
  6
Continuous
 62
     7
370
    25
100
AcDbLine
 10
6283.1725041732
 20
4851.3209191148
 30
0.0
 11
6283.1725041732
 21
4875.3209191148
 31
0.0
  0
ARC
  5
45F
330
1F
100
AcDbEntity
  8
0
  6
Continuous
 62
     7
370
    25
100
AcDbCircle
 10
6280.1725041732
 20
4875.3209191148
 30
0.0
 40
3.0
100
AcDbArc
 50
0.0
 51
180.0
  0
LINE
  5
460
330
1F
100
AcDbEntity
  8
0
  6
Continuous
 62
     7
370
    25
100
AcDbLine
 10
6277.1725041732
 20
4875.3209191148
 30
0.0
 11
6277.1725041732
 21
4851.3209191148
 31
0.0
  0
ARC
  5
461
330
1F
100
AcDbEntity
  8
0
  6
Continuous
 62
     7
370
    25
100
AcDbCircle
 10
6269.8659495806
 20
4855.0502280848
 30
0.0
 40
3.0
100
AcDbArc
 50
180.0
 51
0.0
  0
LINE
  5
462
330
1F
100
AcDbEntity
  8
0
  6
Continuous
 62
     7
370
    25
100
AcDbLine
 10
6272.8659495806
 20
4855.0502280848
 30
0.0
 11
6272.8659495806
 21
4879.0502280848
 31
0.0
  0
ARC
  5
463
330
1F
100
AcDbEntity
  8
0
  6
Continuous
 62
     7
370
    25
100
AcDbCircle
 10
6269.8659495806
 20
4879.0502280848
 30
0.0
 40
3.0
100
AcDbArc
 50
0.0
 51
180.0
  0
LINE
  5
464
330
1F
100
AcDbEntity
  8
0
  6
Continuous
 62
     7
370
    25
100
AcDbLine
 10
6266.8659495806
 20
4879.0502280848
 30
0.0
 11
6266.8659495806
 21
4855.0502280848
 31
0.0
  0
ARC
  5
465
330
1F
100
AcDbEntity
  8
0
  6
Continuous
 62
     7
370
    25
100
AcDbCircle
 10
6259.5698549622
 20
4858.8054350845
 30
0.0
 40
3.0
100
AcDbArc
 50
180.0
 51
0.0
  0
LINE
  5
466
330
1F
100
AcDbEntity
  8
0
  6
Continuous
 62
     7
370
    25
100
AcDbLine
 10
6262.5698549622
 20
4858.8054350845
 30
0.0
 11
6262.5698549622
 21
4882.8054350845
 31
0.0
  0
ARC
  5
467
330
1F
100
AcDbEntity
  8
0
  6
Continuous
 62
     7
370
    25
100
AcDbCircle
 10
6259.5698549622
 20
4882.8054350845
 30
0.0
 40
3.0
100
AcDbArc
 50
0.0
 51
180.0
  0
LINE
  5
468
330
1F
100
AcDbEntity
  8
0
  6
Continuous
 62
     7
370
    25
100
AcDbLine
 10
6256.5698549622
 20
4882.8054350845
 30
0.0
 11
6256.5698549622
 21
4858.8054350845
 31
0.0
  0
ARC
  5
469
330
1F
100
AcDbEntity
  8
0
  6
Continuous
 62
     7
370
    25
100
AcDbCircle
 10
6249.257715388
 20
4862.5173837392
 30
0.0
 40
3.0
100
AcDbArc
 50
180.0
 51
0.0
  0
LINE
  5
46A
330
1F
100
AcDbEntity
  8
0
  6
Continuous
 62
     7
370
    25
100
AcDbLine
 10
6252.257715388
 20
4862.5173837392
 30
0.0
 11
6252.257715388
 21
4886.5173837392
 31
0.0
  0
ARC
  5
46B
330
1F
100
AcDbEntity
  8
0
  6
Continuous
 62
     7
370
    25
100
AcDbCircle
 10
6249.257715388
 20
4886.5173837392
 30
0.0
 40
3.0
100
AcDbArc
 50
0.0
 51
180.0
  0
LINE
  5
46C
330
1F
100
AcDbEntity
  8
0
  6
Continuous
 62
     7
370
    25
100
AcDbLine
 10
6246.257715388
 20
4886.5173837392
 30
0.0
 11
6246.257715388
 21
4862.5173837392
 31
0.0
  0
ARC
  5
46D
330
1F
100
AcDbEntity
  8
0
  6
Continuous
 62
     7
370
    25
100
AcDbCircle
 10
6238.9045568584
 20
4866.1149484384
 30
0.0
 40
3.0
100
AcDbArc
 50
180.0
 51
0.0
  0
LINE
  5
46E
330
1F
100
AcDbEntity
  8
0
  6
Continuous
 62
     7
370
    25
100
AcDbLine
 10
6241.9045568584
 20
4866.1149484384
 30
0.0
 11
6241.9045568584
 21
4890.1149484384
 31
0.0
  0
ARC
  5
46F
330
1F
100
AcDbEntity
  8
0
  6
Continuous
 62
     7
370
    25
100
AcDbCircle
 10
6238.9045568584
 20
4890.1149484384
 30
0.0
 40
3.0
100
AcDbArc
 50
0.0
 51
180.0
  0
LINE
  5
470
330
1F
100
AcDbEntity
  8
0
  6
Continuous
 62
     7
370
    25
100
AcDbLine
 10
6235.9045568584
 20
4890.1149484384
 30
0.0
 11
6235.9045568584
 21
4866.1149484384
 31
0.0
  0
ARC
  5
471
330
1F
100
AcDbEntity
  8
0
  6
Continuous
 62
     7
370
    25
100
AcDbCircle
 10
6228.4884034236
 20
4869.5227793331
 30
0.0
 40
3.000000000000909
100
AcDbArc
 50
180.0
 51
0.0
  0
LINE
  5
472
330
1F
100
AcDbEntity
  8
0
  6
Continuous
 62
     7
370
    25
100
AcDbLine
 10
6231.4884034236
 20
4869.5227793331
 30
0.0
 11
6231.4884034236
 21
4893.5227793331
 31
0.0
  0
ARC
  5
473
330
1F
100
AcDbEntity
  8
0
  6
Continuous
 62
     7
370
    25
100
AcDbCircle
 10
6228.4884034236
 20
4893.5227793331
 30
0.0
 40
3.000000000000909
100
AcDbArc
 50
0.0
 51
180.0
  0
LINE
  5
474
330
1F
100
AcDbEntity
  8
0
  6
Continuous
 62
     7
370
    25
100
AcDbLine
 10
6225.4884034236
 20
4893.5227793331
 30
0.0
 11
6225.4884034236
 21
4869.5227793331
 31
0.0
  0
ARC
  5
475
330
1F
100
AcDbEntity
  8
0
  6
Continuous
 62
     7
370
    25
100
AcDbCircle
 10
6217.987260286
 20
4872.6607247122
 30
0.0
 40
3.0
100
AcDbArc
 50
180.0
 51
0.0
  0
LINE
  5
476
330
1F
100
AcDbEntity
  8
0
  6
Continuous
 62
     7
370
    25
100
AcDbLine
 10
6220.987260286
 20
4872.6607247122
 30
0.0
 11
6220.987260286
 21
4896.6607247122
 31
0.0
  0
ARC
  5
477
330
1F
100
AcDbEntity
  8
0
  6
Continuous
 62
     7
370
    25
100
AcDbCircle
 10
6217.987260286
 20
4896.6607247122
 30
0.0
 40
3.0
100
AcDbArc
 50
0.0
 51
180.0
  0
LINE
  5
478
330
1F
100
AcDbEntity
  8
0
  6
Continuous
 62
     7
370
    25
100
AcDbLine
 10
6214.987260286
 20
4896.6607247122
 30
0.0
 11
6214.987260286
 21
4872.6607247122
 31
0.0
  0
ARC
  5
479
330
1F
100
AcDbEntity
  8
0
  6
Continuous
 62
     7
370
    25
100
AcDbCircle
 10
6207.3880606769
 20
4875.4399282429
 30
0.0
 40
3.0
100
AcDbArc
 50
180.0
 51
0.0
  0
LINE
  5
47A
330
1F
100
AcDbEntity
  8
0
  6
Continuous
 62
     7
370
    25
100
AcDbLine
 10
6210.3880606769
 20
4875.4399282429
 30
0.0
 11
6210.3880606769
 21
4899.4399282429
 31
0.0
  0
ARC
  5
47B
330
1F
100
AcDbEntity
  8
0
  6
Continuous
 62
     7
370
    25
100
AcDbCircle
 10
6207.3880606769
 20
4899.4399282429
 30
0.0
 40
3.0
100
AcDbArc
 50
0.0
 51
180.0
  0
LINE
  5
47C
330
1F
100
AcDbEntity
  8
0
  6
Continuous
 62
     7
370
    25
100
AcDbLine
 10
6204.3880606769
 20
4899.4399282429
 30
0.0
 11
6204.3880606769
 21
4875.4399282429
 31
0.0
  0
ARC
  5
47D
330
1F
100
AcDbEntity
  8
0
  6
Continuous
 62
     7
370
    25
100
AcDbCircle
 10
6196.677676028
 20
4877.7649336188
 30
0.0
 40
3.0
100
AcDbArc
 50
180.0
 51
0.0
  0
LINE
  5
47E
330
1F
100
AcDbEntity
  8
0
  6
Continuous
 62
     7
370
    25
100
AcDbLine
 10
6199.677676028
 20
4877.7649336188
 30
0.0
 11
6199.677676028
 21
4901.7649336188
 31
0.0
  0
ARC
  5
47F
330
1F
100
AcDbEntity
  8
0
  6
Continuous
 62
     7
370
    25
100
AcDbCircle
 10
6196.677676028
 20
4901.7649336188
 30
0.0
 40
3.0
100
AcDbArc
 50
0.0
 51
180.0
  0
LINE
  5
480
330
1F
100
AcDbEntity
  8
0
  6
Continuous
 62
     7
370
    25
100
AcDbLine
 10
6193.677676028
 20
4901.7649336188
 30
0.0
 11
6193.677676028
 21
4877.7649336188
 31
0.0
  0
ARC
  5
481
330
1F
100
AcDbEntity
  8
0
  6
Continuous
 62
     7
370
    25
100
AcDbCircle
 10
6185.8623420157
 20
4879.5299518155
 30
0.0
 40
3.000000000000909
100
AcDbArc
 50
180.0
 51
0.0
  0
LINE
  5
482
330
1F
100
AcDbEntity
  8
0
  6
Continuous
 62
     7
370
    25
100
AcDbLine
 10
6188.8623420157
 20
4879.5299518155
 30
0.0
 11
6188.8623420157
 21
4903.5299518155
 31
0.0
  0
ARC
  5
483
330
1F
100
AcDbEntity
  8
0
  6
Continuous
 62
     7
370
    25
100
AcDbCircle
 10
6185.8623420157
 20
4903.5299518155
 30
0.0
 40
3.000000000000909
100
AcDbArc
 50
0.0
 51
180.0
  0
LINE
  5
484
330
1F
100
AcDbEntity
  8
0
  6
Continuous
 62
     7
370
    25
100
AcDbLine
 10
6182.8623420157
 20
4903.5299518155
 30
0.0
 11
6182.8623420157
 21
4879.5299518155
 31
0.0
  0
ARC
  5
485
330
1F
100
AcDbEntity
  8
0
  6
Continuous
 62
     7
370
    25
100
AcDbCircle
 10
6174.9601962449
 20
4880.6247016661
 30
0.0
 40
3.0
100
AcDbArc
 50
180.0
 51
0.0
  0
LINE
  5
486
330
1F
100
AcDbEntity
  8
0
  6
Continuous
 62
     7
370
    25
100
AcDbLine
 10
6177.9601962449
 20
4880.6247016661
 30
0.0
 11
6177.9601962449
 21
4904.6247016661
 31
0.0
  0
ARC
  5
487
330
1F
100
AcDbEntity
  8
0
  6
Continuous
 62
     7
370
    25
100
AcDbCircle
 10
6174.9601962449
 20
4904.6247016661
 30
0.0
 40
3.0
100
AcDbArc
 50
0.0
 51
180.0
  0
LINE
  5
488
330
1F
100
AcDbEntity
  8
0
  6
Continuous
 62
     7
370
    25
100
AcDbLine
 10
6171.9601962449
 20
4904.6247016661
 30
0.0
 11
6171.9601962449
 21
4880.6247016661
 31
0.0
  0
ARC
  5
489
330
1F
100
AcDbEntity
  8
0
  6
Continuous
 62
     7
370
    25
100
AcDbCircle
 10
6164.0073592016
 20
4880.9460361615
 30
0.0
 40
3.0
100
AcDbArc
 50
180.0
 51
0.0
  0
LINE
  5
48A
330
1F
100
AcDbEntity
  8
0
  6
Continuous
 62
     7
370
    25
100
AcDbLine
 10
6167.0073592016
 20
4880.9460361615
 30
0.0
 11
6167.0073592016
 21
4904.9460361615
 31
0.0
  0
ARC
  5
48B
330
1F
100
AcDbEntity
  8
0
  6
Continuous
 62
     7
370
    25
100
AcDbCircle
 10
6164.0073592016
 20
4904.9460361615
 30
0.0
 40
3.0
100
AcDbArc
 50
0.0
 51
180.0
  0
LINE
  5
48C
330
1F
100
AcDbEntity
  8
0
  6
Continuous
 62
     7
370
    25
100
AcDbLine
 10
6161.0073592016
 20
4904.9460361615
 30
0.0
 11
6161.0073592016
 21
4880.9460361615
 31
0.0
  0
ARC
  5
48D
330
1F
100
AcDbEntity
  8
0
  6
Continuous
 62
     7
370
    25
100
AcDbCircle
 10
6153.0588182152
 20
4880.4948793152
 30
0.0
 40
3.0
100
AcDbArc
 50
180.0
 51
0.0
  0
LINE
  5
48E
330
1F
100
AcDbEntity
  8
0
  6
Continuous
 62
     7
370
    25
100
AcDbLine
 10
6156.0588182152
 20
4880.4948793152
 30
0.0
 11
6156.0588182152
 21
4904.4948793152
 31
0.0
  0
ARC
  5
48F
330
1F
100
AcDbEntity
  8
0
  6
Continuous
 62
     7
370
    25
100
AcDbCircle
 10
6153.0588182152
 20
4904.4948793152
 30
0.0
 40
3.0
100
AcDbArc
 50
0.0
 51
180.0
  0
LINE
  5
490
330
1F
100
AcDbEntity
  8
0
  6
Continuous
 62
     7
370
    25
100
AcDbLine
 10
6150.0588182152
 20
4904.4948793152
 30
0.0
 11
6150.0588182152
 21
4880.4948793152
 31
0.0
  0
ARC
  5
491
330
1F
100
AcDbEntity
  8
0
  6
Continuous
 62
     7
370
    25
100
AcDbCircle
 10
6142.1598230535
 20
4879.3567484317
 30
0.0
 40
3.0
100
AcDbArc
 50
180.0
 51
0.0
  0
LINE
  5
492
330
1F
100
AcDbEntity
  8
0
  6
Continuous
 62
     7
370
    25
100
AcDbLine
 10
6145.1598230535
 20
4879.3567484317
 30
0.0
 11
6145.1598230535
 21
4903.3567484317
 31
0.0
  0
ARC
  5
493
330
1F
100
AcDbEntity
  8
0
  6
Continuous
 62
     7
370
    25
100
AcDbCircle
 10
6142.1598230535
 20
4903.3567484317
 30
0.0
 40
3.0
100
AcDbArc
 50
0.0
 51
180.0
  0
LINE
  5
494
330
1F
100
AcDbEntity
  8
0
  6
Continuous
 62
     7
370
    25
100
AcDbLine
 10
6139.1598230535
 20
4903.3567484317
 30
0.0
 11
6139.1598230535
 21
4879.3567484317
 31
0.0
  0
ARC
  5
495
330
1F
100
AcDbEntity
  8
0
  6
Continuous
 62
     7
370
    25
100
AcDbCircle
 10
6131.3377217106
 20
4877.624579578
 30
0.0
 40
3.0
100
AcDbArc
 50
180.0
 51
0.0
  0
LINE
  5
496
330
1F
100
AcDbEntity
  8
0
  6
Continuous
 62
     7
370
    25
100
AcDbLine
 10
6134.3377217106
 20
4877.624579578
 30
0.0
 11
6134.3377217106
 21
4901.624579578
 31
0.0
  0
ARC
  5
497
330
1F
100
AcDbEntity
  8
0
  6
Continuous
 62
     7
370
    25
100
AcDbCircle
 10
6131.3377217106
 20
4901.624579578
 30
0.0
 40
3.0
100
AcDbArc
 50
0.0
 51
180.0
  0
LINE
  5
498
330
1F
100
AcDbEntity
  8
0
  6
Continuous
 62
     7
370
    25
100
AcDbLine
 10
6128.3377217106
 20
4901.624579578
 30
0.0
 11
6128.3377217106
 21
4877.624579578
 31
0.0
  0
ARC
  5
499
330
1F
100
AcDbEntity
  8
0
  6
Continuous
 62
     7
370
    25
100
AcDbCircle
 10
6120.6078966426
 20
4875.3910034432
 30
0.0
 40
3.0
100
AcDbArc
 50
180.0
 51
0.0
  0
LINE
  5
49A
330
1F
100
AcDbEntity
  8
0
  6
Continuous
 62
     7
370
    25
100
AcDbLine
 10
6123.6078966426
 20
4875.3910034432
 30
0.0
 11
6123.6078966426
 21
4899.3910034432
 31
0.0
  0
ARC
  5
49B
330
1F
100
AcDbEntity
  8
0
  6
Continuous
 62
     7
370
    25
100
AcDbCircle
 10
6120.6078966426
 20
4899.3910034432
 30
0.0
 40
3.0
100
AcDbArc
 50
0.0
 51
180.0
  0
LINE
  5
49C
330
1F
100
AcDbEntity
  8
0
  6
Continuous
 62
     7
370
    25
100
AcDbLine
 10
6117.6078966426
 20
4899.3910034432
 30
0.0
 11
6117.6078966426
 21
4875.3910034432
 31
0.0
  0
ARC
  5
49D
330
1F
100
AcDbEntity
  8
0
  6
Continuous
 62
     7
370
    25
100
AcDbCircle
 10
6109.9737393104
 20
4872.7441838783
 30
0.0
 40
3.0
100
AcDbArc
 50
180.0
 51
0.0
  0
LINE
  5
49E
330
1F
100
AcDbEntity
  8
0
  6
Continuous
 62
     7
370
    25
100
AcDbLine
 10
6112.9737393104
 20
4872.7441838783
 30
0.0
 11
6112.9737393104
 21
4896.7441838783
 31
0.0
  0
ARC
  5
49F
330
1F
100
AcDbEntity
  8
0
  6
Continuous
 62
     7
370
    25
100
AcDbCircle
 10
6109.9737393104
 20
4896.7441838783
 30
0.0
 40
3.0
100
AcDbArc
 50
0.0
 51
180.0
  0
LINE
  5
4A0
330
1F
100
AcDbEntity
  8
0
  6
Continuous
 62
     7
370
    25
100
AcDbLine
 10
6106.9737393104
 20
4896.7441838783
 30
0.0
 11
6106.9737393104
 21
4872.7441838783
 31
0.0
  0
ARC
  5
4A1
330
1F
100
AcDbEntity
  8
0
  6
Continuous
 62
     7
370
    25
100
AcDbCircle
 10
6099.426630405
 20
4869.7650148574
 30
0.0
 40
3.0
100
AcDbArc
 50
180.0
 51
0.0
  0
LINE
  5
4A2
330
1F
100
AcDbEntity
  8
0
  6
Continuous
 62
     7
370
    25
100
AcDbLine
 10
6102.426630405
 20
4869.7650148574
 30
0.0
 11
6102.426630405
 21
4893.7650148574
 31
0.0
  0
ARC
  5
4A3
330
1F
100
AcDbEntity
  8
0
  6
Continuous
 62
     7
370
    25
100
AcDbCircle
 10
6099.426630405
 20
4893.7650148574
 30
0.0
 40
3.0
100
AcDbArc
 50
0.0
 51
180.0
  0
LINE
  5
4A4
330
1F
100
AcDbEntity
  8
0
  6
Continuous
 62
     7
370
    25
100
AcDbLine
 10
6096.426630405
 20
4893.7650148574
 30
0.0
 11
6096.426630405
 21
4869.7650148574
 31
0.0
  0
ARC
  5
4A5
330
1F
100
AcDbEntity
  8
0
  6
Continuous
 62
     7
370
    25
100
AcDbCircle
 10
6088.95642539
 20
4866.5289697425
 30
0.0
 40
3.0
100
AcDbArc
 50
180.0
 51
0.0
  0
LINE
  5
4A6
330
1F
100
AcDbEntity
  8
0
  6
Continuous
 62
     7
370
    25
100
AcDbLine
 10
6091.95642539
 20
4866.5289697425
 30
0.0
 11
6091.95642539
 21
4890.5289697425
 31
0.0
  0
ARC
  5
4A7
330
1F
100
AcDbEntity
  8
0
  6
Continuous
 62
     7
370
    25
100
AcDbCircle
 10
6088.95642539
 20
4890.5289697425
 30
0.0
 40
3.0
100
AcDbArc
 50
0.0
 51
180.0
  0
LINE
  5
4A8
330
1F
100
AcDbEntity
  8
0
  6
Continuous
 62
     7
370
    25
100
AcDbLine
 10
6085.95642539
 20
4890.5289697425
 30
0.0
 11
6085.95642539
 21
4866.5289697425
 31
0.0
  0
ARC
  5
4A9
330
1F
100
AcDbEntity
  8
0
  6
Continuous
 62
     7
370
    25
100
AcDbCircle
 10
6078.5439544433
 20
4863.1041472977
 30
0.0
 40
3.0
100
AcDbArc
 50
180.0
 51
0.0
  0
LINE
  5
4AA
330
1F
100
AcDbEntity
  8
0
  6
Continuous
 62
     7
370
    25
100
AcDbLine
 10
6081.5439544433
 20
4863.1041472977
 30
0.0
 11
6081.5439544433
 21
4887.1041472977
 31
0.0
  0
ARC
  5
4AB
330
1F
100
AcDbEntity
  8
0
  6
Continuous
 62
     7
370
    25
100
AcDbCircle
 10
6078.5439544433
 20
4887.1041472977
 30
0.0
 40
3.0
100
AcDbArc
 50
0.0
 51
180.0
  0
LINE
  5
4AC
330
1F
100
AcDbEntity
  8
0
  6
Continuous
 62
     7
370
    25
100
AcDbLine
 10
6075.5439544433
 20
4887.1041472977
 30
0.0
 11
6075.5439544433
 21
4863.1041472977
 31
0.0
  0
ARC
  5
4AD
330
1F
100
AcDbEntity
  8
0
  6
Continuous
 62
     7
370
    25
100
AcDbCircle
 10
6068.1760232504
 20
4859.5567848035
 30
0.0
 40
3.0
100
AcDbArc
 50
180.0
 51
0.0
  0
LINE
  5
4AE
330
1F
100
AcDbEntity
  8
0
  6
Continuous
 62
     7
370
    25
100
AcDbLine
 10
6071.1760232504
 20
4859.5567848035
 30
0.0
 11
6071.1760232504
 21
4883.5567848035
 31
0.0
  0
ARC
  5
4AF
330
1F
100
AcDbEntity
  8
0
  6
Continuous
 62
     7
370
    25
100
AcDbCircle
 10
6068.1760232504
 20
4883.5567848035
 30
0.0
 40
3.0
100
AcDbArc
 50
0.0
 51
180.0
  0
LINE
  5
4B0
330
1F
100
AcDbEntity
  8
0
  6
Continuous
 62
     7
370
    25
100
AcDbLine
 10
6065.1760232504
 20
4883.5567848035
 30
0.0
 11
6065.1760232504
 21
4859.5567848035
 31
0.0
  0
ARC
  5
4B1
330
1F
100
AcDbEntity
  8
0
  6
Continuous
 62
     7
370
    25
100
AcDbCircle
 10
6057.8274135985
 20
4855.9463747329
 30
0.0
 40
3.0
100
AcDbArc
 50
180.0
 51
0.0
  0
LINE
  5
4B2
330
1F
100
AcDbEntity
  8
0
  6
Continuous
 62
     7
370
    25
100
AcDbLine
 10
6060.8274135985
 20
4855.9463747329
 30
0.0
 11
6060.8274135985
 21
4879.9463747329
 31
0.0
  0
ARC
  5
4B3
330
1F
100
AcDbEntity
  8
0
  6
Continuous
 62
     7
370
    25
100
AcDbCircle
 10
6057.8274135985
 20
4879.9463747329
 30
0.0
 40
3.0
100
AcDbArc
 50
0.0
 51
180.0
  0
LINE
  5
4B4
330
1F
100
AcDbEntity
  8
0
  6
Continuous
 62
     7
370
    25
100
AcDbLine
 10
6054.8274135985
 20
4879.9463747329
 30
0.0
 11
6054.8274135985
 21
4855.9463747329
 31
0.0
  0
ARC
  5
4B5
330
1F
100
AcDbEntity
  8
0
  6
Continuous
 62
     7
370
    25
100
AcDbCircle
 10
6047.4803921596
 20
4852.3335058162
 30
0.0
 40
3.0
100
AcDbArc
 50
180.0
 51
0.0
  0
LINE
  5
4B6
330
1F
100
AcDbEntity
  8
0
  6
Continuous
 62
     7
370
    25
100
AcDbLine
 10
6050.4803921596
 20
4852.3335058162
 30
0.0
 11
6050.4803921596
 21
4876.3335058162
 31
0.0
  0
ARC
  5
4B7
330
1F
100
AcDbEntity
  8
0
  6
Continuous
 62
     7
370
    25
100
AcDbCircle
 10
6047.4803921596
 20
4876.3335058162
 30
0.0
 40
3.0
100
AcDbArc
 50
0.0
 51
180.0
  0
LINE
  5
4B8
330
1F
100
AcDbEntity
  8
0
  6
Continuous
 62
     7
370
    25
100
AcDbLine
 10
6044.4803921596
 20
4876.3335058162
 30
0.0
 11
6044.4803921596
 21
4852.3335058162
 31
0.0
  0
ARC
  5
4B9
330
1F
100
AcDbEntity
  8
0
  6
Continuous
 62
     7
370
    25
100
AcDbCircle
 10
6037.1127119645
 20
4848.7771049788
 30
0.0
 40
3.0
100
AcDbArc
 50
180.0
 51
0.0
  0
LINE
  5
4BA
330
1F
100
AcDbEntity
  8
0
  6
Continuous
 62
     7
370
    25
100
AcDbLine
 10
6040.1127119645
 20
4848.7771049788
 30
0.0
 11
6040.1127119645
 21
4872.7771049788
 31
0.0
  0
ARC
  5
4BB
330
1F
100
AcDbEntity
  8
0
  6
Continuous
 62
     7
370
    25
100
AcDbCircle
 10
6037.1127119645
 20
4872.7771049788
 30
0.0
 40
3.0
100
AcDbArc
 50
0.0
 51
180.0
  0
LINE
  5
4BC
330
1F
100
AcDbEntity
  8
0
  6
Continuous
 62
     7
370
    25
100
AcDbLine
 10
6034.1127119645
 20
4872.7771049788
 30
0.0
 11
6034.1127119645
 21
4848.7771049788
 31
0.0
  0
ARC
  5
4BD
330
1F
100
AcDbEntity
  8
0
  6
Continuous
 62
     7
370
    25
100
AcDbCircle
 10
6026.7066227637
 20
4845.3388559635
 30
0.0
 40
3.000000000000909
100
AcDbArc
 50
180.0
 51
0.0
  0
LINE
  5
4BE
330
1F
100
AcDbEntity
  8
0
  6
Continuous
 62
     7
370
    25
100
AcDbLine
 10
6029.7066227637
 20
4845.3388559635
 30
0.0
 11
6029.7066227637
 21
4869.3388559635
 31
0.0
  0
ARC
  5
4BF
330
1F
100
AcDbEntity
  8
0
  6
Continuous
 62
     7
370
    25
100
AcDbCircle
 10
6026.7066227637
 20
4869.3388559635
 30
0.0
 40
3.000000000000909
100
AcDbArc
 50
0.0
 51
180.0
  0
LINE
  5
4C0
330
1F
100
AcDbEntity
  8
0
  6
Continuous
 62
     7
370
    25
100
AcDbLine
 10
6023.7066227637
 20
4869.3388559635
 30
0.0
 11
6023.7066227637
 21
4845.3388559635
 31
0.0
  0
ARC
  5
4C1
330
1F
100
AcDbEntity
  8
0
  6
Continuous
 62
     7
370
    25
100
AcDbCircle
 10
6016.2413714811
 20
4842.0819180392
 30
0.0
 40
3.000000000000909
100
AcDbArc
 50
180.0
 51
0.0
  0
LINE
  5
4C2
330
1F
100
AcDbEntity
  8
0
  6
Continuous
 62
     7
370
    25
100
AcDbLine
 10
6019.2413714811
 20
4842.0819180392
 30
0.0
 11
6019.2413714811
 21
4866.0819180392
 31
0.0
  0
ARC
  5
4C3
330
1F
100
AcDbEntity
  8
0
  6
Continuous
 62
     7
370
    25
100
AcDbCircle
 10
6016.2413714811
 20
4866.0819180392
 30
0.0
 40
3.000000000000909
100
AcDbArc
 50
0.0
 51
180.0
  0
LINE
  5
4C4
330
1F
100
AcDbEntity
  8
0
  6
Continuous
 62
     7
370
    25
100
AcDbLine
 10
6013.2413714811
 20
4866.0819180392
 30
0.0
 11
6013.2413714811
 21
4842.0819180392
 31
0.0
  0
ARC
  5
4C5
330
1F
100
AcDbEntity
  8
0
  6
Continuous
 62
     7
370
    25
100
AcDbCircle
 10
6005.7022145788
 20
4839.0750062553
 30
0.0
 40
3.0
100
AcDbArc
 50
180.0
 51
0.0
  0
LINE
  5
4C6
330
1F
100
AcDbEntity
  8
0
  6
Continuous
 62
     7
370
    25
100
AcDbLine
 10
6008.7022145788
 20
4839.0750062553
 30
0.0
 11
6008.7022145788
 21
4863.0750062553
 31
0.0
  0
ARC
  5
4C7
330
1F
100
AcDbEntity
  8
0
  6
Continuous
 62
     7
370
    25
100
AcDbCircle
 10
6005.7022145788
 20
4863.0750062553
 30
0.0
 40
3.0
100
AcDbArc
 50
0.0
 51
180.0
  0
LINE
  5
4C8
330
1F
100
AcDbEntity
  8
0
  6
Continuous
 62
     7
370
    25
100
AcDbLine
 10
6002.7022145788
 20
4863.0750062553
 30
0.0
 11
6002.7022145788
 21
4839.0750062553
 31
0.0
  0
ARC
  5
4C9
330
1F
100
AcDbEntity
  8
0
  6
Continuous
 62
     7
370
    25
100
AcDbCircle
 10
5995.0759196222
 20
4836.391709704
 30
0.0
 40
3.0
100
AcDbArc
 50
180.0
 51
0.0
  0
LINE
  5
4CA
330
1F
100
AcDbEntity
  8
0
  6
Continuous
 62
     7
370
    25
100
AcDbLine
 10
5998.0759196222
 20
4836.391709704
 30
0.0
 11
5998.0759196222
 21
4860.391709704
 31
0.0
  0
ARC
  5
4CB
330
1F
100
AcDbEntity
  8
0
  6
Continuous
 62
     7
370
    25
100
AcDbCircle
 10
5995.0759196222
 20
4860.391709704
 30
0.0
 40
3.0
100
AcDbArc
 50
0.0
 51
180.0
  0
LINE
  5
4CC
330
1F
100
AcDbEntity
  8
0
  6
Continuous
 62
     7
370
    25
100
AcDbLine
 10
5992.0759196222
 20
4860.391709704
 30
0.0
 11
5992.0759196222
 21
4836.391709704
 31
0.0
  0
ARC
  5
4CD
330
1F
100
AcDbEntity
  8
0
  6
Continuous
 62
     7
370
    25
100
AcDbCircle
 10
5984.3567742939
 20
4834.1124070109
 30
0.0
 40
3.000000000000909
100
AcDbArc
 50
180.0
 51
0.0
  0
LINE
  5
4CE
330
1F
100
AcDbEntity
  8
0
  6
Continuous
 62
     7
370
    25
100
AcDbLine
 10
5987.3567742939
 20
4834.1124070109
 30
0.0
 11
5987.3567742939
 21
4858.1124070109
 31
0.0
  0
ARC
  5
4CF
330
1F
100
AcDbEntity
  8
0
  6
Continuous
 62
     7
370
    25
100
AcDbCircle
 10
5984.3567742939
 20
4858.1124070109
 30
0.0
 40
3.000000000000909
100
AcDbArc
 50
0.0
 51
180.0
  0
LINE
  5
4D0
330
1F
100
AcDbEntity
  8
0
  6
Continuous
 62
     7
370
    25
100
AcDbLine
 10
5981.3567742939
 20
4858.1124070109
 30
0.0
 11
5981.3567742939
 21
4834.1124070109
 31
0.0
  0
ARC
  5
4D1
330
1F
100
AcDbEntity
  8
0
  6
Continuous
 62
     7
370
    25
100
AcDbCircle
 10
5973.5450868847
 20
4832.323191003
 30
0.0
 40
3.0
100
AcDbArc
 50
180.0
 51
0.0
  0
LINE
  5
4D2
330
1F
100
AcDbEntity
  8
0
  6
Continuous
 62
     7
370
    25
100
AcDbLine
 10
5976.5450868847
 20
4832.323191003
 30
0.0
 11
5976.5450868847
 21
4856.323191003
 31
0.0
  0
ARC
  5
4D3
330
1F
100
AcDbEntity
  8
0
  6
Continuous
 62
     7
370
    25
100
AcDbCircle
 10
5973.5450868847
 20
4856.323191003
 30
0.0
 40
3.0
100
AcDbArc
 50
0.0
 51
180.0
  0
LINE
  5
4D4
330
1F
100
AcDbEntity
  8
0
  6
Continuous
 62
     7
370
    25
100
AcDbLine
 10
5970.5450868847
 20
4856.323191003
 30
0.0
 11
5970.5450868847
 21
4832.323191003
 31
0.0
  0
ARC
  5
4D5
330
1F
100
AcDbEntity
  8
0
  6
Continuous
 62
     7
370
    25
100
AcDbCircle
 10
5962.6531896035
 20
4831.1151285061
 30
0.0
 40
3.0
100
AcDbArc
 50
180.0
 51
0.0
  0
LINE
  5
4D6
330
1F
100
AcDbEntity
  8
0
  6
Continuous
 62
     7
370
    25
100
AcDbLine
 10
5965.6531896035
 20
4831.1151285061
 30
0.0
 11
5965.6531896035
 21
4855.1151285061
 31
0.0
  0
ARC
  5
4D7
330
1F
100
AcDbEntity
  8
0
  6
Continuous
 62
     7
370
    25
100
AcDbCircle
 10
5962.6531896035
 20
4855.1151285061
 30
0.0
 40
3.0
100
AcDbArc
 50
0.0
 51
180.0
  0
LINE
  5
4D8
330
1F
100
AcDbEntity
  8
0
  6
Continuous
 62
     7
370
    25
100
AcDbLine
 10
5959.6531896035
 20
4855.1151285061
 30
0.0
 11
5959.6531896035
 21
4831.1151285061
 31
0.0
  0
ARC
  5
4D9
330
1F
100
AcDbEntity
  8
0
  6
Continuous
 62
     7
370
    25
100
AcDbCircle
 10
5951.7084332005
 20
4830.5804290936
 30
0.0
 40
3.0
100
AcDbArc
 50
180.0
 51
0.0
  0
LINE
  5
4DA
330
1F
100
AcDbEntity
  8
0
  6
Continuous
 62
     7
370
    25
100
AcDbLine
 10
5954.7084332005
 20
4830.5804290936
 30
0.0
 11
5954.7084332005
 21
4854.5804290936
 31
0.0
  0
ARC
  5
4DB
330
1F
100
AcDbEntity
  8
0
  6
Continuous
 62
     7
370
    25
100
AcDbCircle
 10
5951.7084332005
 20
4854.5804290936
 30
0.0
 40
3.0
100
AcDbArc
 50
0.0
 51
180.0
  0
LINE
  5
4DC
330
1F
100
AcDbEntity
  8
0
  6
Continuous
 62
     7
370
    25
100
AcDbLine
 10
5948.7084332005
 20
4854.5804290936
 30
0.0
 11
5948.7084332005
 21
4830.5804290936
 31
0.0
  0
ARC
  5
4DD
330
1F
100
AcDbEntity
  8
0
  6
Continuous
 62
     7
370
    25
100
AcDbCircle
 10
5940.7531722393
 20
4830.8060962378
 30
0.0
 40
3.0
100
AcDbArc
 50
180.0
 51
0.0
  0
LINE
  5
4DE
330
1F
100
AcDbEntity
  8
0
  6
Continuous
 62
     7
370
    25
100
AcDbLine
 10
5943.7531722393
 20
4830.8060962378
 30
0.0
 11
5943.7531722393
 21
4854.8060962378
 31
0.0
  0
ARC
  5
4DF
330
1F
100
AcDbEntity
  8
0
  6
Continuous
 62
     7
370
    25
100
AcDbCircle
 10
5940.7531722393
 20
4854.8060962378
 30
0.0
 40
3.0
100
AcDbArc
 50
0.0
 51
180.0
  0
LINE
  5
4E0
330
1F
100
AcDbEntity
  8
0
  6
Continuous
 62
     7
370
    25
100
AcDbLine
 10
5937.7531722393
 20
4854.8060962378
 30
0.0
 11
5937.7531722393
 21
4830.8060962378
 31
0.0
  0
ARC
  5
4E1
330
1F
100
AcDbEntity
  8
0
  6
Continuous
 62
     7
370
    25
100
AcDbCircle
 10
5929.8477443314
 20
4831.8655082776
 30
0.0
 40
3.0
100
AcDbArc
 50
180.0
 51
0.0
  0
LINE
  5
4E2
330
1F
100
AcDbEntity
  8
0
  6
Continuous
 62
     7
370
    25
100
AcDbLine
 10
5932.8477443314
 20
4831.8655082776
 30
0.0
 11
5932.8477443314
 21
4855.8655082776
 31
0.0
  0
ARC
  5
4E3
330
1F
100
AcDbEntity
  8
0
  6
Continuous
 62
     7
370
    25
100
AcDbCircle
 10
5929.8477443314
 20
4855.8655082776
 30
0.0
 40
3.0
100
AcDbArc
 50
0.0
 51
180.0
  0
LINE
  5
4E4
330
1F
100
AcDbEntity
  8
0
  6
Continuous
 62
     7
370
    25
100
AcDbLine
 10
5926.8477443314
 20
4855.8655082776
 30
0.0
 11
5926.8477443314
 21
4831.8655082776
 31
0.0
  0
ARC
  5
4E5
330
1F
100
AcDbEntity
  8
0
  6
Continuous
 62
     7
370
    25
100
AcDbCircle
 10
5919.0644392868
 20
4833.8089968742
 30
0.0
 40
3.000000000000909
100
AcDbArc
 50
180.0
 51
0.0
  0
LINE
  5
4E6
330
1F
100
AcDbEntity
  8
0
  6
Continuous
 62
     7
370
    25
100
AcDbLine
 10
5922.0644392868
 20
4833.8089968742
 30
0.0
 11
5922.0644392868
 21
4857.8089968742
 31
0.0
  0
ARC
  5
4E7
330
1F
100
AcDbEntity
  8
0
  6
Continuous
 62
     7
370
    25
100
AcDbCircle
 10
5919.0644392868
 20
4857.8089968742
 30
0.0
 40
3.000000000000909
100
AcDbArc
 50
0.0
 51
180.0
  0
LINE
  5
4E8
330
1F
100
AcDbEntity
  8
0
  6
Continuous
 62
     7
370
    25
100
AcDbLine
 10
5916.0644392868
 20
4857.8089968742
 30
0.0
 11
5916.0644392868
 21
4833.8089968742
 31
0.0
  0
ARC
  5
4E9
330
1F
100
AcDbEntity
  8
0
  6
Continuous
 62
     7
370
    25
100
AcDbCircle
 10
5908.4844697454
 20
4836.6554438447
 30
0.0
 40
3.000000000000909
100
AcDbArc
 50
180.0
 51
0.0
  0
LINE
  5
4EA
330
1F
100
AcDbEntity
  8
0
  6
Continuous
 62
     7
370
    25
100
AcDbLine
 10
5911.4844697454
 20
4836.6554438447
 30
0.0
 11
5911.4844697454
 21
4860.6554438447
 31
0.0
  0
ARC
  5
4EB
330
1F
100
AcDbEntity
  8
0
  6
Continuous
 62
     7
370
    25
100
AcDbCircle
 10
5908.4844697454
 20
4860.6554438447
 30
0.0
 40
3.000000000000909
100
AcDbArc
 50
0.0
 51
180.0
  0
LINE
  5
4EC
330
1F
100
AcDbEntity
  8
0
  6
Continuous
 62
     7
370
    25
100
AcDbLine
 10
5905.4844697454
 20
4860.6554438447
 30
0.0
 11
5905.4844697454
 21
4836.6554438447
 31
0.0
  0
ARC
  5
4ED
330
1F
100
AcDbEntity
  8
0
  6
Continuous
 62
     7
370
    25
100
AcDbCircle
 10
5898.1844491422
 20
4840.3896687061
 30
0.0
 40
3.0
100
AcDbArc
 50
180.0
 51
0.0
  0
LINE
  5
4EE
330
1F
100
AcDbEntity
  8
0
  6
Continuous
 62
     7
370
    25
100
AcDbLine
 10
5901.1844491422
 20
4840.3896687061
 30
0.0
 11
5901.1844491422
 21
4864.3896687061
 31
0.0
  0
ARC
  5
4EF
330
1F
100
AcDbEntity
  8
0
  6
Continuous
 62
     7
370
    25
100
AcDbCircle
 10
5898.1844491422
 20
4864.3896687061
 30
0.0
 40
3.0
100
AcDbArc
 50
0.0
 51
180.0
  0
LINE
  5
4F0
330
1F
100
AcDbEntity
  8
0
  6
Continuous
 62
     7
370
    25
100
AcDbLine
 10
5895.1844491422
 20
4864.3896687061
 30
0.0
 11
5895.1844491422
 21
4840.3896687061
 31
0.0
  0
ARC
  5
4F1
330
1F
100
AcDbEntity
  8
0
  6
Continuous
 62
     7
370
    25
100
AcDbCircle
 10
5888.2288878642
 20
4844.9652934235
 30
0.0
 40
3.0
100
AcDbArc
 50
180.0
 51
0.0
  0
LINE
  5
4F2
330
1F
100
AcDbEntity
  8
0
  6
Continuous
 62
     7
370
    25
100
AcDbLine
 10
5891.2288878642
 20
4844.9652934235
 30
0.0
 11
5891.2288878642
 21
4868.9652934235
 31
0.0
  0
ARC
  5
4F3
330
1F
100
AcDbEntity
  8
0
  6
Continuous
 62
     7
370
    25
100
AcDbCircle
 10
5888.2288878642
 20
4868.9652934235
 30
0.0
 40
3.0
100
AcDbArc
 50
0.0
 51
180.0
  0
LINE
  5
4F4
330
1F
100
AcDbEntity
  8
0
  6
Continuous
 62
     7
370
    25
100
AcDbLine
 10
5885.2288878642
 20
4868.9652934235
 30
0.0
 11
5885.2288878642
 21
4844.9652934235
 31
0.0
  0
ARC
  5
4F5
330
1F
100
AcDbEntity
  8
0
  6
Continuous
 62
     7
370
    25
100
AcDbCircle
 10
5878.6642060289
 20
4850.3127012867
 30
0.0
 40
3.000000000000909
100
AcDbArc
 50
180.0
 51
0.0
  0
LINE
  5
4F6
330
1F
100
AcDbEntity
  8
0
  6
Continuous
 62
     7
370
    25
100
AcDbLine
 10
5881.6642060289
 20
4850.3127012867
 30
0.0
 11
5881.6642060289
 21
4874.3127012867
 31
0.0
  0
ARC
  5
4F7
330
1F
100
AcDbEntity
  8
0
  6
Continuous
 62
     7
370
    25
100
AcDbCircle
 10
5878.6642060289
 20
4874.3127012867
 30
0.0
 40
3.000000000000909
100
AcDbArc
 50
0.0
 51
180.0
  0
LINE
  5
4F8
330
1F
100
AcDbEntity
  8
0
  6
Continuous
 62
     7
370
    25
100
AcDbLine
 10
5875.6642060289
 20
4874.3127012867
 30
0.0
 11
5875.6642060289
 21
4850.3127012867
 31
0.0
  0
LINE
  5
4F9
330
1F
100
AcDbEntity
  8
0
  6
Continuous
 62
     7
370
    25
100
AcDbLine
 10
5856.8955320314
 20
4819.3478959792
 30
0.0
 11
5856.8955320314
 21
4820.5478959792
 31
0.0
  0
LINE
  5
4FA
330
1F
100
AcDbEntity
  8
0
  6
Continuous
 62
     7
370
    25
100
AcDbLine
 10
5857.7187553361
 20
4821.5478959792
 30
0.0
 11
5856.8955320314
 21
4820.5478959792
 31
0.0
  0
LINE
  5
4FB
330
1F
100
AcDbEntity
  8
0
  6
Continuous
 62
     7
370
    25
100
AcDbLine
 10
5857.7187553361
 20
4821.5478959791
 30
0.0
 11
5856.8955320314
 21
4819.3478959792
 31
0.0
  0
LINE
  5
4FC
330
1F
100
AcDbEntity
  8
0
  6
Continuous
 62
     7
370
    25
100
AcDbLine
 10
5856.718755336
 20
4820.7246726743
 30
0.0
 11
5857.7187553361
 21
4821.5478959792
 31
0.0
  0
LINE
  5
4FD
330
1F
100
AcDbEntity
  8
0
  6
Continuous
 62
     7
370
    25
100
AcDbLine
 10
5855.518755336
 20
4820.7246726743
 30
0.0
 11
5856.718755336
 21
4820.7246726743
 31
0.0
  0
LINE
  5
4FE
330
1F
100
AcDbEntity
  8
0
  6
Continuous
 62
     7
370
    25
100
AcDbLine
 10
6692.5187553363
 20
4820.7246726743
 30
0.0
 11
6691.3187553363
 21
4820.7246726743
 31
0.0
  0
LINE
  5
4FF
330
1F
100
AcDbEntity
  8
0
  6
Continuous
 62
     7
370
    25
100
AcDbLine
 10
6690.3187553363
 20
4821.5478959791
 30
0.0
 11
6691.3187553363
 21
4820.7246726743
 31
0.0
  0
LINE
  5
500
330
1F
100
AcDbEntity
  8
0
  6
Continuous
 62
     7
370
    25
100
AcDbLine
 10
6691.1419786408
 20
4819.3478959792
 30
0.0
 11
6690.3187553362
 21
4821.5478959791
 31
0.0
  0
LINE
  5
501
330
1F
100
AcDbEntity
  8
0
  6
Continuous
 62
     7
370
    25
100
AcDbLine
 10
6691.1419786408
 20
4820.5478959792
 30
0.0
 11
6690.3187553362
 21
4821.5478959791
 31
0.0
  0
LINE
  5
502
330
1F
100
AcDbEntity
  8
0
  6
Continuous
 62
     7
370
    25
100
AcDbLine
 10
6691.1419786408
 20
4819.3478959792
 30
0.0
 11
6691.1419786408
 21
4820.5478959792
 31
0.0
  0
LINE
  5
503
330
1F
100
AcDbEntity
  8
0
  6
Continuous
 62
     7
370
    25
100
AcDbLine
 10
6691.1419786408
 20
4819.3478959792
 30
0.0
 11
5856.8955320314
 21
4819.3478959792
 31
0.0
  0
LINE
  5
504
330
1F
100
AcDbEntity
  8
0
  6
Continuous
 62
     7
370
    25
100
AcDbLine
 10
6256.8187553361
 20
4871.8478959791
 30
0.0
 11
6256.8187553361
 21
4868.3478959791
 31
0.0
  0
LINE
  5
505
330
1F
100
AcDbEntity
  8
0
  6
Continuous
 62
     7
370
    25
100
AcDbLine
 10
6256.8187553361
 20
4871.8478959791
 30
0.0
 11
6259.6187553361
 21
4871.8478959791
 31
0.0
  0
LINE
  5
506
330
1F
100
AcDbEntity
  8
0
  6
Continuous
 62
     7
370
    25
100
AcDbLine
 10
6259.6187553361
 20
4868.3478959791
 30
0.0
 11
6259.6187553361
 21
4871.8478959791
 31
0.0
  0
LINE
  5
507
330
1F
100
AcDbEntity
  8
0
  6
Continuous
 62
     7
370
    25
100
AcDbLine
 10
6256.8187553361
 20
4868.3478959791
 30
0.0
 11
6259.6187553361
 21
4868.3478959791
 31
0.0
  0
LINE
  5
508
330
1F
100
AcDbEntity
  8
0
  6
Continuous
 62
     7
370
    25
100
AcDbLine
 10
6291.2180741075
 20
4868.3478959791
 30
0.0
 11
6291.2180741075
 21
4871.8478959791
 31
0.0
  0
LINE
  5
509
330
1F
100
AcDbEntity
  8
0
  6
Continuous
 62
     7
370
    25
100
AcDbLine
 10
6288.4180741075
 20
4868.3478959791
 30
0.0
 11
6291.2180741075
 21
4868.3478959791
 31
0.0
  0
LINE
  5
50A
330
1F
100
AcDbEntity
  8
0
  6
Continuous
 62
     7
370
    25
100
AcDbLine
 10
6288.4180741075
 20
4871.8478959791
 30
0.0
 11
6288.4180741075
 21
4868.3478959791
 31
0.0
  0
LINE
  5
50B
330
1F
100
AcDbEntity
  8
0
  6
Continuous
 62
     7
370
    25
100
AcDbLine
 10
6288.4180741075
 20
4871.8478959791
 30
0.0
 11
6291.2180741075
 21
4871.8478959791
 31
0.0
  0
LWPOLYLINE
  5
50C
330
1F
100
AcDbEntity
  8
0
  6
Continuous
 62
     7
370
    25
100
AcDbPolyline
 90
        3
 70
   128
 43
0.0
 10
6256.8187553361
 20
4871.8478959791
 10
6256.6821921107
 20
4871.8344456754
 10
6256.5698549622
 20
4871.802150214
  0
ARC
  5
50D
330
1F
100
AcDbEntity
  8
0
  6
Continuous
 62
     7
370
    25
100
AcDbCircle
 10
6259.6187553361
 20
4871.1478959791
 30
0.0
 40
0.7000000000007276
100
AcDbArc
 50
0.0
 51
90.0
  0
LINE
  5
50E
330
1F
100
AcDbEntity
  8
0
  6
Continuous
 62
     7
370
    25
100
AcDbLine
 10
6260.3187553361
 20
4871.1478959791
 30
0.0
 11
6260.3187553361
 21
4868.3478959791
 31
0.0
  0
LINE
  5
50F
330
1F
100
AcDbEntity
  8
0
  6
Continuous
 62
     7
370
    25
100
AcDbLine
 10
6260.3187553361
 20
4868.3478959791
 30
0.0
 11
6259.6187553361
 21
4868.3478959791
 31
0.0
  0
ARC
  5
510
330
1F
100
AcDbEntity
  8
0
  6
Continuous
 62
     7
370
    25
100
AcDbCircle
 10
6291.2180741075
 20
4871.1478959791
 30
0.0
 40
0.7000000000007276
100
AcDbArc
 50
0.0
 51
90.0
  0
LINE
  5
511
330
1F
100
AcDbEntity
  8
0
  6
Continuous
 62
     7
370
    25
100
AcDbLine
 10
6291.9180741075
 20
4871.1478959791
 30
0.0
 11
6291.9180741075
 21
4868.3478959791
 31
0.0
  0
LINE
  5
512
330
1F
100
AcDbEntity
  8
0
  6
Continuous
 62
     7
370
    25
100
AcDbLine
 10
6291.2180741075
 20
4868.3478959791
 30
0.0
 11
6291.9180741075
 21
4868.3478959791
 31
0.0
  0
LINE
  5
513
330
1F
100
AcDbEntity
  8
0
  6
Continuous
 62
     7
370
    25
100
AcDbLine
 10
6287.7180741075
 20
4868.3478959791
 30
0.0
 11
6287.7180741075
 21
4871.1478959791
 31
0.0
  0
ARC
  5
514
330
1F
100
AcDbEntity
  8
0
  6
Continuous
 62
     7
370
    25
100
AcDbCircle
 10
6288.4180741075
 20
4871.1478959791
 30
0.0
 40
0.7000000000007276
100
AcDbArc
 50
90.0
 51
180.0
  0
LINE
  5
515
330
1F
100
AcDbEntity
  8
0
  6
Continuous
 62
     7
370
    25
100
AcDbLine
 10
6288.4180741075
 20
4868.3478959791
 30
0.0
 11
6287.7180741075
 21
4868.3478959791
 31
0.0
  0
LINE
  5
516
330
1F
100
AcDbEntity
  8
0
  6
Continuous
 62
     7
370
    25
100
AcDbLine
 10
6291.2180741075
 20
4864.8478959792
 30
0.0
 11
6291.2180741075
 21
4868.3478959791
 31
0.0
  0
LINE
  5
517
330
1F
100
AcDbEntity
  8
0
  6
Continuous
 62
     7
370
    25
100
AcDbLine
 10
6291.2180741075
 20
4864.8478959792
 30
0.0
 11
6288.4180741075
 21
4864.8478959792
 31
0.0
  0
LINE
  5
518
330
1F
100
AcDbEntity
  8
0
  6
Continuous
 62
     7
370
    25
100
AcDbLine
 10
6288.4180741075
 20
4868.3478959791
 30
0.0
 11
6288.4180741075
 21
4864.8478959792
 31
0.0
  0
LINE
  5
519
330
1F
100
AcDbEntity
  8
0
  6
Continuous
 62
     7
370
    25
100
AcDbLine
 10
6256.8187553361
 20
4868.3478959791
 30
0.0
 11
6256.8187553361
 21
4864.8478959792
 31
0.0
  0
LINE
  5
51A
330
1F
100
AcDbEntity
  8
0
  6
Continuous
 62
     7
370
    25
100
AcDbLine
 10
6259.6187553361
 20
4864.8478959792
 30
0.0
 11
6259.6187553361
 21
4868.3478959791
 31
0.0
  0
LINE
  5
51B
330
1F
100
AcDbEntity
  8
0
  6
Continuous
 62
     7
370
    25
100
AcDbLine
 10
6259.6187553361
 20
4864.8478959792
 30
0.0
 11
6256.8187553361
 21
4864.8478959792
 31
0.0
  0
ARC
  5
51C
330
1F
100
AcDbEntity
  8
0
  6
Continuous
 62
     7
370
    25
100
AcDbCircle
 10
6288.4180741075
 20
4865.5478959791
 30
0.0
 40
0.7000000000007276
100
AcDbArc
 50
180.0
 51
270.0
  0
LINE
  5
51D
330
1F
100
AcDbEntity
  8
0
  6
Continuous
 62
     7
370
    25
100
AcDbLine
 10
6287.7180741075
 20
4865.5478959791
 30
0.0
 11
6287.7180741075
 21
4868.3478959791
 31
0.0
  0
LINE
  5
51E
330
1F
100
AcDbEntity
  8
0
  6
Continuous
 62
     7
370
    25
100
AcDbLine
 10
6291.9180741075
 20
4868.3478959791
 30
0.0
 11
6291.9180741075
 21
4865.5478959791
 31
0.0
  0
ARC
  5
51F
330
1F
100
AcDbEntity
  8
0
  6
Continuous
 62
     7
370
    25
100
AcDbCircle
 10
6291.2180741075
 20
4865.5478959791
 30
0.0
 40
0.7000000000007276
100
AcDbArc
 50
270.0
 51
0.0
  0
LWPOLYLINE
  5
520
330
1F
100
AcDbEntity
  8
0
  6
Continuous
 62
     7
370
    25
100
AcDbPolyline
 90
        3
 70
   128
 43
0.0
 10
6256.8187553361
 20
4864.8478959792
 10
6256.6821921107
 20
4864.8613462829
 10
6256.5698549622
 20
4864.8936417443
  0
LINE
  5
521
330
1F
100
AcDbEntity
  8
0
  6
Continuous
 62
     7
370
    25
100
AcDbLine
 10
6260.3187553361
 20
4868.3478959791
 30
0.0
 11
6260.3187553361
 21
4865.5478959791
 31
0.0
  0
ARC
  5
522
330
1F
100
AcDbEntity
  8
0
  6
Continuous
 62
     7
370
    25
100
AcDbCircle
 10
6259.6187553361
 20
4865.5478959791
 30
0.0
 40
0.7000000000007276
100
AcDbArc
 50
270.0
 51
0.0
  0
LINE
  5
523
330
1F
100
AcDbEntity
  8
0
  6
Continuous
 62
     7
370
    25
100
AcDbLine
 10
6287.5911099143
 20
4869.2978959791
 30
0.0
 11
6287.5911099143
 21
4867.3978959791
 31
0.0
  0
LINE
  5
524
330
1F
100
AcDbEntity
  8
0
  6
Continuous
 62
     7
370
    25
100
AcDbLine
 10
6260.4464007579
 20
4869.2978959791
 30
0.0
 11
6260.4464007579
 21
4867.3978959791
 31
0.0
  0
LINE
  5
525
330
1F
100
AcDbEntity
  8
0
  6
Continuous
 62
     7
370
    25
100
AcDbLine
 10
6291.9180741075
 20
4865.5478959791
 30
0.0
 11
6292.6180741075
 21
4865.5478959791
 31
0.0
  0
LINE
  5
526
330
1F
100
AcDbEntity
  8
0
  6
Continuous
 62
     7
370
    25
100
AcDbLine
 10
6291.2180741075
 20
4864.8478959792
 30
0.0
 11
6291.2180741075
 21
4864.1478959791
 31
0.0
  0
LINE
  5
527
330
1F
100
AcDbEntity
  8
0
  6
Continuous
 62
     7
370
    25
100
AcDbLine
 10
6291.2180741075
 20
4864.1478959791
 30
0.0
 11
6289.7457391364
 21
4864.1478959791
 31
0.0
  0
ARC
  5
528
330
1F
100
AcDbEntity
  8
0
  6
Continuous
 62
     7
370
    25
100
AcDbCircle
 10
6284.9581307864
 20
4865.5958403842
 30
0.0
 40
5.001773356877327
100
AcDbArc
 50
343.1728014175
 51
351.3999709405
  0
LINE
  5
529
330
1F
100
AcDbEntity
  8
0
  6
Continuous
 62
     7
370
    25
100
AcDbLine
 10
6256.8187553361
 20
4871.8478959791
 30
0.0
 11
6256.8187553361
 21
4872.5478959791
 31
0.0
  0
LINE
  5
52A
330
1F
100
AcDbEntity
  8
0
  6
Continuous
 62
     7
370
    25
100
AcDbLine
 10
6256.8187553361
 20
4872.5478959791
 30
0.0
 11
6257.8688085829
 21
4872.5478959792
 31
0.0
  0
ARC
  5
52B
330
1F
100
AcDbEntity
  8
0
  6
Continuous
 62
     7
370
    25
100
AcDbCircle
 10
6272.5442175383
 20
4869.5591115608
 30
0.0
 40
14.97666385770861
100
AcDbArc
 50
168.4886082318
 51
171.2094187133
  0
LINE
  5
52C
330
1F
100
AcDbEntity
  8
0
  6
Continuous
 62
     7
370
    25
100
AcDbLine
 10
6258.1319173948
 20
4864.1478959791
 30
0.0
 11
6256.8187553361
 21
4864.1478959791
 31
0.0
  0
LINE
  5
52D
330
1F
100
AcDbEntity
  8
0
  6
Continuous
 62
     7
370
    25
100
AcDbLine
 10
6256.8187553361
 20
4864.8478959792
 30
0.0
 11
6256.8187553361
 21
4864.1478959791
 31
0.0
  0
ARC
  5
52E
330
1F
100
AcDbEntity
  8
0
  6
Continuous
 62
     7
370
    25
100
AcDbCircle
 10
6272.4137597941
 20
4868.2744698857
 30
0.0
 40
14.86605645500818
100
AcDbArc
 50
193.3263042333
 51
196.1160409618
  0
LINE
  5
52F
330
1F
100
AcDbEntity
  8
0
  6
Continuous
 62
     7
370
    25
100
AcDbLine
 10
6289.7457391364
 20
4872.5478959791
 30
0.0
 11
6291.2180741075
 21
4872.5478959791
 31
0.0
  0
LINE
  5
530
330
1F
100
AcDbEntity
  8
0
  6
Continuous
 62
     7
370
    25
100
AcDbLine
 10
6291.2180741075
 20
4871.8478959791
 30
0.0
 11
6291.2180741075
 21
4872.5478959791
 31
0.0
  0
ARC
  5
531
330
1F
100
AcDbEntity
  8
0
  6
Continuous
 62
     7
370
    25
100
AcDbCircle
 10
6283.6371123518
 20
4870.8019173717
 30
0.0
 40
6.353248184243937
100
AcDbArc
 50
9.4761375318
 51
15.9510901101
  0
ARC
  5
532
330
1F
100
AcDbEntity
  8
0
  6
Continuous
 62
     7
370
    25
100
AcDbCircle
 10
6291.2180741075
 20
4865.5478959791
 30
0.0
 40
1.400000000000546
100
AcDbArc
 50
270.0
 51
0.0
  0
ARC
  5
533
330
1F
100
AcDbEntity
  8
0
  6
Continuous
 62
     7
370
    25
100
AcDbCircle
 10
6274.0187553361
 20
4868.3478959791
 30
0.0
 40
19.95000000000026
100
AcDbArc
 50
282.7344568175
 51
297.0064415185
  0
ARC
  5
534
330
1F
100
AcDbEntity
  8
0
  6
Continuous
 62
     7
370
    25
100
AcDbCircle
 10
6274.0187553361
 20
4868.3478959791
 30
0.0
 40
19.95000000000015
100
AcDbArc
 50
312.5635529043
 51
347.7306691991
  0
ARC
  5
535
330
1F
100
AcDbEntity
  8
0
  6
Continuous
 62
     7
370
    25
100
AcDbCircle
 10
6274.0187553361
 20
4868.3478959791
 30
0.0
 40
19.94999999999995
100
AcDbArc
 50
208.7194141015
 51
217.8673318083
  0
ARC
  5
536
330
1F
100
AcDbEntity
  8
0
  6
Continuous
 62
     7
370
    25
100
AcDbCircle
 10
6268.27011641
 20
4855.4038277527
 30
0.0
 40
2.114962488157112
100
AcDbArc
 50
241.9416008437
 51
246.0533341107
  0
ARC
  5
537
330
1F
100
AcDbEntity
  8
0
  6
Continuous
 62
     7
370
    25
100
AcDbCircle
 10
6273.3501736981
 20
4868.42413179
 30
0.0
 40
15.80764111505975
100
AcDbArc
 50
195.6950342709
 51
224.6703190973
  0
ARC
  5
538
330
1F
100
AcDbEntity
  8
0
  6
Continuous
 62
     7
370
    25
100
AcDbCircle
 10
6270.6078519368
 20
4869.7868194621
 30
0.0
 40
13.03482907847144
100
AcDbArc
 50
128.0722990468
 51
167.7707942433
  0
LINE
  5
539
330
1F
100
AcDbEntity
  8
0
  6
Continuous
 62
     7
370
    25
100
AcDbLine
 10
6289.7457391364
 20
4872.5478959791
 30
0.0
 11
6289.1464442461
 21
4874.3588067002
 31
0.0
  0
LWPOLYLINE
  5
53A
330
1F
100
AcDbEntity
  8
0
  6
Continuous
 62
     7
370
    25
100
AcDbPolyline
 90
        3
 70
   128
 43
0.0
 10
6267.4116825597
 20
4853.4709134631
 10
6269.8201590204
 20
4852.6205373823
 10
6271.1278115028
 20
4852.3285182382
  0
ARC
  5
53B
330
1F
100
AcDbEntity
  8
0
  6
Continuous
 62
     7
370
    25
100
AcDbCircle
 10
6274.0187553361
 20
4868.3478959791
 30
0.0
 40
16.27814545502503
100
AcDbArc
 50
281.171202413
 51
304.2173388413
  0
ARC
  5
53C
330
1F
100
AcDbEntity
  8
0
  6
Continuous
 62
     7
370
    25
100
AcDbCircle
 10
6274.0187553361
 20
4868.3478959791
 30
0.0
 40
16.27814545502526
100
AcDbArc
 50
325.9945691356
 51
345.04770896
  0
LINE
  5
53D
330
1F
100
AcDbEntity
  8
0
  6
Continuous
 62
     7
370
    25
100
AcDbLine
 10
6257.8688085827
 20
4872.5478959785
 30
0.0
 11
6259.1458421908
 21
4872.5478959791
 31
0.0
  0
ARC
  5
53E
330
1F
100
AcDbEntity
  8
0
  6
Continuous
 62
     7
370
    25
100
AcDbCircle
 10
6259.7595598155
 20
4872.4527698517
 30
0.0
 40
0.6210461360273383
100
AcDbArc
 50
171.1892765272
 51
256.8958738099
  0
ARC
  5
53F
330
1F
100
AcDbEntity
  8
0
  6
Continuous
 62
     7
370
    25
100
AcDbCircle
 10
6259.7595598155
 20
4864.2430221066
 30
0.0
 40
0.6210461360273383
100
AcDbArc
 50
103.1041261901
 51
188.8107234728
  0
LINE
  5
540
330
1F
100
AcDbEntity
  8
0
  6
Continuous
 62
     7
370
    25
100
AcDbLine
 10
6259.1458421908
 20
4864.1478959791
 30
0.0
 11
6258.1319173948
 21
4864.1478959791
 31
0.0
  0
LINE
  5
541
330
1F
100
AcDbEntity
  8
0
  6
Continuous
 62
     7
370
    25
100
AcDbLine
 10
6260.5458421908
 20
4871.1478959791
 30
0.0
 11
6260.5458421908
 21
4865.5478959791
 31
0.0
  0
ARC
  5
542
330
1F
100
AcDbEntity
  8
0
  6
Continuous
 62
     7
370
    25
100
AcDbCircle
 10
6259.1458421908
 20
4871.1478959791
 30
0.0
 40
1.400000000000546
100
AcDbArc
 50
0.0
 51
90.0
  0
ELLIPSE
  5
543
330
1F
100
AcDbEntity
  8
0
  6
Continuous
 62
     7
370
    25
100
AcDbEllipse
 10
6264.2763521413
 20
4868.3478959791
 30
0.0
 11
7.524669661681401
 21
0.0
 31
0.0
210
0.0
220
0.0
230
1.0
 40
0.9998720779
 41
5.236935575030721
 42
7.329435039328466
  0
ARC
  5
544
330
1F
100
AcDbEntity
  8
0
  6
Continuous
 62
     7
370
    25
100
AcDbCircle
 10
6259.1458421908
 20
4865.5478959791
 30
0.0
 40
1.399999999999636
100
AcDbArc
 50
270.0
 51
0.0
  0
LINE
  5
545
330
1F
100
AcDbEntity
  8
0
  6
Continuous
 62
     7
370
    25
100
AcDbLine
 10
6260.5458421908
 20
4871.1478959791
 30
0.0
 11
6260.3187553361
 21
4871.1478959791
 31
0.0
  0
LINE
  5
546
330
1F
100
AcDbEntity
  8
0
  6
Continuous
 62
     7
370
    25
100
AcDbLine
 10
6260.5458421908
 20
4865.5478959791
 30
0.0
 11
6260.3187553361
 21
4865.5478959791
 31
0.0
  0
ARC
  5
547
330
1F
100
AcDbEntity
  8
0
  6
Continuous
 62
     7
370
    25
100
AcDbCircle
 10
6264.8399617196
 20
4876.4541528694
 30
0.0
 40
3.579462495000781
100
AcDbArc
 50
333.5544399289
 51
50.6354567782
  0
LWPOLYLINE
  5
548
330
1F
100
AcDbEntity
  8
0
  6
Continuous
 62
     7
370
    25
100
AcDbPolyline
 90
        3
 70
   128
 43
0.0
 10
6266.9196692821
 20
4879.3661072723
 10
6266.9540900775
 20
4879.3266111499
 10
6267.1102436645
 20
4879.2215291799
  0
ARC
  5
549
330
1F
100
AcDbEntity
  8
0
  6
Continuous
 62
     7
370
    25
100
AcDbCircle
 10
6264.8399617196
 20
4860.2416390889
 30
0.0
 40
3.579462495000781
100
AcDbArc
 50
309.3645432218
 51
26.4455600711
  0
LINE
  5
54A
330
1F
100
AcDbEntity
  8
0
  6
Continuous
 62
     7
370
    25
100
AcDbLine
 10
6267.1102436645
 20
4857.4742627784
 30
0.0
 11
6266.8659495806
 21
4857.247168566
 31
0.0
  0
ARC
  5
54B
330
1F
100
AcDbEntity
  8
0
  6
Continuous
 62
     7
370
    25
100
AcDbCircle
 10
6261.4721348093
 20
4868.8477946768
 30
0.0
 40
11.80688947199916
100
AcDbArc
 50
15.2005241078
 51
61.475987421
  0
ARC
  5
54C
330
1F
100
AcDbEntity
  8
0
  6
Continuous
 62
     7
370
    25
100
AcDbCircle
 10
6261.8764111815
 20
4867.5571845025
 30
0.0
 40
11.36038348622286
100
AcDbArc
 50
297.4328763513
 51
345.3200035923
  0
LWPOLYLINE
  5
54D
330
1F
100
AcDbEntity
  8
0
  6
Continuous
 62
     7
370
    25
100
AcDbPolyline
 90
        3
 70
   128
 43
0.0
 10
6256.6327038857
 20
4858.2615083719
 10
6256.724683593
 20
4858.1046014631
 10
6257.9391929883
 20
4856.287312465
  0
ARC
  5
54E
330
1F
100
AcDbEntity
  8
0
  6
Continuous
 62
     7
370
    25
100
AcDbCircle
 10
6274.0187553361
 20
4868.3478959791
 30
0.0
 40
20.1000000000002
100
AcDbArc
 50
283.1374858079
 51
296.603412528
  0
ARC
  5
54F
330
1F
100
AcDbEntity
  8
0
  6
Continuous
 62
     7
370
    25
100
AcDbCircle
 10
6274.0187553361
 20
4868.3478959791
 30
0.0
 40
20.1000000000001
100
AcDbArc
 50
312.1720992514
 51
345.8988746475
  0
ARC
  5
550
330
1F
100
AcDbEntity
  8
0
  6
Continuous
 62
     7
370
    25
100
AcDbCircle
 10
6274.0187553361
 20
4868.3478959791
 30
0.0
 40
20.09999999999981
100
AcDbArc
 50
126.5496861965
 51
149.8801571665
  0
ARC
  5
551
330
1F
100
AcDbEntity
  8
0
  6
Continuous
 62
     7
370
    25
100
AcDbCircle
 10
6301.0187553361
 20
4868.3478959791
 30
0.0
 40
2.449999999999212
100
AcDbArc
 50
128.2893063631
 51
231.7106936369
  0
ARC
  5
552
330
1F
100
AcDbEntity
  8
0
  6
Continuous
 62
     7
370
    25
100
AcDbCircle
 10
6247.0187553361
 20
4868.3478959791
 30
0.0
 40
2.449999999998085
100
AcDbArc
 50
308.2893063631
 51
51.7106936369
  0
LWPOLYLINE
  5
553
330
1F
100
AcDbEntity
  8
0
  6
Continuous
 62
     7
370
    25
100
AcDbPolyline
 90
        3
 70
   128
 43
0.0
 10
6239.1187553361
 20
4868.3478959791
 10
6239.2978159497
 20
4864.8171215418
 10
6239.5041765969
 20
4863.1754831521
  0
ARC
  5
554
330
1F
100
AcDbEntity
  8
0
  6
Continuous
 62
     7
370
    25
100
AcDbCircle
 10
6274.0187553361
 20
4868.3478959791
 30
0.0
 40
34.90000000000074
100
AcDbArc
 50
313.6886350729
 51
328.9281933515
  0
LWPOLYLINE
  5
555
330
1F
100
AcDbEntity
  8
0
  6
Continuous
 62
     7
370
    25
100
AcDbPolyline
 90
        3
 70
   128
 43
0.0
 10
6308.3880195567
 20
4862.2845902028
 10
6308.7396947225
 20
4864.8171215418
 10
6308.8774657338
 20
4866.6507485472
  0
ARC
  5
556
330
1F
100
AcDbEntity
  8
0
  6
Continuous
 62
     7
370
    25
100
AcDbCircle
 10
6274.0187553361
 20
4868.3478959791
 30
0.0
 40
34.90000000000055
100
AcDbArc
 50
156.9520606597
 51
180.0
  0
ARC
  5
557
330
1F
100
AcDbEntity
  8
0
  6
Continuous
 62
     7
370
    25
100
AcDbCircle
 10
6301.0187553361
 20
4868.3478959791
 30
0.0
 40
2.449999999999776
100
AcDbArc
 50
231.7106936369
 51
128.2893063631
  0
ARC
  5
558
330
1F
100
AcDbEntity
  8
0
  6
Continuous
 62
     7
370
    25
100
AcDbCircle
 10
6247.0187553361
 20
4868.3478959791
 30
0.0
 40
2.450000000000065
100
AcDbArc
 50
51.7106936369
 51
108.0971139212
  0
ARC
  5
559
330
1F
100
AcDbEntity
  8
0
  6
Continuous
 62
     7
370
    25
100
AcDbCircle
 10
6247.0187553361
 20
4868.3478959791
 30
0.0
 40
2.450000000000065
100
AcDbArc
 50
251.9028860788
 51
308.2893063631
  0
LINE
  5
55A
330
1F
100
AcDbEntity
  8
0
  6
Continuous
 62
     7
370
    25
100
AcDbLine
 10
6271.6944353979
 20
4859.3290701668
 30
0.0
 11
6267.5375811484
 21
4855.1722159173
 31
0.0
  0
ARC
  5
55B
330
1F
100
AcDbEntity
  8
0
  6
Continuous
 62
     7
370
    25
100
AcDbCircle
 10
5871.7187553361
 20
4928.3478959791
 30
0.0
 40
4.000000000000076
100
AcDbArc
 50
270.0
 51
25.5142086023
  0
ARC
  5
55C
330
1F
100
AcDbEntity
  8
0
  6
Continuous
 62
     7
370
    25
100
AcDbCircle
 10
5871.7187553361
 20
4928.3478959791
 30
0.0
 40
4.000000000000093
100
AcDbArc
 50
154.4857914025
 51
270.0
  0
CIRCLE
  5
55D
330
1F
100
AcDbEntity
  8
0
  6
Continuous
 62
     7
370
    25
100
AcDbCircle
 10
6676.3187553361
 20
4781.3478959791
 30
0.0
 40
4.0
  0
CIRCLE
  5
55E
330
1F
100
AcDbEntity
  8
0
  6
Continuous
 62
     7
370
    25
100
AcDbCircle
 10
6676.3187553361
 20
4781.3478959791
 30
0.0
 40
5.0
  0
ARC
  5
55F
330
1F
100
AcDbEntity
  8
0
  6
Continuous
 62
     7
370
    25
100
AcDbCircle
 10
6676.3187553361
 20
4928.3478959791
 30
0.0
 40
4.000000000000093
100
AcDbArc
 50
270.0
 51
25.5142085975
  0
ARC
  5
560
330
1F
100
AcDbEntity
  8
0
  6
Continuous
 62
     7
370
    25
100
AcDbCircle
 10
6676.3187553361
 20
4928.3478959791
 30
0.0
 40
4.000000000000076
100
AcDbArc
 50
154.4857913977
 51
270.0
  0
LINE
  5
561
330
1F
100
AcDbEntity
  8
0
  6
Continuous
 62
     7
370
    25
100
AcDbLine
 10
6690.3187553361
 20
4941.0478959791
 30
0.0
 11
6690.3187553361
 21
4943.3478959792
 31
0.0
  0
LINE
  5
562
330
1F
100
AcDbEntity
  8
0
  6
Continuous
 62
     7
370
    25
100
AcDbLine
 10
6640.3187553361
 20
4943.3478959792
 30
0.0
 11
6640.3187553361
 21
4941.0478959791
 31
0.0
  0
LINE
  5
563
330
1F
100
AcDbEntity
  8
0
  6
Continuous
 62
     7
370
    25
100
AcDbLine
 10
6690.3187553361
 20
4943.3478959792
 30
0.0
 11
6640.3187553361
 21
4943.3478959792
 31
0.0
  0
CIRCLE
  5
564
330
1F
100
AcDbEntity
  8
0
  6
Continuous
 62
     7
370
    25
100
AcDbCircle
 10
5871.7187553361
 20
4781.3478959791
 30
0.0
 40
4.0
  0
CIRCLE
  5
565
330
1F
100
AcDbEntity
  8
0
  6
Continuous
 62
     7
370
    25
100
AcDbCircle
 10
5871.7187553361
 20
4781.3478959791
 30
0.0
 40
5.000000000000909
  0
LINE
  5
566
330
1F
100
AcDbEntity
  8
0
  6
Continuous
 62
     7
370
    25
100
AcDbLine
 10
5857.7187553361
 20
4766.3478959791
 30
0.0
 11
5907.7187553361
 21
4766.3478959791
 31
0.0
  0
LINE
  5
567
330
1F
100
AcDbEntity
  8
0
  6
Continuous
 62
     7
370
    25
100
AcDbLine
 10
5857.7187553361
 20
4796.3478959791
 30
0.0
 11
5857.7187553361
 21
4766.3478959791
 31
0.0
  0
LINE
  5
568
330
1F
100
AcDbEntity
  8
0
  6
Continuous
 62
     7
370
    25
100
AcDbLine
 10
5907.7187553361
 20
4796.3478959791
 30
0.0
 11
5881.7187553361
 21
4796.3478959791
 31
0.0
  0
LINE
  5
569
330
1F
100
AcDbEntity
  8
0
  6
Continuous
 62
     7
370
    25
100
AcDbLine
 10
5861.7187553361
 20
4796.3478959791
 30
0.0
 11
5857.7187553361
 21
4796.3478959791
 31
0.0
  0
LINE
  5
56A
330
1F
100
AcDbEntity
  8
0
  6
Continuous
 62
     7
370
    25
100
AcDbLine
 10
5907.7187553361
 20
4766.3478959791
 30
0.0
 11
5907.7187553361
 21
4796.3478959791
 31
0.0
  0
CIRCLE
  5
56B
330
1F
100
AcDbEntity
  8
0
  6
Continuous
 62
     7
370
    25
100
AcDbCircle
 10
5893.7187553361
 20
4781.3478959791
 30
0.0
 40
2.75
  0
LINE
  5
56C
330
1F
100
AcDbEntity
  8
0
  6
Continuous
 62
     8
370
    25
100
AcDbLine
 10
5853.4187553361
 20
4919.3478959791
 30
0.0
 11
5853.4187553361
 21
4922.7478949952
 31
0.0
  0
LINE
  5
56D
330
1F
100
AcDbEntity
  8
0
  6
Continuous
 62
     8
370
    25
100
AcDbLine
 10
5852.4187553361
 20
4918.3478959791
 30
0.0
 11
5849.0187553361
 21
4918.3478959791
 31
0.0
  0
LINE
  5
56E
330
1F
100
AcDbEntity
  8
0
  6
Continuous
 62
     8
370
    25
100
AcDbLine
 10
6694.6187553361
 20
4919.3478959792
 30
0.0
 11
6694.6187553361
 21
4922.7478959791
 31
0.0
  0
LINE
  5
56F
330
1F
100
AcDbEntity
  8
0
  6
Continuous
 62
     8
370
    25
100
AcDbLine
 10
6695.6187553361
 20
4918.3478959791
 30
0.0
 11
6699.0187553361
 21
4918.3478959791
 31
0.0
  0
LINE
  5
570
330
1F
100
AcDbEntity
  8
0
  6
Continuous
 62
     8
370
    25
100
AcDbLine
 10
5852.4187553361
 20
4818.3478959792
 30
0.0
 11
5849.0187553361
 21
4818.3478959792
 31
0.0
  0
LINE
  5
571
330
1F
100
AcDbEntity
  8
0
  6
Continuous
 62
     8
370
    25
100
AcDbLine
 10
6695.6187553361
 20
4818.3478959792
 30
0.0
 11
6699.0187553361
 21
4818.3478959792
 31
0.0
  0
LINE
  5
572
330
1F
100
AcDbEntity
  8
0
  6
Continuous
 62
     8
370
    25
100
AcDbLine
 10
6694.6187553361
 20
4817.3478959791
 30
0.0
 11
6694.6187553361
 21
4813.9478959791
 31
0.0
  0
LINE
  5
573
330
1F
100
AcDbEntity
  8
0
  6
Continuous
 62
     8
370
    25
100
AcDbLine
 10
5853.4187553361
 20
4817.3478959791
 30
0.0
 11
5853.4187553361
 21
4813.9478959791
 31
0.0
  0
ARC
  5
574
330
1F
100
AcDbEntity
  8
0
  6
Continuous
 62
     8
370
    25
100
AcDbCircle
 10
6274.0187553361
 20
4868.3478959791
 30
0.0
 40
40.00000000000006
100
AcDbArc
 50
329.2304167715
 51
357.3863483382
  0
ARC
  5
575
330
1F
100
AcDbEntity
  8
0
  6
Continuous
 62
     8
370
    25
100
AcDbCircle
 10
6274.0187553361
 20
4868.3478959791
 30
0.0
 40
39.99999999999999
100
AcDbArc
 50
144.4033679863
 51
162.336498341
  0
ARC
  5
576
330
1F
100
AcDbEntity
  8
0
  6
Continuous
 62
     8
370
    25
100
AcDbCircle
 10
6274.0187553361
 20
4868.3478959791
 30
0.0
 40
35.20108727315874
100
AcDbArc
 50
313.5212375099
 51
328.1242233417
  0
ARC
  5
577
330
1F
100
AcDbEntity
  8
0
  6
Continuous
 62
     8
370
    25
100
AcDbCircle
 10
6274.0187553361
 20
4868.3478959791
 30
0.0
 40
35.20108727315829
100
AcDbArc
 50
347.5194416005
 51
357.8980633885
  0
ARC
  5
578
330
1F
100
AcDbEntity
  8
0
  6
Continuous
 62
     8
370
    25
100
AcDbCircle
 10
6274.0187553361
 20
4868.3478959791
 30
0.0
 40
35.20108727315818
100
AcDbArc
 50
155.8261349968
 51
188.5241279885
  0
LINE
  5
579
330
1F
100
AcDbEntity
  8
0
  6
Continuous
 62
     8
370
    25
100
AcDbLine
 10
6256.8187553361
 20
4868.3478959791
 30
0.0
 11
6256.5698549622
 21
4868.3478959791
 31
0.0
  0
LINE
  5
57A
330
1F
100
AcDbEntity
  8
0
  6
Continuous
 62
     8
370
    25
100
AcDbLine
 10
6292.1410335457
 20
4869.3506584101
 30
0.0
 11
6293.5130866637
 21
4869.4265784078
 31
0.0
  0
LINE
  5
57B
330
1F
100
AcDbEntity
  8
0
  6
Continuous
 62
     8
370
    25
100
AcDbLine
 10
6292.0911099143
 20
4869.2978959791
 30
0.0
 11
6292.0911099143
 21
4867.3978959791
 31
0.0
  0
LINE
  5
57C
330
1F
100
AcDbEntity
  8
0
  6
Continuous
 62
     8
370
    25
100
AcDbLine
 10
6291.9180741075
 20
4871.1478959791
 30
0.0
 11
6291.951476825
 21
4871.1478959791
 31
0.0
  0
LINE
  5
57D
330
1F
100
AcDbEntity
  8
0
  6
Continuous
 62
     8
370
    25
100
AcDbLine
 10
6292.6180741075
 20
4867.4704485793
 30
0.0
 11
6292.6180741075
 21
4865.5478959791
 31
0.0
  0
LINE
  5
57E
330
1F
100
AcDbEntity
  8
0
  6
Continuous
 62
     8
370
    25
100
AcDbLine
 10
6256.8187553361
 20
4872.5478959791
 30
0.0
 11
6256.5698549622
 21
4872.5255928267
 31
0.0
  0
LWPOLYLINE
  5
57F
330
1F
100
AcDbEntity
  8
0
  6
Continuous
 62
     8
370
    25
100
AcDbPolyline
 90
        3
 70
   128
 43
0.0
 10
6291.6959044323
 20
4872.4638284169
 10
6291.4912005583
 20
4872.5209953717
 10
6291.2180741075
 20
4872.5478959791
  0
LINE
  5
580
330
1F
100
AcDbEntity
  8
0
  6
Continuous
 62
     8
370
    25
100
AcDbLine
 10
6256.5698549622
 20
4864.1701991316
 30
0.0
 11
6256.8187553361
 21
4864.1478959791
 31
0.0
  0
ELLIPSE
  5
581
330
1F
100
AcDbEntity
  8
0
  6
Continuous
 62
     8
370
    25
100
AcDbEllipse
 10
6271.7669387685
 20
4881.2919642056
 30
0.0
 11
7.431956459165121
 21
9.094947017729280E-13
 31
0.0
210
0.0
220
0.0
230
1.0
 40
0.9998720779
 41
3.99230467740807
 42
4.187842385738429
  0
ELLIPSE
  5
582
330
1F
100
AcDbEntity
  8
0
  6
Continuous
 62
     8
370
    25
100
AcDbEllipse
 10
6271.7669387685
 20
4855.4038277527
 30
0.0
 11
7.431956459165121
 21
0.0
 31
0.0
210
0.0
220
0.0
230
1.0
 40
0.9998720779
 41
2.095342921441101
 42
2.290880629771468
  0
LINE
  5
583
330
1F
100
AcDbEntity
  8
0
  6
Continuous
 62
     8
370
    25
100
AcDbLine
 10
6299.5006555862
 20
4870.2708814573
 30
0.0
 11
6299.4507873026
 21
4870.8452673086
 31
0.0
  0
ARC
  5
584
330
1F
100
AcDbEntity
  8
0
  6
Continuous
 62
     8
370
    25
100
AcDbCircle
 10
6274.0187553361
 20
4868.3478959791
 30
0.0
 40
25.55435605731786
100
AcDbArc
 50
302.2791691738
 51
319.7167575731
  0
ARC
  5
585
330
1F
100
AcDbEntity
  8
0
  6
Continuous
 62
     8
370
    25
100
AcDbCircle
 10
6274.0187553361
 20
4868.3478959791
 30
0.0
 40
25.55435605731762
100
AcDbArc
 50
339.2235000796
 51
355.6843677726
  0
ARC
  5
586
330
1F
100
AcDbEntity
  8
0
  6
Continuous
 62
     8
370
    25
100
AcDbCircle
 10
6274.0187553361
 20
4868.3478959791
 30
0.0
 40
25.55435605731868
100
AcDbArc
 50
184.3156322274
 51
199.9906451919
  0
ARC
  5
587
330
1F
100
AcDbEntity
  8
0
  6
Continuous
 62
     8
370
    25
100
AcDbCircle
 10
6274.0187553361
 20
4868.3478959791
 30
0.0
 40
25.55435605731833
100
AcDbArc
 50
148.3816335442
 51
175.6843677726
  0
LINE
  5
588
330
1F
100
AcDbEntity
  8
0
  6
Continuous
 62
     8
370
    25
100
AcDbLine
 10
6257.3130379268
 20
4879.4348931307
 30
0.0
 11
6257.2530613701
 21
4879.4348931307
 31
0.0
  0
LINE
  5
589
330
1F
100
AcDbEntity
  8
0
  6
Continuous
 62
     8
370
    25
100
AcDbLine
 10
6257.2530613701
 20
4857.2608988276
 30
0.0
 11
6257.4331894983
 21
4857.2608988276
 31
0.0
  0
LINE
  5
58A
330
1F
100
AcDbEntity
  8
0
  6
Continuous
 62
     8
370
    25
100
AcDbLine
 10
6256.8063387412
 20
4858.2615083719
 30
0.0
 11
6256.6327038857
 21
4858.2615083719
 31
0.0
  0
LINE
  5
58B
330
1F
100
AcDbEntity
  8
0
  6
Continuous
 62
     8
370
    25
100
AcDbLine
 10
6256.6327038857
 20
4878.4342835864
 30
0.0
 11
6256.6905331239
 21
4878.4342835864
 31
0.0
  0
LINE
  5
58C
330
1F
100
AcDbEntity
  8
0
  6
Continuous
 62
     8
370
    25
100
AcDbLine
 10
6257.5944271793
 20
4879.9345885442
 30
0.0
 11
6257.6556549147
 21
4879.9345885442
 31
0.0
  0
LINE
  5
58D
330
1F
100
AcDbEntity
  8
0
  6
Continuous
 62
     8
370
    25
100
AcDbLine
 10
6257.7783410741
 20
4856.7612034141
 30
0.0
 11
6257.5944271793
 21
4856.7612034141
 31
0.0
  0
LINE
  5
58E
330
1F
100
AcDbEntity
  8
0
  6
Continuous
 62
     8
370
    25
100
AcDbLine
 10
6259.2201071187
 20
4881.8757380442
 30
0.0
 11
6259.1524347065
 21
4881.8757380442
 31
0.0
  0
LINE
  5
58F
330
1F
100
AcDbEntity
  8
0
  6
Continuous
 62
     8
370
    25
100
AcDbLine
 10
6261.2541967505
 20
4883.8745196983
 30
0.0
 11
6261.3330761708
 21
4883.8745196983
 31
0.0
  0
ARC
  5
590
330
1F
100
AcDbEntity
  8
0
  6
Continuous
 62
     8
370
    25
100
AcDbCircle
 10
6266.0187553361
 20
4871.6910417297
 30
0.0
 40
8.0266237191187
100
AcDbArc
 50
31.4538959628
 51
45.0
  0
LINE
  5
591
330
1F
100
AcDbEntity
  8
0
  6
Continuous
 62
     8
370
    25
100
AcDbLine
 10
6270.5691560511
 20
4876.2414424447
 30
0.0
 11
6271.6944353979
 21
4877.3667217915
 31
0.0
  0
LINE
  5
592
330
1F
100
AcDbEntity
  8
0
  6
Continuous
 62
     8
370
    25
100
AcDbLine
 10
6267.818357921
 20
4881.2427992684
 30
0.0
 11
6271.6944353979
 21
4877.3667217915
 31
0.0
  0
ARC
  5
593
330
1F
100
AcDbEntity
  8
0
  6
Continuous
 62
     8
370
    25
100
AcDbCircle
 10
6266.0187553361
 20
4865.0047502286
 30
0.0
 40
8.02662371911963
100
AcDbArc
 50
315.0
 51
328.5461040372
  0
LINE
  5
594
330
1F
100
AcDbEntity
  8
0
  6
Continuous
 62
     8
370
    25
100
AcDbLine
 10
6271.6944353979
 20
4859.3290701668
 30
0.0
 11
6270.4888262086
 21
4860.5346793561
 31
0.0
  0
LWPOLYLINE
  5
595
330
1F
100
AcDbEntity
  8
0
  6
Continuous
 62
     8
370
    25
100
AcDbPolyline
 90
        3
 70
   128
 43
0.0
 10
6267.5375811484
 20
4855.1722159173
 10
6266.9539372685
 20
4854.6432319391
 10
6266.9000213621
 20
4854.5993735604
  0
LINE
  5
596
330
1F
100
AcDbEntity
  8
0
  6
Continuous
 62
     8
370
    25
100
AcDbLine
 10
6267.5375811484
 20
4855.1722159173
 30
0.0
 11
6266.8659495806
 21
4855.8438474851
 31
0.0
  0
ENDSEC
  0
SECTION
  2
OBJECTS
  0
DICTIONARY
  5
C
330
0
100
AcDbDictionary
281
     1
  3
ACAD_GROUP
350
D
  3
ACAD_LAYOUT
350
1A
  3
ACAD_MLINESTYLE
350
17
  3
ACAD_PLOTSETTINGS
350
19
  3
ACAD_PLOTSTYLENAME
350
E
  3
ACAD_SCALELIST
350
47
  3
DWGPROPS
350
597
  0
DICTIONARY
  5
D
102
{ACAD_REACTORS
330
C
102
}
330
C
100
AcDbDictionary
281
     1
  0
DICTIONARY
  5
1A
102
{ACAD_REACTORS
330
C
102
}
330
C
100
AcDbDictionary
281
     1
  3
Layout1
350
1E
  3
Layout2
350
26
  3
Model
350
22
  0
DICTIONARY
  5
17
102
{ACAD_REACTORS
330
C
102
}
330
C
100
AcDbDictionary
281
     1
  3
Standard
350
18
  0
DICTIONARY
  5
19
102
{ACAD_REACTORS
330
C
102
}
330
C
100
AcDbDictionary
281
     1
  0
ACDBDICTIONARYWDFLT
  5
E
102
{ACAD_REACTORS
330
C
102
}
330
C
100
AcDbDictionary
281
     1
  3
Normal
350
F
100
AcDbDictionaryWithDefault
340
F
  0
DICTIONARY
  5
47
102
{ACAD_REACTORS
330
C
102
}
330
C
100
AcDbDictionary
281
     1
  3
A0
350
48
  3
A1
350
49
  3
A2
350
4A
  3
A3
350
4B
  3
A4
350
4C
  3
A5
350
4D
  3
A6
350
4E
  3
A7
350
4F
  3
A8
350
50
  3
A9
350
51
  3
B0
350
52
  3
B1
350
53
  3
B2
350
54
  3
B3
350
55
  3
B4
350
56
  3
B5
350
57
  3
B6
350
58
  3
B7
350
59
  3
B8
350
5A
  3
B9
350
5B
  3
C0
350
5C
  3
C1
350
5D
  3
C2
350
5E
  3
C3
350
5F
  3
C4
350
60
  3
C5
350
61
  3
C6
350
62
  3
C7
350
63
  3
C8
350
64
  3
C9
350
65
  3
D0
350
66
  3
D1
350
67
  3
D2
350
68
  0
XRECORD
  5
597
102
{ACAD_REACTORS
330
C
102
}
330
C
100
AcDbXrecord
280
     1
  1
DWGPROPS COOKIE
  2

  3

  4

  6

  7

  8
radek.stransky
  9

300
=
301
=
302
=
303
=
304
=
305
=
306
=
307
=
308
=
309
=
 40
0.0
 41
2459108.266357269
 42
2459108.266357639
  1

 90
        0
  0
LAYOUT
  5
1E
102
{ACAD_REACTORS
330
1A
102
}
330
1A
100
AcDbPlotSettings
  1

  2
none_device
  4

  6

 40
0.0
 41
0.0
 42
0.0
 43
0.0
 44
0.0
 45
0.0
 46
0.0
 47
0.0
 48
0.0
 49
0.0
140
0.0
141
0.0
142
1.0
143
1.0
 70
   688
 72
     1
 73
     0
 74
     5
  7

 75
    16
147
1.0
148
0.0
149
0.0
100
AcDbLayout
  1
Layout1
 70
     1
 71
     1
 10
0.0
 20
0.0
 11
420.0
 21
297.0
 12
0.0
 22
0.0
 32
0.0
 14
1.0000000000E+20
 24
1.0000000000E+20
 34
1.0000000000E+20
 15
-1.0000000000E+20
 25
-1.0000000000E+20
 35
-1.0000000000E+20
146
0.0
 13
0.0
 23
0.0
 33
0.0
 16
1.0
 26
0.0
 36
0.0
 17
0.0
 27
1.0
 37
0.0
 76
     0
330
1B
  0
LAYOUT
  5
26
102
{ACAD_REACTORS
330
1A
102
}
330
1A
100
AcDbPlotSettings
  1

  2
none_device
  4

  6

 40
0.0
 41
0.0
 42
0.0
 43
0.0
 44
0.0
 45
0.0
 46
0.0
 47
0.0
 48
0.0
 49
0.0
140
0.0
141
0.0
142
1.0
143
1.0
 70
   688
 72
     1
 73
     0
 74
     5
  7

 75
    16
147
1.0
148
0.0
149
0.0
100
AcDbLayout
  1
Layout2
 70
     1
 71
     2
 10
0.0
 20
0.0
 11
0.0
 21
0.0
 12
0.0
 22
0.0
 32
0.0
 14
0.0
 24
0.0
 34
0.0
 15
0.0
 25
0.0
 35
0.0
146
0.0
 13
0.0
 23
0.0
 33
0.0
 16
1.0
 26
0.0
 36
0.0
 17
0.0
 27
1.0
 37
0.0
 76
     0
330
23
  0
LAYOUT
  5
22
102
{ACAD_REACTORS
330
1A
102
}
330
1A
100
AcDbPlotSettings
  1

  2
none_device
  4
Letter_(8.50_x_11.00_Inches)
  6

 40
6.35
 41
6.35
 42
6.35000508
 43
6.35000508
 44
215.9
 45
279.4
 46
0.0
 47
0.0
 48
0.0
 49
0.0
140
0.0
141
0.0
142
1.0
143
1.0
 70
  1712
 72
     1
 73
     0
 74
     0
  7

 75
     0
147
1.0
148
0.0
149
0.0
100
AcDbLayout
  1
Model
 70
     1
 71
     0
 10
0.0
 20
0.0
 11
20000.0
 21
10000.0
 12
0.0
 22
0.0
 32
0.0
 14
0.0
 24
0.0
 34
0.0
 15
20000.0
 25
10000.0
 35
0.0
146
0.0
 13
0.0
 23
0.0
 33
0.0
 16
1.0
 26
0.0
 36
0.0
 17
0.0
 27
1.0
 37
0.0
 76
     0
330
1F
331
29
  0
MLINESTYLE
  5
18
102
{ACAD_REACTORS
330
17
102
}
330
17
100
AcDbMlineStyle
  2
Standard
 70
     0
  3

 62
   256
 51
90.0
 52
90.0
 71
     2
 49
0.5
 62
   256
  6
BYLAYER
 49
-0.5
 62
   256
  6
BYLAYER
  0
ACDBPLACEHOLDER
  5
F
102
{ACAD_REACTORS
330
E
102
}
330
E
  0
SCALE
  5
48
102
{ACAD_REACTORS
330
47
102
}
330
47
100
AcDbScale
 70
     0
300
1:1
140
1.0
141
1.0
290
     1
  0
SCALE
  5
49
102
{ACAD_REACTORS
330
47
102
}
330
47
100
AcDbScale
 70
     0
300
1:2
140
1.0
141
2.0
290
     0
  0
SCALE
  5
4A
102
{ACAD_REACTORS
330
47
102
}
330
47
100
AcDbScale
 70
     0
300
1:4
140
1.0
141
4.0
290
     0
  0
SCALE
  5
4B
102
{ACAD_REACTORS
330
47
102
}
330
47
100
AcDbScale
 70
     0
300
1:5
140
1.0
141
5.0
290
     0
  0
SCALE
  5
4C
102
{ACAD_REACTORS
330
47
102
}
330
47
100
AcDbScale
 70
     0
300
1:8
140
1.0
141
8.0
290
     0
  0
SCALE
  5
4D
102
{ACAD_REACTORS
330
47
102
}
330
47
100
AcDbScale
 70
     0
300
1:10
140
1.0
141
10.0
290
     0
  0
SCALE
  5
4E
102
{ACAD_REACTORS
330
47
102
}
330
47
100
AcDbScale
 70
     0
300
1:16
140
1.0
141
16.0
290
     0
  0
SCALE
  5
4F
102
{ACAD_REACTORS
330
47
102
}
330
47
100
AcDbScale
 70
     0
300
1:20
140
1.0
141
20.0
290
     0
  0
SCALE
  5
50
102
{ACAD_REACTORS
330
47
102
}
330
47
100
AcDbScale
 70
     0
300
1:30
140
1.0
141
30.0
290
     0
  0
SCALE
  5
51
102
{ACAD_REACTORS
330
47
102
}
330
47
100
AcDbScale
 70
     0
300
1:40
140
1.0
141
40.0
290
     0
  0
SCALE
  5
52
102
{ACAD_REACTORS
330
47
102
}
330
47
100
AcDbScale
 70
     0
300
1:50
140
1.0
141
50.0
290
     0
  0
SCALE
  5
53
102
{ACAD_REACTORS
330
47
102
}
330
47
100
AcDbScale
 70
     0
300
1:100
140
1.0
141
100.0
290
     0
  0
SCALE
  5
54
102
{ACAD_REACTORS
330
47
102
}
330
47
100
AcDbScale
 70
     0
300
2:1
140
2.0
141
1.0
290
     0
  0
SCALE
  5
55
102
{ACAD_REACTORS
330
47
102
}
330
47
100
AcDbScale
 70
     0
300
4:1
140
4.0
141
1.0
290
     0
  0
SCALE
  5
56
102
{ACAD_REACTORS
330
47
102
}
330
47
100
AcDbScale
 70
     0
300
8:1
140
8.0
141
1.0
290
     0
  0
SCALE
  5
57
102
{ACAD_REACTORS
330
47
102
}
330
47
100
AcDbScale
 70
     0
300
10:1
140
10.0
141
1.0
290
     0
  0
SCALE
  5
58
102
{ACAD_REACTORS
330
47
102
}
330
47
100
AcDbScale
 70
     0
300
100:1
140
100.0
141
1.0
290
     0
  0
SCALE
  5
59
102
{ACAD_REACTORS
330
47
102
}
330
47
100
AcDbScale
 70
     0
300
1/128" = 1'-0"
140
0.0078125
141
12.0
290
     0
  0
SCALE
  5
5A
102
{ACAD_REACTORS
330
47
102
}
330
47
100
AcDbScale
 70
     0
300
1/64" = 1'-0"
140
0.015625
141
12.0
290
     0
  0
SCALE
  5
5B
102
{ACAD_REACTORS
330
47
102
}
330
47
100
AcDbScale
 70
     0
300
1/32" = 1'-0"
140
0.03125
141
12.0
290
     0
  0
SCALE
  5
5C
102
{ACAD_REACTORS
330
47
102
}
330
47
100
AcDbScale
 70
     0
300
1/16" = 1'-0"
140
0.0625
141
12.0
290
     0
  0
SCALE
  5
5D
102
{ACAD_REACTORS
330
47
102
}
330
47
100
AcDbScale
 70
     0
300
3/32" = 1'-0"
140
0.09375
141
12.0
290
     0
  0
SCALE
  5
5E
102
{ACAD_REACTORS
330
47
102
}
330
47
100
AcDbScale
 70
     0
300
1/8" = 1'-0"
140
0.125
141
12.0
290
     0
  0
SCALE
  5
5F
102
{ACAD_REACTORS
330
47
102
}
330
47
100
AcDbScale
 70
     0
300
3/16" = 1'-0"
140
0.1875
141
12.0
290
     0
  0
SCALE
  5
60
102
{ACAD_REACTORS
330
47
102
}
330
47
100
AcDbScale
 70
     0
300
1/4" = 1'-0"
140
0.25
141
12.0
290
     0
  0
SCALE
  5
61
102
{ACAD_REACTORS
330
47
102
}
330
47
100
AcDbScale
 70
     0
300
3/8" = 1'-0"
140
0.375
141
12.0
290
     0
  0
SCALE
  5
62
102
{ACAD_REACTORS
330
47
102
}
330
47
100
AcDbScale
 70
     0
300
1/2" = 1'-0"
140
0.5
141
12.0
290
     0
  0
SCALE
  5
63
102
{ACAD_REACTORS
330
47
102
}
330
47
100
AcDbScale
 70
     0
300
3/4" = 1'-0"
140
0.75
141
12.0
290
     0
  0
SCALE
  5
64
102
{ACAD_REACTORS
330
47
102
}
330
47
100
AcDbScale
 70
     0
300
1" = 1'-0"
140
1.0
141
12.0
290
     0
  0
SCALE
  5
65
102
{ACAD_REACTORS
330
47
102
}
330
47
100
AcDbScale
 70
     0
300
1-1/2" = 1'-0"
140
1.5
141
12.0
290
     0
  0
SCALE
  5
66
102
{ACAD_REACTORS
330
47
102
}
330
47
100
AcDbScale
 70
     0
300
3" = 1'-0"
140
3.0
141
12.0
290
     0
  0
SCALE
  5
67
102
{ACAD_REACTORS
330
47
102
}
330
47
100
AcDbScale
 70
     0
300
6" = 1'-0"
140
6.0
141
12.0
290
     0
  0
SCALE
  5
68
102
{ACAD_REACTORS
330
47
102
}
330
47
100
AcDbScale
 70
     0
300
1'-0" = 1'-0"
140
12.0
141
12.0
290
     0
  0
ENDSEC
  0
EOF
