  0
SECTION
  2
HEADER
  9
$ACADVER
  1
AC1015
  9
$ACADMAINTVER
 70
     6
  9
$DWGCODEPAGE
  3
ANSI_1250
  9
$INSBASE
 10
0.0
 20
0.0
 30
0.0
  9
$EXTMIN
 10
0.0
 20
0.0
 30
0.0
  9
$EXTMAX
 10
20000.0
 20
10000.0
 30
0.0
  9
$LIMMIN
 10
0.0
 20
0.0
  9
$LIMMAX
 10
20000.0
 20
10000.0
  9
$ORTHOMODE
 70
     0
  9
$REGENMODE
 70
     1
  9
$FILLMODE
 70
     1
  9
$QTEXTMODE
 70
     0
  9
$MIRRTEXT
 70
     1
  9
$LTSCALE
 40
1.0
  9
$ATTMODE
 70
     1
  9
$TEXTSIZE
 40
2.0
  9
$TRACEWID
 40
1.0
  9
$TEXTSTYLE
  7
Standard
  9
$CLAYER
  8
0
  9
$CELTYPE
  6
ByLayer
  9
$CECOLOR
 62
   256
  9
$CELTSCALE
 40
1.0
  9
$DISPSILH
 70
     0
  9
$DIMSCALE
 40
1.0
  9
$DIMASZ
 40
2.0
  9
$DIMEXO
 40
1.0
  9
$DIMDLI
 40
3.75
  9
$DIMRND
 40
0.0
  9
$DIMDLE
 40
0.0
  9
$DIMEXE
 40
1.0
  9
$DIMTP
 40
0.0
  9
$DIMTM
 40
0.0
  9
$DIMTXT
 40
2.0
  9
$DIMCEN
 40
2.5
  9
$DIMTSZ
 40
0.0
  9
$DIMTOL
 70
     0
  9
$DIMLIM
 70
     0
  9
$DIMTIH
 70
     1
  9
$DIMTOH
 70
     1
  9
$DIMSE1
 70
     0
  9
$DIMSE2
 70
     0
  9
$DIMTAD
 70
     1
  9
$DIMZIN
 70
     0
  9
$DIMBLK
  1

  9
$DIMASO
 70
     1
  9
$DIMSHO
 70
     1
  9
$DIMPOST
  1

  9
$DIMAPOST
  1

  9
$DIMALT
 70
     0
  9
$DIMALTD
 70
     3
  9
$DIMALTF
 40
0.0393700787
  9
$DIMLFAC
 40
1.0
  9
$DIMTOFL
 70
     1
  9
$DIMTVP
 40
0.0
  9
$DIMTIX
 70
     0
  9
$DIMSOXD
 70
     0
  9
$DIMSAH
 70
     0
  9
$DIMBLK1
  1

  9
$DIMBLK2
  1

  9
$DIMSTYLE
  2
ISO-25
  9
$DIMCLRD
 70
     0
  9
$DIMCLRE
 70
     0
  9
$DIMCLRT
 70
     0
  9
$DIMTFAC
 40
1.0
  9
$DIMGAP
 40
1.524
  9
$DIMJUST
 70
     0
  9
$DIMSD1
 70
     0
  9
$DIMSD2
 70
     0
  9
$DIMTOLJ
 70
     0
  9
$DIMTZIN
 70
     0
  9
$DIMALTZ
 70
     0
  9
$DIMALTTZ
 70
     0
  9
$DIMUPT
 70
     0
  9
$DIMDEC
 70
     2
  9
$DIMTDEC
 70
     0
  9
$DIMALTU
 70
     2
  9
$DIMALTTD
 70
     3
  9
$DIMTXSTY
  7
Standard
  9
$DIMAUNIT
 70
     0
  9
$DIMADEC
 70
     2
  9
$DIMALTRND
 40
0.0
  9
$DIMAZIN
 70
     0
  9
$DIMDSEP
 70
    44
  9
$DIMATFIT
 70
     3
  9
$DIMFRAC
 70
     0
  9
$DIMLDRBLK
  1

  9
$DIMLUNIT
 70
     2
  9
$DIMLWD
 70
    -2
  9
$DIMLWE
 70
    -2
  9
$DIMTMOVE
 70
     0
  9
$LUNITS
 70
     2
  9
$LUPREC
 70
     3
  9
$SKETCHINC
 40
1.0
  9
$FILLETRAD
 40
10.0
  9
$AUNITS
 70
     0
  9
$AUPREC
 70
     2
  9
$MENU
  1
.
  9
$ELEVATION
 40
0.0
  9
$PELEVATION
 40
0.0
  9
$THICKNESS
 40
0.0
  9
$LIMCHECK
 70
     0
  9
$CHAMFERA
 40
0.0
  9
$CHAMFERB
 40
0.0
  9
$CHAMFERC
 40
0.0
  9
$CHAMFERD
 40
0.0
  9
$SKPOLY
 70
     0
  9
$TDCREATE
 40
2459179.26057706
  9
$TDUCREATE
 40
2459179.218910393
  9
$TDUPDATE
 40
2459179.260577315
  9
$TDUUPDATE
 40
2459179.218910648
  9
$TDINDWG
 40
0.0000000116
  9
$TDUSRTIMER
 40
0.0000000116
  9
$USRTIMER
 70
     1
  9
$ANGBASE
 50
0.0
  9
$ANGDIR
 70
     0
  9
$PDMODE
 70
     0
  9
$PDSIZE
 40
-1.0
  9
$PLINEWID
 40
0.0
  9
$SPLFRAME
 70
     0
  9
$SPLINETYPE
 70
     6
  9
$SPLINESEGS
 70
     8
  9
$HANDSEED
  5
537
  9
$SURFTAB1
 70
     6
  9
$SURFTAB2
 70
     6
  9
$SURFTYPE
 70
     6
  9
$SURFU
 70
     6
  9
$SURFV
 70
     6
  9
$UCSBASE
  2

  9
$UCSNAME
  2

  9
$UCSORG
 10
0.0
 20
0.0
 30
0.0
  9
$UCSXDIR
 10
1.0
 20
0.0
 30
0.0
  9
$UCSYDIR
 10
0.0
 20
1.0
 30
0.0
  9
$UCSORTHOREF
  2

  9
$UCSORTHOVIEW
 70
     0
  9
$UCSORGTOP
 10
0.0
 20
0.0
 30
0.0
  9
$UCSORGBOTTOM
 10
0.0
 20
0.0
 30
0.0
  9
$UCSORGLEFT
 10
0.0
 20
0.0
 30
0.0
  9
$UCSORGRIGHT
 10
0.0
 20
0.0
 30
0.0
  9
$UCSORGFRONT
 10
0.0
 20
0.0
 30
0.0
  9
$UCSORGBACK
 10
0.0
 20
0.0
 30
0.0
  9
$PUCSBASE
  2

  9
$PUCSNAME
  2

  9
$PUCSORG
 10
0.0
 20
0.0
 30
0.0
  9
$PUCSXDIR
 10
1.0
 20
0.0
 30
0.0
  9
$PUCSYDIR
 10
0.0
 20
1.0
 30
0.0
  9
$PUCSORTHOREF
  2

  9
$PUCSORTHOVIEW
 70
     0
  9
$PUCSORGTOP
 10
0.0
 20
0.0
 30
0.0
  9
$PUCSORGBOTTOM
 10
0.0
 20
0.0
 30
0.0
  9
$PUCSORGLEFT
 10
0.0
 20
0.0
 30
0.0
  9
$PUCSORGRIGHT
 10
0.0
 20
0.0
 30
0.0
  9
$PUCSORGFRONT
 10
0.0
 20
0.0
 30
0.0
  9
$PUCSORGBACK
 10
0.0
 20
0.0
 30
0.0
  9
$USERI1
 70
     0
  9
$USERI2
 70
     0
  9
$USERI3
 70
     0
  9
$USERI4
 70
     0
  9
$USERI5
 70
     0
  9
$USERR1
 40
0.0
  9
$USERR2
 40
0.0
  9
$USERR3
 40
0.0
  9
$USERR4
 40
0.0
  9
$USERR5
 40
0.0
  9
$WORLDVIEW
 70
     1
  9
$SHADEDGE
 70
     3
  9
$SHADEDIF
 70
    70
  9
$TILEMODE
 70
     1
  9
$MAXACTVP
 70
    64
  9
$PINSBASE
 10
0.0
 20
0.0
 30
0.0
  9
$PLIMCHECK
 70
     0
  9
$PEXTMIN
 10
1.0000000000E+20
 20
1.0000000000E+20
 30
1.0000000000E+20
  9
$PEXTMAX
 10
-1.0000000000E+20
 20
-1.0000000000E+20
 30
-1.0000000000E+20
  9
$PLIMMIN
 10
0.0
 20
0.0
  9
$PLIMMAX
 10
420.0
 20
297.0
  9
$UNITMODE
 70
     0
  9
$VISRETAIN
 70
     1
  9
$PLINEGEN
 70
     0
  9
$PSLTSCALE
 70
     1
  9
$TREEDEPTH
 70
  3020
  9
$CMLSTYLE
  2
Standard
  9
$CMLJUST
 70
     0
  9
$CMLSCALE
 40
20.0
  9
$PROXYGRAPHICS
 70
     1
  9
$MEASUREMENT
 70
     1
  9
$CELWEIGHT
370
    -1
  9
$ENDCAPS
280
     0
  9
$JOINSTYLE
280
     0
  9
$LWDISPLAY
290
     1
  9
$INSUNITS
 70
     4
  9
$HYPERLINKBASE
  1

  9
$STYLESHEET
  1

  9
$XEDIT
290
     1
  9
$CEPSNTYPE
380
     0
  9
$PSTYLEMODE
290
     1
  9
$FINGERPRINTGUID
  2
{565abe4f-b2b9-42f8-8e46-4cbf5d5f8a3b}
  9
$VERSIONGUID
  2
{FAEB1C32-E019-11D5-929B-00C0DF256EC4}
  9
$EXTNAMES
290
     1
  9
$PSVPSCALE
 40
0.0
  9
$OLESTARTUP
290
     0
  0
ENDSEC
  0
SECTION
  2
CLASSES
  0
CLASS
  1
ACDBDICTIONARYWDFLT
  2
AcDbDictionaryWithDefault
  3
ObjectDBX Classes
 90
        0
280
     0
281
     0
  0
CLASS
  1
VISUALSTYLE
  2
AcDbVisualStyle
  3
ObjectDBX Classes
 90
     4095
280
     0
281
     0
  0
CLASS
  1
MATERIAL
  2
AcDbMaterial
  3
ObjectDBX Classes
 90
     1153
280
     0
281
     0
  0
CLASS
  1
SCALE
  2
AcDbScale
  3
ObjectDBX Classes
 90
     1153
280
     0
281
     0
  0
CLASS
  1
TABLESTYLE
  2
AcDbTableStyle
  3
ObjectDBX Classes
 90
     4095
280
     0
281
     0
  0
CLASS
  1
MLEADERSTYLE
  2
AcDbMLeaderStyle
  3
ACDB_MLEADERSTYLE_CLASS
 90
     4095
280
     0
281
     0
  0
CLASS
  1
SUN
  2
AcDbSun
  3
SCENEOE
 90
     1153
280
     0
281
     0
  0
CLASS
  1
ACDBPLACEHOLDER
  2
AcDbPlaceHolder
  3
ObjectDBX Classes
 90
        0
280
     0
281
     0
  0
CLASS
  1
LAYOUT
  2
AcDbLayout
  3
ObjectDBX Classes
 90
        0
280
     0
281
     0
  0
ENDSEC
  0
SECTION
  2
TABLES
  0
TABLE
  2
VPORT
  5
8
330
0
100
AcDbSymbolTable
 70
     1
  0
VPORT
  5
29
330
8
100
AcDbSymbolTableRecord
100
AcDbViewportTableRecord
  2
*Active
 70
     0
 10
0.0
 20
0.0
 11
1.0
 21
1.0
 12
10000.0
 22
5000.0
 13
0.0
 23
0.0
 14
10.0
 24
10.0
 15
10.0
 25
10.0
 16
0.0
 26
0.0
 36
1.0
 17
0.0
 27
0.0
 37
0.0
 40
10000.0
 41
2.0
 42
50.0
 43
0.0
 44
0.0
 50
0.0
 51
0.0
 71
     0
 72
  2000
 73
     1
 74
     3
 75
     0
 76
     0
 77
     0
 78
     0
281
     0
 65
     1
110
0.0
120
0.0
130
0.0
111
1.0
121
0.0
131
0.0
112
0.0
122
1.0
132
0.0
 79
     0
146
0.0
  0
ENDTAB
  0
TABLE
  2
LTYPE
  5
5
330
0
100
AcDbSymbolTable
 70
     6
  0
LTYPE
  5
14
330
5
100
AcDbSymbolTableRecord
100
AcDbLinetypeTableRecord
  2
ByBlock
 70
     0
  3

 72
    65
 73
     0
 40
0.0
  0
LTYPE
  5
15
330
5
100
AcDbSymbolTableRecord
100
AcDbLinetypeTableRecord
  2
ByLayer
 70
     0
  3

 72
    65
 73
     0
 40
0.0
  0
LTYPE
  5
16
330
5
100
AcDbSymbolTableRecord
100
AcDbLinetypeTableRecord
  2
Continuous
 70
     0
  3
Solid line
 72
    65
 73
     0
 40
0.0
  0
LTYPE
  5
6E
330
5
100
AcDbSymbolTableRecord
100
AcDbLinetypeTableRecord
  2
HIDDEN
 70
     0
  3
Hidden __ __ __ __ __ __ __ __ __ __ __ __ __ __
 72
    65
 73
     2
 40
1.905
 49
1.27
 74
     0
 49
-0.635
 74
     0
  0
LTYPE
  5
6F
330
5
100
AcDbSymbolTableRecord
100
AcDbLinetypeTableRecord
  2
PHANTOM
 70
     0
  3
Phantom ______  __  __  ______  __  __  ______
 72
    65
 73
     6
 40
12.7
 49
6.35
 74
     0
 49
-1.27
 74
     0
 49
1.27
 74
     0
 49
-1.27
 74
     0
 49
1.27
 74
     0
 49
-1.27
 74
     0
  0
LTYPE
  5
70
330
5
100
AcDbSymbolTableRecord
100
AcDbLinetypeTableRecord
  2
CENTER
 70
     0
  3
Center ____ _ ____ _ ____ _ ____ _ ____ _ ____
 72
    65
 73
     4
 40
10.16
 49
6.35
 74
     0
 49
-1.27
 74
     0
 49
1.27
 74
     0
 49
-1.27
 74
     0
  0
LTYPE
  5
71
330
5
100
AcDbSymbolTableRecord
100
AcDbLinetypeTableRecord
  2
CENTERX2
 70
     0
  3
Center (2x) ________  __  ________  __  _____
 72
    65
 73
     4
 40
20.32
 49
12.7
 74
     0
 49
-2.54
 74
     0
 49
2.54
 74
     0
 49
-2.54
 74
     0
  0
LTYPE
  5
72
330
5
100
AcDbSymbolTableRecord
100
AcDbLinetypeTableRecord
  2
DOT2
 70
     0
  3
Dot (.5x) ........................................
 72
    65
 73
     2
 40
0.635
 49
0.0
 74
     0
 49
-0.635
 74
     0
  0
ENDTAB
  0
TABLE
  2
LAYER
  5
2
330
0
100
AcDbSymbolTable
 70
    13
  0
LAYER
  5
10
330
2
100
AcDbSymbolTableRecord
100
AcDbLayerTableRecord
  2
0
 70
     0
 62
     7
  6
Continuous
370
    -3
390
F
  0
LAYER
  5
73
330
2
100
AcDbSymbolTableRecord
100
AcDbLayerTableRecord
  2
FORMAT
 70
     0
 62
     7
  6
Continuous
370
    -3
390
F
  0
LAYER
  5
74
330
2
100
AcDbSymbolTableRecord
100
AcDbLayerTableRecord
  2
OSA
 70
     0
 62
     7
  6
CENTER
370
    -3
390
F
  0
LAYER
  5
75
330
2
100
AcDbSymbolTableRecord
100
AcDbLayerTableRecord
  2
0_35
 70
     0
 62
     7
  6
Continuous
370
    35
390
F
  0
LAYER
  5
76
330
2
100
AcDbSymbolTableRecord
100
AcDbLayerTableRecord
  2
0_5
 70
     0
 62
     7
  6
Continuous
370
    50
390
F
  0
LAYER
  5
77
330
2
100
AcDbSymbolTableRecord
100
AcDbLayerTableRecord
  2
0_25
 70
     0
 62
     7
  6
Continuous
370
    25
390
F
  0
LAYER
  5
78
330
2
100
AcDbSymbolTableRecord
100
AcDbLayerTableRecord
  2
0_18
 70
     0
 62
     7
  6
Continuous
370
    -3
390
F
  0
LAYER
  5
79
330
2
100
AcDbSymbolTableRecord
100
AcDbLayerTableRecord
  2
SLD-0
 70
     0
 62
   179
  6
Continuous
370
    -3
390
F
  0
LAYER
  5
7A
330
2
100
AcDbSymbolTableRecord
100
AcDbLayerTableRecord
  2
KOTY
 70
     0
 62
     7
  6
Continuous
370
    -3
390
F
  0
LAYER
  5
7B
330
2
100
AcDbSymbolTableRecord
100
AcDbLayerTableRecord
  2
SILNA
 70
     0
 62
   179
  6
Continuous
370
    -3
390
F
  0
LAYER
  5
7C
330
2
100
AcDbSymbolTableRecord
100
AcDbLayerTableRecord
  2
0_18_1
 70
     0
 62
   179
  6
Continuous
370
    -3
390
F
  0
LAYER
  5
7D
330
2
100
AcDbSymbolTableRecord
100
AcDbLayerTableRecord
  2
0_35_1
 70
     0
 62
   179
  6
Continuous
370
    35
390
F
  0
LAYER
  5
7E
330
2
100
AcDbSymbolTableRecord
100
AcDbLayerTableRecord
  2
0_5_1
 70
     0
 62
   179
  6
Continuous
370
    50
390
F
  0
ENDTAB
  0
TABLE
  2
STYLE
  5
3
330
0
100
AcDbSymbolTable
 70
     1
  0
STYLE
  5
11
330
3
100
AcDbSymbolTableRecord
100
AcDbTextStyleTableRecord
  2
Standard
 70
     0
 40
0.0
 41
1.0
 50
0.0
 71
     0
 42
2.0
  3
txt
  4

  0
ENDTAB
  0
TABLE
  2
VIEW
  5
6
330
0
100
AcDbSymbolTable
 70
     0
  0
ENDTAB
  0
TABLE
  2
UCS
  5
7
330
0
100
AcDbSymbolTable
 70
     0
  0
ENDTAB
  0
TABLE
  2
APPID
  5
9
330
0
100
AcDbSymbolTable
 70
     1
  0
APPID
  5
12
330
9
100
AcDbSymbolTableRecord
100
AcDbRegAppTableRecord
  2
ACAD
 70
     0
  0
ENDTAB
  0
TABLE
  2
DIMSTYLE
  5
A
330
0
100
AcDbSymbolTable
 70
     1
100
AcDbDimStyleTable
  0
DIMSTYLE
105
27
330
A
100
AcDbSymbolTableRecord
100
AcDbDimStyleTableRecord
  2
ISO-25
 70
     0
 41
2.5
 42
0.625
 43
3.75
 44
1.25
 73
     0
 74
     0
 77
     1
 78
     8
140
2.5
141
2.5
143
0.0393700787
147
0.625
171
     3
172
     1
178
     0
271
     2
272
     2
274
     3
278
    44
283
     0
284
     8
340
11
  0
ENDTAB
  0
TABLE
  2
BLOCK_RECORD
  5
1
330
0
100
AcDbSymbolTable
 70
     1
  0
BLOCK_RECORD
  5
1F
330
1
100
AcDbSymbolTableRecord
100
AcDbBlockTableRecord
  2
*Model_Space
340
22
  0
BLOCK_RECORD
  5
1B
330
1
100
AcDbSymbolTableRecord
100
AcDbBlockTableRecord
  2
*Paper_Space
340
1E
  0
BLOCK_RECORD
  5
23
330
1
100
AcDbSymbolTableRecord
100
AcDbBlockTableRecord
  2
*Paper_Space0
340
26
  0
ENDTAB
  0
ENDSEC
  0
SECTION
  2
BLOCKS
  0
BLOCK
  5
20
330
1F
100
AcDbEntity
  8
0
100
AcDbBlockBegin
  2
*Model_Space
 70
     0
 10
0.0
 20
0.0
 30
0.0
  3
*Model_Space
  1

  0
ENDBLK
  5
21
330
1F
100
AcDbEntity
  8
0
100
AcDbBlockEnd
  0
BLOCK
  5
1C
330
1B
100
AcDbEntity
 67
     1
  8
0
100
AcDbBlockBegin
  2
*Paper_Space
 70
     0
 10
0.0
 20
0.0
 30
0.0
  3
*Paper_Space
  1

  0
ENDBLK
  5
1D
330
1B
100
AcDbEntity
 67
     1
  8
0
100
AcDbBlockEnd
  0
BLOCK
  5
24
330
23
100
AcDbEntity
  8
0
100
AcDbBlockBegin
  2
*Paper_Space0
 70
     0
 10
0.0
 20
0.0
 30
0.0
  3
*Paper_Space0
  1

  0
ENDBLK
  5
25
330
23
100
AcDbEntity
  8
0
100
AcDbBlockEnd
  0
ENDSEC
  0
SECTION
  2
ENTITIES
  0
LINE
  5
7F
330
1F
100
AcDbEntity
  8
0
  6
Continuous
 62
     7
370
    25
100
AcDbLine
 10
4145.9864582733
 20
7834.4833343144
 30
0.0
 11
4153.4168032575
 21
7834.4833343144
 31
0.0
  0
LINE
  5
80
330
1F
100
AcDbEntity
  8
0
  6
Continuous
 62
     7
370
    25
100
AcDbLine
 10
4135.5561132892
 20
7834.4833343144
 30
0.0
 11
4142.9864582733
 21
7834.4833343144
 31
0.0
  0
LINE
  5
81
330
1F
100
AcDbEntity
  8
0
  6
Continuous
 62
     7
370
    25
100
AcDbLine
 10
4145.9864640643
 20
8087.5011190282
 30
0.0
 11
4153.416809059
 21
8087.5011190282
 31
0.0
  0
LINE
  5
82
330
1F
100
AcDbEntity
  8
0
  6
Continuous
 62
     7
370
    25
100
AcDbLine
 10
4135.5561190907
 20
8087.5011190282
 30
0.0
 11
4142.9864640643
 21
8087.5011190282
 31
0.0
  0
LINE
  5
83
330
1F
100
AcDbEntity
  8
0
  6
Continuous
 62
     7
370
    25
100
AcDbLine
 10
4191.6568797948
 20
8094.4299790173
 30
0.0
 11
4173.7961898265
 21
8094.4299790173
 31
0.0
  0
LINE
  5
84
330
1F
100
AcDbEntity
  8
0
  6
Continuous
 62
     7
370
    25
100
AcDbLine
 10
4190.9725959145
 20
8087.5011190282
 30
0.0
 11
4196.0168035935
 21
8087.5011190282
 31
0.0
  0
LINE
  5
85
330
1F
100
AcDbEntity
  8
0
  6
Continuous
 62
     7
370
    25
100
AcDbLine
 10
4181.093359257
 20
8087.5011190282
 30
0.0
 11
4182.2532576794
 21
8087.5011190282
 31
0.0
  0
LINE
  5
86
330
1F
100
AcDbEntity
  8
0
  6
Continuous
 62
     7
370
    25
100
AcDbLine
 10
4188.2791853983
 20
7834.4833343144
 30
0.0
 11
4196.0168032575
 21
7834.4833343144
 31
0.0
  0
LINE
  5
87
330
1F
100
AcDbEntity
  8
0
  6
Continuous
 62
     7
370
    25
100
AcDbLine
 10
4178.1561132892
 20
7834.4833343144
 30
0.0
 11
4185.5864582733
 21
7834.4833343144
 31
0.0
  0
LINE
  5
88
330
1F
100
AcDbEntity
  8
0
  6
Continuous
 62
     7
370
    25
100
AcDbLine
 10
4220.5364582733
 20
7834.4833343144
 30
0.0
 11
4227.9668032575
 21
7834.4833343144
 31
0.0
  0
LINE
  5
89
330
1F
100
AcDbEntity
  8
0
  6
Continuous
 62
     7
370
    25
100
AcDbLine
 10
4210.1061132892
 20
7834.4833343144
 30
0.0
 11
4217.5364582733
 21
7834.4833343144
 31
0.0
  0
LINE
  5
8A
330
1F
100
AcDbEntity
  8
0
  6
Continuous
 62
     7
370
    25
100
AcDbLine
 10
4220.5364640643
 20
8087.5011190282
 30
0.0
 11
4227.966809059
 21
8087.5011190282
 31
0.0
  0
LINE
  5
8B
330
1F
100
AcDbEntity
  8
0
  6
Continuous
 62
     7
370
    25
100
AcDbLine
 10
4210.1061190907
 20
8087.5011190282
 30
0.0
 11
4217.5364640643
 21
8087.5011190282
 31
0.0
  0
LINE
  5
8C
330
1F
100
AcDbEntity
  8
0
  6
Continuous
 62
     7
370
    25
100
AcDbLine
 10
4273.2936657476
 20
8096.5011202505
 30
0.0
 11
4235.0012278284
 21
8096.5011202505
 31
0.0
  0
LINE
  5
8D
330
1F
100
AcDbEntity
  8
0
  6
Continuous
 62
     7
370
    25
100
AcDbLine
 10
4263.0205192898
 20
8088.5011202505
 30
0.0
 11
4271.2963500711
 21
8088.5011202505
 31
0.0
  0
LINE
  5
8E
330
1F
100
AcDbEntity
  8
0
  6
Continuous
 62
     7
370
    25
100
AcDbLine
 10
4252.4786871913
 20
8088.5011202505
 30
0.0
 11
4260.2182228343
 21
8088.5011202505
 31
0.0
  0
LINE
  5
8F
330
1F
100
AcDbEntity
  8
0
  6
Continuous
 62
     7
370
    25
100
AcDbLine
 10
4241.6269947936
 20
8088.5011202505
 30
0.0
 11
4249.5106580486
 21
8088.5011202505
 31
0.0
  0
LINE
  5
90
330
1F
100
AcDbEntity
  8
0
  6
Continuous
 62
     7
370
    25
100
AcDbLine
 10
4235.0012278284
 20
8088.5011202505
 30
0.0
 11
4238.8364640643
 21
8088.5011202505
 31
0.0
  0
LINE
  5
91
330
1F
100
AcDbEntity
  8
0
  6
Continuous
 62
     7
370
    25
100
AcDbLine
 10
4249.4864640643
 20
8088.5119052981
 30
0.0
 11
4249.4864640643
 21
8038.5011202505
 31
0.0
  0
LINE
  5
92
330
1F
100
AcDbEntity
  8
0
  6
Continuous
 62
     7
370
    25
100
AcDbLine
 10
4252.4864640643
 20
8038.5011202505
 30
0.0
 11
4252.4864640643
 21
8088.5038214337
 31
0.0
  0
LINE
  5
93
330
1F
100
AcDbEntity
  8
0
  6
Continuous
 62
     7
370
    25
100
AcDbLine
 10
4252.4864640643
 20
8033.5011202505
 30
0.0
 11
4252.4864640643
 21
8038.5011202505
 31
0.0
  0
LINE
  5
94
330
1F
100
AcDbEntity
  8
0
  6
Continuous
 62
     7
370
    25
100
AcDbLine
 10
4249.4864640643
 20
8038.5011202505
 30
0.0
 11
4249.4864640643
 21
8033.5011202505
 31
0.0
  0
LINE
  5
95
330
1F
100
AcDbEntity
  8
0
  6
Continuous
 62
     7
370
    25
100
AcDbLine
 10
4260.1364640643
 20
8088.5353987223
 30
0.0
 11
4260.1364640643
 21
8038.5011202505
 31
0.0
  0
LINE
  5
96
330
1F
100
AcDbEntity
  8
0
  6
Continuous
 62
     7
370
    25
100
AcDbLine
 10
4263.1364640643
 20
8038.5011202505
 30
0.0
 11
4263.1364640643
 21
8088.5399427349
 31
0.0
  0
LINE
  5
97
330
1F
100
AcDbEntity
  8
0
  6
Continuous
 62
     7
370
    25
100
AcDbLine
 10
4263.1364640643
 20
8033.5011202505
 30
0.0
 11
4263.1364640643
 21
8038.5011202505
 31
0.0
  0
LINE
  5
98
330
1F
100
AcDbEntity
  8
0
  6
Continuous
 62
     7
370
    25
100
AcDbLine
 10
4260.1364640643
 20
8038.5011202505
 30
0.0
 11
4260.1364640643
 21
8033.5011202505
 31
0.0
  0
LINE
  5
99
330
1F
100
AcDbEntity
  8
0
  6
Continuous
 62
     7
370
    25
100
AcDbLine
 10
4241.8364640643
 20
8033.5011202505
 30
0.0
 11
4241.8364640643
 21
8038.5011202505
 31
0.0
  0
LINE
  5
9A
330
1F
100
AcDbEntity
  8
0
  6
Continuous
 62
     7
370
    25
100
AcDbLine
 10
4238.8364640643
 20
8038.5011202505
 30
0.0
 11
4238.8364640643
 21
8033.5011202505
 31
0.0
  0
LINE
  5
9B
330
1F
100
AcDbEntity
  8
0
  6
Continuous
 62
     7
370
    25
100
AcDbLine
 10
4238.8364640643
 20
8088.5856126098
 30
0.0
 11
4238.8364640643
 21
8038.5011202505
 31
0.0
  0
LINE
  5
9C
330
1F
100
AcDbEntity
  8
0
  6
Continuous
 62
     7
370
    25
100
AcDbLine
 10
4241.8364640643
 20
8038.5011202505
 30
0.0
 11
4241.8364640643
 21
8088.5011202505
 31
0.0
  0
LINE
  5
9D
330
1F
100
AcDbEntity
  8
0
  6
Continuous
 62
     7
370
    25
100
AcDbLine
 10
4230.7148431064
 20
8088.5011202505
 30
0.0
 11
4235.0012278284
 21
8088.5011202505
 31
0.0
  0
LINE
  5
9E
330
1F
100
AcDbEntity
  8
0
  6
Continuous
 62
     7
370
    25
100
AcDbLine
 10
4220.0648431064
 20
8088.5011202505
 30
0.0
 11
4228.1864640643
 21
8088.5011202505
 31
0.0
  0
LINE
  5
9F
330
1F
100
AcDbEntity
  8
0
  6
Continuous
 62
     7
370
    25
100
AcDbLine
 10
4209.4148431064
 20
8088.5011202505
 30
0.0
 11
4217.5364640643
 21
8088.5011202505
 31
0.0
  0
LINE
  5
A0
330
1F
100
AcDbEntity
  8
0
  6
Continuous
 62
     7
370
    25
100
AcDbLine
 10
4198.7648431064
 20
8088.5011202505
 30
0.0
 11
4206.8864640643
 21
8088.5011202505
 31
0.0
  0
LINE
  5
A1
330
1F
100
AcDbEntity
  8
0
  6
Continuous
 62
     7
370
    25
100
AcDbLine
 10
4196.0168035829
 20
8088.5011202505
 30
0.0
 11
4196.2364640643
 21
8088.5011202505
 31
0.0
  0
LINE
  5
A2
330
1F
100
AcDbEntity
  8
0
  6
Continuous
 62
     7
370
    25
100
AcDbLine
 10
4166.8148431064
 20
8088.5011202505
 30
0.0
 11
4172.376532745
 21
8088.5011202505
 31
0.0
  0
LINE
  5
A3
330
1F
100
AcDbEntity
  8
0
  6
Continuous
 62
     7
370
    25
100
AcDbLine
 10
4156.1648431064
 20
8088.5011202505
 30
0.0
 11
4164.2864640643
 21
8088.5011202505
 31
0.0
  0
LINE
  5
A4
330
1F
100
AcDbEntity
  8
0
  6
Continuous
 62
     7
370
    25
100
AcDbLine
 10
4145.5062637197
 20
8088.5011202505
 30
0.0
 11
4153.6364640643
 21
8088.5011202505
 31
0.0
  0
LINE
  5
A5
330
1F
100
AcDbEntity
  8
0
  6
Continuous
 62
     7
370
    25
100
AcDbLine
 10
4134.8584625297
 20
8088.5011202505
 30
0.0
 11
4142.9864640643
 21
8088.5011202505
 31
0.0
  0
LINE
  5
A6
330
1F
100
AcDbEntity
  8
0
  6
Continuous
 62
     7
370
    25
100
AcDbLine
 10
4124.2084625297
 20
8088.5011202505
 30
0.0
 11
4132.3364640643
 21
8088.5011202505
 31
0.0
  0
LINE
  5
A7
330
1F
100
AcDbEntity
  8
0
  6
Continuous
 62
     7
370
    25
100
AcDbLine
 10
4120.1864640643
 20
8088.5011202505
 30
0.0
 11
4121.6864640643
 21
8088.5011202505
 31
0.0
  0
LINE
  5
A8
330
1F
100
AcDbEntity
  8
0
  6
Continuous
 62
     7
370
    25
100
AcDbLine
 10
4235.0012278284
 20
8096.5011202505
 30
0.0
 11
4120.1864640643
 21
8096.5011202505
 31
0.0
  0
LINE
  5
A9
330
1F
100
AcDbEntity
  8
0
  6
Continuous
 62
     7
370
    25
100
AcDbLine
 10
4273.7864640643
 20
8033.5011202505
 30
0.0
 11
4273.7864640643
 21
8038.5011202505
 31
0.0
  0
LINE
  5
AA
330
1F
100
AcDbEntity
  8
0
  6
Continuous
 62
     7
370
    25
100
AcDbLine
 10
4270.7864640643
 20
8038.5011202505
 30
0.0
 11
4270.7864640643
 21
8033.5011202505
 31
0.0
  0
LINE
  5
AB
330
1F
100
AcDbEntity
  8
0
  6
Continuous
 62
     7
370
    25
100
AcDbLine
 10
4270.7864640643
 20
8088.5011202505
 30
0.0
 11
4270.7864640643
 21
8038.5011202505
 31
0.0
  0
LINE
  5
AC
330
1F
100
AcDbEntity
  8
0
  6
Continuous
 62
     7
370
    25
100
AcDbLine
 10
4273.7864640643
 20
8038.5011202505
 30
0.0
 11
4273.7864640643
 21
8088.6744818598
 31
0.0
  0
ARC
  5
AD
330
1F
100
AcDbEntity
  8
0
  6
Continuous
 62
     7
370
    25
100
AcDbCircle
 10
4315.7335283027
 20
8092.5011202505
 30
0.0
 40
4.0
100
AcDbArc
 50
270.0
 51
90.0
  0
LINE
  5
AE
330
1F
100
AcDbEntity
  8
0
  6
Continuous
 62
     7
370
    25
100
AcDbLine
 10
4315.7335283027
 20
8096.5011202505
 30
0.0
 11
4273.2936657476
 21
8096.5011202505
 31
0.0
  0
LINE
  5
AF
330
1F
100
AcDbEntity
  8
0
  6
Continuous
 62
     7
370
    25
100
AcDbLine
 10
4315.1864640643
 20
8088.5011202505
 30
0.0
 11
4315.7335283027
 21
8088.5011202505
 31
0.0
  0
LINE
  5
B0
330
1F
100
AcDbEntity
  8
0
  6
Continuous
 62
     7
370
    25
100
AcDbLine
 10
4305.7364640643
 20
8088.5011202505
 30
0.0
 11
4313.4761736744
 21
8088.5011202505
 31
0.0
  0
LINE
  5
B1
330
1F
100
AcDbEntity
  8
0
  6
Continuous
 62
     7
370
    25
100
AcDbLine
 10
4295.0864640643
 20
8088.5011202505
 30
0.0
 11
4303.7566478559
 21
8088.5011202505
 31
0.0
  0
LINE
  5
B2
330
1F
100
AcDbEntity
  8
0
  6
Continuous
 62
     7
370
    25
100
AcDbLine
 10
4284.4364640643
 20
8088.5011202505
 30
0.0
 11
4292.9342184605
 21
8088.5011202505
 31
0.0
  0
LINE
  5
B3
330
1F
100
AcDbEntity
  8
0
  6
Continuous
 62
     7
370
    25
100
AcDbLine
 10
4273.7864640643
 20
8088.5011202505
 30
0.0
 11
4282.150515899
 21
8088.5011202505
 31
0.0
  0
LINE
  5
B4
330
1F
100
AcDbEntity
  8
0
  6
Continuous
 62
     7
370
    25
100
AcDbLine
 10
4228.1864640643
 20
8088.6525134263
 30
0.0
 11
4228.1864640643
 21
8038.5011202505
 31
0.0
  0
LINE
  5
B5
330
1F
100
AcDbEntity
  8
0
  6
Continuous
 62
     7
370
    25
100
AcDbLine
 10
4231.1864640643
 20
8038.5011202505
 30
0.0
 11
4231.1864640643
 21
8088.5011202505
 31
0.0
  0
LINE
  5
B6
330
1F
100
AcDbEntity
  8
0
  6
Continuous
 62
     7
370
    25
100
AcDbLine
 10
4231.1864640643
 20
8033.5011202505
 30
0.0
 11
4231.1864640643
 21
8038.5011202505
 31
0.0
  0
LINE
  5
B7
330
1F
100
AcDbEntity
  8
0
  6
Continuous
 62
     7
370
    25
100
AcDbLine
 10
4228.1864640643
 20
8038.5011202505
 30
0.0
 11
4228.1864640643
 21
8033.5011202505
 31
0.0
  0
LINE
  5
B8
330
1F
100
AcDbEntity
  8
0
  6
Continuous
 62
     7
370
    25
100
AcDbLine
 10
4281.4364640643
 20
8088.5011202505
 30
0.0
 11
4281.4364640643
 21
8038.5011202505
 31
0.0
  0
LINE
  5
B9
330
1F
100
AcDbEntity
  8
0
  6
Continuous
 62
     7
370
    25
100
AcDbLine
 10
4284.4364640643
 20
8038.5011202505
 30
0.0
 11
4284.4364640643
 21
8088.7098525407
 31
0.0
  0
LINE
  5
BA
330
1F
100
AcDbEntity
  8
0
  6
Continuous
 62
     7
370
    25
100
AcDbLine
 10
4284.4364640643
 20
8033.5011202505
 30
0.0
 11
4284.4364640643
 21
8038.5011202505
 31
0.0
  0
LINE
  5
BB
330
1F
100
AcDbEntity
  8
0
  6
Continuous
 62
     7
370
    25
100
AcDbLine
 10
4281.4364640643
 20
8038.5011202505
 30
0.0
 11
4281.4364640643
 21
8033.5011202505
 31
0.0
  0
LINE
  5
BC
330
1F
100
AcDbEntity
  8
0
  6
Continuous
 62
     7
370
    25
100
AcDbLine
 10
4217.5364640643
 20
8088.6525134263
 30
0.0
 11
4217.5364640643
 21
8038.5011202505
 31
0.0
  0
LINE
  5
BD
330
1F
100
AcDbEntity
  8
0
  6
Continuous
 62
     7
370
    25
100
AcDbLine
 10
4220.5364640643
 20
8038.5011202505
 30
0.0
 11
4220.5364640643
 21
8088.5011202505
 31
0.0
  0
LINE
  5
BE
330
1F
100
AcDbEntity
  8
0
  6
Continuous
 62
     7
370
    25
100
AcDbLine
 10
4220.5364640643
 20
8033.5011202505
 30
0.0
 11
4220.5364640643
 21
8038.5011202505
 31
0.0
  0
LINE
  5
BF
330
1F
100
AcDbEntity
  8
0
  6
Continuous
 62
     7
370
    25
100
AcDbLine
 10
4217.5364640643
 20
8038.5011202505
 30
0.0
 11
4217.5364640643
 21
8033.5011202505
 31
0.0
  0
LINE
  5
C0
330
1F
100
AcDbEntity
  8
0
  6
Continuous
 62
     7
370
    25
100
AcDbLine
 10
4209.8864640643
 20
8033.5011202505
 30
0.0
 11
4209.8864640643
 21
8038.5011202505
 31
0.0
  0
LINE
  5
C1
330
1F
100
AcDbEntity
  8
0
  6
Continuous
 62
     7
370
    25
100
AcDbLine
 10
4206.8864640643
 20
8038.5011202505
 30
0.0
 11
4206.8864640643
 21
8033.5011202505
 31
0.0
  0
LINE
  5
C2
330
1F
100
AcDbEntity
  8
0
  6
Continuous
 62
     7
370
    25
100
AcDbLine
 10
4206.8864640643
 20
8088.6525134263
 30
0.0
 11
4206.8864640643
 21
8038.5011202505
 31
0.0
  0
LINE
  5
C3
330
1F
100
AcDbEntity
  8
0
  6
Continuous
 62
     7
370
    25
100
AcDbLine
 10
4209.8864640643
 20
8038.5011202505
 30
0.0
 11
4209.8864640643
 21
8088.5011202505
 31
0.0
  0
LINE
  5
C4
330
1F
100
AcDbEntity
  8
0
  6
Continuous
 62
     7
370
    25
100
AcDbLine
 10
4295.0864640643
 20
8033.5011202505
 30
0.0
 11
4295.0864640643
 21
8038.5011202505
 31
0.0
  0
LINE
  5
C5
330
1F
100
AcDbEntity
  8
0
  6
Continuous
 62
     7
370
    25
100
AcDbLine
 10
4292.0864640643
 20
8038.5011202505
 30
0.0
 11
4292.0864640643
 21
8033.5011202505
 31
0.0
  0
LINE
  5
C6
330
1F
100
AcDbEntity
  8
0
  6
Continuous
 62
     7
370
    25
100
AcDbLine
 10
4292.0864640643
 20
8088.5011202505
 30
0.0
 11
4292.0864640643
 21
8038.5011202505
 31
0.0
  0
LINE
  5
C7
330
1F
100
AcDbEntity
  8
0
  6
Continuous
 62
     7
370
    25
100
AcDbLine
 10
4295.0864640643
 20
8038.5011202505
 30
0.0
 11
4295.0864640643
 21
8088.7347183621
 31
0.0
  0
LINE
  5
C8
330
1F
100
AcDbEntity
  8
0
  6
Continuous
 62
     7
370
    25
100
AcDbLine
 10
4196.2364640643
 20
8088.6525134263
 30
0.0
 11
4196.2364640643
 21
8038.5011202505
 31
0.0
  0
LINE
  5
C9
330
1F
100
AcDbEntity
  8
0
  6
Continuous
 62
     7
370
    25
100
AcDbLine
 10
4199.2364640643
 20
8038.5011202505
 30
0.0
 11
4199.2364640643
 21
8088.5011202505
 31
0.0
  0
LINE
  5
CA
330
1F
100
AcDbEntity
  8
0
  6
Continuous
 62
     7
370
    25
100
AcDbLine
 10
4199.2364640643
 20
8033.5011202505
 30
0.0
 11
4199.2364640643
 21
8038.5011202505
 31
0.0
  0
LINE
  5
CB
330
1F
100
AcDbEntity
  8
0
  6
Continuous
 62
     7
370
    25
100
AcDbLine
 10
4196.2364640643
 20
8038.5011202505
 30
0.0
 11
4196.2364640643
 21
8033.5011202505
 31
0.0
  0
LINE
  5
CC
330
1F
100
AcDbEntity
  8
0
  6
Continuous
 62
     7
370
    25
100
AcDbLine
 10
4305.7364640643
 20
8036.0011202505
 30
0.0
 11
4305.7364640643
 21
8041.0011202505
 31
0.0
  0
LINE
  5
CD
330
1F
100
AcDbEntity
  8
0
  6
Continuous
 62
     7
370
    25
100
AcDbLine
 10
4302.7364640643
 20
8041.0011202505
 30
0.0
 11
4302.7364640643
 21
8036.0011202505
 31
0.0
  0
LINE
  5
CE
330
1F
100
AcDbEntity
  8
0
  6
Continuous
 62
     7
370
    25
100
AcDbLine
 10
4302.7364640643
 20
8088.5011202505
 30
0.0
 11
4302.7364640643
 21
8041.0011202505
 31
0.0
  0
LINE
  5
CF
330
1F
100
AcDbEntity
  8
0
  6
Continuous
 62
     7
370
    25
100
AcDbLine
 10
4305.7364640643
 20
8041.0011202505
 30
0.0
 11
4305.7364640643
 21
8088.760333112
 31
0.0
  0
LINE
  5
D0
330
1F
100
AcDbEntity
  8
0
  6
Continuous
 62
     7
370
    25
100
AcDbLine
 10
4167.2864640643
 20
8033.5011202505
 30
0.0
 11
4167.2864640643
 21
8038.5011202505
 31
0.0
  0
LINE
  5
D1
330
1F
100
AcDbEntity
  8
0
  6
Continuous
 62
     7
370
    25
100
AcDbLine
 10
4164.2864640643
 20
8038.5011202505
 30
0.0
 11
4164.2864640643
 21
8033.5011202505
 31
0.0
  0
LINE
  5
D2
330
1F
100
AcDbEntity
  8
0
  6
Continuous
 62
     7
370
    25
100
AcDbLine
 10
4164.2864640643
 20
8088.6525134263
 30
0.0
 11
4164.2864640643
 21
8038.5011202505
 31
0.0
  0
LINE
  5
D3
330
1F
100
AcDbEntity
  8
0
  6
Continuous
 62
     7
370
    25
100
AcDbLine
 10
4167.2864640643
 20
8038.5011202505
 30
0.0
 11
4167.2864640643
 21
8088.5011202505
 31
0.0
  0
LINE
  5
D4
330
1F
100
AcDbEntity
  8
0
  6
Continuous
 62
     7
370
    25
100
AcDbLine
 10
4156.6364640643
 20
8033.5011202505
 30
0.0
 11
4156.6364640643
 21
8038.5011202505
 31
0.0
  0
LINE
  5
D5
330
1F
100
AcDbEntity
  8
0
  6
Continuous
 62
     7
370
    25
100
AcDbLine
 10
4153.6364640643
 20
8038.5011202505
 30
0.0
 11
4153.6364640643
 21
8033.5011202505
 31
0.0
  0
LINE
  5
D6
330
1F
100
AcDbEntity
  8
0
  6
Continuous
 62
     7
370
    25
100
AcDbLine
 10
4153.6364640643
 20
8088.6525134263
 30
0.0
 11
4153.6364640643
 21
8038.5011202505
 31
0.0
  0
LINE
  5
D7
330
1F
100
AcDbEntity
  8
0
  6
Continuous
 62
     7
370
    25
100
AcDbLine
 10
4156.6364640643
 20
8038.5011202505
 30
0.0
 11
4156.6364640643
 21
8088.5011202505
 31
0.0
  0
LINE
  5
D8
330
1F
100
AcDbEntity
  8
0
  6
Continuous
 62
     7
370
    25
100
AcDbLine
 10
4142.9864640643
 20
8088.6518317614
 30
0.0
 11
4142.9864640643
 21
8038.5011202505
 31
0.0
  0
LINE
  5
D9
330
1F
100
AcDbEntity
  8
0
  6
Continuous
 62
     7
370
    25
100
AcDbLine
 10
4145.9864640643
 20
8038.5011202505
 30
0.0
 11
4145.9864640643
 21
8088.5011202505
 31
0.0
  0
LINE
  5
DA
330
1F
100
AcDbEntity
  8
0
  6
Continuous
 62
     7
370
    25
100
AcDbLine
 10
4145.9864640643
 20
8033.5011202505
 30
0.0
 11
4145.9864640643
 21
8038.5011202505
 31
0.0
  0
LINE
  5
DB
330
1F
100
AcDbEntity
  8
0
  6
Continuous
 62
     7
370
    25
100
AcDbLine
 10
4142.9864640643
 20
8038.5011202505
 30
0.0
 11
4142.9864640643
 21
8033.5011202505
 31
0.0
  0
LINE
  5
DC
330
1F
100
AcDbEntity
  8
0
  6
Continuous
 62
     7
370
    25
100
AcDbLine
 10
4312.1864640643
 20
8088.5011202505
 30
0.0
 11
4312.1864640643
 21
8043.5011202505
 31
0.0
  0
LINE
  5
DD
330
1F
100
AcDbEntity
  8
0
  6
Continuous
 62
     7
370
    25
100
AcDbLine
 10
4315.1864640643
 20
8043.5011202505
 30
0.0
 11
4315.1864640643
 21
8088.7810050079
 31
0.0
  0
LINE
  5
DE
330
1F
100
AcDbEntity
  8
0
  6
Continuous
 62
     7
370
    25
100
AcDbLine
 10
4315.1864640643
 20
8038.5011202505
 30
0.0
 11
4315.1864640643
 21
8043.5011202505
 31
0.0
  0
LINE
  5
DF
330
1F
100
AcDbEntity
  8
0
  6
Continuous
 62
     7
370
    25
100
AcDbLine
 10
4312.1864640643
 20
8043.5011202505
 30
0.0
 11
4312.1864640643
 21
8038.5011202505
 31
0.0
  0
LINE
  5
E0
330
1F
100
AcDbEntity
  8
0
  6
Continuous
 62
     7
370
    25
100
AcDbLine
 10
4135.3364640643
 20
8038.5011202505
 30
0.0
 11
4135.3364640643
 21
8088.5011202505
 31
0.0
  0
LINE
  5
E1
330
1F
100
AcDbEntity
  8
0
  6
Continuous
 62
     7
370
    25
100
AcDbLine
 10
4132.3364640643
 20
8088.6529362043
 30
0.0
 11
4132.3364640643
 21
8038.5011202505
 31
0.0
  0
LINE
  5
E2
330
1F
100
AcDbEntity
  8
0
  6
Continuous
 62
     7
370
    25
100
AcDbLine
 10
4132.3364640643
 20
8038.5011202505
 30
0.0
 11
4132.3364640643
 21
8033.5011202505
 31
0.0
  0
LINE
  5
E3
330
1F
100
AcDbEntity
  8
0
  6
Continuous
 62
     7
370
    25
100
AcDbLine
 10
4135.3364640643
 20
8033.5011202505
 30
0.0
 11
4135.3364640643
 21
8038.5011202505
 31
0.0
  0
LINE
  5
E4
330
1F
100
AcDbEntity
  8
0
  6
Continuous
 62
     7
370
    25
100
AcDbLine
 10
4121.6864640643
 20
8043.5011202505
 30
0.0
 11
4121.6864640643
 21
8038.5011202505
 31
0.0
  0
LINE
  5
E5
330
1F
100
AcDbEntity
  8
0
  6
Continuous
 62
     7
370
    25
100
AcDbLine
 10
4124.6864640643
 20
8038.5011202505
 30
0.0
 11
4124.6864640643
 21
8043.5011202505
 31
0.0
  0
LINE
  5
E6
330
1F
100
AcDbEntity
  8
0
  6
Continuous
 62
     7
370
    25
100
AcDbLine
 10
4124.6864640643
 20
8043.5011202505
 30
0.0
 11
4124.6864640643
 21
8088.5011202505
 31
0.0
  0
LINE
  5
E7
330
1F
100
AcDbEntity
  8
0
  6
Continuous
 62
     7
370
    25
100
AcDbLine
 10
4121.6864640643
 20
8088.6529362043
 30
0.0
 11
4121.6864640643
 21
8043.5011202505
 31
0.0
  0
LINE
  5
E8
330
1F
100
AcDbEntity
  8
0
  6
Continuous
 62
     7
370
    25
100
AcDbLine
 10
4273.2936599566
 20
7843.4833343144
 30
0.0
 11
4235.0012220374
 21
7843.4833343144
 31
0.0
  0
LINE
  5
E9
330
1F
100
AcDbEntity
  8
0
  6
Continuous
 62
     7
370
    25
100
AcDbLine
 10
4263.0205134988
 20
7835.4833343144
 30
0.0
 11
4271.2963442801
 21
7835.4833343144
 31
0.0
  0
LINE
  5
EA
330
1F
100
AcDbEntity
  8
0
  6
Continuous
 62
     7
370
    25
100
AcDbLine
 10
4252.4786814003
 20
7835.4833343144
 30
0.0
 11
4260.2182170434
 21
7835.4833343144
 31
0.0
  0
LINE
  5
EB
330
1F
100
AcDbEntity
  8
0
  6
Continuous
 62
     7
370
    25
100
AcDbLine
 10
4241.6269890027
 20
7835.4833343144
 30
0.0
 11
4249.5106522576
 21
7835.4833343144
 31
0.0
  0
LINE
  5
EC
330
1F
100
AcDbEntity
  8
0
  6
Continuous
 62
     7
370
    25
100
AcDbLine
 10
4235.0012220374
 20
7835.4833343144
 30
0.0
 11
4238.8364582733
 21
7835.4833343144
 31
0.0
  0
LINE
  5
ED
330
1F
100
AcDbEntity
  8
0
  6
Continuous
 62
     7
370
    25
100
AcDbLine
 10
4249.4864582733
 20
7835.494119362
 30
0.0
 11
4249.4864582733
 21
7820.4833343144
 31
0.0
  0
LINE
  5
EE
330
1F
100
AcDbEntity
  8
0
  6
Continuous
 62
     7
370
    25
100
AcDbLine
 10
4252.4864582733
 20
7820.4833343144
 30
0.0
 11
4252.4864582733
 21
7835.4860354976
 31
0.0
  0
LINE
  5
EF
330
1F
100
AcDbEntity
  8
0
  6
Continuous
 62
     7
370
    25
100
AcDbLine
 10
4252.4864582733
 20
7815.4833343144
 30
0.0
 11
4252.4864582733
 21
7820.4833343144
 31
0.0
  0
LINE
  5
F0
330
1F
100
AcDbEntity
  8
0
  6
Continuous
 62
     7
370
    25
100
AcDbLine
 10
4249.4864582733
 20
7820.4833343144
 30
0.0
 11
4249.4864582733
 21
7815.4833343144
 31
0.0
  0
LINE
  5
F1
330
1F
100
AcDbEntity
  8
0
  6
Continuous
 62
     7
370
    25
100
AcDbLine
 10
4263.1364582733
 20
7815.4833343144
 30
0.0
 11
4263.1364582733
 21
7820.4833343144
 31
0.0
  0
LINE
  5
F2
330
1F
100
AcDbEntity
  8
0
  6
Continuous
 62
     7
370
    25
100
AcDbLine
 10
4260.1364582733
 20
7820.4833343144
 30
0.0
 11
4260.1364582733
 21
7815.4833343144
 31
0.0
  0
LINE
  5
F3
330
1F
100
AcDbEntity
  8
0
  6
Continuous
 62
     7
370
    25
100
AcDbLine
 10
4260.1364582733
 20
7835.5176127862
 30
0.0
 11
4260.1364582733
 21
7820.4833343144
 31
0.0
  0
LINE
  5
F4
330
1F
100
AcDbEntity
  8
0
  6
Continuous
 62
     7
370
    25
100
AcDbLine
 10
4263.1364582733
 20
7820.4833343144
 30
0.0
 11
4263.1364582733
 21
7835.5221567988
 31
0.0
  0
LINE
  5
F5
330
1F
100
AcDbEntity
  8
0
  6
Continuous
 62
     7
370
    25
100
AcDbLine
 10
4241.8364582733
 20
7815.4833343144
 30
0.0
 11
4241.8364582733
 21
7820.4833343144
 31
0.0
  0
LINE
  5
F6
330
1F
100
AcDbEntity
  8
0
  6
Continuous
 62
     7
370
    25
100
AcDbLine
 10
4238.8364582733
 20
7820.4833343144
 30
0.0
 11
4238.8364582733
 21
7815.4833343144
 31
0.0
  0
LINE
  5
F7
330
1F
100
AcDbEntity
  8
0
  6
Continuous
 62
     7
370
    25
100
AcDbLine
 10
4238.8364582733
 20
7835.5678266737
 30
0.0
 11
4238.8364582733
 21
7820.4833343144
 31
0.0
  0
LINE
  5
F8
330
1F
100
AcDbEntity
  8
0
  6
Continuous
 62
     7
370
    25
100
AcDbLine
 10
4241.8364582733
 20
7820.4833343144
 30
0.0
 11
4241.8364582733
 21
7835.4833343144
 31
0.0
  0
LINE
  5
F9
330
1F
100
AcDbEntity
  8
0
  6
Continuous
 62
     7
370
    25
100
AcDbLine
 10
4230.7148373154
 20
7835.4833343144
 30
0.0
 11
4235.0012220374
 21
7835.4833343144
 31
0.0
  0
LINE
  5
FA
330
1F
100
AcDbEntity
  8
0
  6
Continuous
 62
     7
370
    25
100
AcDbLine
 10
4220.0648373154
 20
7835.4833343144
 30
0.0
 11
4228.1864582733
 21
7835.4833343144
 31
0.0
  0
LINE
  5
FB
330
1F
100
AcDbEntity
  8
0
  6
Continuous
 62
     7
370
    25
100
AcDbLine
 10
4209.4148373154
 20
7835.4833343144
 30
0.0
 11
4217.5364582733
 21
7835.4833343144
 31
0.0
  0
LINE
  5
FC
330
1F
100
AcDbEntity
  8
0
  6
Continuous
 62
     7
370
    25
100
AcDbLine
 10
4198.7648373154
 20
7835.4833343144
 30
0.0
 11
4206.8864582733
 21
7835.4833343144
 31
0.0
  0
LINE
  5
FD
330
1F
100
AcDbEntity
  8
0
  6
Continuous
 62
     7
370
    25
100
AcDbLine
 10
4196.0168032575
 20
7835.4833343144
 30
0.0
 11
4196.2364582733
 21
7835.4833343144
 31
0.0
  0
LINE
  5
FE
330
1F
100
AcDbEntity
  8
0
  6
Continuous
 62
     7
370
    25
100
AcDbLine
 10
4166.8148373154
 20
7835.4833343144
 30
0.0
 11
4174.9364582733
 21
7835.4833343144
 31
0.0
  0
LINE
  5
FF
330
1F
100
AcDbEntity
  8
0
  6
Continuous
 62
     7
370
    25
100
AcDbLine
 10
4156.1648373154
 20
7835.4833343144
 30
0.0
 11
4164.2864582733
 21
7835.4833343144
 31
0.0
  0
LINE
  5
100
330
1F
100
AcDbEntity
  8
0
  6
Continuous
 62
     7
370
    25
100
AcDbLine
 10
4145.5148373154
 20
7835.4833343144
 30
0.0
 11
4153.6364582733
 21
7835.4833343144
 31
0.0
  0
LINE
  5
101
330
1F
100
AcDbEntity
  8
0
  6
Continuous
 62
     7
370
    25
100
AcDbLine
 10
4134.8534715365
 20
7835.4833343144
 30
0.0
 11
4142.9864582733
 21
7835.4833343144
 31
0.0
  0
LINE
  5
102
330
1F
100
AcDbEntity
  8
0
  6
Continuous
 62
     7
370
    25
100
AcDbLine
 10
4124.2034715365
 20
7835.4833343144
 30
0.0
 11
4132.3364582733
 21
7835.4833343144
 31
0.0
  0
LINE
  5
103
330
1F
100
AcDbEntity
  8
0
  6
Continuous
 62
     7
370
    25
100
AcDbLine
 10
4120.1864582733
 20
7835.4833343144
 30
0.0
 11
4121.6864582733
 21
7835.4833343144
 31
0.0
  0
LINE
  5
104
330
1F
100
AcDbEntity
  8
0
  6
Continuous
 62
     7
370
    25
100
AcDbLine
 10
4235.0012220374
 20
7843.4833343144
 30
0.0
 11
4193.075310495
 21
7843.4833343144
 31
0.0
  0
LINE
  5
105
330
1F
100
AcDbEntity
  8
0
  6
Continuous
 62
     7
370
    25
100
AcDbLine
 10
4174.4878643906
 20
7843.4833343144
 30
0.0
 11
4120.1864582733
 21
7843.4833343144
 31
0.0
  0
LINE
  5
106
330
1F
100
AcDbEntity
  8
0
  6
Continuous
 62
     7
370
    25
100
AcDbLine
 10
4270.7864582733
 20
7835.4833343144
 30
0.0
 11
4270.7864582733
 21
7820.4833343144
 31
0.0
  0
LINE
  5
107
330
1F
100
AcDbEntity
  8
0
  6
Continuous
 62
     7
370
    25
100
AcDbLine
 10
4273.7864582733
 20
7820.4833343144
 30
0.0
 11
4273.7864582733
 21
7835.6566959237
 31
0.0
  0
LINE
  5
108
330
1F
100
AcDbEntity
  8
0
  6
Continuous
 62
     7
370
    25
100
AcDbLine
 10
4273.7864582733
 20
7815.4833343144
 30
0.0
 11
4273.7864582733
 21
7820.4833343144
 31
0.0
  0
LINE
  5
109
330
1F
100
AcDbEntity
  8
0
  6
Continuous
 62
     7
370
    25
100
AcDbLine
 10
4270.7864582733
 20
7820.4833343144
 30
0.0
 11
4270.7864582733
 21
7815.4833343144
 31
0.0
  0
ARC
  5
10A
330
1F
100
AcDbEntity
  8
0
  6
Continuous
 62
     7
370
    25
100
AcDbCircle
 10
4315.7335225117
 20
7839.4833343144
 30
0.0
 40
4.0
100
AcDbArc
 50
279.3946558174
 51
90.0
  0
LINE
  5
10B
330
1F
100
AcDbEntity
  8
0
  6
Continuous
 62
     7
370
    25
100
AcDbLine
 10
4315.7335225117
 20
7843.4833343144
 30
0.0
 11
4273.2936599566
 21
7843.4833343144
 31
0.0
  0
LINE
  5
10C
330
1F
100
AcDbEntity
  8
0
  6
Continuous
 62
     7
370
    25
100
AcDbLine
 10
4305.7364582733
 20
7835.4833343144
 30
0.0
 11
4314.7517362945
 21
7835.4833343144
 31
0.0
  0
LINE
  5
10D
330
1F
100
AcDbEntity
  8
0
  6
Continuous
 62
     7
370
    25
100
AcDbLine
 10
4295.0864582733
 20
7835.4833343144
 30
0.0
 11
4303.7566420649
 21
7835.4833343144
 31
0.0
  0
LINE
  5
10E
330
1F
100
AcDbEntity
  8
0
  6
Continuous
 62
     7
370
    25
100
AcDbLine
 10
4284.4364582733
 20
7835.4833343144
 30
0.0
 11
4292.9342126696
 21
7835.4833343144
 31
0.0
  0
LINE
  5
10F
330
1F
100
AcDbEntity
  8
0
  6
Continuous
 62
     7
370
    25
100
AcDbLine
 10
4273.7864582733
 20
7835.4833343144
 30
0.0
 11
4282.150510108
 21
7835.4833343144
 31
0.0
  0
LINE
  5
110
330
1F
100
AcDbEntity
  8
0
  6
Continuous
 62
     7
370
    25
100
AcDbLine
 10
4228.1864582733
 20
7835.6347274902
 30
0.0
 11
4228.1864582733
 21
7820.4833343144
 31
0.0
  0
LINE
  5
111
330
1F
100
AcDbEntity
  8
0
  6
Continuous
 62
     7
370
    25
100
AcDbLine
 10
4231.1864582733
 20
7820.4833343144
 30
0.0
 11
4231.1864582733
 21
7835.4833343144
 31
0.0
  0
LINE
  5
112
330
1F
100
AcDbEntity
  8
0
  6
Continuous
 62
     7
370
    25
100
AcDbLine
 10
4231.1864582733
 20
7815.4833343144
 30
0.0
 11
4231.1864582733
 21
7820.4833343144
 31
0.0
  0
LINE
  5
113
330
1F
100
AcDbEntity
  8
0
  6
Continuous
 62
     7
370
    25
100
AcDbLine
 10
4228.1864582733
 20
7820.4833343144
 30
0.0
 11
4228.1864582733
 21
7815.4833343144
 31
0.0
  0
LINE
  5
114
330
1F
100
AcDbEntity
  8
0
  6
Continuous
 62
     7
370
    25
100
AcDbLine
 10
4281.4364582733
 20
7835.4833343144
 30
0.0
 11
4281.4364582733
 21
7820.4833343144
 31
0.0
  0
LINE
  5
115
330
1F
100
AcDbEntity
  8
0
  6
Continuous
 62
     7
370
    25
100
AcDbLine
 10
4284.4364582733
 20
7820.4833343144
 30
0.0
 11
4284.4364582733
 21
7835.6920666046
 31
0.0
  0
LINE
  5
116
330
1F
100
AcDbEntity
  8
0
  6
Continuous
 62
     7
370
    25
100
AcDbLine
 10
4284.4364582733
 20
7815.4833343144
 30
0.0
 11
4284.4364582733
 21
7820.4833343144
 31
0.0
  0
LINE
  5
117
330
1F
100
AcDbEntity
  8
0
  6
Continuous
 62
     7
370
    25
100
AcDbLine
 10
4281.4364582733
 20
7820.4833343144
 30
0.0
 11
4281.4364582733
 21
7815.4833343144
 31
0.0
  0
LINE
  5
118
330
1F
100
AcDbEntity
  8
0
  6
Continuous
 62
     7
370
    25
100
AcDbLine
 10
4217.5364582733
 20
7835.6347274902
 30
0.0
 11
4217.5364582733
 21
7820.4833343144
 31
0.0
  0
LINE
  5
119
330
1F
100
AcDbEntity
  8
0
  6
Continuous
 62
     7
370
    25
100
AcDbLine
 10
4220.5364582733
 20
7820.4833343144
 30
0.0
 11
4220.5364582733
 21
7835.4833343144
 31
0.0
  0
LINE
  5
11A
330
1F
100
AcDbEntity
  8
0
  6
Continuous
 62
     7
370
    25
100
AcDbLine
 10
4220.5364582733
 20
7815.4833343144
 30
0.0
 11
4220.5364582733
 21
7820.4833343144
 31
0.0
  0
LINE
  5
11B
330
1F
100
AcDbEntity
  8
0
  6
Continuous
 62
     7
370
    25
100
AcDbLine
 10
4217.5364582733
 20
7820.4833343144
 30
0.0
 11
4217.5364582733
 21
7815.4833343144
 31
0.0
  0
LINE
  5
11C
330
1F
100
AcDbEntity
  8
0
  6
Continuous
 62
     7
370
    25
100
AcDbLine
 10
4206.8864582733
 20
7835.6347274902
 30
0.0
 11
4206.8864582733
 21
7820.4833343144
 31
0.0
  0
LINE
  5
11D
330
1F
100
AcDbEntity
  8
0
  6
Continuous
 62
     7
370
    25
100
AcDbLine
 10
4209.8864582733
 20
7820.4833343144
 30
0.0
 11
4209.8864582733
 21
7835.4833343144
 31
0.0
  0
LINE
  5
11E
330
1F
100
AcDbEntity
  8
0
  6
Continuous
 62
     7
370
    25
100
AcDbLine
 10
4209.8864582733
 20
7815.4833343144
 30
0.0
 11
4209.8864582733
 21
7820.4833343144
 31
0.0
  0
LINE
  5
11F
330
1F
100
AcDbEntity
  8
0
  6
Continuous
 62
     7
370
    25
100
AcDbLine
 10
4206.8864582733
 20
7820.4833343144
 30
0.0
 11
4206.8864582733
 21
7815.4833343144
 31
0.0
  0
LINE
  5
120
330
1F
100
AcDbEntity
  8
0
  6
Continuous
 62
     7
370
    25
100
AcDbLine
 10
4292.0864582733
 20
7835.4833343144
 30
0.0
 11
4292.0864582733
 21
7820.4833343144
 31
0.0
  0
LINE
  5
121
330
1F
100
AcDbEntity
  8
0
  6
Continuous
 62
     7
370
    25
100
AcDbLine
 10
4295.0864582733
 20
7820.4833343144
 30
0.0
 11
4295.0864582733
 21
7835.716932426
 31
0.0
  0
LINE
  5
122
330
1F
100
AcDbEntity
  8
0
  6
Continuous
 62
     7
370
    25
100
AcDbLine
 10
4295.0864582733
 20
7815.4833343144
 30
0.0
 11
4295.0864582733
 21
7820.4833343144
 31
0.0
  0
LINE
  5
123
330
1F
100
AcDbEntity
  8
0
  6
Continuous
 62
     7
370
    25
100
AcDbLine
 10
4292.0864582733
 20
7820.4833343144
 30
0.0
 11
4292.0864582733
 21
7815.4833343144
 31
0.0
  0
LINE
  5
124
330
1F
100
AcDbEntity
  8
0
  6
Continuous
 62
     7
370
    25
100
AcDbLine
 10
4196.2364582733
 20
7835.6347274902
 30
0.0
 11
4196.2364582733
 21
7820.4833343144
 31
0.0
  0
LINE
  5
125
330
1F
100
AcDbEntity
  8
0
  6
Continuous
 62
     7
370
    25
100
AcDbLine
 10
4199.2364582733
 20
7820.4833343144
 30
0.0
 11
4199.2364582733
 21
7835.4833343144
 31
0.0
  0
LINE
  5
126
330
1F
100
AcDbEntity
  8
0
  6
Continuous
 62
     7
370
    25
100
AcDbLine
 10
4199.2364582733
 20
7815.4833343144
 30
0.0
 11
4199.2364582733
 21
7820.4833343144
 31
0.0
  0
LINE
  5
127
330
1F
100
AcDbEntity
  8
0
  6
Continuous
 62
     7
370
    25
100
AcDbLine
 10
4196.2364582733
 20
7820.4833343144
 30
0.0
 11
4196.2364582733
 21
7815.4833343144
 31
0.0
  0
LINE
  5
128
330
1F
100
AcDbEntity
  8
0
  6
Continuous
 62
     7
370
    25
100
AcDbLine
 10
4188.5864582733
 20
7815.4833343144
 30
0.0
 11
4188.5864582733
 21
7820.4833343144
 31
0.0
  0
LINE
  5
129
330
1F
100
AcDbEntity
  8
0
  6
Continuous
 62
     7
370
    25
100
AcDbLine
 10
4185.5864582733
 20
7820.4833343144
 30
0.0
 11
4185.5864582733
 21
7815.4833343144
 31
0.0
  0
LINE
  5
12A
330
1F
100
AcDbEntity
  8
0
  6
Continuous
 62
     7
370
    25
100
AcDbLine
 10
4185.5864582733
 20
7835.2665518016
 30
0.0
 11
4185.5864582733
 21
7820.4833343144
 31
0.0
  0
LINE
  5
12B
330
1F
100
AcDbEntity
  8
0
  6
Continuous
 62
     7
370
    25
100
AcDbLine
 10
4188.5864582733
 20
7820.4833343144
 30
0.0
 11
4188.5864582733
 21
7834.4833343144
 31
0.0
  0
LINE
  5
12C
330
1F
100
AcDbEntity
  8
0
  6
Continuous
 62
     7
370
    25
100
AcDbLine
 10
4305.7364582733
 20
7818.9833343144
 30
0.0
 11
4305.7364582733
 21
7823.9833343144
 31
0.0
  0
LINE
  5
12D
330
1F
100
AcDbEntity
  8
0
  6
Continuous
 62
     7
370
    25
100
AcDbLine
 10
4302.7364582733
 20
7823.9833343144
 30
0.0
 11
4302.7364582733
 21
7818.9833343144
 31
0.0
  0
LINE
  5
12E
330
1F
100
AcDbEntity
  8
0
  6
Continuous
 62
     7
370
    25
100
AcDbLine
 10
4302.7364582733
 20
7835.4833343144
 30
0.0
 11
4302.7364582733
 21
7823.9833343144
 31
0.0
  0
LINE
  5
12F
330
1F
100
AcDbEntity
  8
0
  6
Continuous
 62
     7
370
    25
100
AcDbLine
 10
4305.7364582733
 20
7823.9833343144
 30
0.0
 11
4305.7364582733
 21
7835.7425471759
 31
0.0
  0
LINE
  5
130
330
1F
100
AcDbEntity
  8
0
  6
Continuous
 62
     7
370
    25
100
AcDbLine
 10
4174.9364582733
 20
7835.6347274902
 30
0.0
 11
4174.9364582733
 21
7820.4833343144
 31
0.0
  0
LINE
  5
131
330
1F
100
AcDbEntity
  8
0
  6
Continuous
 62
     7
370
    25
100
AcDbLine
 10
4177.9364582733
 20
7820.4833343144
 30
0.0
 11
4177.9364582733
 21
7834.492478883
 31
0.0
  0
LINE
  5
132
330
1F
100
AcDbEntity
  8
0
  6
Continuous
 62
     7
370
    25
100
AcDbLine
 10
4177.9364582733
 20
7815.4833343144
 30
0.0
 11
4177.9364582733
 21
7820.4833343144
 31
0.0
  0
LINE
  5
133
330
1F
100
AcDbEntity
  8
0
  6
Continuous
 62
     7
370
    25
100
AcDbLine
 10
4174.9364582733
 20
7820.4833343144
 30
0.0
 11
4174.9364582733
 21
7815.4833343144
 31
0.0
  0
LINE
  5
134
330
1F
100
AcDbEntity
  8
0
  6
Continuous
 62
     7
370
    25
100
AcDbLine
 10
4164.2864582733
 20
7835.6347274902
 30
0.0
 11
4164.2864582733
 21
7820.4833343144
 31
0.0
  0
LINE
  5
135
330
1F
100
AcDbEntity
  8
0
  6
Continuous
 62
     7
370
    25
100
AcDbLine
 10
4167.2864582733
 20
7820.4833343144
 30
0.0
 11
4167.2864582733
 21
7835.4833343144
 31
0.0
  0
LINE
  5
136
330
1F
100
AcDbEntity
  8
0
  6
Continuous
 62
     7
370
    25
100
AcDbLine
 10
4167.2864582733
 20
7815.4833343144
 30
0.0
 11
4167.2864582733
 21
7820.4833343144
 31
0.0
  0
LINE
  5
137
330
1F
100
AcDbEntity
  8
0
  6
Continuous
 62
     7
370
    25
100
AcDbLine
 10
4164.2864582733
 20
7820.4833343144
 30
0.0
 11
4164.2864582733
 21
7815.4833343144
 31
0.0
  0
LINE
  5
138
330
1F
100
AcDbEntity
  8
0
  6
Continuous
 62
     7
370
    25
100
AcDbLine
 10
4156.6364582733
 20
7815.4833343144
 30
0.0
 11
4156.6364582733
 21
7820.4833343144
 31
0.0
  0
LINE
  5
139
330
1F
100
AcDbEntity
  8
0
  6
Continuous
 62
     7
370
    25
100
AcDbLine
 10
4153.6364582733
 20
7820.4833343144
 30
0.0
 11
4153.6364582733
 21
7815.4833343144
 31
0.0
  0
LINE
  5
13A
330
1F
100
AcDbEntity
  8
0
  6
Continuous
 62
     7
370
    25
100
AcDbLine
 10
4153.6364582733
 20
7835.6347274902
 30
0.0
 11
4153.6364582733
 21
7820.4833343144
 31
0.0
  0
LINE
  5
13B
330
1F
100
AcDbEntity
  8
0
  6
Continuous
 62
     7
370
    25
100
AcDbLine
 10
4156.6364582733
 20
7820.4833343144
 30
0.0
 11
4156.6364582733
 21
7835.4833343144
 31
0.0
  0
LINE
  5
13C
330
1F
100
AcDbEntity
  8
0
  6
Continuous
 62
     7
370
    25
100
AcDbLine
 10
4142.9864582733
 20
7835.6347274902
 30
0.0
 11
4142.9864582733
 21
7820.4833343144
 31
0.0
  0
LINE
  5
13D
330
1F
100
AcDbEntity
  8
0
  6
Continuous
 62
     7
370
    25
100
AcDbLine
 10
4145.9864582733
 20
7820.4833343144
 30
0.0
 11
4145.9864582733
 21
7835.4833343144
 31
0.0
  0
LINE
  5
13E
330
1F
100
AcDbEntity
  8
0
  6
Continuous
 62
     7
370
    25
100
AcDbLine
 10
4145.9864582733
 20
7815.4833343144
 30
0.0
 11
4145.9864582733
 21
7820.4833343144
 31
0.0
  0
LINE
  5
13F
330
1F
100
AcDbEntity
  8
0
  6
Continuous
 62
     7
370
    25
100
AcDbLine
 10
4142.9864582733
 20
7820.4833343144
 30
0.0
 11
4142.9864582733
 21
7815.4833343144
 31
0.0
  0
LINE
  5
140
330
1F
100
AcDbEntity
  8
0
  6
Continuous
 62
     7
370
    25
100
AcDbLine
 10
4132.3364582733
 20
7820.4833343144
 30
0.0
 11
4132.3364582733
 21
7815.4833343144
 31
0.0
  0
LINE
  5
141
330
1F
100
AcDbEntity
  8
0
  6
Continuous
 62
     7
370
    25
100
AcDbLine
 10
4135.3364582733
 20
7815.4833343144
 30
0.0
 11
4135.3364582733
 21
7820.4833343144
 31
0.0
  0
LINE
  5
142
330
1F
100
AcDbEntity
  8
0
  6
Continuous
 62
     7
370
    25
100
AcDbLine
 10
4135.3364582733
 20
7820.4833343144
 30
0.0
 11
4135.3364582733
 21
7835.4833343144
 31
0.0
  0
LINE
  5
143
330
1F
100
AcDbEntity
  8
0
  6
Continuous
 62
     7
370
    25
100
AcDbLine
 10
4132.3364582733
 20
7835.6343291809
 30
0.0
 11
4132.3364582733
 21
7820.4833343144
 31
0.0
  0
LINE
  5
144
330
1F
100
AcDbEntity
  8
0
  6
Continuous
 62
     7
370
    25
100
AcDbLine
 10
4313.3864582733
 20
7835.4833343144
 30
0.0
 11
4313.3864582733
 21
7827.4833343144
 31
0.0
  0
LINE
  5
145
330
1F
100
AcDbEntity
  8
0
  6
Continuous
 62
     7
370
    25
100
AcDbLine
 10
4316.3864582733
 20
7827.4833343144
 30
0.0
 11
4316.3864582733
 21
7835.7676592796
 31
0.0
  0
LINE
  5
146
330
1F
100
AcDbEntity
  8
0
  6
Continuous
 62
     7
370
    25
100
AcDbLine
 10
4316.3864582733
 20
7822.4833343144
 30
0.0
 11
4316.3864582733
 21
7827.4833343144
 31
0.0
  0
LINE
  5
147
330
1F
100
AcDbEntity
  8
0
  6
Continuous
 62
     7
370
    25
100
AcDbLine
 10
4313.3864582733
 20
7827.4833343144
 30
0.0
 11
4313.3864582733
 21
7822.4833343144
 31
0.0
  0
LINE
  5
148
330
1F
100
AcDbEntity
  8
0
  6
Continuous
 62
     7
370
    25
100
AcDbLine
 10
4124.6864582733
 20
7826.9833343144
 30
0.0
 11
4124.6864582733
 21
7835.4833343144
 31
0.0
  0
LINE
  5
149
330
1F
100
AcDbEntity
  8
0
  6
Continuous
 62
     7
370
    25
100
AcDbLine
 10
4121.6864582733
 20
7835.6343291809
 30
0.0
 11
4121.6864582733
 21
7826.9833343144
 31
0.0
  0
LINE
  5
14A
330
1F
100
AcDbEntity
  8
0
  6
Continuous
 62
     7
370
    25
100
AcDbLine
 10
4121.6864582733
 20
7826.9833343144
 30
0.0
 11
4121.6864582733
 21
7821.9833343144
 31
0.0
  0
LINE
  5
14B
330
1F
100
AcDbEntity
  8
0
  6
Continuous
 62
     7
370
    25
100
AcDbLine
 10
4124.6864582733
 20
7821.9833343144
 30
0.0
 11
4124.6864582733
 21
7826.9833343144
 31
0.0
  0
LINE
  5
14C
330
1F
100
AcDbEntity
  8
0
  6
Continuous
 62
     7
370
    25
100
AcDbLine
 10
4137.2536660245
 20
8096.5011202505
 30
0.0
 11
4137.3884783666
 21
8096.8187837458
 31
0.0
  0
LINE
  5
14D
330
1F
100
AcDbEntity
  8
0
  6
Continuous
 62
     7
370
    25
100
AcDbLine
 10
4137.3884783666
 20
8096.8187837458
 30
0.0
 11
4137.736233052
 21
8096.5011202505
 31
0.0
  0
ARC
  5
14E
330
1F
100
AcDbEntity
  8
0
  6
Continuous
 62
     7
370
    25
100
AcDbCircle
 10
4135.505083504
 20
8090.5033318932
 30
0.0
 40
2.997814260010077
100
AcDbArc
 50
266.7755561315
 51
318.0955399508
  0
LINE
  5
14F
330
1F
100
AcDbEntity
  8
0
  6
Continuous
 62
     7
370
    25
100
AcDbLine
 10
4130.503294262
 20
8088.5011202505
 30
0.0
 11
4132.6146206141
 21
7843.4833343144
 31
0.0
  0
ARC
  5
150
330
1F
100
AcDbEntity
  8
0
  6
Continuous
 62
     7
370
    25
100
AcDbCircle
 10
4135.5120488371
 20
7837.4686634684
 30
0.0
 40
2.981359879732748
100
AcDbArc
 50
266.6235462938
 51
318.2475200855
  0
LINE
  5
151
330
1F
100
AcDbEntity
  8
0
  6
Continuous
 62
     7
370
    25
100
AcDbLine
 10
4131.8878644783
 20
7843.4833343144
 30
0.0
 11
4129.7765381262
 21
8088.5011202505
 31
0.0
  0
LINE
  5
152
330
1F
100
AcDbEntity
  8
0
  6
Continuous
 62
     7
370
    25
100
AcDbLine
 10
4153.6364582733
 20
7834.492478883
 30
0.0
 11
4153.4168032575
 21
7834.4833343144
 31
0.0
  0
ARC
  5
153
330
1F
100
AcDbEntity
  8
0
  6
Continuous
 62
     7
370
    25
100
AcDbCircle
 10
4145.5147119485
 20
7837.6967007616
 30
0.0
 40
3.231163367004142
100
AcDbArc
 50
278.3951280426
 51
316.7639172406
  0
LINE
  5
154
330
1F
100
AcDbEntity
  8
0
  6
Continuous
 62
     7
370
    25
100
AcDbLine
 10
4155.2491683349
 20
8096.8187837458
 30
0.0
 11
4155.5969230203
 21
8096.5011202505
 31
0.0
  0
LWPOLYLINE
  5
155
330
1F
100
AcDbEntity
  8
0
  6
Continuous
 62
     7
370
    25
100
AcDbPolyline
 90
        3
 70
   128
 43
0.0
 10
4153.6364640643
 20
8087.5102635959
 10
4153.4369726536
 20
8087.5011960162
 10
4153.416809059
 20
8087.5011190282
  0
LINE
  5
156
330
1F
100
AcDbEntity
  8
0
  6
Continuous
 62
     7
370
    25
100
AcDbLine
 10
4145.116661526
 20
8096.8187837458
 30
0.0
 11
4137.3884783666
 21
8096.8187837458
 31
0.0
  0
LINE
  5
157
330
1F
100
AcDbEntity
  8
0
  6
Continuous
 62
     7
370
    25
100
AcDbLine
 10
4145.4644162114
 20
8096.5011202505
 30
0.0
 11
4145.116661526
 21
8096.8187837458
 31
0.0
  0
LINE
  5
158
330
1F
100
AcDbEntity
  8
0
  6
Continuous
 62
     7
370
    25
100
AcDbLine
 10
4147.5209851756
 20
8096.8187837458
 30
0.0
 11
4147.8687398609
 21
8096.5011202505
 31
0.0
  0
ARC
  5
159
330
1F
100
AcDbEntity
  8
0
  6
Continuous
 62
     7
370
    25
100
AcDbCircle
 10
4145.5635230972
 20
8090.6210482784
 30
0.0
 40
3.131793430593872
100
AcDbArc
 50
277.7613683231
 51
317.3977056287
  0
LINE
  5
15A
330
1F
100
AcDbEntity
  8
0
  6
Continuous
 62
     7
370
    25
100
AcDbLine
 10
4155.2491683349
 20
8096.8187837458
 30
0.0
 11
4147.5209851756
 21
8096.8187837458
 31
0.0
  0
LINE
  5
15B
330
1F
100
AcDbEntity
  8
0
  6
Continuous
 62
     7
370
    25
100
AcDbLine
 10
4148.3726012738
 20
8087.5011190282
 30
0.0
 11
4150.4753105824
 21
7843.4833343144
 31
0.0
  0
LWPOLYLINE
  5
15C
330
1F
100
AcDbEntity
  8
0
  6
Continuous
 62
     7
370
    25
100
AcDbPolyline
 90
       13
 70
   128
 43
0.0
 10
4137.8612127722
 20
8085.6310628881
 10
4137.9763021055
 20
8084.7912350539
 10
4138.2915530048
 20
8084.0648306223
 10
4138.7643890893
 20
8083.5499545371
 10
4139.3309512257
 20
8083.3161436665
 10
4139.914722058
 20
8083.3949754641
 10
4140.4368601006
 20
8083.7758032589
 10
4140.8268477176
 20
8084.4071941471
 10
4141.0320149202
 20
8085.2038752903
 10
4141.0246527409
 20
8086.0582504858
 10
4140.8057554829
 20
8086.8549316291
 10
4140.4048864336
 20
8087.4863225172
 10
4140.391148155
 20
8087.5011190282
  0
ARC
  5
15D
330
1F
100
AcDbEntity
  8
0
  6
Continuous
 62
     7
370
    25
100
AcDbCircle
 10
4140.5568110889
 20
8085.76171988
 30
0.0
 40
2.698762963712673
100
AcDbArc
 50
139.8705135856
 51
182.7749831349
  0
LWPOLYLINE
  5
15E
330
1F
100
AcDbEntity
  8
0
  6
Continuous
 62
     7
370
    25
100
AcDbPolyline
 90
       18
 70
   128
 43
0.0
 10
4139.867870667
 20
7852.759970266
 10
4139.9829600003
 20
7851.9201424318
 10
4140.2982108995
 20
7851.1937380003
 10
4140.771046984
 20
7850.678861915
 10
4141.3376091204
 20
7850.4450510444
 10
4141.9213799527
 20
7850.523882842
 10
4142.4435179953
 20
7850.9047106369
 10
4142.8335056123
 20
7851.536101525
 10
4143.0386728149
 20
7852.3327826682
 10
4143.0313106357
 20
7853.1871578637
 10
4142.8124133776
 20
7853.983839007
 10
4142.4115443284
 20
7854.6152298951
 10
4141.8828430744
 20
7854.9960576899
 10
4141.2977136496
 20
7855.0748894876
 10
4140.7351810253
 20
7854.8410786169
 10
4140.2712183492
 20
7854.3262025317
 10
4139.9684863519
 20
7853.5997981001
 10
4139.867870667
 20
7852.759970266
  0
LINE
  5
15F
330
1F
100
AcDbEntity
  8
0
  6
Continuous
 62
     7
370
    25
100
AcDbLine
 10
4147.3861728335
 20
8096.5011202505
 30
0.0
 11
4147.5209851756
 21
8096.8187837458
 31
0.0
  0
LWPOLYLINE
  5
160
330
1F
100
AcDbEntity
  8
0
  6
Continuous
 62
     7
370
    25
100
AcDbPolyline
 90
       10
 70
   128
 43
0.0
 10
4141.1386386931
 20
7850.4903252888
 10
4141.1947259878
 20
7850.5120259995
 10
4141.7168640304
 20
7850.8928537944
 10
4142.1068516474
 20
7851.5242446825
 10
4142.31201885
 20
7852.3209258258
 10
4142.3046566707
 20
7853.1753010212
 10
4142.0857594126
 20
7853.9719821645
 10
4141.6848903634
 20
7854.6033730526
 10
4141.1561891094
 20
7854.9842008474
 10
4141.0647643818
 20
7855.0177584006
  0
ARC
  5
161
330
1F
100
AcDbEntity
  8
0
  6
Continuous
 62
     7
370
    25
100
AcDbCircle
 10
4137.6973254995
 20
8085.6447448361
 30
0.0
 40
2.696630800412421
100
AcDbArc
 50
302.1418838878
 51
43.5039849717
  0
LINE
  5
162
330
1F
100
AcDbEntity
  8
0
  6
Continuous
 62
     7
370
    25
100
AcDbLine
 10
4197.7143504115
 20
8096.5011202505
 30
0.0
 11
4197.8491627761
 21
8096.8187838208
 31
0.0
  0
LINE
  5
163
330
1F
100
AcDbEntity
  8
0
  6
Continuous
 62
     7
370
    25
100
AcDbLine
 10
4197.8491627761
 20
8096.8187838208
 30
0.0
 11
4198.1969175548
 21
8096.5011202505
 31
0.0
  0
LWPOLYLINE
  5
164
330
1F
100
AcDbEntity
  8
0
  6
Continuous
 62
     7
370
    25
100
AcDbPolyline
 90
        8
 70
   128
 43
0.0
 10
4196.2364640643
 20
8087.5102640514
 10
4196.0369672961
 20
8087.501196017
 10
4195.099564867
 20
8087.663053269
 10
4194.224172568
 20
8088.1519890433
 10
4193.4699714921
 20
8088.9349487271
 10
4192.8879495724
 20
8089.959000155
 10
4192.5174545316
 20
8091.1549121002
 10
4192.38353377
 20
8092.4418346672
  0
LWPOLYLINE
  5
165
330
1F
100
AcDbEntity
  8
0
  6
Continuous
 62
     7
370
    25
100
AcDbPolyline
 90
        9
 70
   128
 43
0.0
 10
4192.38353377
 20
8092.4418346672
 10
4192.32492341
 20
8092.8235890276
 10
4192.1646093091
 20
8093.14541974
 10
4191.9269978735
 20
8093.3583309205
 10
4191.6482633459
 20
8093.4299087222
 10
4191.3708405965
 20
8093.3492560567
 10
4191.136964789
 20
8093.1286515803
 10
4190.9822414497
 20
8092.8016803762
 10
4190.9302258406
 20
8092.4181209228
  0
LINE
  5
166
330
1F
100
AcDbEntity
  8
0
  6
Continuous
 62
     7
370
    25
100
AcDbLine
 10
4190.9302258406
 20
8092.4181209228
 30
0.0
 11
4193.1101873987
 21
7839.4359068256
 31
0.0
  0
LWPOLYLINE
  5
167
330
1F
100
AcDbEntity
  8
0
  6
Continuous
 62
     7
370
    25
100
AcDbPolyline
 90
        7
 70
   128
 43
0.0
 10
4193.1101873987
 20
7839.4359068256
 10
4193.246811051
 20
7838.2705556057
 10
4193.6246645077
 20
7837.2108214231
 10
4194.2108417138
 20
7836.3489931548
 10
4194.9542943623
 20
7835.7601246814
 10
4195.7902775285
 20
7835.4954986838
 10
4196.0168032575
 20
7835.4833343144
  0
LWPOLYLINE
  5
168
330
1F
100
AcDbEntity
  8
0
  6
Continuous
 62
     7
370
    25
100
AcDbPolyline
 90
        8
 70
   128
 43
0.0
 10
4196.2364582733
 20
7834.492478883
 10
4195.9486027283
 20
7834.4842151552
 10
4195.0285024719
 20
7834.6718410251
 10
4194.1731667071
 20
7835.1747696054
 10
4193.438646574
 20
7835.9600434054
 10
4192.8730760249
 20
7836.9762025265
 10
4192.513517551
 20
7838.1566568883
 10
4192.383533434
 20
7839.4240499534
  0
LINE
  5
169
330
1F
100
AcDbEntity
  8
0
  6
Continuous
 62
     7
370
    25
100
AcDbLine
 10
4192.383533434
 20
7839.4240499534
 30
0.0
 11
4190.2035718654
 21
8092.4062652729
 31
0.0
  0
LWPOLYLINE
  5
16A
330
1F
100
AcDbEntity
  8
0
  6
Continuous
 62
     7
370
    25
100
AcDbPolyline
 90
        9
 70
   128
 43
0.0
 10
4190.2035718654
 20
8092.4062652729
 10
4190.3076035999
 20
8093.1733834374
 10
4190.6170504039
 20
8093.8273250178
 10
4191.0848018065
 20
8094.2685333367
 10
4191.639646897
 20
8094.429838427
 10
4192.1971155399
 20
8094.2866830509
 10
4192.6723381879
 20
8093.8608613168
 10
4192.9929665007
 20
8093.2172007236
 10
4193.1101877242
 20
8092.4536927617
  0
LWPOLYLINE
  5
16B
330
1F
100
AcDbEntity
  8
0
  6
Continuous
 62
     7
370
    25
100
AcDbPolyline
 90
        7
 70
   128
 43
0.0
 10
4193.1101877242
 20
8092.4536927617
 10
4193.2484125541
 20
8091.2814381852
 10
4193.6306640849
 20
8090.2166955127
 10
4194.2232478065
 20
8089.3533191307
 10
4194.9739289552
 20
8088.7674134943
 10
4195.8165368774
 20
8088.5106247104
 10
4196.0168035829
 20
8088.5011202505
  0
LINE
  5
16C
330
1F
100
AcDbEntity
  8
0
  6
Continuous
 62
     7
370
    25
100
AcDbLine
 10
4172.3428818971
 20
8092.4062652729
 30
0.0
 11
4190.2035718654
 21
8092.4062652729
 31
0.0
  0
LWPOLYLINE
  5
16D
330
1F
100
AcDbEntity
  8
0
  6
Continuous
 62
     7
370
    25
100
AcDbPolyline
 90
        6
 70
   128
 43
0.0
 10
4172.3428818971
 20
8092.4062652729
 10
4172.4469136316
 20
8093.1733834374
 10
4172.7563604356
 20
8093.8273250178
 10
4173.2241118382
 20
8094.2685333367
 10
4173.7789569287
 20
8094.429838427
 10
4173.7961898265
 20
8094.4299790173
  0
LINE
  5
16E
330
1F
100
AcDbEntity
  8
0
  6
Continuous
 62
     7
370
    25
100
AcDbLine
 10
4174.5228434657
 20
7839.4240499534
 30
0.0
 11
4192.383533434
 21
7839.4240499534
 31
0.0
  0
LINE
  5
16F
330
1F
100
AcDbEntity
  8
0
  6
Continuous
 62
     7
370
    25
100
AcDbLine
 10
4174.5228434657
 20
7839.4240499534
 30
0.0
 11
4172.3428818971
 21
8092.4062652729
 31
0.0
  0
LWPOLYLINE
  5
170
330
1F
100
AcDbEntity
  8
0
  6
Continuous
 62
     7
370
    25
100
AcDbPolyline
 90
       18
 70
   128
 43
0.0
 10
4182.9288691963
 20
8085.6192058102
 10
4182.8282535295
 20
8084.7793779763
 10
4182.5255215479
 20
8084.052973545
 10
4182.061558883
 20
8083.53809746
 10
4181.4990262636
 20
8083.3042865894
 10
4180.9138968372
 20
8083.383118387
 10
4180.385195575
 20
8083.7639461817
 10
4179.9843265121
 20
8084.3953370696
 10
4179.7654292368
 20
8085.1920182126
 10
4179.7580670391
 20
8086.0463934078
 10
4179.9632342245
 20
8086.8430745508
 10
4180.3532218279
 20
8087.4744654386
 10
4180.8753598622
 20
8087.8552932333
 10
4181.4591306929
 20
8087.934125031
 10
4182.0256928343
 20
8087.7003141604
 10
4182.4985289299
 20
8087.1854380753
 10
4182.8137798449
 20
8086.4590336441
 10
4182.9288691963
 20
8085.6192058102
  0
LWPOLYLINE
  5
171
330
1F
100
AcDbEntity
  8
0
  6
Continuous
 62
     7
370
    25
100
AcDbPolyline
 90
       18
 70
   128
 43
0.0
 10
4184.9355321214
 20
7852.7481132702
 10
4184.8349164546
 20
7851.9082854363
 10
4184.5321844729
 20
7851.181881005
 10
4184.068221808
 20
7850.6670049199
 10
4183.5056891887
 20
7850.4331940494
 10
4182.9205597622
 20
7850.512025847
 10
4182.3918585
 20
7850.8928536417
 10
4181.9909894372
 20
7851.5242445296
 10
4181.7720921619
 20
7852.3209256726
 10
4181.7647299642
 20
7853.1753008678
 10
4181.9698971496
 20
7853.9719820107
 10
4182.3598847529
 20
7854.6033728986
 10
4182.8820227873
 20
7854.9842006933
 10
4183.4657936179
 20
7855.063032491
 10
4184.0323557594
 20
7854.8292216204
 10
4184.505191855
 20
7854.3143455353
 10
4184.8204427699
 20
7853.5879411041
 10
4184.9355321214
 20
7852.7481132702
  0
LINE
  5
172
330
1F
100
AcDbEntity
  8
0
  6
Continuous
 62
     7
370
    25
100
AcDbLine
 10
4190.1209796168
 20
8096.8187838208
 30
0.0
 11
4197.8491627761
 21
8096.8187838208
 31
0.0
  0
LINE
  5
173
330
1F
100
AcDbEntity
  8
0
  6
Continuous
 62
     7
370
    25
100
AcDbLine
 10
4187.7166559672
 20
8096.8187838208
 30
0.0
 11
4188.0644107458
 21
8096.5011202505
 31
0.0
  0
LINE
  5
174
330
1F
100
AcDbEntity
  8
0
  6
Continuous
 62
     7
370
    25
100
AcDbLine
 10
4179.9884728078
 20
8096.8187838208
 30
0.0
 11
4187.7166559672
 21
8096.8187838208
 31
0.0
  0
LWPOLYLINE
  5
175
330
1F
100
AcDbEntity
  8
0
  6
Continuous
 62
     7
370
    25
100
AcDbPolyline
 90
        8
 70
   128
 43
0.0
 10
4178.1561132892
 20
7834.4833343144
 10
4178.08791276
 20
7834.4842151552
 10
4177.1678125036
 20
7834.6718410251
 10
4176.3124767388
 20
7835.1747696054
 10
4175.5779566057
 20
7835.9600434054
 10
4175.0123860566
 20
7836.9762025265
 10
4174.6528275826
 20
7838.1566568883
 10
4174.5228434657
 20
7839.4240499534
  0
LWPOLYLINE
  5
176
330
1F
100
AcDbEntity
  8
0
  6
Continuous
 62
     7
370
    25
100
AcDbPolyline
 90
        7
 70
   128
 43
0.0
 10
4184.9016844805
 20
7835.4881496982
 10
4185.3702611263
 20
7835.3458105473
 10
4185.8428453636
 20
7835.1725592607
 10
4186.3245218801
 20
7834.9822460456
 10
4186.820089428
 20
7834.7931304246
 10
4187.7164499711
 20
7834.538850744
 10
4188.2799161124
 20
7834.5063611431
  0
LWPOLYLINE
  5
177
330
1F
100
AcDbEntity
  8
0
  6
Continuous
 62
     7
370
    25
100
AcDbPolyline
 90
        7
 70
   128
 43
0.0
 10
4185.5864582733
 20
7834.5252467062
 10
4185.3801120787
 20
7834.5380189898
 10
4184.8371089116
 20
7834.7909781203
 10
4184.6848593743
 20
7834.9805253551
 10
4184.6481447356
 20
7835.1714640787
 10
4184.7221300825
 20
7835.3453365362
 10
4184.9016850255
 20
7835.4881493326
  0
LINE
  5
178
330
1F
100
AcDbEntity
  8
0
  6
Continuous
 62
     7
370
    25
100
AcDbLine
 10
4190.1209796168
 20
8096.8187838208
 30
0.0
 11
4189.9861672521
 21
8096.5011202505
 31
0.0
  0
LWPOLYLINE
  5
179
330
1F
100
AcDbEntity
  8
0
  6
Continuous
 62
     7
370
    25
100
AcDbPolyline
 90
       10
 70
   128
 43
0.0
 10
4181.7319755739
 20
8083.361417692
 10
4181.6405508019
 20
8083.3949752592
 10
4181.1118495397
 20
8083.7758030539
 10
4180.7109804768
 20
8084.4071939418
 10
4180.4920832015
 20
8085.2038750848
 10
4180.4847210038
 20
8086.05825028
 10
4180.6898881892
 20
8086.854931423
 10
4181.0798757926
 20
8087.4863223108
 10
4181.6020138269
 20
8087.8671501055
 10
4181.6581010774
 20
8087.8888508006
  0
LWPOLYLINE
  5
17A
330
1F
100
AcDbEntity
  8
0
  6
Continuous
 62
     7
370
    25
100
AcDbPolyline
 90
       10
 70
   128
 43
0.0
 10
4183.738638499
 20
7850.490325152
 10
4183.6472137269
 20
7850.5238827192
 10
4183.1185124647
 20
7850.9047105139
 10
4182.7176434019
 20
7851.5361014018
 10
4182.4987461266
 20
7852.3327825448
 10
4182.4913839289
 20
7853.18715774
 10
4182.6965511143
 20
7853.9838388829
 10
4183.0865387176
 20
7854.6152297708
 10
4183.608676752
 20
7854.9960575655
 10
4183.6647640025
 20
7855.0177582606
  0
LINE
  5
17B
330
1F
100
AcDbEntity
  8
0
  6
Continuous
 62
     7
370
    25
100
AcDbLine
 10
4187.5818436025
 20
8096.5011202505
 30
0.0
 11
4187.7166559672
 21
8096.8187838208
 31
0.0
  0
LINE
  5
17C
330
1F
100
AcDbEntity
  8
0
  6
Continuous
 62
     7
370
    25
100
AcDbLine
 10
4179.8536604431
 20
8096.5011202505
 30
0.0
 11
4179.9884728078
 21
8096.8187838208
 31
0.0
  0
LINE
  5
17D
330
1F
100
AcDbEntity
  8
0
  6
Continuous
 62
     7
370
    25
100
AcDbLine
 10
4211.8036660245
 20
8096.5011202505
 30
0.0
 11
4211.9384783666
 21
8096.8187837458
 31
0.0
  0
LINE
  5
17E
330
1F
100
AcDbEntity
  8
0
  6
Continuous
 62
     7
370
    25
100
AcDbLine
 10
4211.9384783666
 20
8096.8187837458
 30
0.0
 11
4212.286233052
 21
8096.5011202505
 31
0.0
  0
ARC
  5
17F
330
1F
100
AcDbEntity
  8
0
  6
Continuous
 62
     7
370
    25
100
AcDbCircle
 10
4210.055083504
 20
8090.5033318932
 30
0.0
 40
2.997814260022432
100
AcDbArc
 50
266.7755561316
 51
318.0955399506
  0
LINE
  5
180
330
1F
100
AcDbEntity
  8
0
  6
Continuous
 62
     7
370
    25
100
AcDbLine
 10
4205.053294262
 20
8088.5011202505
 30
0.0
 11
4207.1646206141
 21
7843.4833343144
 31
0.0
  0
ARC
  5
181
330
1F
100
AcDbEntity
  8
0
  6
Continuous
 62
     7
370
    25
100
AcDbCircle
 10
4210.0620488371
 20
7837.4686634684
 30
0.0
 40
2.981359879750364
100
AcDbArc
 50
266.6235462939
 51
318.2475200854
  0
LINE
  5
182
330
1F
100
AcDbEntity
  8
0
  6
Continuous
 62
     7
370
    25
100
AcDbLine
 10
4206.4378644783
 20
7843.4833343144
 30
0.0
 11
4204.3265381262
 21
8088.5011202505
 31
0.0
  0
LINE
  5
183
330
1F
100
AcDbEntity
  8
0
  6
Continuous
 62
     7
370
    25
100
AcDbLine
 10
4228.1864582733
 20
7834.492478883
 30
0.0
 11
4227.9668032575
 21
7834.4833343144
 31
0.0
  0
ARC
  5
184
330
1F
100
AcDbEntity
  8
0
  6
Continuous
 62
     7
370
    25
100
AcDbCircle
 10
4220.0647119485
 20
7837.6967007616
 30
0.0
 40
3.231163367005342
100
AcDbArc
 50
278.3951280427
 51
316.7639172406
  0
LINE
  5
185
330
1F
100
AcDbEntity
  8
0
  6
Continuous
 62
     7
370
    25
100
AcDbLine
 10
4229.7991683349
 20
8096.8187837458
 30
0.0
 11
4230.1469230203
 21
8096.5011202505
 31
0.0
  0
LWPOLYLINE
  5
186
330
1F
100
AcDbEntity
  8
0
  6
Continuous
 62
     7
370
    25
100
AcDbPolyline
 90
        3
 70
   128
 43
0.0
 10
4228.1864640643
 20
8087.5102635959
 10
4227.9869726536
 20
8087.5011960162
 10
4227.966809059
 20
8087.5011190282
  0
LINE
  5
187
330
1F
100
AcDbEntity
  8
0
  6
Continuous
 62
     7
370
    25
100
AcDbLine
 10
4219.666661526
 20
8096.8187837458
 30
0.0
 11
4211.9384783666
 21
8096.8187837458
 31
0.0
  0
LINE
  5
188
330
1F
100
AcDbEntity
  8
0
  6
Continuous
 62
     7
370
    25
100
AcDbLine
 10
4220.0144162114
 20
8096.5011202505
 30
0.0
 11
4219.666661526
 21
8096.8187837458
 31
0.0
  0
LINE
  5
189
330
1F
100
AcDbEntity
  8
0
  6
Continuous
 62
     7
370
    25
100
AcDbLine
 10
4222.0709851756
 20
8096.8187837458
 30
0.0
 11
4222.4187398609
 21
8096.5011202505
 31
0.0
  0
ARC
  5
18A
330
1F
100
AcDbEntity
  8
0
  6
Continuous
 62
     7
370
    25
100
AcDbCircle
 10
4220.1135230972
 20
8090.6210482784
 30
0.0
 40
3.131793430593872
100
AcDbArc
 50
277.7613683231
 51
317.3977056287
  0
LINE
  5
18B
330
1F
100
AcDbEntity
  8
0
  6
Continuous
 62
     7
370
    25
100
AcDbLine
 10
4229.7991683349
 20
8096.8187837458
 30
0.0
 11
4222.0709851756
 21
8096.8187837458
 31
0.0
  0
LINE
  5
18C
330
1F
100
AcDbEntity
  8
0
  6
Continuous
 62
     7
370
    25
100
AcDbLine
 10
4222.9226012738
 20
8087.5011190282
 30
0.0
 11
4225.0253105824
 21
7843.4833343144
 31
0.0
  0
LWPOLYLINE
  5
18D
330
1F
100
AcDbEntity
  8
0
  6
Continuous
 62
     7
370
    25
100
AcDbPolyline
 90
       13
 70
   128
 43
0.0
 10
4212.4112127723
 20
8085.6310628881
 10
4212.5263021055
 20
8084.7912350539
 10
4212.8415530048
 20
8084.0648306223
 10
4213.3143890893
 20
8083.5499545371
 10
4213.8809512257
 20
8083.3161436665
 10
4214.464722058
 20
8083.3949754641
 10
4214.9868601006
 20
8083.7758032589
 10
4215.3768477176
 20
8084.4071941471
 10
4215.5820149202
 20
8085.2038752903
 10
4215.5746527409
 20
8086.0582504858
 10
4215.3557554829
 20
8086.8549316291
 10
4214.9548864336
 20
8087.4863225172
 10
4214.941148155
 20
8087.5011190282
  0
ARC
  5
18E
330
1F
100
AcDbEntity
  8
0
  6
Continuous
 62
     7
370
    25
100
AcDbCircle
 10
4215.1068110889
 20
8085.7617198799
 30
0.0
 40
2.698762963722225
100
AcDbArc
 50
139.8705135857
 51
182.7749831348
  0
LWPOLYLINE
  5
18F
330
1F
100
AcDbEntity
  8
0
  6
Continuous
 62
     7
370
    25
100
AcDbPolyline
 90
       18
 70
   128
 43
0.0
 10
4214.417870667
 20
7852.759970266
 10
4214.5329600003
 20
7851.9201424318
 10
4214.8482108995
 20
7851.1937380003
 10
4215.321046984
 20
7850.678861915
 10
4215.8876091204
 20
7850.4450510444
 10
4216.4713799527
 20
7850.523882842
 10
4216.9935179953
 20
7850.9047106369
 10
4217.3835056123
 20
7851.536101525
 10
4217.5886728149
 20
7852.3327826682
 10
4217.5813106357
 20
7853.1871578637
 10
4217.3624133776
 20
7853.983839007
 10
4216.9615443284
 20
7854.6152298951
 10
4216.4328430744
 20
7854.9960576899
 10
4215.8477136496
 20
7855.0748894876
 10
4215.2851810253
 20
7854.8410786169
 10
4214.8212183492
 20
7854.3262025317
 10
4214.5184863519
 20
7853.5997981001
 10
4214.417870667
 20
7852.759970266
  0
LINE
  5
190
330
1F
100
AcDbEntity
  8
0
  6
Continuous
 62
     7
370
    25
100
AcDbLine
 10
4221.9361728335
 20
8096.5011202505
 30
0.0
 11
4222.0709851756
 21
8096.8187837458
 31
0.0
  0
LWPOLYLINE
  5
191
330
1F
100
AcDbEntity
  8
0
  6
Continuous
 62
     7
370
    25
100
AcDbPolyline
 90
       10
 70
   128
 43
0.0
 10
4215.6886386931
 20
7850.4903252888
 10
4215.7447259878
 20
7850.5120259995
 10
4216.2668640304
 20
7850.8928537944
 10
4216.6568516474
 20
7851.5242446825
 10
4216.86201885
 20
7852.3209258258
 10
4216.8546566707
 20
7853.1753010212
 10
4216.6357594126
 20
7853.9719821645
 10
4216.2348903634
 20
7854.6033730526
 10
4215.7061891094
 20
7854.9842008474
 10
4215.6147643818
 20
7855.0177584006
  0
ARC
  5
192
330
1F
100
AcDbEntity
  8
0
  6
Continuous
 62
     7
370
    25
100
AcDbCircle
 10
4212.2473254995
 20
8085.6447448361
 30
0.0
 40
2.696630800426514
100
AcDbArc
 50
302.1418838888
 51
43.5039849715
  0
LWPOLYLINE
  5
193
330
1F
100
AcDbEntity
  8
0
  6
Continuous
 62
     7
370
    25
100
AcDbPolyline
 90
        9
 70
   128
 43
0.0
 10
4271.2119774015
 20
8088.5095530622
 10
4271.3091828095
 20
8088.5012397637
 10
4271.7142319555
 20
8088.5319870818
 10
4272.174069329
 20
8088.6051853938
 10
4272.6677123727
 20
8088.6983668657
 10
4273.1364529975
 20
8088.7729460018
 10
4273.4960140539
 20
8088.7917228174
 10
4273.7119847311
 20
8088.7529521645
 10
4273.7862992315
 20
8088.6744818598
  0
ARC
  5
194
330
1F
100
AcDbEntity
  8
0
  6
Continuous
 62
     7
370
    25
100
AcDbCircle
 10
4250.9822031514
 20
8084.8665419119
 30
0.0
 40
3.933050309387506
100
AcDbArc
 50
67.5944960137
 51
112.0503971228
  0
LWPOLYLINE
  5
195
330
1F
100
AcDbEntity
  8
0
  6
Continuous
 62
     7
370
    25
100
AcDbPolyline
 90
       10
 70
   128
 43
0.0
 10
4238.8550032014
 20
8088.5856126098
 10
4238.8504305488
 20
8088.6191273108
 10
4239.0001005729
 20
8088.7123693897
 10
4239.309989758
 20
8088.7800418523
 10
4239.7228570709
 20
8088.7890825471
 10
4240.1768536759
 20
8088.7428411324
 10
4240.6531269675
 20
8088.6599153079
 10
4241.1214569197
 20
8088.5680035486
 10
4241.5074456803
 20
8088.5087687404
 10
4241.6516623366
 20
8088.5086535509
  0
ARC
  5
196
330
1F
100
AcDbEntity
  8
0
  6
Continuous
 62
     7
370
    25
100
AcDbCircle
 10
4261.7132124495
 20
8083.482365184
 30
0.0
 40
5.252473713487888
100
AcDbArc
 50
74.3429673706
 51
107.025783373
  0
ARC
  5
197
330
1F
100
AcDbEntity
  8
0
  6
Continuous
 62
     7
370
    25
100
AcDbCircle
 10
4250.9864640643
 20
8033.5011202505
 30
0.0
 40
1.5
100
AcDbArc
 50
180.0
 51
0.0
  0
ARC
  5
198
330
1F
100
AcDbEntity
  8
0
  6
Continuous
 62
     7
370
    25
100
AcDbCircle
 10
4261.6364640643
 20
8033.5011202505
 30
0.0
 40
1.5
100
AcDbArc
 50
180.0
 51
0.0
  0
ARC
  5
199
330
1F
100
AcDbEntity
  8
0
  6
Continuous
 62
     7
370
    25
100
AcDbCircle
 10
4240.3364640643
 20
8033.5011202505
 30
0.0
 40
1.5
100
AcDbArc
 50
180.0
 51
0.0
  0
LWPOLYLINE
  5
19A
330
1F
100
AcDbEntity
  8
0
  6
Continuous
 62
     7
370
    25
100
AcDbPolyline
 90
        9
 70
   128
 43
0.0
 10
4228.1864640643
 20
8088.6525134263
 10
4228.2691673418
 20
8088.7420952652
 10
4228.5123212188
 20
8088.7908051642
 10
4228.8690612188
 20
8088.7763063571
 10
4229.2934674017
 20
8088.7114577765
 10
4229.7771127313
 20
8088.6186888381
 10
4230.2772353778
 20
8088.5347796693
 10
4230.7027736395
 20
8088.5011668392
 10
4230.7147997714
 20
8088.5022150968
  0
LWPOLYLINE
  5
19B
330
1F
100
AcDbEntity
  8
0
  6
Continuous
 62
     7
370
    25
100
AcDbPolyline
 90
        9
 70
   128
 43
0.0
 10
4206.8864640643
 20
8088.6525134263
 10
4206.9691673418
 20
8088.7420952652
 10
4207.2123212188
 20
8088.7908051642
 10
4207.5690612188
 20
8088.7763063571
 10
4207.9934674017
 20
8088.7114577765
 10
4208.4771127313
 20
8088.6186888381
 10
4208.9772353778
 20
8088.5347796693
 10
4209.4027736395
 20
8088.5011668392
 10
4209.4147997714
 20
8088.5022150968
  0
LWPOLYLINE
  5
19C
330
1F
100
AcDbEntity
  8
0
  6
Continuous
 62
     7
370
    25
100
AcDbPolyline
 90
        9
 70
   128
 43
0.0
 10
4164.2864640643
 20
8088.6525134263
 10
4164.3691673418
 20
8088.7420952652
 10
4164.6123212188
 20
8088.7908051642
 10
4164.9690612188
 20
8088.7763063571
 10
4165.3934674017
 20
8088.7114577765
 10
4165.8771127313
 20
8088.6186888381
 10
4166.3772353778
 20
8088.5347796693
 10
4166.8027736395
 20
8088.5011668392
 10
4166.8147997714
 20
8088.5022150968
  0
ARC
  5
19D
330
1F
100
AcDbEntity
  8
0
  6
Continuous
 62
     7
370
    25
100
AcDbCircle
 10
4145.5063554698
 20
8092.5952862918
 30
0.0
 40
4.088419590268078
100
AcDbArc
 50
255.5545230682
 51
269.997094243
  0
ARC
  5
19E
330
1F
100
AcDbEntity
  8
0
  6
Continuous
 62
     7
370
    25
100
AcDbCircle
 10
4143.7258159541
 20
8086.7410548431
 30
0.0
 40
2.042023064253827
100
AcDbArc
 50
68.1302841063
 51
110.6540201701
  0
LWPOLYLINE
  5
19F
330
1F
100
AcDbEntity
  8
0
  6
Continuous
 62
     7
370
    25
100
AcDbPolyline
 90
        9
 70
   128
 43
0.0
 10
4134.8585829217
 20
8088.5056655086
 10
4134.5523951749
 20
8088.5197119807
 10
4134.1097352432
 20
8088.5849437212
 10
4133.6221203136
 20
8088.6777800521
 10
4133.1337856224
 20
8088.7620381268
 10
4132.7325606668
 20
8088.7929654366
 10
4132.4711153855
 20
8088.7612383355
 10
4132.3461505212
 20
8088.6853421113
 10
4132.3550285777
 20
8088.6529362043
  0
LWPOLYLINE
  5
1A0
330
1F
100
AcDbEntity
  8
0
  6
Continuous
 62
     7
370
    25
100
AcDbPolyline
 90
        9
 70
   128
 43
0.0
 10
4124.2085829217
 20
8088.5056655086
 10
4123.9023951749
 20
8088.5197119807
 10
4123.4597352432
 20
8088.5849437212
 10
4122.9721203136
 20
8088.6777800521
 10
4122.4837856224
 20
8088.7620381268
 10
4122.0825606668
 20
8088.7929654366
 10
4121.8211153855
 20
8088.7612383355
 10
4121.6961505212
 20
8088.6853421113
 10
4121.7050285777
 20
8088.6529362043
  0
LWPOLYLINE
  5
1A1
330
1F
100
AcDbEntity
  8
0
  6
Continuous
 62
     7
370
    25
100
AcDbPolyline
 90
       13
 70
   128
 43
0.0
 10
4120.1864640643
 20
8088.5011202505
 10
4119.7727804185
 20
8088.541834483
 10
4118.9789273155
 20
8088.8625922691
 10
4118.2829016585
 20
8089.4781219531
 10
4117.7410913066
 20
8090.3385569807
 10
4117.3973905124
 20
8091.3741900232
 10
4117.2796438701
 20
8092.5011202505
 10
4117.3973905124
 20
8093.6280504779
 10
4117.7410913066
 20
8094.6636835204
 10
4118.2829016585
 20
8095.524118548
 10
4118.9789273155
 20
8096.139648232
 10
4119.7727804185
 20
8096.4604060181
 10
4120.1864640643
 20
8096.5011202505
  0
LWPOLYLINE
  5
1A2
330
1F
100
AcDbEntity
  8
0
  6
Continuous
 62
     7
370
    25
100
AcDbPolyline
 90
        9
 70
   128
 43
0.0
 10
4153.6364640643
 20
8088.6525134263
 10
4153.7191673418
 20
8088.7420952652
 10
4153.9623212188
 20
8088.7908051642
 10
4154.3190612188
 20
8088.7763063571
 10
4154.7434674017
 20
8088.7114577765
 10
4155.2271127313
 20
8088.6186888381
 10
4155.7272353778
 20
8088.5347796693
 10
4156.1527736395
 20
8088.5011668392
 10
4156.1647997714
 20
8088.5022150968
  0
LWPOLYLINE
  5
1A3
330
1F
100
AcDbEntity
  8
0
  6
Continuous
 62
     7
370
    25
100
AcDbPolyline
 90
        9
 70
   128
 43
0.0
 10
4196.2364640643
 20
8088.6525134263
 10
4196.3191673418
 20
8088.7420952652
 10
4196.5623212188
 20
8088.7908051642
 10
4196.9190612188
 20
8088.7763063571
 10
4197.3434674017
 20
8088.7114577765
 10
4197.8271127313
 20
8088.6186888381
 10
4198.3272353778
 20
8088.5347796693
 10
4198.7527736395
 20
8088.5011668392
 10
4198.7647997714
 20
8088.5022150968
  0
LWPOLYLINE
  5
1A4
330
1F
100
AcDbEntity
  8
0
  6
Continuous
 62
     7
370
    25
100
AcDbPolyline
 90
        9
 70
   128
 43
0.0
 10
4217.5364640643
 20
8088.6525134263
 10
4217.6191673418
 20
8088.7420952652
 10
4217.8623212188
 20
8088.7908051642
 10
4218.2190612188
 20
8088.7763063571
 10
4218.6434674017
 20
8088.7114577765
 10
4219.1271127313
 20
8088.6186888381
 10
4219.6272353778
 20
8088.5347796693
 10
4220.0527736395
 20
8088.5011668392
 10
4220.0647997714
 20
8088.5022150968
  0
ARC
  5
1A5
330
1F
100
AcDbEntity
  8
0
  6
Continuous
 62
     7
370
    25
100
AcDbCircle
 10
4272.2864640643
 20
8033.5011202505
 30
0.0
 40
1.5
100
AcDbArc
 50
180.0
 51
0.0
  0
LWPOLYLINE
  5
1A6
330
1F
100
AcDbEntity
  8
0
  6
Continuous
 62
     7
370
    25
100
AcDbPolyline
 90
        8
 70
   128
 43
0.0
 10
4282.0419868196
 20
8088.5079880426
 10
4282.3753909886
 20
8088.5097674266
 10
4282.833117729
 20
8088.5639597786
 10
4283.3119523433
 20
8088.6519327687
 10
4283.7754551711
 20
8088.7429861249
 10
4284.1454699305
 20
8088.7912250701
 10
4284.3645709745
 20
8088.7752928153
 10
4284.4362959034
 20
8088.7098525407
  0
LWPOLYLINE
  5
1A7
330
1F
100
AcDbEntity
  8
0
  6
Continuous
 62
     7
370
    25
100
AcDbPolyline
 90
        8
 70
   128
 43
0.0
 10
4292.8077295388
 20
8088.5113531068
 10
4293.0318388502
 20
8088.5029056862
 10
4293.4929990267
 20
8088.5431646879
 10
4293.9653208955
 20
8088.623320148
 10
4294.4216526674
 20
8088.7179591426
 10
4294.7947157874
 20
8088.7834574523
 10
4295.0174536554
 20
8088.7862493288
 10
4295.0847847263
 20
8088.7347183621
  0
ARC
  5
1A8
330
1F
100
AcDbEntity
  8
0
  6
Continuous
 62
     7
370
    25
100
AcDbCircle
 10
4312.2458482285
 20
8025.5208691975
 30
0.0
 40
63.57411385326936
100
AcDbArc
 50
95.8814382241
 51
97.7934524601
  0
LWPOLYLINE
  5
1A9
330
1F
100
AcDbEntity
  8
0
  6
Continuous
 62
     7
370
    25
100
AcDbPolyline
 90
        8
 70
   128
 43
0.0
 10
4313.404251539
 20
8088.5019161331
 10
4313.406281545
 20
8088.5017459928
 10
4313.886654836
 20
8088.5218304724
 10
4314.3367910938
 20
8088.5887633233
 10
4314.7371132737
 20
8088.681977259
 10
4315.0369906946
 20
8088.764560754
 10
4315.1771419763
 20
8088.7928217326
 10
4315.1693847864
 20
8088.7810050079
  0
ARC
  5
1AA
330
1F
100
AcDbEntity
  8
0
  6
Continuous
 62
     7
370
    25
100
AcDbCircle
 10
4229.6864640643
 20
8033.5011202505
 30
0.0
 40
1.5
100
AcDbArc
 50
180.0
 51
0.0
  0
ARC
  5
1AB
330
1F
100
AcDbEntity
  8
0
  6
Continuous
 62
     7
370
    25
100
AcDbCircle
 10
4282.9364640643
 20
8033.5011202505
 30
0.0
 40
1.5
100
AcDbArc
 50
180.0
 51
0.0
  0
ARC
  5
1AC
330
1F
100
AcDbEntity
  8
0
  6
Continuous
 62
     7
370
    25
100
AcDbCircle
 10
4219.0364640643
 20
8033.5011202505
 30
0.0
 40
1.5
100
AcDbArc
 50
180.0
 51
0.0
  0
ARC
  5
1AD
330
1F
100
AcDbEntity
  8
0
  6
Continuous
 62
     7
370
    25
100
AcDbCircle
 10
4208.3864640643
 20
8033.5011202505
 30
0.0
 40
1.5
100
AcDbArc
 50
180.0
 51
0.0
  0
ARC
  5
1AE
330
1F
100
AcDbEntity
  8
0
  6
Continuous
 62
     7
370
    25
100
AcDbCircle
 10
4293.5864640643
 20
8033.5011202505
 30
0.0
 40
1.5
100
AcDbArc
 50
180.0
 51
0.0
  0
ARC
  5
1AF
330
1F
100
AcDbEntity
  8
0
  6
Continuous
 62
     7
370
    25
100
AcDbCircle
 10
4197.7364640643
 20
8033.5011202505
 30
0.0
 40
1.500000000000909
100
AcDbArc
 50
180.0
 51
0.0
  0
ARC
  5
1B0
330
1F
100
AcDbEntity
  8
0
  6
Continuous
 62
     7
370
    25
100
AcDbCircle
 10
4304.2364640643
 20
8036.0011202505
 30
0.0
 40
1.5
100
AcDbArc
 50
180.0
 51
0.0
  0
ARC
  5
1B1
330
1F
100
AcDbEntity
  8
0
  6
Continuous
 62
     7
370
    25
100
AcDbCircle
 10
4165.7864640643
 20
8033.5011202505
 30
0.0
 40
1.5
100
AcDbArc
 50
180.0
 51
0.0
  0
ARC
  5
1B2
330
1F
100
AcDbEntity
  8
0
  6
Continuous
 62
     7
370
    25
100
AcDbCircle
 10
4155.1364640643
 20
8033.5011202505
 30
0.0
 40
1.5
100
AcDbArc
 50
180.0
 51
0.0
  0
ARC
  5
1B3
330
1F
100
AcDbEntity
  8
0
  6
Continuous
 62
     7
370
    25
100
AcDbCircle
 10
4144.4864640643
 20
8033.5011202505
 30
0.0
 40
1.5
100
AcDbArc
 50
180.0
 51
0.0
  0
ARC
  5
1B4
330
1F
100
AcDbEntity
  8
0
  6
Continuous
 62
     7
370
    25
100
AcDbCircle
 10
4313.6864640643
 20
8038.5011202505
 30
0.0
 40
1.500000000000909
100
AcDbArc
 50
180.0
 51
0.0
  0
ARC
  5
1B5
330
1F
100
AcDbEntity
  8
0
  6
Continuous
 62
     7
370
    25
100
AcDbCircle
 10
4133.8364640643
 20
8033.5011202505
 30
0.0
 40
1.5
100
AcDbArc
 50
180.0
 51
0.0
  0
ARC
  5
1B6
330
1F
100
AcDbEntity
  8
0
  6
Continuous
 62
     7
370
    25
100
AcDbCircle
 10
4123.1864640643
 20
8038.5011202505
 30
0.0
 40
1.5
100
AcDbArc
 50
180.0
 51
0.0
  0
LWPOLYLINE
  5
1B7
330
1F
100
AcDbEntity
  8
0
  6
Continuous
 62
     7
370
    25
100
AcDbPolyline
 90
        9
 70
   128
 43
0.0
 10
4271.2119716106
 20
7835.4917671261
 10
4271.3091770185
 20
7835.4834538276
 10
4271.7142261645
 20
7835.5142011457
 10
4272.174063538
 20
7835.5873994577
 10
4272.6677065817
 20
7835.6805809297
 10
4273.1364472066
 20
7835.7551600658
 10
4273.496008263
 20
7835.7739368813
 10
4273.7119789401
 20
7835.7351662284
 10
4273.7862934405
 20
7835.6566959237
  0
ARC
  5
1B8
330
1F
100
AcDbEntity
  8
0
  6
Continuous
 62
     7
370
    25
100
AcDbCircle
 10
4250.9821973604
 20
7831.8487559759
 30
0.0
 40
3.933050309363473
100
AcDbArc
 50
67.5944960135
 51
112.050397123
  0
LWPOLYLINE
  5
1B9
330
1F
100
AcDbEntity
  8
0
  6
Continuous
 62
     7
370
    25
100
AcDbPolyline
 90
       10
 70
   128
 43
0.0
 10
4238.8549974104
 20
7835.5678266737
 10
4238.8504247579
 20
7835.6013413747
 10
4239.0000947819
 20
7835.6945834536
 10
4239.309983967
 20
7835.7622559163
 10
4239.72285128
 20
7835.771296611
 10
4240.1768478849
 20
7835.7250551963
 10
4240.6531211765
 20
7835.6421293718
 10
4241.1214511287
 20
7835.5502176125
 10
4241.5074398893
 20
7835.4909828043
 10
4241.6516565456
 20
7835.4908676148
  0
ARC
  5
1BA
330
1F
100
AcDbEntity
  8
0
  6
Continuous
 62
     7
370
    25
100
AcDbCircle
 10
4261.7132066585
 20
7830.4645792478
 30
0.0
 40
5.25247371350796
100
AcDbArc
 50
74.3429673706
 51
107.0257833729
  0
ARC
  5
1BB
330
1F
100
AcDbEntity
  8
0
  6
Continuous
 62
     7
370
    25
100
AcDbCircle
 10
4250.9864582733
 20
7815.4833343144
 30
0.0
 40
1.5
100
AcDbArc
 50
180.0
 51
0.0
  0
ARC
  5
1BC
330
1F
100
AcDbEntity
  8
0
  6
Continuous
 62
     7
370
    25
100
AcDbCircle
 10
4261.6364582733
 20
7815.4833343144
 30
0.0
 40
1.5
100
AcDbArc
 50
180.0
 51
0.0
  0
ARC
  5
1BD
330
1F
100
AcDbEntity
  8
0
  6
Continuous
 62
     7
370
    25
100
AcDbCircle
 10
4240.3364582733
 20
7815.4833343144
 30
0.0
 40
1.5
100
AcDbArc
 50
180.0
 51
0.0
  0
LWPOLYLINE
  5
1BE
330
1F
100
AcDbEntity
  8
0
  6
Continuous
 62
     7
370
    25
100
AcDbPolyline
 90
        9
 70
   128
 43
0.0
 10
4228.1864582733
 20
7835.6347274902
 10
4228.2691615508
 20
7835.7243093291
 10
4228.5123154278
 20
7835.7730192282
 10
4228.8690554278
 20
7835.7585204211
 10
4229.2934616107
 20
7835.6936718404
 10
4229.7771069403
 20
7835.600902902
 10
4230.2772295868
 20
7835.5169937332
 10
4230.7027678485
 20
7835.4833809031
 10
4230.7147939804
 20
7835.4844291608
  0
LWPOLYLINE
  5
1BF
330
1F
100
AcDbEntity
  8
0
  6
Continuous
 62
     7
370
    25
100
AcDbPolyline
 90
        9
 70
   128
 43
0.0
 10
4206.8864582733
 20
7835.6347274902
 10
4206.9691615508
 20
7835.7243093291
 10
4207.2123154278
 20
7835.7730192282
 10
4207.5690554278
 20
7835.7585204211
 10
4207.9934616107
 20
7835.6936718404
 10
4208.4771069403
 20
7835.600902902
 10
4208.9772295868
 20
7835.5169937332
 10
4209.4027678485
 20
7835.4833809031
 10
4209.4147939804
 20
7835.4844291608
  0
LWPOLYLINE
  5
1C0
330
1F
100
AcDbEntity
  8
0
  6
Continuous
 62
     7
370
    25
100
AcDbPolyline
 90
        9
 70
   128
 43
0.0
 10
4164.2864582733
 20
7835.6347274902
 10
4164.3691615508
 20
7835.7243093291
 10
4164.6123154278
 20
7835.7730192282
 10
4164.9690554278
 20
7835.7585204211
 10
4165.3934616107
 20
7835.6936718404
 10
4165.8771069403
 20
7835.600902902
 10
4166.3772295868
 20
7835.5169937332
 10
4166.8027678485
 20
7835.4833809031
 10
4166.8147939804
 20
7835.4844291608
  0
LWPOLYLINE
  5
1C1
330
1F
100
AcDbEntity
  8
0
  6
Continuous
 62
     7
370
    25
100
AcDbPolyline
 90
        9
 70
   128
 43
0.0
 10
4142.9864582733
 20
7835.6347274902
 10
4143.0691615508
 20
7835.7243093291
 10
4143.3123154278
 20
7835.7730192282
 10
4143.6690554278
 20
7835.7585204211
 10
4144.0934616107
 20
7835.6936718404
 10
4144.5771069403
 20
7835.600902902
 10
4145.0772295868
 20
7835.5169937332
 10
4145.5027678485
 20
7835.4833809031
 10
4145.5147939804
 20
7835.4844291608
  0
LWPOLYLINE
  5
1C2
330
1F
100
AcDbEntity
  8
0
  6
Continuous
 62
     7
370
    25
100
AcDbPolyline
 90
        9
 70
   128
 43
0.0
 10
4134.8535204417
 20
7835.4906104222
 10
4134.6445291012
 20
7835.4932090333
 10
4134.2142565665
 20
7835.5491551713
 10
4133.7346768075
 20
7835.6381342259
 10
4133.2398037989
 20
7835.7285528881
 10
4132.8114003124
 20
7835.774102488
 10
4132.5179891684
 20
7835.7552071514
 10
4132.3622181484
 20
7835.6874600486
 10
4132.3561195563
 20
7835.6343291809
  0
LWPOLYLINE
  5
1C3
330
1F
100
AcDbEntity
  8
0
  6
Continuous
 62
     7
370
    25
100
AcDbPolyline
 90
        9
 70
   128
 43
0.0
 10
4124.2035204417
 20
7835.4906104222
 10
4123.9945291012
 20
7835.4932090333
 10
4123.5642565665
 20
7835.5491551713
 10
4123.0846768075
 20
7835.6381342259
 10
4122.5898037989
 20
7835.7285528881
 10
4122.1614003124
 20
7835.774102488
 10
4121.8679891684
 20
7835.7552071514
 10
4121.7122181484
 20
7835.6874600486
 10
4121.7061195563
 20
7835.6343291809
  0
LWPOLYLINE
  5
1C4
330
1F
100
AcDbEntity
  8
0
  6
Continuous
 62
     7
370
    25
100
AcDbPolyline
 90
       13
 70
   128
 43
0.0
 10
4120.1864582733
 20
7835.4833343144
 10
4119.7727746275
 20
7835.5240485469
 10
4118.9789215246
 20
7835.844806333
 10
4118.2828958675
 20
7836.460336017
 10
4117.7410855156
 20
7837.3207710446
 10
4117.3973847214
 20
7838.3564040871
 10
4117.2796380791
 20
7839.4833343144
 10
4117.3973847214
 20
7840.6102645418
 10
4117.7410855156
 20
7841.6458975843
 10
4118.2828958675
 20
7842.5063326119
 10
4118.9789215246
 20
7843.1218622959
 10
4119.7727746275
 20
7843.442620082
 10
4120.1864582733
 20
7843.4833343144
  0
LWPOLYLINE
  5
1C5
330
1F
100
AcDbEntity
  8
0
  6
Continuous
 62
     7
370
    25
100
AcDbPolyline
 90
        9
 70
   128
 43
0.0
 10
4153.6364582733
 20
7835.6347274902
 10
4153.7191615508
 20
7835.7243093291
 10
4153.9623154278
 20
7835.7730192282
 10
4154.3190554278
 20
7835.7585204211
 10
4154.7434616107
 20
7835.6936718404
 10
4155.2271069403
 20
7835.600902902
 10
4155.7272295868
 20
7835.5169937332
 10
4156.1527678485
 20
7835.4833809031
 10
4156.1647939804
 20
7835.4844291608
  0
LWPOLYLINE
  5
1C6
330
1F
100
AcDbEntity
  8
0
  6
Continuous
 62
     7
370
    25
100
AcDbPolyline
 90
        5
 70
   128
 43
0.0
 10
4174.9364582733
 20
7835.6347274902
 10
4175.0191615508
 20
7835.7243093291
 10
4175.2623154278
 20
7835.7730192282
 10
4175.6190554278
 20
7835.7585204211
 10
4175.8752795312
 20
7835.719369791
  0
LWPOLYLINE
  5
1C7
330
1F
100
AcDbEntity
  8
0
  6
Continuous
 62
     7
370
    25
100
AcDbPolyline
 90
        9
 70
   128
 43
0.0
 10
4196.2364582733
 20
7835.6347274902
 10
4196.3191615508
 20
7835.7243093291
 10
4196.5623154278
 20
7835.7730192282
 10
4196.9190554278
 20
7835.7585204211
 10
4197.3434616107
 20
7835.6936718404
 10
4197.8271069403
 20
7835.600902902
 10
4198.3272295868
 20
7835.5169937332
 10
4198.7527678485
 20
7835.4833809031
 10
4198.7647939804
 20
7835.4844291608
  0
LWPOLYLINE
  5
1C8
330
1F
100
AcDbEntity
  8
0
  6
Continuous
 62
     7
370
    25
100
AcDbPolyline
 90
        9
 70
   128
 43
0.0
 10
4217.5364582733
 20
7835.6347274902
 10
4217.6191615508
 20
7835.7243093291
 10
4217.8623154278
 20
7835.7730192282
 10
4218.2190554278
 20
7835.7585204211
 10
4218.6434616107
 20
7835.6936718404
 10
4219.1271069403
 20
7835.600902902
 10
4219.6272295868
 20
7835.5169937332
 10
4220.0527678485
 20
7835.4833809031
 10
4220.0647939804
 20
7835.4844291608
  0
ARC
  5
1C9
330
1F
100
AcDbEntity
  8
0
  6
Continuous
 62
     7
370
    25
100
AcDbCircle
 10
4272.2864582733
 20
7815.4833343144
 30
0.0
 40
1.5
100
AcDbArc
 50
180.0
 51
0.0
  0
LWPOLYLINE
  5
1CA
330
1F
100
AcDbEntity
  8
0
  6
Continuous
 62
     7
370
    25
100
AcDbPolyline
 90
        8
 70
   128
 43
0.0
 10
4282.0419810286
 20
7835.4902021065
 10
4282.3753851976
 20
7835.4919814906
 10
4282.833111938
 20
7835.5461738425
 10
4283.3119465523
 20
7835.6341468326
 10
4283.7754493801
 20
7835.7252001888
 10
4284.1454641396
 20
7835.773439134
 10
4284.3645651836
 20
7835.7575068792
 10
4284.4362901124
 20
7835.6920666046
  0
LWPOLYLINE
  5
1CB
330
1F
100
AcDbEntity
  8
0
  6
Continuous
 62
     7
370
    25
100
AcDbPolyline
 90
        8
 70
   128
 43
0.0
 10
4292.8077237478
 20
7835.4935671707
 10
4293.0318330592
 20
7835.4851197501
 10
4293.4929932357
 20
7835.5253787518
 10
4293.9653151045
 20
7835.605534212
 10
4294.4216468764
 20
7835.7001732065
 10
4294.7947099965
 20
7835.7656715162
 10
4295.0174478644
 20
7835.7684633927
 10
4295.0847789353
 20
7835.716932426
  0
ARC
  5
1CC
330
1F
100
AcDbEntity
  8
0
  6
Continuous
 62
     7
370
    25
100
AcDbCircle
 10
4312.245842435
 20
7772.5030832828
 30
0.0
 40
63.57411383171047
100
AcDbArc
 50
95.8814382238
 51
97.7934524604
  0
LWPOLYLINE
  5
1CD
330
1F
100
AcDbEntity
  8
0
  6
Continuous
 62
     7
370
    25
100
AcDbPolyline
 90
        7
 70
   128
 43
0.0
 10
4314.5991186157
 20
7835.4938790199
 10
4314.8758879845
 20
7835.4853450665
 10
4315.3428957941
 20
7835.526342052
 10
4315.7666113755
 20
7835.6069466988
 10
4316.117423465
 20
7835.7015090376
 10
4316.3351529052
 20
7835.7662100294
 10
4316.3733624507
 20
7835.7676592796
  0
ARC
  5
1CE
330
1F
100
AcDbEntity
  8
0
  6
Continuous
 62
     7
370
    25
100
AcDbCircle
 10
4229.6864582733
 20
7815.4833343144
 30
0.0
 40
1.5
100
AcDbArc
 50
180.0
 51
0.0
  0
ARC
  5
1CF
330
1F
100
AcDbEntity
  8
0
  6
Continuous
 62
     7
370
    25
100
AcDbCircle
 10
4282.9364582733
 20
7815.4833343144
 30
0.0
 40
1.5
100
AcDbArc
 50
180.0
 51
0.0
  0
ARC
  5
1D0
330
1F
100
AcDbEntity
  8
0
  6
Continuous
 62
     7
370
    25
100
AcDbCircle
 10
4219.0364582733
 20
7815.4833343144
 30
0.0
 40
1.500000000000909
100
AcDbArc
 50
180.0
 51
0.0
  0
ARC
  5
1D1
330
1F
100
AcDbEntity
  8
0
  6
Continuous
 62
     7
370
    25
100
AcDbCircle
 10
4208.3864582733
 20
7815.4833343144
 30
0.0
 40
1.5
100
AcDbArc
 50
180.0
 51
0.0
  0
ARC
  5
1D2
330
1F
100
AcDbEntity
  8
0
  6
Continuous
 62
     7
370
    25
100
AcDbCircle
 10
4293.5864582733
 20
7815.4833343144
 30
0.0
 40
1.5
100
AcDbArc
 50
180.0
 51
0.0
  0
ARC
  5
1D3
330
1F
100
AcDbEntity
  8
0
  6
Continuous
 62
     7
370
    25
100
AcDbCircle
 10
4197.7364582733
 20
7815.4833343144
 30
0.0
 40
1.5
100
AcDbArc
 50
180.0
 51
0.0
  0
ARC
  5
1D4
330
1F
100
AcDbEntity
  8
0
  6
Continuous
 62
     7
370
    25
100
AcDbCircle
 10
4187.0864582733
 20
7815.4833343144
 30
0.0
 40
1.5
100
AcDbArc
 50
180.0
 51
0.0
  0
ARC
  5
1D5
330
1F
100
AcDbEntity
  8
0
  6
Continuous
 62
     7
370
    25
100
AcDbCircle
 10
4304.2364582733
 20
7818.9833343144
 30
0.0
 40
1.5
100
AcDbArc
 50
180.0
 51
0.0
  0
ARC
  5
1D6
330
1F
100
AcDbEntity
  8
0
  6
Continuous
 62
     7
370
    25
100
AcDbCircle
 10
4176.4364582733
 20
7815.4833343144
 30
0.0
 40
1.5
100
AcDbArc
 50
180.0
 51
0.0
  0
ARC
  5
1D7
330
1F
100
AcDbEntity
  8
0
  6
Continuous
 62
     7
370
    25
100
AcDbCircle
 10
4165.7864582733
 20
7815.4833343144
 30
0.0
 40
1.5
100
AcDbArc
 50
180.0
 51
0.0
  0
ARC
  5
1D8
330
1F
100
AcDbEntity
  8
0
  6
Continuous
 62
     7
370
    25
100
AcDbCircle
 10
4155.1364582733
 20
7815.4833343144
 30
0.0
 40
1.5
100
AcDbArc
 50
180.0
 51
0.0
  0
ARC
  5
1D9
330
1F
100
AcDbEntity
  8
0
  6
Continuous
 62
     7
370
    25
100
AcDbCircle
 10
4144.4864582733
 20
7815.4833343144
 30
0.0
 40
1.5
100
AcDbArc
 50
180.0
 51
0.0
  0
ARC
  5
1DA
330
1F
100
AcDbEntity
  8
0
  6
Continuous
 62
     7
370
    25
100
AcDbCircle
 10
4133.8364582733
 20
7815.4833343144
 30
0.0
 40
1.5
100
AcDbArc
 50
180.0
 51
0.0
  0
ARC
  5
1DB
330
1F
100
AcDbEntity
  8
0
  6
Continuous
 62
     7
370
    25
100
AcDbCircle
 10
4314.8864582733
 20
7822.4833343144
 30
0.0
 40
1.5
100
AcDbArc
 50
180.0
 51
0.0
  0
ARC
  5
1DC
330
1F
100
AcDbEntity
  8
0
  6
Continuous
 62
     7
370
    25
100
AcDbCircle
 10
4123.1864582733
 20
7821.9833343144
 30
0.0
 40
1.5
100
AcDbArc
 50
180.0
 51
0.0
  0
LINE
  5
1DD
330
1F
100
AcDbEntity
  8
0
  6
Continuous
 62
     8
370
    25
100
AcDbLine
 10
4190.9302258196
 20
8092.4418346672
 30
0.0
 11
4192.38353377
 21
8092.4418346672
 31
0.0
  0
LWPOLYLINE
  5
1DE
330
1F
100
AcDbEntity
  8
0
  6
Continuous
 62
     8
370
    25
100
AcDbPolyline
 90
       12
 70
   128
 43
0.0
 10
4273.7864640643
 20
8088.5482429886
 10
4274.6312895742
 20
8088.8625922691
 10
4275.4022975818
 20
8089.4781219531
 10
4276.0024767787
 20
8090.3385569807
 10
4276.3832042158
 20
8091.3741900232
 10
4276.5136356204
 20
8092.5011202505
 10
4276.3832042158
 20
8093.6280504779
 10
4276.0024767787
 20
8094.6636835204
 10
4275.4022975818
 20
8095.524118548
 10
4274.6312895742
 20
8096.139648232
 10
4273.7519152393
 20
8096.4604060181
 10
4273.2936657476
 20
8096.5011202505
  0
LWPOLYLINE
  5
1DF
330
1F
100
AcDbEntity
  8
0
  6
Continuous
 62
     8
370
    25
100
AcDbPolyline
 90
       13
 70
   128
 43
0.0
 10
4235.0012278284
 20
8088.5011202505
 10
4234.5875441825
 20
8088.541834483
 10
4233.7936910796
 20
8088.8625922691
 10
4233.0976654225
 20
8089.4781219531
 10
4232.5558550707
 20
8090.3385569807
 10
4232.2121542764
 20
8091.3741900232
 10
4232.0944076341
 20
8092.5011202505
 10
4232.2121542764
 20
8093.6280504779
 10
4232.5558550707
 20
8094.6636835204
 10
4233.0976654225
 20
8095.524118548
 10
4233.7936910796
 20
8096.139648232
 10
4234.5875441825
 20
8096.4604060181
 10
4235.0012278284
 20
8096.5011202505
  0
LINE
  5
1E0
330
1F
100
AcDbEntity
  8
0
  6
Continuous
 62
     8
370
    25
100
AcDbLine
 10
4252.4864640643
 20
8038.5011202505
 30
0.0
 11
4249.4864640643
 21
8038.5011202505
 31
0.0
  0
LINE
  5
1E1
330
1F
100
AcDbEntity
  8
0
  6
Continuous
 62
     8
370
    25
100
AcDbLine
 10
4263.1364640643
 20
8038.5011202505
 30
0.0
 11
4260.1364640643
 21
8038.5011202505
 31
0.0
  0
LINE
  5
1E2
330
1F
100
AcDbEntity
  8
0
  6
Continuous
 62
     8
370
    25
100
AcDbLine
 10
4241.8364640643
 20
8038.5011202505
 30
0.0
 11
4238.8364640643
 21
8038.5011202505
 31
0.0
  0
LINE
  5
1E3
330
1F
100
AcDbEntity
  8
0
  6
Continuous
 62
     8
370
    25
100
AcDbLine
 10
4273.7864640643
 20
8038.5011202505
 30
0.0
 11
4270.7864640643
 21
8038.5011202505
 31
0.0
  0
LINE
  5
1E4
330
1F
100
AcDbEntity
  8
0
  6
Continuous
 62
     8
370
    25
100
AcDbLine
 10
4231.1864640643
 20
8038.5011202505
 30
0.0
 11
4228.1864640643
 21
8038.5011202505
 31
0.0
  0
LINE
  5
1E5
330
1F
100
AcDbEntity
  8
0
  6
Continuous
 62
     8
370
    25
100
AcDbLine
 10
4284.4364640643
 20
8038.5011202505
 30
0.0
 11
4281.4364640643
 21
8038.5011202505
 31
0.0
  0
LINE
  5
1E6
330
1F
100
AcDbEntity
  8
0
  6
Continuous
 62
     8
370
    25
100
AcDbLine
 10
4220.5364640643
 20
8038.5011202505
 30
0.0
 11
4217.5364640643
 21
8038.5011202505
 31
0.0
  0
LINE
  5
1E7
330
1F
100
AcDbEntity
  8
0
  6
Continuous
 62
     8
370
    25
100
AcDbLine
 10
4209.8864640643
 20
8038.5011202505
 30
0.0
 11
4206.8864640643
 21
8038.5011202505
 31
0.0
  0
LINE
  5
1E8
330
1F
100
AcDbEntity
  8
0
  6
Continuous
 62
     8
370
    25
100
AcDbLine
 10
4295.0864640643
 20
8038.5011202505
 30
0.0
 11
4292.0864640643
 21
8038.5011202505
 31
0.0
  0
LINE
  5
1E9
330
1F
100
AcDbEntity
  8
0
  6
Continuous
 62
     8
370
    25
100
AcDbLine
 10
4199.2364640643
 20
8038.5011202505
 30
0.0
 11
4196.2364640643
 21
8038.5011202505
 31
0.0
  0
LINE
  5
1EA
330
1F
100
AcDbEntity
  8
0
  6
Continuous
 62
     8
370
    25
100
AcDbLine
 10
4305.7364640643
 20
8041.0011202505
 30
0.0
 11
4302.7364640643
 21
8041.0011202505
 31
0.0
  0
LINE
  5
1EB
330
1F
100
AcDbEntity
  8
0
  6
Continuous
 62
     8
370
    25
100
AcDbLine
 10
4167.2864640643
 20
8038.5011202505
 30
0.0
 11
4164.2864640643
 21
8038.5011202505
 31
0.0
  0
LINE
  5
1EC
330
1F
100
AcDbEntity
  8
0
  6
Continuous
 62
     8
370
    25
100
AcDbLine
 10
4156.6364640643
 20
8038.5011202505
 30
0.0
 11
4153.6364640643
 21
8038.5011202505
 31
0.0
  0
LINE
  5
1ED
330
1F
100
AcDbEntity
  8
0
  6
Continuous
 62
     8
370
    25
100
AcDbLine
 10
4145.9864640643
 20
8038.5011202505
 30
0.0
 11
4142.9864640643
 21
8038.5011202505
 31
0.0
  0
LINE
  5
1EE
330
1F
100
AcDbEntity
  8
0
  6
Continuous
 62
     8
370
    25
100
AcDbLine
 10
4315.1864640643
 20
8043.5011202505
 30
0.0
 11
4312.1864640643
 21
8043.5011202505
 31
0.0
  0
LINE
  5
1EF
330
1F
100
AcDbEntity
  8
0
  6
Continuous
 62
     8
370
    25
100
AcDbLine
 10
4135.3364640643
 20
8038.5011202505
 30
0.0
 11
4132.3364640643
 21
8038.5011202505
 31
0.0
  0
LINE
  5
1F0
330
1F
100
AcDbEntity
  8
0
  6
Continuous
 62
     8
370
    25
100
AcDbLine
 10
4124.6864640643
 20
8043.5011202505
 30
0.0
 11
4121.6864640643
 21
8043.5011202505
 31
0.0
  0
LWPOLYLINE
  5
1F1
330
1F
100
AcDbEntity
  8
0
  6
Continuous
 62
     8
370
    25
100
AcDbPolyline
 90
       12
 70
   128
 43
0.0
 10
4273.7864582733
 20
7835.5304570526
 10
4274.6312837832
 20
7835.844806333
 10
4275.4022917908
 20
7836.460336017
 10
4276.0024709877
 20
7837.3207710446
 10
4276.3831984248
 20
7838.3564040871
 10
4276.5136298294
 20
7839.4833343144
 10
4276.3831984248
 20
7840.6102645418
 10
4276.0024709877
 20
7841.6458975843
 10
4275.4022917908
 20
7842.5063326119
 10
4274.6312837832
 20
7843.1218622959
 10
4273.7519094483
 20
7843.442620082
 10
4273.2936599566
 20
7843.4833343144
  0
LWPOLYLINE
  5
1F2
330
1F
100
AcDbEntity
  8
0
  6
Continuous
 62
     8
370
    25
100
AcDbPolyline
 90
       13
 70
   128
 43
0.0
 10
4235.0012220374
 20
7835.4833343144
 10
4234.5875383916
 20
7835.5240485469
 10
4233.7936852886
 20
7835.844806333
 10
4233.0976596315
 20
7836.460336017
 10
4232.5558492797
 20
7837.3207710446
 10
4232.2121484855
 20
7838.3564040871
 10
4232.0944018432
 20
7839.4833343144
 10
4232.2121484855
 20
7840.6102645418
 10
4232.5558492797
 20
7841.6458975843
 10
4233.0976596315
 20
7842.5063326119
 10
4233.7936852886
 20
7843.1218622959
 10
4234.5875383916
 20
7843.442620082
 10
4235.0012220374
 20
7843.4833343144
  0
LINE
  5
1F3
330
1F
100
AcDbEntity
  8
0
  6
Continuous
 62
     8
370
    25
100
AcDbLine
 10
4252.4864582733
 20
7820.4833343144
 30
0.0
 11
4249.4864582733
 21
7820.4833343144
 31
0.0
  0
LINE
  5
1F4
330
1F
100
AcDbEntity
  8
0
  6
Continuous
 62
     8
370
    25
100
AcDbLine
 10
4263.1364582733
 20
7820.4833343144
 30
0.0
 11
4260.1364582733
 21
7820.4833343144
 31
0.0
  0
LINE
  5
1F5
330
1F
100
AcDbEntity
  8
0
  6
Continuous
 62
     8
370
    25
100
AcDbLine
 10
4241.8364582733
 20
7820.4833343144
 30
0.0
 11
4238.8364582733
 21
7820.4833343144
 31
0.0
  0
LINE
  5
1F6
330
1F
100
AcDbEntity
  8
0
  6
Continuous
 62
     8
370
    25
100
AcDbLine
 10
4273.7864582733
 20
7820.4833343144
 30
0.0
 11
4270.7864582733
 21
7820.4833343144
 31
0.0
  0
LINE
  5
1F7
330
1F
100
AcDbEntity
  8
0
  6
Continuous
 62
     8
370
    25
100
AcDbLine
 10
4231.1864582733
 20
7820.4833343144
 30
0.0
 11
4228.1864582733
 21
7820.4833343144
 31
0.0
  0
LINE
  5
1F8
330
1F
100
AcDbEntity
  8
0
  6
Continuous
 62
     8
370
    25
100
AcDbLine
 10
4284.4364582733
 20
7820.4833343144
 30
0.0
 11
4281.4364582733
 21
7820.4833343144
 31
0.0
  0
LINE
  5
1F9
330
1F
100
AcDbEntity
  8
0
  6
Continuous
 62
     8
370
    25
100
AcDbLine
 10
4220.5364582733
 20
7820.4833343144
 30
0.0
 11
4217.5364582733
 21
7820.4833343144
 31
0.0
  0
LINE
  5
1FA
330
1F
100
AcDbEntity
  8
0
  6
Continuous
 62
     8
370
    25
100
AcDbLine
 10
4209.8864582733
 20
7820.4833343144
 30
0.0
 11
4206.8864582733
 21
7820.4833343144
 31
0.0
  0
LINE
  5
1FB
330
1F
100
AcDbEntity
  8
0
  6
Continuous
 62
     8
370
    25
100
AcDbLine
 10
4295.0864582733
 20
7820.4833343144
 30
0.0
 11
4292.0864582733
 21
7820.4833343144
 31
0.0
  0
LINE
  5
1FC
330
1F
100
AcDbEntity
  8
0
  6
Continuous
 62
     8
370
    25
100
AcDbLine
 10
4199.2364582733
 20
7820.4833343144
 30
0.0
 11
4196.2364582733
 21
7820.4833343144
 31
0.0
  0
LINE
  5
1FD
330
1F
100
AcDbEntity
  8
0
  6
Continuous
 62
     8
370
    25
100
AcDbLine
 10
4188.5864582733
 20
7820.4833343144
 30
0.0
 11
4185.5864582733
 21
7820.4833343144
 31
0.0
  0
LINE
  5
1FE
330
1F
100
AcDbEntity
  8
0
  6
Continuous
 62
     8
370
    25
100
AcDbLine
 10
4305.7364582733
 20
7823.9833343144
 30
0.0
 11
4302.7364582733
 21
7823.9833343144
 31
0.0
  0
LINE
  5
1FF
330
1F
100
AcDbEntity
  8
0
  6
Continuous
 62
     8
370
    25
100
AcDbLine
 10
4177.9364582733
 20
7820.4833343144
 30
0.0
 11
4174.9364582733
 21
7820.4833343144
 31
0.0
  0
LINE
  5
200
330
1F
100
AcDbEntity
  8
0
  6
Continuous
 62
     8
370
    25
100
AcDbLine
 10
4167.2864582733
 20
7820.4833343144
 30
0.0
 11
4164.2864582733
 21
7820.4833343144
 31
0.0
  0
LINE
  5
201
330
1F
100
AcDbEntity
  8
0
  6
Continuous
 62
     8
370
    25
100
AcDbLine
 10
4156.6364582733
 20
7820.4833343144
 30
0.0
 11
4153.6364582733
 21
7820.4833343144
 31
0.0
  0
LINE
  5
202
330
1F
100
AcDbEntity
  8
0
  6
Continuous
 62
     8
370
    25
100
AcDbLine
 10
4145.9864582733
 20
7820.4833343144
 30
0.0
 11
4142.9864582733
 21
7820.4833343144
 31
0.0
  0
LINE
  5
203
330
1F
100
AcDbEntity
  8
0
  6
Continuous
 62
     8
370
    25
100
AcDbLine
 10
4135.3364582733
 20
7820.4833343144
 30
0.0
 11
4132.3364582733
 21
7820.4833343144
 31
0.0
  0
LINE
  5
204
330
1F
100
AcDbEntity
  8
0
  6
Continuous
 62
     8
370
    25
100
AcDbLine
 10
4316.3864582733
 20
7827.4833343144
 30
0.0
 11
4313.3864582733
 21
7827.4833343144
 31
0.0
  0
LINE
  5
205
330
1F
100
AcDbEntity
  8
0
  6
Continuous
 62
     8
370
    25
100
AcDbLine
 10
4124.6864582733
 20
7826.9833343144
 30
0.0
 11
4121.6864582733
 21
7826.9833343144
 31
0.0
  0
LINE
  5
206
330
1F
100
AcDbEntity
  8
0
  6
Continuous
 62
     7
370
    25
100
AcDbLine
 10
3878.4524056097
 20
7834.4833343144
 30
0.0
 11
3886.637723473
 21
7834.4833343144
 31
0.0
  0
LINE
  5
207
330
1F
100
AcDbEntity
  8
0
  6
Continuous
 62
     7
370
    25
100
AcDbLine
 10
3867.7433922105
 20
7834.4833343144
 30
0.0
 11
3875.6905578418
 21
7834.4833343144
 31
0.0
  0
LINE
  5
208
330
1F
100
AcDbEntity
  8
0
  6
Continuous
 62
     7
370
    25
100
AcDbLine
 10
3878.4622861926
 20
8087.5011190282
 30
0.0
 11
3886.6377179888
 21
8087.5011190282
 31
0.0
  0
LINE
  5
209
330
1F
100
AcDbEntity
  8
0
  6
Continuous
 62
     7
370
    25
100
AcDbLine
 10
3867.7433867264
 20
8087.5011190282
 30
0.0
 11
3869.7638185877
 21
8087.5011190282
 31
0.0
  0
LINE
  5
20A
330
1F
100
AcDbEntity
  8
0
  6
Continuous
 62
     7
370
    25
100
AcDbLine
 10
3872.7638185877
 20
8087.5011190282
 30
0.0
 11
3875.6905523676
 21
8087.5011190282
 31
0.0
  0
LINE
  5
20B
330
1F
100
AcDbEntity
  8
0
  6
Continuous
 62
     7
370
    25
100
AcDbLine
 10
3762.2125934299
 20
7834.4833343144
 30
0.0
 11
3770.1597590611
 21
7834.4833343144
 31
0.0
  0
LINE
  5
20C
330
1F
100
AcDbEntity
  8
0
  6
Continuous
 62
     7
370
    25
100
AcDbLine
 10
3751.2654277987
 20
7834.4833343144
 30
0.0
 11
3759.4508403036
 21
7834.4833343144
 31
0.0
  0
LINE
  5
20D
330
1F
100
AcDbEntity
  8
0
  6
Continuous
 62
     7
370
    25
100
AcDbLine
 10
3762.2125879557
 20
8087.5011190282
 30
0.0
 11
3770.1597593787
 21
8087.5011190282
 31
0.0
  0
LINE
  5
20E
330
1F
100
AcDbEntity
  8
0
  6
Continuous
 62
     7
370
    25
100
AcDbLine
 10
3751.2654281163
 20
8087.5011190282
 30
0.0
 11
3759.4408599125
 21
8087.5011190282
 31
0.0
  0
LINE
  5
20F
330
1F
100
AcDbEntity
  8
0
  6
Continuous
 62
     7
370
    25
100
AcDbLine
 10
3957.8743288825
 20
7834.4833343144
 30
0.0
 11
3965.5021121452
 21
7834.4833343144
 31
0.0
  0
LINE
  5
210
330
1F
100
AcDbEntity
  8
0
  6
Continuous
 62
     7
370
    25
100
AcDbLine
 10
3946.6077808827
 20
7834.4833343144
 30
0.0
 11
3954.554946514
 21
7834.4833343144
 31
0.0
  0
LINE
  5
211
330
1F
100
AcDbEntity
  8
0
  6
Continuous
 62
     7
370
    25
100
AcDbLine
 10
3957.8743234083
 20
8087.5011190282
 30
0.0
 11
3965.502106661
 21
8087.5011190282
 31
0.0
  0
LINE
  5
212
330
1F
100
AcDbEntity
  8
0
  6
Continuous
 62
     7
370
    25
100
AcDbLine
 10
3946.6077753986
 20
8087.5011190282
 30
0.0
 11
3954.5549410398
 21
8087.5011190282
 31
0.0
  0
LINE
  5
213
330
1F
100
AcDbEntity
  8
0
  6
Continuous
 62
     7
370
    25
100
AcDbLine
 10
3970.6020096475
 20
8096.5011202505
 30
0.0
 11
3712.3664956313
 21
8096.5011202505
 31
0.0
  0
LINE
  5
214
330
1F
100
AcDbEntity
  8
0
  6
Continuous
 62
     7
370
    25
100
AcDbLine
 10
3957.8743234083
 20
8088.5011202505
 30
0.0
 11
3970.6020096475
 21
8088.5011202505
 31
0.0
  0
LINE
  5
215
330
1F
100
AcDbEntity
  8
0
  6
Continuous
 62
     7
370
    25
100
AcDbLine
 10
3938.6363490255
 20
8088.5011202505
 30
0.0
 11
3955.1187551192
 21
8088.5011202505
 31
0.0
  0
LINE
  5
216
330
1F
100
AcDbEntity
  8
0
  6
Continuous
 62
     7
370
    25
100
AcDbLine
 10
3912.684178075
 20
8088.5011202505
 30
0.0
 11
3935.7953736884
 21
8088.5011202505
 31
0.0
  0
LINE
  5
217
330
1F
100
AcDbEntity
  8
0
  6
Continuous
 62
     7
370
    25
100
AcDbLine
 10
3872.7277903564
 20
8088.5011202505
 30
0.0
 11
3909.8809446924
 21
8088.5011202505
 31
0.0
  0
LINE
  5
218
330
1F
100
AcDbEntity
  8
0
  6
Continuous
 62
     7
370
    25
100
AcDbLine
 10
3813.1820447628
 20
8088.5011202505
 30
0.0
 11
3869.8023580613
 21
8088.5011202505
 31
0.0
  0
LINE
  5
219
330
1F
100
AcDbEntity
  8
0
  6
Continuous
 62
     7
370
    25
100
AcDbLine
 10
3773.0978561028
 20
8088.5011202505
 30
0.0
 11
3810.2268941543
 21
8088.5011202505
 31
0.0
  0
LINE
  5
21A
330
1F
100
AcDbEntity
  8
0
  6
Continuous
 62
     7
370
    25
100
AcDbLine
 10
3747.1632852839
 20
8088.5011202505
 30
0.0
 11
3770.28463542
 21
8088.5011202505
 31
0.0
  0
LINE
  5
21B
330
1F
100
AcDbEntity
  8
0
  6
Continuous
 62
     7
370
    25
100
AcDbLine
 10
3727.8497322196
 20
8088.5011202505
 30
0.0
 11
3744.3321562533
 21
8088.5011202505
 31
0.0
  0
LINE
  5
21C
330
1F
100
AcDbEntity
  8
0
  6
Continuous
 62
     7
370
    25
100
AcDbLine
 10
3712.3664956313
 20
8088.5011202505
 30
0.0
 11
3725.0941818705
 21
8088.5011202505
 31
0.0
  0
LINE
  5
21D
330
1F
100
AcDbEntity
  8
0
  6
Continuous
 62
     7
370
    25
100
AcDbLine
 10
3872.7638185877
 20
8043.5011202505
 30
0.0
 11
3872.7638185877
 21
8088.5085899775
 31
0.0
  0
LINE
  5
21E
330
1F
100
AcDbEntity
  8
0
  6
Continuous
 62
     7
370
    25
100
AcDbLine
 10
3869.7638185877
 20
8088.5137765573
 30
0.0
 11
3869.7638185877
 21
8043.5011202505
 31
0.0
  0
ARC
  5
21F
330
1F
100
AcDbEntity
  8
0
  6
Continuous
 62
     7
370
    25
100
AcDbCircle
 10
3866.2638185877
 20
8043.5011202505
 30
0.0
 40
3.500000000000909
100
AcDbArc
 50
270.0
 51
0.0
  0
ARC
  5
220
330
1F
100
AcDbEntity
  8
0
  6
Continuous
 62
     7
370
    25
100
AcDbCircle
 10
3866.2638185877
 20
8043.5011202505
 30
0.0
 40
6.500000000000909
100
AcDbArc
 50
270.0
 51
0.0
  0
LINE
  5
221
330
1F
100
AcDbEntity
  8
0
  6
Continuous
 62
     7
370
    25
100
AcDbLine
 10
3816.7046866911
 20
8037.0011202505
 30
0.0
 11
3866.2638185877
 21
8037.0011202505
 31
0.0
  0
LINE
  5
222
330
1F
100
AcDbEntity
  8
0
  6
Continuous
 62
     7
370
    25
100
AcDbLine
 10
3866.2638185877
 20
8040.0011202505
 30
0.0
 11
3816.7046866911
 21
8040.0011202505
 31
0.0
  0
LINE
  5
223
330
1F
100
AcDbEntity
  8
0
  6
Continuous
 62
     7
370
    25
100
AcDbLine
 10
3810.2046866911
 20
8088.5134817233
 30
0.0
 11
3810.2046866911
 21
8043.5011202505
 31
0.0
  0
LINE
  5
224
330
1F
100
AcDbEntity
  8
0
  6
Continuous
 62
     7
370
    25
100
AcDbLine
 10
3813.2046866911
 20
8043.5011202505
 30
0.0
 11
3813.2046866911
 21
8088.5089292155
 31
0.0
  0
ARC
  5
225
330
1F
100
AcDbEntity
  8
0
  6
Continuous
 62
     7
370
    25
100
AcDbCircle
 10
3816.7046866911
 20
8043.5011202505
 30
0.0
 40
3.500000000000909
100
AcDbArc
 50
180.0
 51
270.0
  0
ARC
  5
226
330
1F
100
AcDbEntity
  8
0
  6
Continuous
 62
     7
370
    25
100
AcDbCircle
 10
3816.7046866911
 20
8043.5011202505
 30
0.0
 40
6.500000000000909
100
AcDbArc
 50
180.0
 51
270.0
  0
LINE
  5
227
330
1F
100
AcDbEntity
  8
0
  6
Continuous
 62
     7
370
    25
100
AcDbLine
 10
3912.7844942208
 20
8041.0011202505
 30
0.0
 11
3912.7844942208
 21
8088.5374527022
 31
0.0
  0
LINE
  5
228
330
1F
100
AcDbEntity
  8
0
  6
Continuous
 62
     7
370
    25
100
AcDbLine
 10
3909.7844942208
 20
8088.5011202505
 30
0.0
 11
3909.7844942208
 21
8041.0011202505
 31
0.0
  0
ARC
  5
229
330
1F
100
AcDbEntity
  8
0
  6
Continuous
 62
     7
370
    25
100
AcDbCircle
 10
3906.2844942208
 20
8041.0011202505
 30
0.0
 40
3.5
100
AcDbArc
 50
270.0
 51
0.0
  0
ARC
  5
22A
330
1F
100
AcDbEntity
  8
0
  6
Continuous
 62
     7
370
    25
100
AcDbCircle
 10
3906.2844942208
 20
8041.0011202505
 30
0.0
 40
6.5
100
AcDbArc
 50
270.0
 51
0.0
  0
LINE
  5
22B
330
1F
100
AcDbEntity
  8
0
  6
Continuous
 62
     7
370
    25
100
AcDbLine
 10
3776.6840110581
 20
8034.5011202505
 30
0.0
 11
3906.2844942208
 21
8034.5011202505
 31
0.0
  0
LINE
  5
22C
330
1F
100
AcDbEntity
  8
0
  6
Continuous
 62
     7
370
    25
100
AcDbLine
 10
3906.2844942208
 20
8037.5011202505
 30
0.0
 11
3868.7638185877
 21
8037.5011202505
 31
0.0
  0
LINE
  5
22D
330
1F
100
AcDbEntity
  8
0
  6
Continuous
 62
     7
370
    25
100
AcDbLine
 10
3814.2046866911
 20
8037.5011202505
 30
0.0
 11
3776.6840110581
 21
8037.5011202505
 31
0.0
  0
LINE
  5
22E
330
1F
100
AcDbEntity
  8
0
  6
Continuous
 62
     7
370
    25
100
AcDbLine
 10
3770.1840110581
 20
8088.5331995887
 30
0.0
 11
3770.1840110581
 21
8041.0011202505
 31
0.0
  0
LINE
  5
22F
330
1F
100
AcDbEntity
  8
0
  6
Continuous
 62
     7
370
    25
100
AcDbLine
 10
3773.1840110581
 20
8041.0011202505
 30
0.0
 11
3773.1840110581
 21
8088.5011202505
 31
0.0
  0
ARC
  5
230
330
1F
100
AcDbEntity
  8
0
  6
Continuous
 62
     7
370
    25
100
AcDbCircle
 10
3776.6840110581
 20
8041.0011202505
 30
0.0
 40
3.5
100
AcDbArc
 50
180.0
 51
270.0
  0
ARC
  5
231
330
1F
100
AcDbEntity
  8
0
  6
Continuous
 62
     7
370
    25
100
AcDbCircle
 10
3776.6840110581
 20
8041.0011202505
 30
0.0
 40
6.5
100
AcDbArc
 50
180.0
 51
270.0
  0
LINE
  5
232
330
1F
100
AcDbEntity
  8
0
  6
Continuous
 62
     7
370
    25
100
AcDbLine
 10
3938.6363490255
 20
8038.5011202505
 30
0.0
 11
3938.6363490255
 21
8088.5617795363
 31
0.0
  0
LINE
  5
233
330
1F
100
AcDbEntity
  8
0
  6
Continuous
 62
     7
370
    25
100
AcDbLine
 10
3935.6363490255
 20
8088.5011202505
 30
0.0
 11
3935.6363490255
 21
8038.5011202505
 31
0.0
  0
ARC
  5
234
330
1F
100
AcDbEntity
  8
0
  6
Continuous
 62
     7
370
    25
100
AcDbCircle
 10
3932.1363490255
 20
8038.5011202505
 30
0.0
 40
3.499999999999545
100
AcDbArc
 50
270.0
 51
0.0
  0
ARC
  5
235
330
1F
100
AcDbEntity
  8
0
  6
Continuous
 62
     7
370
    25
100
AcDbCircle
 10
3932.1363490255
 20
8038.5011202505
 30
0.0
 40
6.5
100
AcDbArc
 50
270.0
 51
0.0
  0
LINE
  5
236
330
1F
100
AcDbEntity
  8
0
  6
Continuous
 62
     7
370
    25
100
AcDbLine
 10
3750.8321562533
 20
8032.0011202505
 30
0.0
 11
3932.1363490255
 21
8032.0011202505
 31
0.0
  0
LINE
  5
237
330
1F
100
AcDbEntity
  8
0
  6
Continuous
 62
     7
370
    25
100
AcDbLine
 10
3932.1363490255
 20
8035.0011202505
 30
0.0
 11
3908.7844942208
 21
8035.0011202505
 31
0.0
  0
LINE
  5
238
330
1F
100
AcDbEntity
  8
0
  6
Continuous
 62
     7
370
    25
100
AcDbLine
 10
3774.1840110581
 20
8035.0011202505
 30
0.0
 11
3750.8321562533
 21
8035.0011202505
 31
0.0
  0
LINE
  5
239
330
1F
100
AcDbEntity
  8
0
  6
Continuous
 62
     7
370
    25
100
AcDbLine
 10
3744.3321562533
 20
8088.5588315257
 30
0.0
 11
3744.3321562533
 21
8038.5011202505
 31
0.0
  0
LINE
  5
23A
330
1F
100
AcDbEntity
  8
0
  6
Continuous
 62
     7
370
    25
100
AcDbLine
 10
3747.3321562533
 20
8038.5011202505
 30
0.0
 11
3747.3321562533
 21
8088.5011202505
 31
0.0
  0
ARC
  5
23B
330
1F
100
AcDbEntity
  8
0
  6
Continuous
 62
     7
370
    25
100
AcDbCircle
 10
3750.8321562533
 20
8038.5011202505
 30
0.0
 40
3.5
100
AcDbArc
 50
180.0
 51
270.0
  0
ARC
  5
23C
330
1F
100
AcDbEntity
  8
0
  6
Continuous
 62
     7
370
    25
100
AcDbCircle
 10
3750.8321562533
 20
8038.5011202505
 30
0.0
 40
6.5
100
AcDbArc
 50
180.0
 51
270.0
  0
LINE
  5
23D
330
1F
100
AcDbEntity
  8
0
  6
Continuous
 62
     7
370
    25
100
AcDbLine
 10
3957.8743234083
 20
8038.5011202505
 30
0.0
 11
3957.8743234083
 21
8088.5845505712
 31
0.0
  0
LINE
  5
23E
330
1F
100
AcDbEntity
  8
0
  6
Continuous
 62
     7
370
    25
100
AcDbLine
 10
3954.8743234083
 20
8088.5011202505
 30
0.0
 11
3954.8743234083
 21
8038.5011202505
 31
0.0
  0
ARC
  5
23F
330
1F
100
AcDbEntity
  8
0
  6
Continuous
 62
     7
370
    25
100
AcDbCircle
 10
3951.3743234083
 20
8038.5011202505
 30
0.0
 40
3.499999999999545
100
AcDbArc
 50
270.0
 51
0.0
  0
ARC
  5
240
330
1F
100
AcDbEntity
  8
0
  6
Continuous
 62
     7
370
    25
100
AcDbCircle
 10
3951.3743234083
 20
8038.5011202505
 30
0.0
 40
6.5
100
AcDbArc
 50
270.0
 51
0.0
  0
LINE
  5
241
330
1F
100
AcDbEntity
  8
0
  6
Continuous
 62
     7
370
    25
100
AcDbLine
 10
3731.5941818705
 20
8032.0011202505
 30
0.0
 11
3750.8321562533
 21
8032.0011202505
 31
0.0
  0
LINE
  5
242
330
1F
100
AcDbEntity
  8
0
  6
Continuous
 62
     7
370
    25
100
AcDbLine
 10
3932.1363490255
 20
8032.0011202505
 30
0.0
 11
3951.3743234083
 21
8032.0011202505
 31
0.0
  0
LINE
  5
243
330
1F
100
AcDbEntity
  8
0
  6
Continuous
 62
     7
370
    25
100
AcDbLine
 10
3951.3743234083
 20
8035.0011202505
 30
0.0
 11
3937.6135746005
 21
8035.0011202505
 31
0.0
  0
LINE
  5
244
330
1F
100
AcDbEntity
  8
0
  6
Continuous
 62
     7
370
    25
100
AcDbLine
 10
3745.3549306783
 20
8035.0011202505
 30
0.0
 11
3731.5941818705
 21
8035.0011202505
 31
0.0
  0
LINE
  5
245
330
1F
100
AcDbEntity
  8
0
  6
Continuous
 62
     7
370
    25
100
AcDbLine
 10
3725.0941818705
 20
8088.5827265957
 30
0.0
 11
3725.0941818705
 21
8038.5011202505
 31
0.0
  0
LINE
  5
246
330
1F
100
AcDbEntity
  8
0
  6
Continuous
 62
     7
370
    25
100
AcDbLine
 10
3728.0941818705
 20
8038.5011202505
 30
0.0
 11
3728.0941818705
 21
8088.5011202505
 31
0.0
  0
ARC
  5
247
330
1F
100
AcDbEntity
  8
0
  6
Continuous
 62
     7
370
    25
100
AcDbCircle
 10
3731.5941818705
 20
8038.5011202505
 30
0.0
 40
3.5
100
AcDbArc
 50
180.0
 51
270.0
  0
ARC
  5
248
330
1F
100
AcDbEntity
  8
0
  6
Continuous
 62
     7
370
    25
100
AcDbCircle
 10
3731.5941818705
 20
8038.5011202505
 30
0.0
 40
6.5
100
AcDbArc
 50
180.0
 51
270.0
  0
ARC
  5
249
330
1F
100
AcDbEntity
  8
0
  6
Continuous
 62
     7
370
    25
100
AcDbCircle
 10
3980.7698839123
 20
8092.5011202505
 30
0.0
 40
4.0
100
AcDbArc
 50
270.0
 51
90.0
  0
LINE
  5
24A
330
1F
100
AcDbEntity
  8
0
  6
Continuous
 62
     7
370
    25
100
AcDbLine
 10
3980.7698839123
 20
8096.5011202505
 30
0.0
 11
3970.6020096475
 21
8096.5011202505
 31
0.0
  0
LINE
  5
24B
330
1F
100
AcDbEntity
  8
0
  6
Continuous
 62
     7
370
    25
100
AcDbLine
 10
3973.3794148504
 20
8088.5011202505
 30
0.0
 11
3978.7509598948
 21
8088.5011202505
 31
0.0
  0
LINE
  5
24C
330
1F
100
AcDbEntity
  8
0
  6
Continuous
 62
     7
370
    25
100
AcDbLine
 10
3970.6020096475
 20
8088.5011202505
 30
0.0
 11
3970.7080408865
 21
8088.5011202505
 31
0.0
  0
ARC
  5
24D
330
1F
100
AcDbEntity
  8
0
  6
Continuous
 62
     7
370
    25
100
AcDbCircle
 10
3702.1986213665
 20
8092.5011202505
 30
0.0
 40
4.0
100
AcDbArc
 50
90.0
 51
270.0
  0
LINE
  5
24E
330
1F
100
AcDbEntity
  8
0
  6
Continuous
 62
     7
370
    25
100
AcDbLine
 10
3712.3664956313
 20
8096.5011202505
 30
0.0
 11
3702.1986213665
 21
8096.5011202505
 31
0.0
  0
LINE
  5
24F
330
1F
100
AcDbEntity
  8
0
  6
Continuous
 62
     7
370
    25
100
AcDbLine
 10
3712.259501606
 20
8088.5011202505
 30
0.0
 11
3712.3664956313
 21
8088.5011202505
 31
0.0
  0
LINE
  5
250
330
1F
100
AcDbEntity
  8
0
  6
Continuous
 62
     7
370
    25
100
AcDbLine
 10
3704.2195255697
 20
8088.5011202505
 30
0.0
 11
3709.5890904285
 21
8088.5011202505
 31
0.0
  0
LINE
  5
251
330
1F
100
AcDbEntity
  8
0
  6
Continuous
 62
     7
370
    25
100
AcDbLine
 10
3973.3794148504
 20
8038.5011202505
 30
0.0
 11
3973.3794148504
 21
8088.6263435676
 31
0.0
  0
LINE
  5
252
330
1F
100
AcDbEntity
  8
0
  6
Continuous
 62
     7
370
    25
100
AcDbLine
 10
3970.3794148504
 20
8088.5011202505
 30
0.0
 11
3970.3794148504
 21
8038.5011202505
 31
0.0
  0
ARC
  5
253
330
1F
100
AcDbEntity
  8
0
  6
Continuous
 62
     7
370
    25
100
AcDbCircle
 10
3966.8794148504
 20
8038.5011202505
 30
0.0
 40
3.500000000000455
100
AcDbArc
 50
270.0
 51
0.0
  0
ARC
  5
254
330
1F
100
AcDbEntity
  8
0
  6
Continuous
 62
     7
370
    25
100
AcDbCircle
 10
3966.8794148504
 20
8038.5011202505
 30
0.0
 40
6.5
100
AcDbArc
 50
270.0
 51
0.0
  0
LINE
  5
255
330
1F
100
AcDbEntity
  8
0
  6
Continuous
 62
     7
370
    25
100
AcDbLine
 10
3716.0890904285
 20
8032.0011202505
 30
0.0
 11
3731.5941818705
 21
8032.0011202505
 31
0.0
  0
LINE
  5
256
330
1F
100
AcDbEntity
  8
0
  6
Continuous
 62
     7
370
    25
100
AcDbLine
 10
3951.3743234083
 20
8032.0011202505
 30
0.0
 11
3966.8794148504
 21
8032.0011202505
 31
0.0
  0
LINE
  5
257
330
1F
100
AcDbEntity
  8
0
  6
Continuous
 62
     7
370
    25
100
AcDbLine
 10
3966.8794148504
 20
8035.0011202505
 30
0.0
 11
3956.8515489834
 21
8035.0011202505
 31
0.0
  0
LINE
  5
258
330
1F
100
AcDbEntity
  8
0
  6
Continuous
 62
     7
370
    25
100
AcDbLine
 10
3726.1169562954
 20
8035.0011202505
 30
0.0
 11
3716.0890904285
 21
8035.0011202505
 31
0.0
  0
LINE
  5
259
330
1F
100
AcDbEntity
  8
0
  6
Continuous
 62
     7
370
    25
100
AcDbLine
 10
3709.5890904285
 20
8088.6261541415
 30
0.0
 11
3709.5890904285
 21
8038.5011202505
 31
0.0
  0
LINE
  5
25A
330
1F
100
AcDbEntity
  8
0
  6
Continuous
 62
     7
370
    25
100
AcDbLine
 10
3712.5890904285
 20
8038.5011202505
 30
0.0
 11
3712.5890904285
 21
8088.5011202505
 31
0.0
  0
ARC
  5
25B
330
1F
100
AcDbEntity
  8
0
  6
Continuous
 62
     7
370
    25
100
AcDbCircle
 10
3716.0890904285
 20
8038.5011202505
 30
0.0
 40
3.5
100
AcDbArc
 50
180.0
 51
270.0
  0
ARC
  5
25C
330
1F
100
AcDbEntity
  8
0
  6
Continuous
 62
     7
370
    25
100
AcDbCircle
 10
3716.0890904285
 20
8038.5011202505
 30
0.0
 40
6.5
100
AcDbArc
 50
180.0
 51
270.0
  0
LINE
  5
25D
330
1F
100
AcDbEntity
  8
0
  6
Continuous
 62
     7
370
    25
100
AcDbLine
 10
3980.7922048121
 20
8038.5011202505
 30
0.0
 11
3980.7922048121
 21
8088.7587806357
 31
0.0
  0
LINE
  5
25E
330
1F
100
AcDbEntity
  8
0
  6
Continuous
 62
     7
370
    25
100
AcDbLine
 10
3977.7922048121
 20
8088.5011202505
 30
0.0
 11
3977.7922048121
 21
8038.5011202505
 31
0.0
  0
ARC
  5
25F
330
1F
100
AcDbEntity
  8
0
  6
Continuous
 62
     7
370
    25
100
AcDbCircle
 10
3974.2922048121
 20
8038.5011202505
 30
0.0
 40
3.500000000000455
100
AcDbArc
 50
270.0
 51
0.0
  0
ARC
  5
260
330
1F
100
AcDbEntity
  8
0
  6
Continuous
 62
     7
370
    25
100
AcDbCircle
 10
3974.2922048121
 20
8038.5011202505
 30
0.0
 40
6.5
100
AcDbArc
 50
270.0
 51
0.0
  0
LINE
  5
261
330
1F
100
AcDbEntity
  8
0
  6
Continuous
 62
     7
370
    25
100
AcDbLine
 10
3708.6763004667
 20
8032.0011202505
 30
0.0
 11
3716.0890904285
 21
8032.0011202505
 31
0.0
  0
LINE
  5
262
330
1F
100
AcDbEntity
  8
0
  6
Continuous
 62
     7
370
    25
100
AcDbLine
 10
3966.8794148504
 20
8032.0011202505
 30
0.0
 11
3974.2922048121
 21
8032.0011202505
 31
0.0
  0
LINE
  5
263
330
1F
100
AcDbEntity
  8
0
  6
Continuous
 62
     7
370
    25
100
AcDbLine
 10
3974.2922048121
 20
8035.0011202505
 30
0.0
 11
3972.3566404254
 21
8035.0011202505
 31
0.0
  0
LINE
  5
264
330
1F
100
AcDbEntity
  8
0
  6
Continuous
 62
     7
370
    25
100
AcDbLine
 10
3710.6118648534
 20
8035.0011202505
 30
0.0
 11
3708.6763004667
 21
8035.0011202505
 31
0.0
  0
LINE
  5
265
330
1F
100
AcDbEntity
  8
0
  6
Continuous
 62
     7
370
    25
100
AcDbLine
 10
3702.1763004667
 20
8088.7563343524
 30
0.0
 11
3702.1763004667
 21
8038.5011202505
 31
0.0
  0
LINE
  5
266
330
1F
100
AcDbEntity
  8
0
  6
Continuous
 62
     7
370
    25
100
AcDbLine
 10
3705.1763004667
 20
8038.5011202505
 30
0.0
 11
3705.1763004667
 21
8088.5011202505
 31
0.0
  0
ARC
  5
267
330
1F
100
AcDbEntity
  8
0
  6
Continuous
 62
     7
370
    25
100
AcDbCircle
 10
3708.6763004667
 20
8038.5011202505
 30
0.0
 40
3.5
100
AcDbArc
 50
180.0
 51
270.0
  0
ARC
  5
268
330
1F
100
AcDbEntity
  8
0
  6
Continuous
 62
     7
370
    25
100
AcDbCircle
 10
3708.6763004667
 20
8038.5011202505
 30
0.0
 40
6.5
100
AcDbArc
 50
180.0
 51
270.0
  0
LINE
  5
269
330
1F
100
AcDbEntity
  8
0
  6
Continuous
 62
     7
370
    25
100
AcDbLine
 10
3982.1744452211
 20
8038.5011202505
 30
0.0
 11
3982.1744452211
 21
8088.7558288694
 31
0.0
  0
ARC
  5
26A
330
1F
100
AcDbEntity
  8
0
  6
Continuous
 62
     7
370
    25
100
AcDbCircle
 10
3975.6744452211
 20
8038.5011202505
 30
0.0
 40
6.5
100
AcDbArc
 50
270.0
 51
0.0
  0
LINE
  5
26B
330
1F
100
AcDbEntity
  8
0
  6
Continuous
 62
     7
370
    25
100
AcDbLine
 10
3707.2940600577
 20
8032.0011202505
 30
0.0
 11
3708.6763004667
 21
8032.0011202505
 31
0.0
  0
LINE
  5
26C
330
1F
100
AcDbEntity
  8
0
  6
Continuous
 62
     7
370
    25
100
AcDbLine
 10
3974.2922048121
 20
8032.0011202505
 30
0.0
 11
3975.6744452211
 21
8032.0011202505
 31
0.0
  0
LINE
  5
26D
330
1F
100
AcDbEntity
  8
0
  6
Continuous
 62
     7
370
    25
100
AcDbLine
 10
3700.7940600577
 20
8088.7558288694
 30
0.0
 11
3700.7940600577
 21
8038.5011202505
 31
0.0
  0
ARC
  5
26E
330
1F
100
AcDbEntity
  8
0
  6
Continuous
 62
     7
370
    25
100
AcDbCircle
 10
3707.2940600577
 20
8038.5011202505
 30
0.0
 40
6.5
100
AcDbArc
 50
180.0
 51
270.0
  0
LINE
  5
26F
330
1F
100
AcDbEntity
  8
0
  6
Continuous
 62
     7
370
    25
100
AcDbLine
 10
3975.7251808679
 20
8088.5011202505
 30
0.0
 11
3975.7251808679
 21
8038.5011202505
 31
0.0
  0
ARC
  5
270
330
1F
100
AcDbEntity
  8
0
  6
Continuous
 62
     7
370
    25
100
AcDbCircle
 10
3972.2251808679
 20
8038.5011202505
 30
0.0
 40
3.499999999999653
100
AcDbArc
 50
272.1790080216
 51
0.0
  0
LINE
  5
271
330
1F
100
AcDbEntity
  8
0
  6
Continuous
 62
     7
370
    25
100
AcDbLine
 10
3707.2433244109
 20
8038.5011202505
 30
0.0
 11
3707.2433244109
 21
8088.5011202505
 31
0.0
  0
ARC
  5
272
330
1F
100
AcDbEntity
  8
0
  6
Continuous
 62
     7
370
    25
100
AcDbCircle
 10
3710.7433244109
 20
8038.5011202505
 30
0.0
 40
3.5
100
AcDbArc
 50
180.0
 51
267.8209920067
  0
LINE
  5
273
330
1F
100
AcDbEntity
  8
0
  6
Continuous
 62
     7
370
    25
100
AcDbLine
 10
3968.8212822787
 20
8038.5011202505
 30
0.0
 11
3968.8212822787
 21
8088.5011202505
 31
0.0
  0
LINE
  5
274
330
1F
100
AcDbEntity
  8
0
  6
Continuous
 62
     7
370
    25
100
AcDbLine
 10
3965.8212822787
 20
8088.5011202505
 30
0.0
 11
3965.8212822787
 21
8038.5011202505
 31
0.0
  0
ARC
  5
275
330
1F
100
AcDbEntity
  8
0
  6
Continuous
 62
     7
370
    25
100
AcDbCircle
 10
3962.3212822787
 20
8038.5011202505
 30
0.0
 40
3.5
100
AcDbArc
 50
270.0
 51
0.0
  0
ARC
  5
276
330
1F
100
AcDbEntity
  8
0
  6
Continuous
 62
     7
370
    25
100
AcDbCircle
 10
3962.3212822787
 20
8038.5011202505
 30
0.0
 40
6.499999999999934
100
AcDbArc
 50
328.9709203923
 51
0.0
  0
LINE
  5
277
330
1F
100
AcDbEntity
  8
0
  6
Continuous
 62
     7
370
    25
100
AcDbLine
 10
3714.1472230002
 20
8088.5011202505
 30
0.0
 11
3714.1472230002
 21
8038.5011202505
 31
0.0
  0
LINE
  5
278
330
1F
100
AcDbEntity
  8
0
  6
Continuous
 62
     7
370
    25
100
AcDbLine
 10
3717.1472230002
 20
8038.5011202505
 30
0.0
 11
3717.1472230002
 21
8088.5011202505
 31
0.0
  0
ARC
  5
279
330
1F
100
AcDbEntity
  8
0
  6
Continuous
 62
     7
370
    25
100
AcDbCircle
 10
3720.6472230002
 20
8038.5011202505
 30
0.0
 40
3.5
100
AcDbArc
 50
180.0
 51
270.0
  0
ARC
  5
27A
330
1F
100
AcDbEntity
  8
0
  6
Continuous
 62
     7
370
    25
100
AcDbCircle
 10
3720.6472230002
 20
8038.5011202505
 30
0.0
 40
6.5
100
AcDbArc
 50
180.0
 51
211.029079587
  0
LINE
  5
27B
330
1F
100
AcDbEntity
  8
0
  6
Continuous
 62
     7
370
    25
100
AcDbLine
 10
3954.5549410398
 20
8088.5011202505
 30
0.0
 11
3954.5549410398
 21
8038.5011202505
 31
0.0
  0
ARC
  5
27C
330
1F
100
AcDbEntity
  8
0
  6
Continuous
 62
     7
370
    25
100
AcDbCircle
 10
3951.0549410398
 20
8038.5011202505
 30
0.0
 40
3.499999999999545
100
AcDbArc
 50
270.0
 51
0.0
  0
LINE
  5
27D
330
1F
100
AcDbEntity
  8
0
  6
Continuous
 62
     7
370
    25
100
AcDbLine
 10
3728.4135642391
 20
8038.5011202505
 30
0.0
 11
3728.4135642391
 21
8088.5011202505
 31
0.0
  0
ARC
  5
27E
330
1F
100
AcDbEntity
  8
0
  6
Continuous
 62
     7
370
    25
100
AcDbCircle
 10
3731.9135642391
 20
8038.5011202505
 30
0.0
 40
3.500000000000455
100
AcDbArc
 50
180.0
 51
270.0
  0
LINE
  5
27F
330
1F
100
AcDbEntity
  8
0
  6
Continuous
 62
     7
370
    25
100
AcDbLine
 10
3946.2885998009
 20
8038.5011202505
 30
0.0
 11
3946.2885998009
 21
8087.5227536941
 31
0.0
  0
LINE
  5
280
330
1F
100
AcDbEntity
  8
0
  6
Continuous
 62
     7
370
    25
100
AcDbLine
 10
3943.2885998009
 20
8088.5011202505
 30
0.0
 11
3943.2885998009
 21
8038.5011202505
 31
0.0
  0
ARC
  5
281
330
1F
100
AcDbEntity
  8
0
  6
Continuous
 62
     7
370
    25
100
AcDbCircle
 10
3939.7885998009
 20
8038.5011202505
 30
0.0
 40
3.499999999999545
100
AcDbArc
 50
270.0
 51
0.0
  0
ARC
  5
282
330
1F
100
AcDbEntity
  8
0
  6
Continuous
 62
     7
370
    25
100
AcDbCircle
 10
3939.7885998009
 20
8038.5011202505
 30
0.0
 40
6.5
100
AcDbArc
 50
327.4210296072
 51
0.0
  0
LINE
  5
283
330
1F
100
AcDbEntity
  8
0
  6
Continuous
 62
     7
370
    25
100
AcDbLine
 10
3736.6799054779
 20
8088.5011202505
 30
0.0
 11
3736.6799054779
 21
8038.5011202505
 31
0.0
  0
LINE
  5
284
330
1F
100
AcDbEntity
  8
0
  6
Continuous
 62
     7
370
    25
100
AcDbLine
 10
3739.6799054779
 20
8038.5011202505
 30
0.0
 11
3739.6799054779
 21
8088.5011202505
 31
0.0
  0
ARC
  5
285
330
1F
100
AcDbEntity
  8
0
  6
Continuous
 62
     7
370
    25
100
AcDbCircle
 10
3743.1799054779
 20
8038.5011202505
 30
0.0
 40
3.5
100
AcDbArc
 50
180.0
 51
270.0
  0
ARC
  5
286
330
1F
100
AcDbEntity
  8
0
  6
Continuous
 62
     7
370
    25
100
AcDbCircle
 10
3743.1799054779
 20
8038.5011202505
 30
0.0
 40
6.5
100
AcDbArc
 50
180.0
 51
212.5789703928
  0
LINE
  5
287
330
1F
100
AcDbEntity
  8
0
  6
Continuous
 62
     7
370
    25
100
AcDbLine
 10
3935.022258562
 20
8038.5011202505
 30
0.0
 11
3935.022258562
 21
8088.5011202505
 31
0.0
  0
LINE
  5
288
330
1F
100
AcDbEntity
  8
0
  6
Continuous
 62
     7
370
    25
100
AcDbLine
 10
3932.022258562
 20
8088.5011202505
 30
0.0
 11
3932.022258562
 21
8038.5011202505
 31
0.0
  0
ARC
  5
289
330
1F
100
AcDbEntity
  8
0
  6
Continuous
 62
     7
370
    25
100
AcDbCircle
 10
3928.522258562
 20
8038.5011202505
 30
0.0
 40
3.5
100
AcDbArc
 50
270.0
 51
0.0
  0
ARC
  5
28A
330
1F
100
AcDbEntity
  8
0
  6
Continuous
 62
     7
370
    25
100
AcDbCircle
 10
3928.522258562
 20
8038.5011202505
 30
0.0
 40
6.5
100
AcDbArc
 50
336.42443678
 51
0.0
  0
LINE
  5
28B
330
1F
100
AcDbEntity
  8
0
  6
Continuous
 62
     7
370
    25
100
AcDbLine
 10
3747.9462467168
 20
8088.5011202505
 30
0.0
 11
3747.9462467168
 21
8038.5011202505
 31
0.0
  0
LINE
  5
28C
330
1F
100
AcDbEntity
  8
0
  6
Continuous
 62
     7
370
    25
100
AcDbLine
 10
3750.9462467168
 20
8038.5011202505
 30
0.0
 11
3750.9462467168
 21
8088.5011202505
 31
0.0
  0
ARC
  5
28D
330
1F
100
AcDbEntity
  8
0
  6
Continuous
 62
     7
370
    25
100
AcDbCircle
 10
3754.4462467168
 20
8038.5011202505
 30
0.0
 40
3.5
100
AcDbArc
 50
180.0
 51
270.0
  0
ARC
  5
28E
330
1F
100
AcDbEntity
  8
0
  6
Continuous
 62
     7
370
    25
100
AcDbCircle
 10
3754.4462467168
 20
8038.5011202505
 30
0.0
 40
6.5
100
AcDbArc
 50
180.0
 51
203.5755632364
  0
LINE
  5
28F
330
1F
100
AcDbEntity
  8
0
  6
Continuous
 62
     7
370
    25
100
AcDbLine
 10
3923.7559173231
 20
8038.5011202505
 30
0.0
 11
3923.7559173231
 21
8088.5011202505
 31
0.0
  0
LINE
  5
290
330
1F
100
AcDbEntity
  8
0
  6
Continuous
 62
     7
370
    25
100
AcDbLine
 10
3920.7559173231
 20
8088.5011202505
 30
0.0
 11
3920.7559173231
 21
8038.5011202505
 31
0.0
  0
ARC
  5
291
330
1F
100
AcDbEntity
  8
0
  6
Continuous
 62
     7
370
    25
100
AcDbCircle
 10
3917.2559173231
 20
8038.5011202505
 30
0.0
 40
3.499999999999545
100
AcDbArc
 50
270.0
 51
0.0
  0
ARC
  5
292
330
1F
100
AcDbEntity
  8
0
  6
Continuous
 62
     7
370
    25
100
AcDbCircle
 10
3917.2559173231
 20
8038.5011202505
 30
0.0
 40
6.5
100
AcDbArc
 50
327.4210296072
 51
0.0
  0
LINE
  5
293
330
1F
100
AcDbEntity
  8
0
  6
Continuous
 62
     7
370
    25
100
AcDbLine
 10
3759.2125879557
 20
8087.5011190282
 30
0.0
 11
3759.2125879557
 21
8038.5011202505
 31
0.0
  0
LINE
  5
294
330
1F
100
AcDbEntity
  8
0
  6
Continuous
 62
     7
370
    25
100
AcDbLine
 10
3762.2125879557
 20
8038.5011202505
 30
0.0
 11
3762.2125879557
 21
8088.5011202505
 31
0.0
  0
ARC
  5
295
330
1F
100
AcDbEntity
  8
0
  6
Continuous
 62
     7
370
    25
100
AcDbCircle
 10
3765.7125879557
 20
8038.5011202505
 30
0.0
 40
3.500000000000455
100
AcDbArc
 50
180.0
 51
270.0
  0
ARC
  5
296
330
1F
100
AcDbEntity
  8
0
  6
Continuous
 62
     7
370
    25
100
AcDbCircle
 10
3765.7125879557
 20
8038.5011202505
 30
0.0
 40
6.5
100
AcDbArc
 50
180.0
 51
212.5789703928
  0
LINE
  5
297
330
1F
100
AcDbEntity
  8
0
  6
Continuous
 62
     7
370
    25
100
AcDbLine
 10
3912.4895760842
 20
8038.5011202505
 30
0.0
 11
3912.4895760842
 21
8039.065413902
 31
0.0
  0
LINE
  5
298
330
1F
100
AcDbEntity
  8
0
  6
Continuous
 62
     7
370
    25
100
AcDbLine
 10
3909.4895760842
 20
8088.5011202505
 30
0.0
 11
3909.4895760842
 21
8039.5949018292
 31
0.0
  0
ARC
  5
299
330
1F
100
AcDbEntity
  8
0
  6
Continuous
 62
     7
370
    25
100
AcDbCircle
 10
3905.9895760842
 20
8038.5011202505
 30
0.0
 40
6.5
100
AcDbArc
 50
327.4210296072
 51
0.0
  0
LINE
  5
29A
330
1F
100
AcDbEntity
  8
0
  6
Continuous
 62
     7
370
    25
100
AcDbLine
 10
3770.4789291946
 20
8039.065413902
 30
0.0
 11
3770.4789291946
 21
8038.5011202505
 31
0.0
  0
LINE
  5
29B
330
1F
100
AcDbEntity
  8
0
  6
Continuous
 62
     7
370
    25
100
AcDbLine
 10
3773.4789291946
 20
8039.5949018292
 30
0.0
 11
3773.4789291946
 21
8088.5011202505
 31
0.0
  0
ARC
  5
29C
330
1F
100
AcDbEntity
  8
0
  6
Continuous
 62
     7
370
    25
100
AcDbCircle
 10
3776.9789291946
 20
8038.5011202505
 30
0.0
 40
6.5
100
AcDbArc
 50
180.0
 51
212.5789703928
  0
LINE
  5
29D
330
1F
100
AcDbEntity
  8
0
  6
Continuous
 62
     7
370
    25
100
AcDbLine
 10
3901.2232348453
 20
8038.5011202505
 30
0.0
 11
3901.2232348453
 21
8088.5011202505
 31
0.0
  0
LINE
  5
29E
330
1F
100
AcDbEntity
  8
0
  6
Continuous
 62
     7
370
    25
100
AcDbLine
 10
3898.2232348453
 20
8088.5011202505
 30
0.0
 11
3898.2232348453
 21
8038.5011202505
 31
0.0
  0
LWPOLYLINE
  5
29F
330
1F
100
AcDbEntity
  8
0
  6
Continuous
 62
     7
370
    25
100
AcDbPolyline
 90
        3
 70
   128
 43
0.0
 10
3898.2232348453
 20
8038.5011202505
 10
3898.1559833268
 20
8037.8183041235
 10
3898.0773368116
 20
8037.5011202505
  0
LINE
  5
2A0
330
1F
100
AcDbEntity
  8
0
  6
Continuous
 62
     7
370
    25
100
AcDbLine
 10
3901.1458511347
 20
8037.5011202505
 30
0.0
 11
3901.2232348453
 21
8038.5011202505
 31
0.0
  0
LINE
  5
2A1
330
1F
100
AcDbEntity
  8
0
  6
Continuous
 62
     7
370
    25
100
AcDbLine
 10
3781.7452704335
 20
8088.5011202505
 30
0.0
 11
3781.7452704335
 21
8038.5011202505
 31
0.0
  0
LINE
  5
2A2
330
1F
100
AcDbEntity
  8
0
  6
Continuous
 62
     7
370
    25
100
AcDbLine
 10
3784.7452704335
 20
8038.5011202505
 30
0.0
 11
3784.7452704335
 21
8088.5011202505
 31
0.0
  0
LWPOLYLINE
  5
2A3
330
1F
100
AcDbEntity
  8
0
  6
Continuous
 62
     7
370
    25
100
AcDbPolyline
 90
        3
 70
   128
 43
0.0
 10
3784.8911684672
 20
8037.5011202505
 10
3784.8125219521
 20
8037.8183041235
 10
3784.7452704335
 20
8038.5011202505
  0
LINE
  5
2A4
330
1F
100
AcDbEntity
  8
0
  6
Continuous
 62
     7
370
    25
100
AcDbLine
 10
3781.7452704335
 20
8038.5011202505
 30
0.0
 11
3781.8226541442
 21
8037.5011202505
 31
0.0
  0
LINE
  5
2A5
330
1F
100
AcDbEntity
  8
0
  6
Continuous
 62
     7
370
    25
100
AcDbLine
 10
3889.9568936065
 20
8038.5011202505
 30
0.0
 11
3889.9568936065
 21
8088.5011202505
 31
0.0
  0
LINE
  5
2A6
330
1F
100
AcDbEntity
  8
0
  6
Continuous
 62
     7
370
    25
100
AcDbLine
 10
3886.9568936065
 20
8088.5011202505
 30
0.0
 11
3886.9568936065
 21
8038.5011202505
 31
0.0
  0
LWPOLYLINE
  5
2A7
330
1F
100
AcDbEntity
  8
0
  6
Continuous
 62
     7
370
    25
100
AcDbPolyline
 90
        3
 70
   128
 43
0.0
 10
3886.9568936065
 20
8038.5011202505
 10
3886.8896420879
 20
8037.8183041235
 10
3886.8109955727
 20
8037.5011202505
  0
LINE
  5
2A8
330
1F
100
AcDbEntity
  8
0
  6
Continuous
 62
     7
370
    25
100
AcDbLine
 10
3889.8795098958
 20
8037.5011202505
 30
0.0
 11
3889.9568936065
 21
8038.5011202505
 31
0.0
  0
LINE
  5
2A9
330
1F
100
AcDbEntity
  8
0
  6
Continuous
 62
     7
370
    25
100
AcDbLine
 10
3793.0116116724
 20
8088.5011202505
 30
0.0
 11
3793.0116116724
 21
8038.5011202505
 31
0.0
  0
LINE
  5
2AA
330
1F
100
AcDbEntity
  8
0
  6
Continuous
 62
     7
370
    25
100
AcDbLine
 10
3796.0116116724
 20
8038.5011202505
 30
0.0
 11
3796.0116116724
 21
8088.5011202505
 31
0.0
  0
LWPOLYLINE
  5
2AB
330
1F
100
AcDbEntity
  8
0
  6
Continuous
 62
     7
370
    25
100
AcDbPolyline
 90
        3
 70
   128
 43
0.0
 10
3796.1575097061
 20
8037.5011202505
 10
3796.078863191
 20
8037.8183041235
 10
3796.0116116724
 20
8038.5011202505
  0
LINE
  5
2AC
330
1F
100
AcDbEntity
  8
0
  6
Continuous
 62
     7
370
    25
100
AcDbLine
 10
3793.0116116724
 20
8038.5011202505
 30
0.0
 11
3793.088995383
 21
8037.5011202505
 31
0.0
  0
LINE
  5
2AD
330
1F
100
AcDbEntity
  8
0
  6
Continuous
 62
     7
370
    25
100
AcDbLine
 10
3878.6905523676
 20
8038.5011202505
 30
0.0
 11
3878.6905523676
 21
8087.5011190282
 31
0.0
  0
LINE
  5
2AE
330
1F
100
AcDbEntity
  8
0
  6
Continuous
 62
     7
370
    25
100
AcDbLine
 10
3875.6905523676
 20
8088.5011202505
 30
0.0
 11
3875.6905523676
 21
8038.5011202505
 31
0.0
  0
LWPOLYLINE
  5
2AF
330
1F
100
AcDbEntity
  8
0
  6
Continuous
 62
     7
370
    25
100
AcDbPolyline
 90
        3
 70
   128
 43
0.0
 10
3875.6905523676
 20
8038.5011202505
 10
3875.623300849
 20
8037.8183041235
 10
3875.5446543338
 20
8037.5011202505
  0
LINE
  5
2B0
330
1F
100
AcDbEntity
  8
0
  6
Continuous
 62
     7
370
    25
100
AcDbLine
 10
3878.6131686569
 20
8037.5011202505
 30
0.0
 11
3878.6905523676
 21
8038.5011202505
 31
0.0
  0
LINE
  5
2B1
330
1F
100
AcDbEntity
  8
0
  6
Continuous
 62
     7
370
    25
100
AcDbLine
 10
3804.2779529113
 20
8088.5011202505
 30
0.0
 11
3804.2779529113
 21
8038.5011202505
 31
0.0
  0
LINE
  5
2B2
330
1F
100
AcDbEntity
  8
0
  6
Continuous
 62
     7
370
    25
100
AcDbLine
 10
3807.2779529113
 20
8038.5011202505
 30
0.0
 11
3807.2779529113
 21
8088.5011202505
 31
0.0
  0
LWPOLYLINE
  5
2B3
330
1F
100
AcDbEntity
  8
0
  6
Continuous
 62
     7
370
    25
100
AcDbPolyline
 90
        3
 70
   128
 43
0.0
 10
3807.423850945
 20
8037.5011202505
 10
3807.3452044298
 20
8037.8183041235
 10
3807.2779529113
 20
8038.5011202505
  0
LINE
  5
2B4
330
1F
100
AcDbEntity
  8
0
  6
Continuous
 62
     7
370
    25
100
AcDbLine
 10
3804.2779529113
 20
8038.5011202505
 30
0.0
 11
3804.3553366219
 21
8037.5011202505
 31
0.0
  0
LINE
  5
2B5
330
1F
100
AcDbEntity
  8
0
  6
Continuous
 62
     7
370
    25
100
AcDbLine
 10
3864.4242111287
 20
8088.5011202505
 30
0.0
 11
3864.4242111287
 21
8040.0011202505
 31
0.0
  0
LINE
  5
2B6
330
1F
100
AcDbEntity
  8
0
  6
Continuous
 62
     7
370
    25
100
AcDbLine
 10
3867.4242111287
 20
8040.1990770723
 30
0.0
 11
3867.4242111287
 21
8087.5227536941
 31
0.0
  0
LINE
  5
2B7
330
1F
100
AcDbEntity
  8
0
  6
Continuous
 62
     7
370
    25
100
AcDbLine
 10
3818.5442941501
 20
8040.0011202505
 30
0.0
 11
3818.5442941501
 21
8088.5011202505
 31
0.0
  0
LINE
  5
2B8
330
1F
100
AcDbEntity
  8
0
  6
Continuous
 62
     7
370
    25
100
AcDbLine
 10
3815.5442941501
 20
8088.5011202505
 30
0.0
 11
3815.5442941501
 21
8040.1990770723
 31
0.0
  0
LINE
  5
2B9
330
1F
100
AcDbEntity
  8
0
  6
Continuous
 62
     7
370
    25
100
AcDbLine
 10
3853.1578698898
 20
8088.5011202505
 30
0.0
 11
3853.1578698898
 21
8043.5011202505
 31
0.0
  0
LINE
  5
2BA
330
1F
100
AcDbEntity
  8
0
  6
Continuous
 62
     7
370
    25
100
AcDbLine
 10
3856.1578698898
 20
8043.5011202505
 30
0.0
 11
3856.1578698898
 21
8088.5011202505
 31
0.0
  0
LINE
  5
2BB
330
1F
100
AcDbEntity
  8
0
  6
Continuous
 62
     7
370
    25
100
AcDbLine
 10
3829.810635389
 20
8043.5011202505
 30
0.0
 11
3829.810635389
 21
8088.5011202505
 31
0.0
  0
LINE
  5
2BC
330
1F
100
AcDbEntity
  8
0
  6
Continuous
 62
     7
370
    25
100
AcDbLine
 10
3826.810635389
 20
8088.5011202505
 30
0.0
 11
3826.810635389
 21
8043.5011202505
 31
0.0
  0
ARC
  5
2BD
330
1F
100
AcDbEntity
  8
0
  6
Continuous
 62
     7
370
    25
100
AcDbCircle
 10
3849.6578698898
 20
8043.5011202505
 30
0.0
 40
3.500000000000909
100
AcDbArc
 50
270.0
 51
0.0
  0
ARC
  5
2BE
330
1F
100
AcDbEntity
  8
0
  6
Continuous
 62
     7
370
    25
100
AcDbCircle
 10
3849.6578698898
 20
8043.5011202505
 30
0.0
 40
6.500000000000787
100
AcDbArc
 50
327.4210296072
 51
0.0
  0
ARC
  5
2BF
330
1F
100
AcDbEntity
  8
0
  6
Continuous
 62
     7
370
    25
100
AcDbCircle
 10
3833.310635389
 20
8043.5011202505
 30
0.0
 40
3.500000000000909
100
AcDbArc
 50
180.0
 51
270.0
  0
ARC
  5
2C0
330
1F
100
AcDbEntity
  8
0
  6
Continuous
 62
     7
370
    25
100
AcDbCircle
 10
3833.310635389
 20
8043.5011202505
 30
0.0
 40
6.500000000000787
100
AcDbArc
 50
180.0
 51
212.5789703928
  0
LINE
  5
2C1
330
1F
100
AcDbEntity
  8
0
  6
Continuous
 62
     7
370
    25
100
AcDbLine
 10
3970.6020151217
 20
7843.4833343144
 30
0.0
 11
3712.3665011055
 21
7843.4833343144
 31
0.0
  0
LINE
  5
2C2
330
1F
100
AcDbEntity
  8
0
  6
Continuous
 62
     7
370
    25
100
AcDbLine
 10
3957.8743288825
 20
7835.4833343144
 30
0.0
 11
3970.6020151217
 21
7835.4833343144
 31
0.0
  0
LINE
  5
2C3
330
1F
100
AcDbEntity
  8
0
  6
Continuous
 62
     7
370
    25
100
AcDbLine
 10
3938.6363544997
 20
7835.4833343144
 30
0.0
 11
3955.1187605934
 21
7835.4833343144
 31
0.0
  0
LINE
  5
2C4
330
1F
100
AcDbEntity
  8
0
  6
Continuous
 62
     7
370
    25
100
AcDbLine
 10
3912.6841835492
 20
7835.4833343144
 30
0.0
 11
3935.7953791626
 21
7835.4833343144
 31
0.0
  0
LINE
  5
2C5
330
1F
100
AcDbEntity
  8
0
  6
Continuous
 62
     7
370
    25
100
AcDbLine
 10
3862.1546924473
 20
7835.4833343144
 30
0.0
 11
3909.8809501666
 21
7835.4833343144
 31
0.0
  0
LINE
  5
2C6
330
1F
100
AcDbEntity
  8
0
  6
Continuous
 62
     7
370
    25
100
AcDbLine
 10
3823.7721775245
 20
7835.4833343144
 30
0.0
 11
3859.1827566592
 21
7835.4833343144
 31
0.0
  0
LINE
  5
2C7
330
1F
100
AcDbEntity
  8
0
  6
Continuous
 62
     7
370
    25
100
AcDbLine
 10
3773.097861577
 20
7835.4833343144
 30
0.0
 11
3820.833939512
 21
7835.4833343144
 31
0.0
  0
LINE
  5
2C8
330
1F
100
AcDbEntity
  8
0
  6
Continuous
 62
     7
370
    25
100
AcDbLine
 10
3747.1632907581
 20
7835.4833343144
 30
0.0
 11
3770.2846408941
 21
7835.4833343144
 31
0.0
  0
LINE
  5
2C9
330
1F
100
AcDbEntity
  8
0
  6
Continuous
 62
     7
370
    25
100
AcDbLine
 10
3727.8497376938
 20
7835.4833343144
 30
0.0
 11
3744.3321617275
 21
7835.4833343144
 31
0.0
  0
LINE
  5
2CA
330
1F
100
AcDbEntity
  8
0
  6
Continuous
 62
     7
370
    25
100
AcDbLine
 10
3712.3665011055
 20
7835.4833343144
 30
0.0
 11
3725.0941873447
 21
7835.4833343144
 31
0.0
  0
LINE
  5
2CB
330
1F
100
AcDbEntity
  8
0
  6
Continuous
 62
     7
370
    25
100
AcDbLine
 10
3862.1670344137
 20
7827.4833343144
 30
0.0
 11
3862.1670344137
 21
7835.49336348
 31
0.0
  0
LINE
  5
2CC
330
1F
100
AcDbEntity
  8
0
  6
Continuous
 62
     7
370
    25
100
AcDbLine
 10
3859.1670344137
 20
7835.4870849171
 30
0.0
 11
3859.1670344137
 21
7827.4833343144
 31
0.0
  0
ARC
  5
2CD
330
1F
100
AcDbEntity
  8
0
  6
Continuous
 62
     7
370
    25
100
AcDbCircle
 10
3855.6670344137
 20
7827.4833343144
 30
0.0
 40
3.5
100
AcDbArc
 50
270.0
 51
0.0
  0
ARC
  5
2CE
330
1F
100
AcDbEntity
  8
0
  6
Continuous
 62
     7
370
    25
100
AcDbCircle
 10
3855.6670344137
 20
7827.4833343144
 30
0.0
 40
6.5
100
AcDbArc
 50
270.0
 51
0.0
  0
LINE
  5
2CF
330
1F
100
AcDbEntity
  8
0
  6
Continuous
 62
     7
370
    25
100
AcDbLine
 10
3827.3014818135
 20
7820.9833343144
 30
0.0
 11
3855.6670344137
 21
7820.9833343144
 31
0.0
  0
LINE
  5
2D0
330
1F
100
AcDbEntity
  8
0
  6
Continuous
 62
     7
370
    25
100
AcDbLine
 10
3855.6670344137
 20
7823.9833343144
 30
0.0
 11
3827.3014818135
 21
7823.9833343144
 31
0.0
  0
LINE
  5
2D1
330
1F
100
AcDbEntity
  8
0
  6
Continuous
 62
     7
370
    25
100
AcDbLine
 10
3820.8014818135
 20
7835.486251491
 30
0.0
 11
3820.8014818135
 21
7827.4833343144
 31
0.0
  0
LINE
  5
2D2
330
1F
100
AcDbEntity
  8
0
  6
Continuous
 62
     7
370
    25
100
AcDbLine
 10
3823.8014818135
 20
7827.4833343144
 30
0.0
 11
3823.8014818135
 21
7835.492496044
 31
0.0
  0
ARC
  5
2D3
330
1F
100
AcDbEntity
  8
0
  6
Continuous
 62
     7
370
    25
100
AcDbCircle
 10
3827.3014818135
 20
7827.4833343144
 30
0.0
 40
3.5
100
AcDbArc
 50
180.0
 51
270.0
  0
ARC
  5
2D4
330
1F
100
AcDbEntity
  8
0
  6
Continuous
 62
     7
370
    25
100
AcDbCircle
 10
3827.3014818135
 20
7827.4833343144
 30
0.0
 40
6.5
100
AcDbArc
 50
180.0
 51
270.0
  0
LINE
  5
2D5
330
1F
100
AcDbEntity
  8
0
  6
Continuous
 62
     7
370
    25
100
AcDbLine
 10
3912.7844996949
 20
7823.9833343144
 30
0.0
 11
3912.7844996949
 21
7835.5196667662
 31
0.0
  0
LINE
  5
2D6
330
1F
100
AcDbEntity
  8
0
  6
Continuous
 62
     7
370
    25
100
AcDbLine
 10
3909.7844996949
 20
7835.4833343144
 30
0.0
 11
3909.7844996949
 21
7823.9833343144
 31
0.0
  0
ARC
  5
2D7
330
1F
100
AcDbEntity
  8
0
  6
Continuous
 62
     7
370
    25
100
AcDbCircle
 10
3906.2844996949
 20
7823.9833343144
 30
0.0
 40
3.500000000000455
100
AcDbArc
 50
270.0
 51
0.0
  0
ARC
  5
2D8
330
1F
100
AcDbEntity
  8
0
  6
Continuous
 62
     7
370
    25
100
AcDbCircle
 10
3906.2844996949
 20
7823.9833343144
 30
0.0
 40
6.500000000000455
100
AcDbArc
 50
270.0
 51
0.0
  0
LINE
  5
2D9
330
1F
100
AcDbEntity
  8
0
  6
Continuous
 62
     7
370
    25
100
AcDbLine
 10
3776.6840165322
 20
7817.4833343144
 30
0.0
 11
3906.2844996949
 21
7817.4833343144
 31
0.0
  0
LINE
  5
2DA
330
1F
100
AcDbEntity
  8
0
  6
Continuous
 62
     7
370
    25
100
AcDbLine
 10
3906.2844996949
 20
7820.4833343144
 30
0.0
 11
3776.6840165322
 21
7820.4833343144
 31
0.0
  0
LINE
  5
2DB
330
1F
100
AcDbEntity
  8
0
  6
Continuous
 62
     7
370
    25
100
AcDbLine
 10
3770.1840165322
 20
7835.5154136526
 30
0.0
 11
3770.1840165322
 21
7823.9833343144
 31
0.0
  0
LINE
  5
2DC
330
1F
100
AcDbEntity
  8
0
  6
Continuous
 62
     7
370
    25
100
AcDbLine
 10
3773.1840165322
 20
7823.9833343144
 30
0.0
 11
3773.1840165322
 21
7835.4833343144
 31
0.0
  0
ARC
  5
2DD
330
1F
100
AcDbEntity
  8
0
  6
Continuous
 62
     7
370
    25
100
AcDbCircle
 10
3776.6840165322
 20
7823.9833343144
 30
0.0
 40
3.5
100
AcDbArc
 50
180.0
 51
270.0
  0
ARC
  5
2DE
330
1F
100
AcDbEntity
  8
0
  6
Continuous
 62
     7
370
    25
100
AcDbCircle
 10
3776.6840165322
 20
7823.9833343144
 30
0.0
 40
6.5
100
AcDbArc
 50
180.0
 51
270.0
  0
LINE
  5
2DF
330
1F
100
AcDbEntity
  8
0
  6
Continuous
 62
     7
370
    25
100
AcDbLine
 10
3938.6363544997
 20
7820.4833343144
 30
0.0
 11
3938.6363544997
 21
7835.5439936002
 31
0.0
  0
LINE
  5
2E0
330
1F
100
AcDbEntity
  8
0
  6
Continuous
 62
     7
370
    25
100
AcDbLine
 10
3935.6363544997
 20
7835.4833343144
 30
0.0
 11
3935.6363544997
 21
7820.4833343144
 31
0.0
  0
ARC
  5
2E1
330
1F
100
AcDbEntity
  8
0
  6
Continuous
 62
     7
370
    25
100
AcDbCircle
 10
3932.1363544997
 20
7820.4833343144
 30
0.0
 40
3.5
100
AcDbArc
 50
270.0
 51
0.0
  0
ARC
  5
2E2
330
1F
100
AcDbEntity
  8
0
  6
Continuous
 62
     7
370
    25
100
AcDbCircle
 10
3932.1363544997
 20
7820.4833343144
 30
0.0
 40
6.5
100
AcDbArc
 50
270.0
 51
0.0
  0
LINE
  5
2E3
330
1F
100
AcDbEntity
  8
0
  6
Continuous
 62
     7
370
    25
100
AcDbLine
 10
3750.8321617275
 20
7813.9833343144
 30
0.0
 11
3932.1363544997
 21
7813.9833343144
 31
0.0
  0
LINE
  5
2E4
330
1F
100
AcDbEntity
  8
0
  6
Continuous
 62
     7
370
    25
100
AcDbLine
 10
3932.1363544997
 20
7816.9833343144
 30
0.0
 11
3750.8321617275
 21
7816.9833343144
 31
0.0
  0
LINE
  5
2E5
330
1F
100
AcDbEntity
  8
0
  6
Continuous
 62
     7
370
    25
100
AcDbLine
 10
3744.3321617275
 20
7835.5410455896
 30
0.0
 11
3744.3321617275
 21
7820.4833343144
 31
0.0
  0
LINE
  5
2E6
330
1F
100
AcDbEntity
  8
0
  6
Continuous
 62
     7
370
    25
100
AcDbLine
 10
3747.3321617275
 20
7820.4833343144
 30
0.0
 11
3747.3321617275
 21
7835.4833343144
 31
0.0
  0
ARC
  5
2E7
330
1F
100
AcDbEntity
  8
0
  6
Continuous
 62
     7
370
    25
100
AcDbCircle
 10
3750.8321617275
 20
7820.4833343144
 30
0.0
 40
3.5
100
AcDbArc
 50
180.0
 51
270.0
  0
ARC
  5
2E8
330
1F
100
AcDbEntity
  8
0
  6
Continuous
 62
     7
370
    25
100
AcDbCircle
 10
3750.8321617275
 20
7820.4833343144
 30
0.0
 40
6.5
100
AcDbArc
 50
180.0
 51
270.0
  0
LINE
  5
2E9
330
1F
100
AcDbEntity
  8
0
  6
Continuous
 62
     7
370
    25
100
AcDbLine
 10
3957.8743288825
 20
7820.4833343144
 30
0.0
 11
3957.8743288825
 21
7835.5667646351
 31
0.0
  0
LINE
  5
2EA
330
1F
100
AcDbEntity
  8
0
  6
Continuous
 62
     7
370
    25
100
AcDbLine
 10
3954.8743288825
 20
7835.4833343144
 30
0.0
 11
3954.8743288825
 21
7820.4833343144
 31
0.0
  0
ARC
  5
2EB
330
1F
100
AcDbEntity
  8
0
  6
Continuous
 62
     7
370
    25
100
AcDbCircle
 10
3951.3743288825
 20
7820.4833343144
 30
0.0
 40
3.5
100
AcDbArc
 50
270.0
 51
0.0
  0
ARC
  5
2EC
330
1F
100
AcDbEntity
  8
0
  6
Continuous
 62
     7
370
    25
100
AcDbCircle
 10
3951.3743288825
 20
7820.4833343144
 30
0.0
 40
6.5
100
AcDbArc
 50
270.0
 51
0.0
  0
LINE
  5
2ED
330
1F
100
AcDbEntity
  8
0
  6
Continuous
 62
     7
370
    25
100
AcDbLine
 10
3731.5941873447
 20
7813.9833343144
 30
0.0
 11
3750.8321617275
 21
7813.9833343144
 31
0.0
  0
LINE
  5
2EE
330
1F
100
AcDbEntity
  8
0
  6
Continuous
 62
     7
370
    25
100
AcDbLine
 10
3932.1363544997
 20
7813.9833343144
 30
0.0
 11
3951.3743288825
 21
7813.9833343144
 31
0.0
  0
LINE
  5
2EF
330
1F
100
AcDbEntity
  8
0
  6
Continuous
 62
     7
370
    25
100
AcDbLine
 10
3951.3743288825
 20
7816.9833343144
 30
0.0
 11
3937.6135800747
 21
7816.9833343144
 31
0.0
  0
LINE
  5
2F0
330
1F
100
AcDbEntity
  8
0
  6
Continuous
 62
     7
370
    25
100
AcDbLine
 10
3745.3549361525
 20
7816.9833343144
 30
0.0
 11
3731.5941873447
 21
7816.9833343144
 31
0.0
  0
LINE
  5
2F1
330
1F
100
AcDbEntity
  8
0
  6
Continuous
 62
     7
370
    25
100
AcDbLine
 10
3725.0941873447
 20
7835.5649406596
 30
0.0
 11
3725.0941873447
 21
7820.4833343144
 31
0.0
  0
LINE
  5
2F2
330
1F
100
AcDbEntity
  8
0
  6
Continuous
 62
     7
370
    25
100
AcDbLine
 10
3728.0941873447
 20
7820.4833343144
 30
0.0
 11
3728.0941873447
 21
7835.4833343144
 31
0.0
  0
ARC
  5
2F3
330
1F
100
AcDbEntity
  8
0
  6
Continuous
 62
     7
370
    25
100
AcDbCircle
 10
3731.5941873447
 20
7820.4833343144
 30
0.0
 40
3.5
100
AcDbArc
 50
180.0
 51
270.0
  0
ARC
  5
2F4
330
1F
100
AcDbEntity
  8
0
  6
Continuous
 62
     7
370
    25
100
AcDbCircle
 10
3731.5941873447
 20
7820.4833343144
 30
0.0
 40
6.5
100
AcDbArc
 50
180.0
 51
270.0
  0
ARC
  5
2F5
330
1F
100
AcDbEntity
  8
0
  6
Continuous
 62
     7
370
    25
100
AcDbCircle
 10
3980.7698893865
 20
7839.4833343144
 30
0.0
 40
4.0
100
AcDbArc
 50
270.0
 51
90.0
  0
LINE
  5
2F6
330
1F
100
AcDbEntity
  8
0
  6
Continuous
 62
     7
370
    25
100
AcDbLine
 10
3980.7698893865
 20
7843.4833343144
 30
0.0
 11
3970.6020151217
 21
7843.4833343144
 31
0.0
  0
LINE
  5
2F7
330
1F
100
AcDbEntity
  8
0
  6
Continuous
 62
     7
370
    25
100
AcDbLine
 10
3973.3794203245
 20
7835.4833343144
 30
0.0
 11
3978.750965369
 21
7835.4833343144
 31
0.0
  0
LINE
  5
2F8
330
1F
100
AcDbEntity
  8
0
  6
Continuous
 62
     7
370
    25
100
AcDbLine
 10
3970.6020151217
 20
7835.4833343144
 30
0.0
 11
3970.7080463607
 21
7835.4833343144
 31
0.0
  0
ARC
  5
2F9
330
1F
100
AcDbEntity
  8
0
  6
Continuous
 62
     7
370
    25
100
AcDbCircle
 10
3702.1986268407
 20
7839.4833343144
 30
0.0
 40
4.0
100
AcDbArc
 50
90.0
 51
270.0
  0
LINE
  5
2FA
330
1F
100
AcDbEntity
  8
0
  6
Continuous
 62
     7
370
    25
100
AcDbLine
 10
3712.3665011055
 20
7843.4833343144
 30
0.0
 11
3702.1986268407
 21
7843.4833343144
 31
0.0
  0
LINE
  5
2FB
330
1F
100
AcDbEntity
  8
0
  6
Continuous
 62
     7
370
    25
100
AcDbLine
 10
3712.2595070802
 20
7835.4833343144
 30
0.0
 11
3712.3665011055
 21
7835.4833343144
 31
0.0
  0
LINE
  5
2FC
330
1F
100
AcDbEntity
  8
0
  6
Continuous
 62
     7
370
    25
100
AcDbLine
 10
3704.2195310439
 20
7835.4833343144
 30
0.0
 11
3709.5890959027
 21
7835.4833343144
 31
0.0
  0
LINE
  5
2FD
330
1F
100
AcDbEntity
  8
0
  6
Continuous
 62
     7
370
    25
100
AcDbLine
 10
3973.3794203245
 20
7820.4833343144
 30
0.0
 11
3973.3794203245
 21
7835.6085576315
 31
0.0
  0
LINE
  5
2FE
330
1F
100
AcDbEntity
  8
0
  6
Continuous
 62
     7
370
    25
100
AcDbLine
 10
3970.3794203245
 20
7835.4833343144
 30
0.0
 11
3970.3794203245
 21
7820.4833343144
 31
0.0
  0
ARC
  5
2FF
330
1F
100
AcDbEntity
  8
0
  6
Continuous
 62
     7
370
    25
100
AcDbCircle
 10
3966.8794203245
 20
7820.4833343144
 30
0.0
 40
3.500000000000909
100
AcDbArc
 50
270.0
 51
0.0
  0
ARC
  5
300
330
1F
100
AcDbEntity
  8
0
  6
Continuous
 62
     7
370
    25
100
AcDbCircle
 10
3966.8794203245
 20
7820.4833343144
 30
0.0
 40
6.5
100
AcDbArc
 50
270.0
 51
0.0
  0
LINE
  5
301
330
1F
100
AcDbEntity
  8
0
  6
Continuous
 62
     7
370
    25
100
AcDbLine
 10
3716.0890959027
 20
7813.9833343144
 30
0.0
 11
3731.5941873447
 21
7813.9833343144
 31
0.0
  0
LINE
  5
302
330
1F
100
AcDbEntity
  8
0
  6
Continuous
 62
     7
370
    25
100
AcDbLine
 10
3951.3743288825
 20
7813.9833343144
 30
0.0
 11
3966.8794203245
 21
7813.9833343144
 31
0.0
  0
LINE
  5
303
330
1F
100
AcDbEntity
  8
0
  6
Continuous
 62
     7
370
    25
100
AcDbLine
 10
3966.8794203245
 20
7816.9833343144
 30
0.0
 11
3956.8515544576
 21
7816.9833343144
 31
0.0
  0
LINE
  5
304
330
1F
100
AcDbEntity
  8
0
  6
Continuous
 62
     7
370
    25
100
AcDbLine
 10
3726.1169617696
 20
7816.9833343144
 30
0.0
 11
3716.0890959027
 21
7816.9833343144
 31
0.0
  0
LINE
  5
305
330
1F
100
AcDbEntity
  8
0
  6
Continuous
 62
     7
370
    25
100
AcDbLine
 10
3709.5890959027
 20
7835.6083682054
 30
0.0
 11
3709.5890959027
 21
7820.4833343144
 31
0.0
  0
LINE
  5
306
330
1F
100
AcDbEntity
  8
0
  6
Continuous
 62
     7
370
    25
100
AcDbLine
 10
3712.5890959027
 20
7820.4833343144
 30
0.0
 11
3712.5890959027
 21
7835.4833343144
 31
0.0
  0
ARC
  5
307
330
1F
100
AcDbEntity
  8
0
  6
Continuous
 62
     7
370
    25
100
AcDbCircle
 10
3716.0890959027
 20
7820.4833343144
 30
0.0
 40
3.500000000000909
100
AcDbArc
 50
180.0
 51
270.0
  0
ARC
  5
308
330
1F
100
AcDbEntity
  8
0
  6
Continuous
 62
     7
370
    25
100
AcDbCircle
 10
3716.0890959027
 20
7820.4833343144
 30
0.0
 40
6.5
100
AcDbArc
 50
180.0
 51
270.0
  0
LINE
  5
309
330
1F
100
AcDbEntity
  8
0
  6
Continuous
 62
     7
370
    25
100
AcDbLine
 10
3980.7922102863
 20
7820.4833343144
 30
0.0
 11
3980.7922102863
 21
7835.7409946996
 31
0.0
  0
LINE
  5
30A
330
1F
100
AcDbEntity
  8
0
  6
Continuous
 62
     7
370
    25
100
AcDbLine
 10
3977.7922102863
 20
7835.4833343144
 30
0.0
 11
3977.7922102863
 21
7820.4833343144
 31
0.0
  0
ARC
  5
30B
330
1F
100
AcDbEntity
  8
0
  6
Continuous
 62
     7
370
    25
100
AcDbCircle
 10
3974.2922102863
 20
7820.4833343144
 30
0.0
 40
3.5
100
AcDbArc
 50
270.0
 51
0.0
  0
ARC
  5
30C
330
1F
100
AcDbEntity
  8
0
  6
Continuous
 62
     7
370
    25
100
AcDbCircle
 10
3974.2922102863
 20
7820.4833343144
 30
0.0
 40
6.5
100
AcDbArc
 50
270.0
 51
0.0
  0
LINE
  5
30D
330
1F
100
AcDbEntity
  8
0
  6
Continuous
 62
     7
370
    25
100
AcDbLine
 10
3708.6763059409
 20
7813.9833343144
 30
0.0
 11
3716.0890959027
 21
7813.9833343144
 31
0.0
  0
LINE
  5
30E
330
1F
100
AcDbEntity
  8
0
  6
Continuous
 62
     7
370
    25
100
AcDbLine
 10
3966.8794203245
 20
7813.9833343144
 30
0.0
 11
3974.2922102863
 21
7813.9833343144
 31
0.0
  0
LINE
  5
30F
330
1F
100
AcDbEntity
  8
0
  6
Continuous
 62
     7
370
    25
100
AcDbLine
 10
3974.2922102863
 20
7816.9833343144
 30
0.0
 11
3972.3566458996
 21
7816.9833343144
 31
0.0
  0
LINE
  5
310
330
1F
100
AcDbEntity
  8
0
  6
Continuous
 62
     7
370
    25
100
AcDbLine
 10
3710.6118703276
 20
7816.9833343144
 30
0.0
 11
3708.6763059409
 21
7816.9833343144
 31
0.0
  0
LINE
  5
311
330
1F
100
AcDbEntity
  8
0
  6
Continuous
 62
     7
370
    25
100
AcDbLine
 10
3702.1763059409
 20
7835.7385484163
 30
0.0
 11
3702.1763059409
 21
7820.4833343144
 31
0.0
  0
LINE
  5
312
330
1F
100
AcDbEntity
  8
0
  6
Continuous
 62
     7
370
    25
100
AcDbLine
 10
3705.1763059409
 20
7820.4833343144
 30
0.0
 11
3705.1763059409
 21
7835.4833343144
 31
0.0
  0
ARC
  5
313
330
1F
100
AcDbEntity
  8
0
  6
Continuous
 62
     7
370
    25
100
AcDbCircle
 10
3708.6763059409
 20
7820.4833343144
 30
0.0
 40
3.500000000000455
100
AcDbArc
 50
180.0
 51
270.0
  0
ARC
  5
314
330
1F
100
AcDbEntity
  8
0
  6
Continuous
 62
     7
370
    25
100
AcDbCircle
 10
3708.6763059409
 20
7820.4833343144
 30
0.0
 40
6.5
100
AcDbArc
 50
180.0
 51
270.0
  0
LINE
  5
315
330
1F
100
AcDbEntity
  8
0
  6
Continuous
 62
     7
370
    25
100
AcDbLine
 10
3982.1744506953
 20
7820.4833343144
 30
0.0
 11
3982.1744506953
 21
7835.7380429333
 31
0.0
  0
ARC
  5
316
330
1F
100
AcDbEntity
  8
0
  6
Continuous
 62
     7
370
    25
100
AcDbCircle
 10
3975.6744506953
 20
7820.4833343144
 30
0.0
 40
6.5
100
AcDbArc
 50
270.0
 51
0.0
  0
LINE
  5
317
330
1F
100
AcDbEntity
  8
0
  6
Continuous
 62
     7
370
    25
100
AcDbLine
 10
3707.2940655319
 20
7813.9833343144
 30
0.0
 11
3708.6763059409
 21
7813.9833343144
 31
0.0
  0
LINE
  5
318
330
1F
100
AcDbEntity
  8
0
  6
Continuous
 62
     7
370
    25
100
AcDbLine
 10
3974.2922102863
 20
7813.9833343144
 30
0.0
 11
3975.6744506953
 21
7813.9833343144
 31
0.0
  0
LINE
  5
319
330
1F
100
AcDbEntity
  8
0
  6
Continuous
 62
     7
370
    25
100
AcDbLine
 10
3700.7940655319
 20
7835.7380429333
 30
0.0
 11
3700.7940655319
 21
7820.4833343144
 31
0.0
  0
ARC
  5
31A
330
1F
100
AcDbEntity
  8
0
  6
Continuous
 62
     7
370
    25
100
AcDbCircle
 10
3707.2940655319
 20
7820.4833343144
 30
0.0
 40
6.5
100
AcDbArc
 50
180.0
 51
270.0
  0
LINE
  5
31B
330
1F
100
AcDbEntity
  8
0
  6
Continuous
 62
     7
370
    25
100
AcDbLine
 10
3975.7251863421
 20
7835.4833343144
 30
0.0
 11
3975.7251863421
 21
7820.4833343144
 31
0.0
  0
ARC
  5
31C
330
1F
100
AcDbEntity
  8
0
  6
Continuous
 62
     7
370
    25
100
AcDbCircle
 10
3972.2251863421
 20
7820.4833343144
 30
0.0
 40
3.500000000000591
100
AcDbArc
 50
272.1790080205
 51
0.0
  0
LINE
  5
31D
330
1F
100
AcDbEntity
  8
0
  6
Continuous
 62
     7
370
    25
100
AcDbLine
 10
3707.2433298851
 20
7820.4833343144
 30
0.0
 11
3707.2433298851
 21
7835.4833343144
 31
0.0
  0
ARC
  5
31E
330
1F
100
AcDbEntity
  8
0
  6
Continuous
 62
     7
370
    25
100
AcDbCircle
 10
3710.7433298851
 20
7820.4833343144
 30
0.0
 40
3.500000000000487
100
AcDbArc
 50
180.0
 51
267.8209919796
  0
LINE
  5
31F
330
1F
100
AcDbEntity
  8
0
  6
Continuous
 62
     7
370
    25
100
AcDbLine
 10
3968.8212877528
 20
7820.4833343144
 30
0.0
 11
3968.8212877528
 21
7835.4833343144
 31
0.0
  0
LINE
  5
320
330
1F
100
AcDbEntity
  8
0
  6
Continuous
 62
     7
370
    25
100
AcDbLine
 10
3965.8212877528
 20
7835.4833343144
 30
0.0
 11
3965.8212877528
 21
7820.4833343144
 31
0.0
  0
ARC
  5
321
330
1F
100
AcDbEntity
  8
0
  6
Continuous
 62
     7
370
    25
100
AcDbCircle
 10
3962.3212877528
 20
7820.4833343144
 30
0.0
 40
3.5
100
AcDbArc
 50
270.0
 51
0.0
  0
ARC
  5
322
330
1F
100
AcDbEntity
  8
0
  6
Continuous
 62
     7
370
    25
100
AcDbCircle
 10
3962.3212877528
 20
7820.4833343144
 30
0.0
 40
6.5000000000003
100
AcDbArc
 50
328.9709204129
 51
0.0
  0
LINE
  5
323
330
1F
100
AcDbEntity
  8
0
  6
Continuous
 62
     7
370
    25
100
AcDbLine
 10
3714.1472284743
 20
7835.4833343144
 30
0.0
 11
3714.1472284743
 21
7820.4833343144
 31
0.0
  0
LINE
  5
324
330
1F
100
AcDbEntity
  8
0
  6
Continuous
 62
     7
370
    25
100
AcDbLine
 10
3717.1472284743
 20
7820.4833343144
 30
0.0
 11
3717.1472284743
 21
7835.4833343144
 31
0.0
  0
ARC
  5
325
330
1F
100
AcDbEntity
  8
0
  6
Continuous
 62
     7
370
    25
100
AcDbCircle
 10
3720.6472284743
 20
7820.4833343144
 30
0.0
 40
3.5
100
AcDbArc
 50
180.0
 51
270.0
  0
ARC
  5
326
330
1F
100
AcDbEntity
  8
0
  6
Continuous
 62
     7
370
    25
100
AcDbCircle
 10
3720.6472284743
 20
7820.4833343144
 30
0.0
 40
6.5
100
AcDbArc
 50
180.0
 51
211.029079587
  0
LINE
  5
327
330
1F
100
AcDbEntity
  8
0
  6
Continuous
 62
     7
370
    25
100
AcDbLine
 10
3954.554946514
 20
7835.4833343144
 30
0.0
 11
3954.554946514
 21
7820.4833343144
 31
0.0
  0
ARC
  5
328
330
1F
100
AcDbEntity
  8
0
  6
Continuous
 62
     7
370
    25
100
AcDbCircle
 10
3951.054946514
 20
7820.4833343144
 30
0.0
 40
3.500000000000455
100
AcDbArc
 50
270.0
 51
0.0
  0
LINE
  5
329
330
1F
100
AcDbEntity
  8
0
  6
Continuous
 62
     7
370
    25
100
AcDbLine
 10
3728.4135697132
 20
7820.4833343144
 30
0.0
 11
3728.4135697132
 21
7835.4833343144
 31
0.0
  0
ARC
  5
32A
330
1F
100
AcDbEntity
  8
0
  6
Continuous
 62
     7
370
    25
100
AcDbCircle
 10
3731.9135697132
 20
7820.4833343144
 30
0.0
 40
3.5
100
AcDbArc
 50
180.0
 51
270.0
  0
LINE
  5
32B
330
1F
100
AcDbEntity
  8
0
  6
Continuous
 62
     7
370
    25
100
AcDbLine
 10
3946.2886052751
 20
7820.4833343144
 30
0.0
 11
3946.2886052751
 21
7834.5049689817
 31
0.0
  0
LINE
  5
32C
330
1F
100
AcDbEntity
  8
0
  6
Continuous
 62
     7
370
    25
100
AcDbLine
 10
3943.2886052751
 20
7835.4833343144
 30
0.0
 11
3943.2886052751
 21
7820.4833343144
 31
0.0
  0
ARC
  5
32D
330
1F
100
AcDbEntity
  8
0
  6
Continuous
 62
     7
370
    25
100
AcDbCircle
 10
3939.7886052751
 20
7820.4833343144
 30
0.0
 40
3.5
100
AcDbArc
 50
270.0
 51
0.0
  0
ARC
  5
32E
330
1F
100
AcDbEntity
  8
0
  6
Continuous
 62
     7
370
    25
100
AcDbCircle
 10
3939.7886052751
 20
7820.4833343144
 30
0.0
 40
6.500000000000575
100
AcDbArc
 50
327.4210296072
 51
0.0
  0
LINE
  5
32F
330
1F
100
AcDbEntity
  8
0
  6
Continuous
 62
     7
370
    25
100
AcDbLine
 10
3736.6799109521
 20
7835.4833343144
 30
0.0
 11
3736.6799109521
 21
7820.4833343144
 31
0.0
  0
LINE
  5
330
330
1F
100
AcDbEntity
  8
0
  6
Continuous
 62
     7
370
    25
100
AcDbLine
 10
3739.6799109521
 20
7820.4833343144
 30
0.0
 11
3739.6799109521
 21
7835.4833343144
 31
0.0
  0
ARC
  5
331
330
1F
100
AcDbEntity
  8
0
  6
Continuous
 62
     7
370
    25
100
AcDbCircle
 10
3743.1799109521
 20
7820.4833343144
 30
0.0
 40
3.5
100
AcDbArc
 50
180.0
 51
270.0
  0
ARC
  5
332
330
1F
100
AcDbEntity
  8
0
  6
Continuous
 62
     7
370
    25
100
AcDbCircle
 10
3743.1799109521
 20
7820.4833343144
 30
0.0
 40
6.500000000000191
100
AcDbArc
 50
180.0
 51
212.5789703928
  0
LINE
  5
333
330
1F
100
AcDbEntity
  8
0
  6
Continuous
 62
     7
370
    25
100
AcDbLine
 10
3935.0222640362
 20
7820.4833343144
 30
0.0
 11
3935.0222640362
 21
7835.4833343144
 31
0.0
  0
LINE
  5
334
330
1F
100
AcDbEntity
  8
0
  6
Continuous
 62
     7
370
    25
100
AcDbLine
 10
3932.0222640362
 20
7835.4833343144
 30
0.0
 11
3932.0222640362
 21
7820.4833343144
 31
0.0
  0
ARC
  5
335
330
1F
100
AcDbEntity
  8
0
  6
Continuous
 62
     7
370
    25
100
AcDbCircle
 10
3928.5222640362
 20
7820.4833343144
 30
0.0
 40
3.500000000000909
100
AcDbArc
 50
270.0
 51
0.0
  0
ARC
  5
336
330
1F
100
AcDbEntity
  8
0
  6
Continuous
 62
     7
370
    25
100
AcDbCircle
 10
3928.5222640362
 20
7820.4833343144
 30
0.0
 40
6.500000000000368
100
AcDbArc
 50
336.4244367851
 51
0.0
  0
LINE
  5
337
330
1F
100
AcDbEntity
  8
0
  6
Continuous
 62
     7
370
    25
100
AcDbLine
 10
3747.946252191
 20
7835.4833343144
 30
0.0
 11
3747.946252191
 21
7820.4833343144
 31
0.0
  0
LINE
  5
338
330
1F
100
AcDbEntity
  8
0
  6
Continuous
 62
     7
370
    25
100
AcDbLine
 10
3750.946252191
 20
7820.4833343144
 30
0.0
 11
3750.946252191
 21
7835.4833343144
 31
0.0
  0
ARC
  5
339
330
1F
100
AcDbEntity
  8
0
  6
Continuous
 62
     7
370
    25
100
AcDbCircle
 10
3754.446252191
 20
7820.4833343144
 30
0.0
 40
3.500000000000909
100
AcDbArc
 50
180.0
 51
270.0
  0
ARC
  5
33A
330
1F
100
AcDbEntity
  8
0
  6
Continuous
 62
     7
370
    25
100
AcDbCircle
 10
3754.446252191
 20
7820.4833343144
 30
0.0
 40
6.500000000000455
100
AcDbArc
 50
180.0
 51
203.5755632148
  0
LINE
  5
33B
330
1F
100
AcDbEntity
  8
0
  6
Continuous
 62
     7
370
    25
100
AcDbLine
 10
3923.7559227973
 20
7820.4833343144
 30
0.0
 11
3923.7559227973
 21
7835.4833343144
 31
0.0
  0
LINE
  5
33C
330
1F
100
AcDbEntity
  8
0
  6
Continuous
 62
     7
370
    25
100
AcDbLine
 10
3920.7559227973
 20
7835.4833343144
 30
0.0
 11
3920.7559227973
 21
7820.4833343144
 31
0.0
  0
ARC
  5
33D
330
1F
100
AcDbEntity
  8
0
  6
Continuous
 62
     7
370
    25
100
AcDbCircle
 10
3917.2559227973
 20
7820.4833343144
 30
0.0
 40
3.500000000000455
100
AcDbArc
 50
270.0
 51
0.0
  0
ARC
  5
33E
330
1F
100
AcDbEntity
  8
0
  6
Continuous
 62
     7
370
    25
100
AcDbCircle
 10
3917.2559227973
 20
7820.4833343144
 30
0.0
 40
6.500000000000575
100
AcDbArc
 50
327.4210296072
 51
0.0
  0
LINE
  5
33F
330
1F
100
AcDbEntity
  8
0
  6
Continuous
 62
     7
370
    25
100
AcDbLine
 10
3759.2125934299
 20
7834.4833343144
 30
0.0
 11
3759.2125934299
 21
7820.4833343144
 31
0.0
  0
LINE
  5
340
330
1F
100
AcDbEntity
  8
0
  6
Continuous
 62
     7
370
    25
100
AcDbLine
 10
3762.2125934299
 20
7820.4833343144
 30
0.0
 11
3762.2125934299
 21
7835.4833343144
 31
0.0
  0
ARC
  5
341
330
1F
100
AcDbEntity
  8
0
  6
Continuous
 62
     7
370
    25
100
AcDbCircle
 10
3765.7125934299
 20
7820.4833343144
 30
0.0
 40
3.5
100
AcDbArc
 50
180.0
 51
270.0
  0
ARC
  5
342
330
1F
100
AcDbEntity
  8
0
  6
Continuous
 62
     7
370
    25
100
AcDbCircle
 10
3765.7125934299
 20
7820.4833343144
 30
0.0
 40
6.500000000000191
100
AcDbArc
 50
180.0
 51
212.5789703928
  0
LINE
  5
343
330
1F
100
AcDbEntity
  8
0
  6
Continuous
 62
     7
370
    25
100
AcDbLine
 10
3912.4895815584
 20
7820.4833343144
 30
0.0
 11
3912.4895815584
 21
7822.0476279659
 31
0.0
  0
LINE
  5
344
330
1F
100
AcDbEntity
  8
0
  6
Continuous
 62
     7
370
    25
100
AcDbLine
 10
3909.4895815584
 20
7835.4833343144
 30
0.0
 11
3909.4895815584
 21
7822.5771158931
 31
0.0
  0
ARC
  5
345
330
1F
100
AcDbEntity
  8
0
  6
Continuous
 62
     7
370
    25
100
AcDbCircle
 10
3905.9895815584
 20
7820.4833343144
 30
0.0
 40
3.500000000000563
100
AcDbArc
 50
270.0
 51
309.2614665491
  0
ARC
  5
346
330
1F
100
AcDbEntity
  8
0
  6
Continuous
 62
     7
370
    25
100
AcDbCircle
 10
3905.9895815584
 20
7820.4833343144
 30
0.0
 40
6.500000000000575
100
AcDbArc
 50
327.4210296072
 51
0.0
  0
LINE
  5
347
330
1F
100
AcDbEntity
  8
0
  6
Continuous
 62
     7
370
    25
100
AcDbLine
 10
3770.4789346688
 20
7822.0476279659
 30
0.0
 11
3770.4789346688
 21
7820.4833343144
 31
0.0
  0
LINE
  5
348
330
1F
100
AcDbEntity
  8
0
  6
Continuous
 62
     7
370
    25
100
AcDbLine
 10
3773.4789346688
 20
7822.5771158931
 30
0.0
 11
3773.4789346688
 21
7835.4833343144
 31
0.0
  0
ARC
  5
349
330
1F
100
AcDbEntity
  8
0
  6
Continuous
 62
     7
370
    25
100
AcDbCircle
 10
3776.9789346688
 20
7820.4833343144
 30
0.0
 40
3.500000000000009
100
AcDbArc
 50
230.7385334473
 51
270.0
  0
ARC
  5
34A
330
1F
100
AcDbEntity
  8
0
  6
Continuous
 62
     7
370
    25
100
AcDbCircle
 10
3776.9789346688
 20
7820.4833343144
 30
0.0
 40
6.500000000000191
100
AcDbArc
 50
180.0
 51
212.5789703928
  0
LINE
  5
34B
330
1F
100
AcDbEntity
  8
0
  6
Continuous
 62
     7
370
    25
100
AcDbLine
 10
3901.2232403195
 20
7820.4833343144
 30
0.0
 11
3901.2232403195
 21
7835.4833343144
 31
0.0
  0
LINE
  5
34C
330
1F
100
AcDbEntity
  8
0
  6
Continuous
 62
     7
370
    25
100
AcDbLine
 10
3898.2232403195
 20
7835.4833343144
 30
0.0
 11
3898.2232403195
 21
7820.4833343144
 31
0.0
  0
ARC
  5
34D
330
1F
100
AcDbEntity
  8
0
  6
Continuous
 62
     7
370
    25
100
AcDbCircle
 10
3894.7232403195
 20
7820.4833343144
 30
0.0
 40
3.50000000000002
100
AcDbArc
 50
270.0
 51
301.0027191338
  0
LINE
  5
34E
330
1F
100
AcDbEntity
  8
0
  6
Continuous
 62
     7
370
    25
100
AcDbLine
 10
3900.2004658946
 20
7816.9833343144
 30
0.0
 11
3900.4895216169
 21
7817.4833343144
 31
0.0
  0
LINE
  5
34F
330
1F
100
AcDbEntity
  8
0
  6
Continuous
 62
     7
370
    25
100
AcDbLine
 10
3781.7452759077
 20
7835.4833343144
 30
0.0
 11
3781.7452759077
 21
7820.4833343144
 31
0.0
  0
LINE
  5
350
330
1F
100
AcDbEntity
  8
0
  6
Continuous
 62
     7
370
    25
100
AcDbLine
 10
3784.7452759077
 20
7820.4833343144
 30
0.0
 11
3784.7452759077
 21
7835.4833343144
 31
0.0
  0
ARC
  5
351
330
1F
100
AcDbEntity
  8
0
  6
Continuous
 62
     7
370
    25
100
AcDbCircle
 10
3788.2452759077
 20
7820.4833343144
 30
0.0
 40
3.50000000000002
100
AcDbArc
 50
238.9972808662
 51
270.0
  0
LINE
  5
352
330
1F
100
AcDbEntity
  8
0
  6
Continuous
 62
     7
370
    25
100
AcDbLine
 10
3782.4789946103
 20
7817.4833343144
 30
0.0
 11
3782.7680503326
 21
7816.9833343144
 31
0.0
  0
LINE
  5
353
330
1F
100
AcDbEntity
  8
0
  6
Continuous
 62
     7
370
    25
100
AcDbLine
 10
3889.9568990806
 20
7820.4833343144
 30
0.0
 11
3889.9568990806
 21
7835.4833343144
 31
0.0
  0
LINE
  5
354
330
1F
100
AcDbEntity
  8
0
  6
Continuous
 62
     7
370
    25
100
AcDbLine
 10
3886.9568990806
 20
7835.4833343144
 30
0.0
 11
3886.9568990806
 21
7820.4833343144
 31
0.0
  0
ARC
  5
355
330
1F
100
AcDbEntity
  8
0
  6
Continuous
 62
     7
370
    25
100
AcDbCircle
 10
3883.4568990806
 20
7820.4833343144
 30
0.0
 40
3.5
100
AcDbArc
 50
270.0
 51
301.0027191338
  0
LINE
  5
356
330
1F
100
AcDbEntity
  8
0
  6
Continuous
 62
     7
370
    25
100
AcDbLine
 10
3888.9341246557
 20
7816.9833343144
 30
0.0
 11
3889.223180378
 21
7817.4833343144
 31
0.0
  0
LINE
  5
357
330
1F
100
AcDbEntity
  8
0
  6
Continuous
 62
     7
370
    25
100
AcDbLine
 10
3793.0116171465
 20
7835.4833343144
 30
0.0
 11
3793.0116171465
 21
7820.4833343144
 31
0.0
  0
LINE
  5
358
330
1F
100
AcDbEntity
  8
0
  6
Continuous
 62
     7
370
    25
100
AcDbLine
 10
3796.0116171465
 20
7820.4833343144
 30
0.0
 11
3796.0116171465
 21
7835.4833343144
 31
0.0
  0
ARC
  5
359
330
1F
100
AcDbEntity
  8
0
  6
Continuous
 62
     7
370
    25
100
AcDbCircle
 10
3799.5116171465
 20
7820.4833343144
 30
0.0
 40
3.5
100
AcDbArc
 50
238.9972808662
 51
270.0
  0
LINE
  5
35A
330
1F
100
AcDbEntity
  8
0
  6
Continuous
 62
     7
370
    25
100
AcDbLine
 10
3793.7453358492
 20
7817.4833343144
 30
0.0
 11
3794.0343915715
 21
7816.9833343144
 31
0.0
  0
LINE
  5
35B
330
1F
100
AcDbEntity
  8
0
  6
Continuous
 62
     7
370
    25
100
AcDbLine
 10
3878.6905578418
 20
7820.4833343144
 30
0.0
 11
3878.6905578418
 21
7834.4833343144
 31
0.0
  0
LINE
  5
35C
330
1F
100
AcDbEntity
  8
0
  6
Continuous
 62
     7
370
    25
100
AcDbLine
 10
3875.6905578418
 20
7835.4833343144
 30
0.0
 11
3875.6905578418
 21
7820.4833343144
 31
0.0
  0
ARC
  5
35D
330
1F
100
AcDbEntity
  8
0
  6
Continuous
 62
     7
370
    25
100
AcDbCircle
 10
3872.1905578418
 20
7820.4833343144
 30
0.0
 40
3.5
100
AcDbArc
 50
270.0
 51
301.0027191338
  0
LINE
  5
35E
330
1F
100
AcDbEntity
  8
0
  6
Continuous
 62
     7
370
    25
100
AcDbLine
 10
3877.6677834168
 20
7816.9833343144
 30
0.0
 11
3877.9568391391
 21
7817.4833343144
 31
0.0
  0
LINE
  5
35F
330
1F
100
AcDbEntity
  8
0
  6
Continuous
 62
     7
370
    25
100
AcDbLine
 10
3804.2779583854
 20
7835.4833343144
 30
0.0
 11
3804.2779583854
 21
7820.4833343144
 31
0.0
  0
LINE
  5
360
330
1F
100
AcDbEntity
  8
0
  6
Continuous
 62
     7
370
    25
100
AcDbLine
 10
3807.2779583854
 20
7820.4833343144
 30
0.0
 11
3807.2779583854
 21
7835.4833343144
 31
0.0
  0
ARC
  5
361
330
1F
100
AcDbEntity
  8
0
  6
Continuous
 62
     7
370
    25
100
AcDbCircle
 10
3810.7779583854
 20
7820.4833343144
 30
0.0
 40
3.5
100
AcDbArc
 50
238.9972808662
 51
270.0
  0
LINE
  5
362
330
1F
100
AcDbEntity
  8
0
  6
Continuous
 62
     7
370
    25
100
AcDbLine
 10
3805.0116770881
 20
7817.4833343144
 30
0.0
 11
3805.3007328104
 21
7816.9833343144
 31
0.0
  0
LINE
  5
363
330
1F
100
AcDbEntity
  8
0
  6
Continuous
 62
     7
370
    25
100
AcDbLine
 10
3864.4242166029
 20
7835.4833343144
 30
0.0
 11
3864.4242166029
 21
7820.4833343144
 31
0.0
  0
LINE
  5
364
330
1F
100
AcDbEntity
  8
0
  6
Continuous
 62
     7
370
    25
100
AcDbLine
 10
3867.4242166029
 20
7820.4833343144
 30
0.0
 11
3867.4242166029
 21
7834.5049689817
 31
0.0
  0
ARC
  5
365
330
1F
100
AcDbEntity
  8
0
  6
Continuous
 62
     7
370
    25
100
AcDbCircle
 10
3860.9242166029
 20
7820.4833343144
 30
0.0
 40
3.5
100
AcDbArc
 50
270.0
 51
301.0027191338
  0
LINE
  5
366
330
1F
100
AcDbEntity
  8
0
  6
Continuous
 62
     7
370
    25
100
AcDbLine
 10
3866.4014421779
 20
7816.9833343144
 30
0.0
 11
3866.6904979002
 21
7817.4833343144
 31
0.0
  0
LINE
  5
367
330
1F
100
AcDbEntity
  8
0
  6
Continuous
 62
     7
370
    25
100
AcDbLine
 10
3818.5442996243
 20
7820.4833343144
 30
0.0
 11
3818.5442996243
 21
7835.4833343144
 31
0.0
  0
LINE
  5
368
330
1F
100
AcDbEntity
  8
0
  6
Continuous
 62
     7
370
    25
100
AcDbLine
 10
3815.5442996243
 20
7835.4833343144
 30
0.0
 11
3815.5442996243
 21
7820.4833343144
 31
0.0
  0
ARC
  5
369
330
1F
100
AcDbEntity
  8
0
  6
Continuous
 62
     7
370
    25
100
AcDbCircle
 10
3822.0442996243
 20
7820.4833343144
 30
0.0
 40
3.5
100
AcDbArc
 50
238.9972808662
 51
270.0
  0
LINE
  5
36A
330
1F
100
AcDbEntity
  8
0
  6
Continuous
 62
     7
370
    25
100
AcDbLine
 10
3816.278018327
 20
7817.4833343144
 30
0.0
 11
3816.5670740493
 21
7816.9833343144
 31
0.0
  0
LINE
  5
36B
330
1F
100
AcDbEntity
  8
0
  6
Continuous
 62
     7
370
    25
100
AcDbLine
 10
3853.157875364
 20
7835.4833343144
 30
0.0
 11
3853.157875364
 21
7826.9833343144
 31
0.0
  0
LINE
  5
36C
330
1F
100
AcDbEntity
  8
0
  6
Continuous
 62
     7
370
    25
100
AcDbLine
 10
3856.157875364
 20
7826.9833343144
 30
0.0
 11
3856.157875364
 21
7835.4833343144
 31
0.0
  0
ARC
  5
36D
330
1F
100
AcDbEntity
  8
0
  6
Continuous
 62
     7
370
    25
100
AcDbCircle
 10
3849.657875364
 20
7826.9833343144
 30
0.0
 40
3.500000000000331
100
AcDbArc
 50
301.0027191338
 51
0.0
  0
ARC
  5
36E
330
1F
100
AcDbEntity
  8
0
  6
Continuous
 62
     7
370
    25
100
AcDbCircle
 10
3849.657875364
 20
7826.9833343144
 30
0.0
 40
6.5
100
AcDbArc
 50
270.0
 51
292.619864948
  0
ARC
  5
36F
330
1F
100
AcDbEntity
  8
0
  6
Continuous
 62
     7
370
    25
100
AcDbCircle
 10
3849.657875364
 20
7826.9833343144
 30
0.0
 40
6.5
100
AcDbArc
 50
332.5135737496
 51
0.0
  0
LINE
  5
370
330
1F
100
AcDbEntity
  8
0
  6
Continuous
 62
     7
370
    25
100
AcDbLine
 10
3829.8106408632
 20
7826.9833343144
 30
0.0
 11
3829.8106408632
 21
7835.4833343144
 31
0.0
  0
LINE
  5
371
330
1F
100
AcDbEntity
  8
0
  6
Continuous
 62
     7
370
    25
100
AcDbLine
 10
3826.8106408632
 20
7835.4833343144
 30
0.0
 11
3826.8106408632
 21
7826.9833343144
 31
0.0
  0
ARC
  5
372
330
1F
100
AcDbEntity
  8
0
  6
Continuous
 62
     7
370
    25
100
AcDbCircle
 10
3833.3106408632
 20
7826.9833343144
 30
0.0
 40
3.500000000000331
100
AcDbArc
 50
180.0
 51
238.9972808662
  0
ARC
  5
373
330
1F
100
AcDbEntity
  8
0
  6
Continuous
 62
     7
370
    25
100
AcDbCircle
 10
3833.3106408632
 20
7826.9833343144
 30
0.0
 40
6.500000000000397
100
AcDbArc
 50
180.0
 51
207.4864262504
  0
ARC
  5
374
330
1F
100
AcDbEntity
  8
0
  6
Continuous
 62
     7
370
    25
100
AcDbCircle
 10
3833.3106408632
 20
7826.9833343144
 30
0.0
 40
6.5
100
AcDbArc
 50
247.380135052
 51
270.0
  0
LINE
  5
375
330
1F
100
AcDbEntity
  8
0
  6
Continuous
 62
     7
370
    25
100
AcDbLine
 10
3890.1052955097
 20
7843.4833343144
 30
0.0
 11
3891.6408908807
 21
8032.0011202505
 31
0.0
  0
LINE
  5
376
330
1F
100
AcDbEntity
  8
0
  6
Continuous
 62
     7
370
    25
100
AcDbLine
 10
3891.6856918235
 20
8037.5011202505
 30
0.0
 11
3892.1011187475
 21
8088.5011202505
 31
0.0
  0
ARC
  5
377
330
1F
100
AcDbEntity
  8
0
  6
Continuous
 62
     7
370
    25
100
AcDbCircle
 10
3886.679910821
 20
7837.2152231522
 30
0.0
 40
2.724371517434183
100
AcDbArc
 50
219.4720812782
 51
275.8353743791
  0
LINE
  5
378
330
1F
100
AcDbEntity
  8
0
  6
Continuous
 62
     7
370
    25
100
AcDbLine
 10
3891.4141208409
 20
8088.5011202505
 30
0.0
 11
3890.998693917
 21
8037.5011202505
 31
0.0
  0
LINE
  5
379
330
1F
100
AcDbEntity
  8
0
  6
Continuous
 62
     7
370
    25
100
AcDbLine
 10
3890.9538929742
 20
8032.0011202505
 30
0.0
 11
3889.4182976031
 21
7843.4833343144
 31
0.0
  0
LINE
  5
37A
330
1F
100
AcDbEntity
  8
0
  6
Continuous
 62
     7
370
    25
100
AcDbLine
 10
3884.9056005361
 20
8096.8187837458
 30
0.0
 11
3884.5768702659
 21
8096.5011202505
 31
0.0
  0
ARC
  5
37B
330
1F
100
AcDbEntity
  8
0
  6
Continuous
 62
     7
370
    25
100
AcDbCircle
 10
3886.6875092333
 20
8090.2515057454
 30
0.0
 40
2.742016718268716
100
AcDbArc
 50
219.6694120087
 51
275.638012484
  0
LINE
  5
37C
330
1F
100
AcDbEntity
  8
0
  6
Continuous
 62
     7
370
    25
100
AcDbLine
 10
3885.033037777
 20
8096.5011202505
 30
0.0
 11
3884.9056005361
 21
8096.8187837458
 31
0.0
  0
ARC
  5
37D
330
1F
100
AcDbEntity
  8
0
  6
Continuous
 62
     7
370
    25
100
AcDbCircle
 10
3867.8543286348
 20
7837.3355064918
 30
0.0
 40
2.854328821242076
100
AcDbArc
 50
220.4586704929
 51
267.7725796025
  0
ARC
  5
37E
330
1F
100
AcDbEntity
  8
0
  6
Continuous
 62
     7
370
    25
100
AcDbCircle
 10
3876.1124039133
 20
7837.4706897897
 30
0.0
 40
3.005333720139758
100
AcDbArc
 50
221.3972710786
 51
262.2363868152
  0
LINE
  5
37F
330
1F
100
AcDbEntity
  8
0
  6
Continuous
 62
     7
370
    25
100
AcDbLine
 10
3878.2498920171
 20
7834.4929034707
 30
0.0
 11
3878.4517288841
 21
7834.5061885473
 31
0.0
  0
ARC
  5
380
330
1F
100
AcDbEntity
  8
0
  6
Continuous
 62
     7
370
    25
100
AcDbCircle
 10
3878.6617224614
 20
7837.4849567802
 30
0.0
 40
3.020262790124941
100
AcDbArc
 50
220.430856246
 51
262.1629716346
  0
LINE
  5
381
330
1F
100
AcDbEntity
  8
0
  6
Continuous
 62
     7
370
    25
100
AcDbLine
 10
3866.0112692736
 20
8096.8187837458
 30
0.0
 11
3865.6825390035
 21
8096.5011202505
 31
0.0
  0
ARC
  5
382
330
1F
100
AcDbEntity
  8
0
  6
Continuous
 62
     7
370
    25
100
AcDbCircle
 10
3867.8256822091
 20
8090.2942667618
 30
0.0
 40
2.794359820855602
100
AcDbArc
 50
219.9188567758
 51
268.3123627566
  0
LINE
  5
383
330
1F
100
AcDbEntity
  8
0
  6
Continuous
 62
     7
370
    25
100
AcDbLine
 10
3874.1867010699
 20
8096.8187837458
 30
0.0
 11
3866.0112692736
 21
8096.8187837458
 31
0.0
  0
ARC
  5
384
330
1F
100
AcDbEntity
  8
0
  6
Continuous
 62
     7
370
    25
100
AcDbCircle
 10
3876.0590351188
 20
8090.3874175707
 30
0.0
 40
2.898760351251307
100
AcDbArc
 50
220.5963248953
 51
262.6969530954
  0
LINE
  5
385
330
1F
100
AcDbEntity
  8
0
  6
Continuous
 62
     7
370
    25
100
AcDbLine
 10
3873.8579707997
 20
8096.5011202505
 30
0.0
 11
3874.1867010699
 21
8096.8187837458
 31
0.0
  0
LINE
  5
386
330
1F
100
AcDbEntity
  8
0
  6
Continuous
 62
     7
370
    25
100
AcDbLine
 10
3876.7301687398
 20
8096.8187837458
 30
0.0
 11
3876.4014384697
 21
8096.5011202505
 31
0.0
  0
ARC
  5
387
330
1F
100
AcDbEntity
  8
0
  6
Continuous
 62
     7
370
    25
100
AcDbCircle
 10
3878.5758493417
 20
8090.3667875802
 30
0.0
 40
2.867917857702794
100
AcDbArc
 50
219.0713572793
 51
267.7306216312
  0
LINE
  5
388
330
1F
100
AcDbEntity
  8
0
  6
Continuous
 62
     7
370
    25
100
AcDbLine
 10
3884.9056005361
 20
8096.8187837458
 30
0.0
 11
3876.7301687398
 21
8096.8187837458
 31
0.0
  0
LINE
  5
389
330
1F
100
AcDbEntity
  8
0
  6
Continuous
 62
     7
370
    25
100
AcDbLine
 10
3872.1304391871
 20
8040.7024129163
 30
0.0
 11
3872.1043626545
 21
8037.5011202505
 31
0.0
  0
LINE
  5
38A
330
1F
100
AcDbEntity
  8
0
  6
Continuous
 62
     7
370
    25
100
AcDbLine
 10
3872.0595617117
 20
8032.0011202505
 30
0.0
 11
3870.5239663406
 21
7843.4833343144
 31
0.0
  0
LWPOLYLINE
  5
38B
330
1F
100
AcDbEntity
  8
0
  6
Continuous
 62
     7
370
    25
100
AcDbPolyline
 90
       13
 70
   128
 43
0.0
 10
3880.253987558
 20
8085.6310628881
 10
3880.3612408291
 20
8084.7912350539
 10
3880.6821973405
 20
8084.0648306223
 10
3881.1735101369
 20
8083.5499545371
 10
3881.7688247027
 20
8083.3161436665
 10
3882.387740507
 20
8083.3949754641
 10
3882.9466695409
 20
8083.7758032589
 10
3883.3701253413
 20
8084.4071941471
 10
3883.6009178559
 20
8085.2038752903
 10
3883.6078772767
 20
8086.0582504858
 10
3883.3900636953
 20
8086.8549316291
 10
3882.9768940429
 20
8087.4863225172
 10
3882.9626161046
 20
8087.5011190282
  0
ARC
  5
38C
330
1F
100
AcDbEntity
  8
0
  6
Continuous
 62
     7
370
    25
100
AcDbCircle
 10
3882.9126600248
 20
8085.7008446274
 30
0.0
 40
2.659588083982872
100
AcDbArc
 50
137.3981521502
 51
181.503487725
  0
LWPOLYLINE
  5
38D
330
1F
100
AcDbEntity
  8
0
  6
Continuous
 62
     7
370
    25
100
AcDbPolyline
 90
       18
 70
   128
 43
0.0
 10
3878.3571067406
 20
7852.759970266
 10
3878.4643600116
 20
7851.9201424318
 10
3878.785316523
 20
7851.1937380003
 10
3879.2766293194
 20
7850.678861915
 10
3879.8719438852
 20
7850.4450510444
 10
3880.4908596896
 20
7850.523882842
 10
3881.0497887235
 20
7850.9047106369
 10
3881.4732445239
 20
7851.536101525
 10
3881.7040370385
 20
7852.3327826682
 10
3881.7109964592
 20
7853.1871578637
 10
3881.4931828779
 20
7853.983839007
 10
3881.0800132255
 20
7854.6152298951
 10
3880.5272883531
 20
7854.9960576899
 10
3879.9096568174
 20
7855.0748894876
 10
3879.3105331799
 20
7854.8410786169
 10
3878.8108324075
 20
7854.3262025317
 10
3878.4780418585
 20
7853.5997981001
 10
3878.3571067406
 20
7852.759970266
  0
LINE
  5
38E
330
1F
100
AcDbEntity
  8
0
  6
Continuous
 62
     7
370
    25
100
AcDbLine
 10
3874.1867010699
 20
8096.8187837458
 30
0.0
 11
3874.3141383108
 21
8096.5011202505
 31
0.0
  0
ARC
  5
38F
330
1F
100
AcDbEntity
  8
0
  6
Continuous
 62
     7
370
    25
100
AcDbCircle
 10
3881.2558312862
 20
7852.5101394899
 30
0.0
 40
2.224588400514783
100
AcDbArc
 50
173.8590698124
 51
245.9957276328
  0
ARC
  5
390
330
1F
100
AcDbEntity
  8
0
  6
Continuous
 62
     7
370
    25
100
AcDbCircle
 10
3881.285068462
 20
7852.9491188092
 30
0.0
 40
2.250056635848332
100
AcDbArc
 50
112.3505257509
 51
185.125263758
  0
ARC
  5
391
330
1F
100
AcDbEntity
  8
0
  6
Continuous
 62
     7
370
    25
100
AcDbCircle
 10
3883.1527121037
 20
8085.381232112
 30
0.0
 40
2.224588400529222
100
AcDbArc
 50
173.8590698125
 51
245.9957276316
  0
ARC
  5
392
330
1F
100
AcDbEntity
  8
0
  6
Continuous
 62
     7
370
    25
100
AcDbCircle
 10
3883.5937926756
 20
8085.6902431658
 30
0.0
 40
2.653854706629958
100
AcDbArc
 50
136.9719109575
 51
181.5338493724
  0
LINE
  5
393
330
1F
100
AcDbEntity
  8
0
  6
Continuous
 62
     7
370
    25
100
AcDbLine
 10
3752.8701082186
 20
8096.5011202505
 30
0.0
 11
3752.9975454809
 21
8096.8187838208
 31
0.0
  0
LINE
  5
394
330
1F
100
AcDbEntity
  8
0
  6
Continuous
 62
     7
370
    25
100
AcDbLine
 10
3752.9975454809
 20
8096.8187838208
 30
0.0
 11
3753.3262758392
 21
8096.5011202505
 31
0.0
  0
ARC
  5
395
330
1F
100
AcDbEntity
  8
0
  6
Continuous
 62
     7
370
    25
100
AcDbCircle
 10
3751.2156373944
 20
8090.251505073
 30
0.0
 40
2.742015886740577
100
AcDbArc
 50
264.3618534258
 51
320.3305918357
  0
LINE
  5
396
330
1F
100
AcDbEntity
  8
0
  6
Continuous
 62
     7
370
    25
100
AcDbLine
 10
3746.9492543648
 20
8032.0011202505
 30
0.0
 11
3748.4848535859
 21
7843.4833343144
 31
0.0
  0
ARC
  5
397
330
1F
100
AcDbEntity
  8
0
  6
Continuous
 62
     7
370
    25
100
AcDbCircle
 10
3751.2232404432
 20
7837.2152231704
 30
0.0
 40
2.724371534715894
100
AcDbArc
 50
264.1646258156
 51
320.527918527
  0
LINE
  5
398
330
1F
100
AcDbEntity
  8
0
  6
Continuous
 62
     7
370
    25
100
AcDbLine
 10
3747.7978556791
 20
7843.4833343144
 30
0.0
 11
3746.262256458
 21
8032.0011202505
 31
0.0
  0
ARC
  5
399
330
1F
100
AcDbEntity
  8
0
  6
Continuous
 62
     7
370
    25
100
AcDbCircle
 10
3759.2478989803
 20
7837.4691800037
 30
0.0
 40
3.003754147847439
100
AcDbArc
 50
277.7558009088
 51
318.4995596234
  0
LINE
  5
39A
330
1F
100
AcDbEntity
  8
0
  6
Continuous
 62
     7
370
    25
100
AcDbLine
 10
3759.4515310429
 20
7834.5063611431
 30
0.0
 11
3759.6532593565
 21
7834.4929034799
 31
0.0
  0
ARC
  5
39B
330
1F
100
AcDbEntity
  8
0
  6
Continuous
 62
     7
370
    25
100
AcDbCircle
 10
3761.790747326
 20
7837.4706898358
 30
0.0
 40
3.005333774931776
100
AcDbArc
 50
277.7636156251
 51
318.6027286684
  0
LINE
  5
39C
330
1F
100
AcDbEntity
  8
0
  6
Continuous
 62
     7
370
    25
100
AcDbLine
 10
3771.8918767433
 20
8096.8187838208
 30
0.0
 11
3772.2206071017
 21
8096.5011202505
 31
0.0
  0
LINE
  5
39D
330
1F
100
AcDbEntity
  8
0
  6
Continuous
 62
     7
370
    25
100
AcDbLine
 10
3761.1729772771
 20
8096.8187838208
 30
0.0
 11
3752.9975454809
 21
8096.8187838208
 31
0.0
  0
ARC
  5
39E
330
1F
100
AcDbEntity
  8
0
  6
Continuous
 62
     7
370
    25
100
AcDbCircle
 10
3759.3293340411
 20
8090.3592558198
 30
0.0
 40
2.860311860533799
100
AcDbArc
 50
272.2345751968
 51
320.3782565039
  0
LINE
  5
39F
330
1F
100
AcDbEntity
  8
0
  6
Continuous
 62
     7
370
    25
100
AcDbLine
 10
3761.5017076355
 20
8096.5011202505
 30
0.0
 11
3761.1729772771
 21
8096.8187838208
 31
0.0
  0
LINE
  5
3A0
330
1F
100
AcDbEntity
  8
0
  6
Continuous
 62
     7
370
    25
100
AcDbLine
 10
3763.7164449471
 20
8096.8187838208
 30
0.0
 11
3764.0451753054
 21
8096.5011202505
 31
0.0
  0
ARC
  5
3A1
330
1F
100
AcDbEntity
  8
0
  6
Continuous
 62
     7
370
    25
100
AcDbCircle
 10
3761.8441118188
 20
8090.3874165526
 30
0.0
 40
2.898759056592818
100
AcDbArc
 50
277.302918379
 51
319.4036796785
  0
LINE
  5
3A2
330
1F
100
AcDbEntity
  8
0
  6
Continuous
 62
     7
370
    25
100
AcDbLine
 10
3771.8918767433
 20
8096.8187838208
 30
0.0
 11
3763.7164449471
 21
8096.8187838208
 31
0.0
  0
LINE
  5
3A3
330
1F
100
AcDbEntity
  8
0
  6
Continuous
 62
     7
370
    25
100
AcDbLine
 10
3765.391502263
 20
8087.5011190282
 30
0.0
 11
3765.8191486881
 21
8035.0011202505
 31
0.0
  0
LINE
  5
3A4
330
1F
100
AcDbEntity
  8
0
  6
Continuous
 62
     7
370
    25
100
AcDbLine
 10
3765.8435856273
 20
8032.0011202505
 30
0.0
 11
3767.3791848484
 21
7843.4833343144
 31
0.0
  0
LWPOLYLINE
  5
3A5
330
1F
100
AcDbEntity
  8
0
  6
Continuous
 62
     7
370
    25
100
AcDbPolyline
 90
       13
 70
   128
 43
0.0
 10
3754.2699802116
 20
8085.6310626824
 10
3754.3909153466
 20
8084.7912348485
 10
3754.7237059104
 20
8084.0648304172
 10
3755.2234066933
 20
8083.5499543322
 10
3755.8225303357
 20
8083.3161434616
 10
3756.4401618697
 20
8083.3949752592
 10
3756.9928867344
 20
8083.7758030539
 10
3757.4060563738
 20
8084.4071939418
 10
3757.6238699389
 20
8085.2038750848
 10
3757.6169105007
 20
8086.05825028
 10
3757.3861179699
 20
8086.854931423
 10
3756.9626621566
 20
8087.4863223108
 10
3756.9481429596
 20
8087.5011190282
  0
ARC
  5
3A6
330
1F
100
AcDbEntity
  8
0
  6
Continuous
 62
     7
370
    25
100
AcDbCircle
 10
3756.8850676922
 20
8085.7486136483
 30
0.0
 40
2.617728167839541
100
AcDbArc
 50
137.9733885543
 51
182.5737736907
  0
LWPOLYLINE
  5
3A7
330
1F
100
AcDbEntity
  8
0
  6
Continuous
 62
     7
370
    25
100
AcDbPolyline
 90
       18
 70
   128
 43
0.0
 10
3756.1668657842
 20
7852.7599701424
 10
3756.2878009192
 20
7851.9201423085
 10
3756.620591483
 20
7851.1937378772
 10
3757.1202922659
 20
7850.6788617921
 10
3757.7194159083
 20
7850.4450509216
 10
3758.3370474423
 20
7850.5238827192
 10
3758.8897723069
 20
7850.9047105139
 10
3759.3029419464
 20
7851.5361014018
 10
3759.5207555115
 20
7852.3327825448
 10
3759.5137960733
 20
7853.18715774
 10
3759.2830035425
 20
7853.9838388829
 10
3758.8595477292
 20
7854.6152297708
 10
3758.3006186875
 20
7854.9960575655
 10
3757.6817028815
 20
7855.0748893632
 10
3757.0863883205
 20
7854.8410784926
 10
3756.5950755346
 20
7854.3262024075
 10
3756.2741190381
 20
7853.5997979763
 10
3756.1668657842
 20
7852.7599701424
  0
LINE
  5
3A8
330
1F
100
AcDbEntity
  8
0
  6
Continuous
 62
     7
370
    25
100
AcDbLine
 10
3763.5890076848
 20
8096.5011202505
 30
0.0
 11
3763.7164449471
 21
8096.8187838208
 31
0.0
  0
LWPOLYLINE
  5
3A9
330
1F
100
AcDbEntity
  8
0
  6
Continuous
 62
     7
370
    25
100
AcDbPolyline
 90
       10
 70
   128
 43
0.0
 10
3757.5522929681
 20
7850.4779442002
 10
3757.6501461174
 20
7850.512025847
 10
3758.202870982
 20
7850.8928536417
 10
3758.6160406215
 20
7851.5242445296
 10
3758.8338541866
 20
7852.3209256726
 10
3758.8268947484
 20
7853.1753008678
 10
3758.5961022176
 20
7853.9719820107
 10
3758.1726464043
 20
7854.6033728986
 10
3757.6137173625
 20
7854.9842006933
 10
3757.4737157511
 20
7855.0301392123
  0
ARC
  5
3AA
330
1F
100
AcDbEntity
  8
0
  6
Continuous
 62
     7
370
    25
100
AcDbCircle
 10
3754.4125695488
 20
8085.6453526756
 30
0.0
 40
2.611075025403296
100
AcDbArc
 50
298.4236349291
 51
45.2942476269
  0
LINE
  5
3AB
330
1F
100
AcDbEntity
  8
0
  6
Continuous
 62
     7
370
    25
100
AcDbLine
 10
3968.9696841818
 20
7843.4833343144
 30
0.0
 11
3970.5052795529
 21
8032.0011202505
 31
0.0
  0
ARC
  5
3AC
330
1F
100
AcDbEntity
  8
0
  6
Continuous
 62
     7
370
    25
100
AcDbCircle
 10
3965.5442994932
 20
7837.2152231522
 30
0.0
 40
2.724371517436164
100
AcDbArc
 50
219.4720812782
 51
275.8353743791
  0
LINE
  5
3AD
330
1F
100
AcDbEntity
  8
0
  6
Continuous
 62
     7
370
    25
100
AcDbLine
 10
3970.2785095131
 20
8088.5011202505
 30
0.0
 11
3969.8562337365
 21
8036.6603189796
 31
0.0
  0
LINE
  5
3AE
330
1F
100
AcDbEntity
  8
0
  6
Continuous
 62
     7
370
    25
100
AcDbLine
 10
3969.8182816464
 20
8032.0011202505
 30
0.0
 11
3968.2826862753
 21
7843.4833343144
 31
0.0
  0
LINE
  5
3AF
330
1F
100
AcDbEntity
  8
0
  6
Continuous
 62
     7
370
    25
100
AcDbLine
 10
3963.7699892083
 20
8096.8187837458
 30
0.0
 11
3963.4412589381
 21
8096.5011202505
 31
0.0
  0
ARC
  5
3B0
330
1F
100
AcDbEntity
  8
0
  6
Continuous
 62
     7
370
    25
100
AcDbCircle
 10
3965.5518979055
 20
8090.2515057454
 30
0.0
 40
2.74201671827922
100
AcDbArc
 50
219.6694120088
 51
275.6380124839
  0
LINE
  5
3B1
330
1F
100
AcDbEntity
  8
0
  6
Continuous
 62
     7
370
    25
100
AcDbLine
 10
3963.8974264492
 20
8096.5011202505
 30
0.0
 11
3963.7699892083
 21
8096.8187837458
 31
0.0
  0
ARC
  5
3B2
330
1F
100
AcDbEntity
  8
0
  6
Continuous
 62
     7
370
    25
100
AcDbCircle
 10
3946.718717307
 20
7837.3355064918
 30
0.0
 40
2.854328821239858
100
AcDbArc
 50
220.4586704929
 51
267.7725796026
  0
ARC
  5
3B3
330
1F
100
AcDbEntity
  8
0
  6
Continuous
 62
     7
370
    25
100
AcDbCircle
 10
3954.9767925855
 20
7837.4706897897
 30
0.0
 40
3.005333720168636
100
AcDbArc
 50
221.3972710788
 51
262.236386815
  0
LINE
  5
3B4
330
1F
100
AcDbEntity
  8
0
  6
Continuous
 62
     7
370
    25
100
AcDbLine
 10
3944.8756579458
 20
8096.8187837458
 30
0.0
 11
3944.5469276757
 21
8096.5011202505
 31
0.0
  0
ARC
  5
3B5
330
1F
100
AcDbEntity
  8
0
  6
Continuous
 62
     7
370
    25
100
AcDbCircle
 10
3946.6900708814
 20
8090.294266762
 30
0.0
 40
2.794359821032614
100
AcDbArc
 50
219.9188567774
 51
268.312362755
  0
LINE
  5
3B6
330
1F
100
AcDbEntity
  8
0
  6
Continuous
 62
     7
370
    25
100
AcDbLine
 10
3953.0510897421
 20
8096.8187837458
 30
0.0
 11
3944.8756579458
 21
8096.8187837458
 31
0.0
  0
ARC
  5
3B7
330
1F
100
AcDbEntity
  8
0
  6
Continuous
 62
     7
370
    25
100
AcDbCircle
 10
3954.923423791
 20
8090.3874175707
 30
0.0
 40
2.898760351253343
100
AcDbArc
 50
220.5963248954
 51
262.6969530954
  0
LINE
  5
3B8
330
1F
100
AcDbEntity
  8
0
  6
Continuous
 62
     7
370
    25
100
AcDbLine
 10
3952.7223594719
 20
8096.5011202505
 30
0.0
 11
3953.0510897421
 21
8096.8187837458
 31
0.0
  0
LINE
  5
3B9
330
1F
100
AcDbEntity
  8
0
  6
Continuous
 62
     7
370
    25
100
AcDbLine
 10
3955.594557412
 20
8096.8187837458
 30
0.0
 11
3955.2658271419
 21
8096.5011202505
 31
0.0
  0
LINE
  5
3BA
330
1F
100
AcDbEntity
  8
0
  6
Continuous
 62
     7
370
    25
100
AcDbLine
 10
3963.7699892083
 20
8096.8187837458
 30
0.0
 11
3955.594557412
 21
8096.8187837458
 31
0.0
  0
LINE
  5
3BB
330
1F
100
AcDbEntity
  8
0
  6
Continuous
 62
     7
370
    25
100
AcDbLine
 10
3951.3760326148
 20
8087.5011190282
 30
0.0
 11
3950.9483872618
 21
8035.0011202505
 31
0.0
  0
LINE
  5
3BC
330
1F
100
AcDbEntity
  8
0
  6
Continuous
 62
     7
370
    25
100
AcDbLine
 10
3950.9239503839
 20
8032.0011202505
 30
0.0
 11
3949.3883550128
 21
7843.4833343144
 31
0.0
  0
LWPOLYLINE
  5
3BD
330
1F
100
AcDbEntity
  8
0
  6
Continuous
 62
     7
370
    25
100
AcDbPolyline
 90
       13
 70
   128
 43
0.0
 10
3959.1183762302
 20
8085.6310628881
 10
3959.2256295013
 20
8084.7912350539
 10
3959.5465860127
 20
8084.0648306223
 10
3960.0378988091
 20
8083.5499545371
 10
3960.6332133749
 20
8083.3161436665
 10
3961.2521291792
 20
8083.3949754641
 10
3961.8110582131
 20
8083.7758032589
 10
3962.2345140135
 20
8084.4071941471
 10
3962.4653065281
 20
8085.2038752903
 10
3962.4722659489
 20
8086.0582504858
 10
3962.2544523675
 20
8086.8549316291
 10
3961.8412827151
 20
8087.4863225172
 10
3961.8270047768
 20
8087.5011190282
  0
ARC
  5
3BE
330
1F
100
AcDbEntity
  8
0
  6
Continuous
 62
     7
370
    25
100
AcDbCircle
 10
3961.777048697
 20
8085.7008446274
 30
0.0
 40
2.659588083985265
100
AcDbArc
 50
137.3981521502
 51
181.503487725
  0
LWPOLYLINE
  5
3BF
330
1F
100
AcDbEntity
  8
0
  6
Continuous
 62
     7
370
    25
100
AcDbPolyline
 90
       18
 70
   128
 43
0.0
 10
3957.2214954128
 20
7852.759970266
 10
3957.3287486838
 20
7851.9201424318
 10
3957.6497051952
 20
7851.1937380003
 10
3958.1410179916
 20
7850.678861915
 10
3958.7363325574
 20
7850.4450510444
 10
3959.3552483618
 20
7850.523882842
 10
3959.9141773957
 20
7850.9047106369
 10
3960.3376331961
 20
7851.536101525
 10
3960.5684257107
 20
7852.3327826682
 10
3960.5753851314
 20
7853.1871578637
 10
3960.3575715501
 20
7853.983839007
 10
3959.9444018977
 20
7854.6152298951
 10
3959.3916770253
 20
7854.9960576899
 10
3958.7740454896
 20
7855.0748894876
 10
3958.1749218521
 20
7854.8410786169
 10
3957.6752210796
 20
7854.3262025317
 10
3957.3424305307
 20
7853.5997981001
 10
3957.2214954128
 20
7852.759970266
  0
LINE
  5
3C0
330
1F
100
AcDbEntity
  8
0
  6
Continuous
 62
     7
370
    25
100
AcDbLine
 10
3953.0510897421
 20
8096.8187837458
 30
0.0
 11
3953.178526983
 21
8096.5011202505
 31
0.0
  0
ARC
  5
3C1
330
1F
100
AcDbEntity
  8
0
  6
Continuous
 62
     7
370
    25
100
AcDbCircle
 10
3960.1202199584
 20
7852.5101394899
 30
0.0
 40
2.224588400513952
100
AcDbArc
 50
173.8590698124
 51
245.9957276327
  0
ARC
  5
3C2
330
1F
100
AcDbEntity
  8
0
  6
Continuous
 62
     7
370
    25
100
AcDbCircle
 10
3960.1494571342
 20
7852.9491188092
 30
0.0
 40
2.250056635847837
100
AcDbArc
 50
112.3505257509
 51
185.125263758
  0
ARC
  5
3C3
330
1F
100
AcDbEntity
  8
0
  6
Continuous
 62
     7
370
    25
100
AcDbCircle
 10
3962.0171007759
 20
8085.381232112
 30
0.0
 40
2.224588400493957
100
AcDbArc
 50
173.8590698122
 51
245.9957276345
  0
ARC
  5
3C4
330
1F
100
AcDbEntity
  8
0
  6
Continuous
 62
     7
370
    25
100
AcDbCircle
 10
3962.4581813478
 20
8085.6902431658
 30
0.0
 40
2.653854706629293
100
AcDbArc
 50
136.9719109575
 51
181.5338493724
  0
LWPOLYLINE
  5
3C5
330
1F
100
AcDbEntity
  8
0
  6
Continuous
 62
     7
370
    25
100
AcDbPolyline
 90
       12
 70
   128
 43
0.0
 10
3869.7845600574
 20
8088.5109446086
 10
3869.7828888776
 20
8088.501307537
 10
3869.9319153501
 20
8088.5332274799
 10
3870.2122596841
 20
8088.6081125576
 10
3870.6182325305
 20
8088.7029140616
 10
3871.1156012496
 20
8088.7765491263
 10
3871.6127930953
 20
8088.7901646172
 10
3872.0454791995
 20
8088.7452316313
 10
3872.4056133317
 20
8088.6617465764
 10
3872.6633603269
 20
8088.5683117188
 10
3872.7634270554
 20
8088.5085800907
 10
3872.7586516437
 20
8088.5085899775
  0
LWPOLYLINE
  5
3C6
330
1F
100
AcDbEntity
  8
0
  6
Continuous
 62
     7
370
    25
100
AcDbPolyline
 90
       11
 70
   128
 43
0.0
 10
3909.8563124932
 20
8088.5080448965
 10
3909.8835256619
 20
8088.5016244581
 10
3910.1210481684
 20
8088.5361406737
 10
3910.473448818
 20
8088.6127016138
 10
3910.9303677195
 20
8088.7075824714
 10
3911.4457723902
 20
8088.7788535497
 10
3911.9238012589
 20
8088.78913774
 10
3912.3103883922
 20
8088.7417465437
 10
3912.6010085983
 20
8088.6569224687
 10
3912.7650320974
 20
8088.5640957464
 10
3912.7623481324
 20
8088.5374527022
  0
LWPOLYLINE
  5
3C7
330
1F
100
AcDbEntity
  8
0
  6
Continuous
 62
     7
370
    25
100
AcDbPolyline
 90
       10
 70
   128
 43
0.0
 10
3935.7626742031
 20
8088.5053053899
 10
3935.970115405
 20
8088.5155687682
 10
3936.3187852659
 20
8088.5767380128
 10
3936.7629060207
 20
8088.6678930878
 10
3937.2731642101
 20
8088.7550640094
 10
3937.7653760445
 20
8088.7928708458
 10
3938.1607633824
 20
8088.7673420425
 10
3938.4480119247
 20
8088.6955160758
 10
3938.6129928441
 20
8088.6012063345
 10
3938.6140189236
 20
8088.5617795363
  0
LWPOLYLINE
  5
3C8
330
1F
100
AcDbEntity
  8
0
  6
Continuous
 62
     7
370
    25
100
AcDbPolyline
 90
       10
 70
   128
 43
0.0
 10
3955.06703779
 20
8088.5098948179
 10
3955.1964158452
 20
8088.5048216898
 10
3955.5426522181
 20
8088.5503178973
 10
3955.9762216174
 20
8088.6335874479
 10
3956.4771790498
 20
8088.7274321651
 10
3956.9779636606
 20
8088.7869929392
 10
3957.3871463052
 20
8088.7828255716
 10
3957.6775282631
 20
8088.7251781784
 10
3957.8456279248
 20
8088.6353296432
 10
3957.852884102
 20
8088.5845505712
  0
LWPOLYLINE
  5
3C9
330
1F
100
AcDbEntity
  8
0
  6
Continuous
 62
     7
370
    25
100
AcDbPolyline
 90
       10
 70
   128
 43
0.0
 10
3725.107173725
 20
8088.5827265957
 10
3725.1419392763
 20
8088.6519327687
 10
3725.3507616187
 20
8088.7429861249
 10
3725.7063165567
 20
8088.7912250701
 10
3726.1353674713
 20
8088.7752928153
 10
3726.5952813429
 20
8088.7096994819
 10
3727.0758442519
 20
8088.6168656991
 10
3727.5272854425
 20
8088.5336931976
 10
3727.8649894477
 20
8088.5011356616
 10
3727.9280382085
 20
8088.5101743243
  0
LWPOLYLINE
  5
3CA
330
1F
100
AcDbEntity
  8
0
  6
Continuous
 62
     7
370
    25
100
AcDbPolyline
 90
       10
 70
   128
 43
0.0
 10
3744.344006793
 20
8088.5588315257
 10
3744.3807887942
 20
8088.623320148
 10
3744.5861787266
 20
8088.7179591426
 10
3744.9432649363
 20
8088.7834574523
 10
3745.3824132266
 20
8088.7862493288
 10
3745.8433518262
 20
8088.7334650788
 10
3746.3145424996
 20
8088.6458698722
 10
3746.7612468145
 20
8088.5548842461
 10
3747.1037524333
 20
8088.5043576295
 10
3747.181706116
 20
8088.5084798684
  0
ARC
  5
3CB
330
1F
100
AcDbEntity
  8
0
  6
Continuous
 62
     7
370
    25
100
AcDbCircle
 10
3771.6198310454
 20
8083.5577251588
 30
0.0
 40
5.175900715744422
100
AcDbArc
 50
72.880754573
 51
105.9968137657
  0
LWPOLYLINE
  5
3CC
330
1F
100
AcDbEntity
  8
0
  6
Continuous
 62
     7
370
    25
100
AcDbPolyline
 90
       11
 70
   128
 43
0.0
 10
3810.2235014269
 20
8088.5134817233
 10
3810.2181054942
 20
8088.5218304724
 10
3810.3529933994
 20
8088.5887633233
 10
3810.6341091653
 20
8088.681977259
 10
3811.051940323
 20
8088.764560754
 10
3811.5377155475
 20
8088.7928217326
 10
3812.0098022647
 20
8088.7592513582
 10
3812.448382401
 20
8088.6824057128
 10
3812.8333584218
 20
8088.5877222693
 10
3813.1015017837
 20
8088.5169338041
 10
3813.191173929
 20
8088.5052101145
  0
LWPOLYLINE
  5
3CD
330
1F
100
AcDbEntity
  8
0
  6
Continuous
 62
     7
370
    25
100
AcDbPolyline
 90
        9
 70
   128
 43
0.0
 10
3970.6958770513
 20
8088.503840252
 10
3970.9987671141
 20
8088.5214571189
 10
3971.4182373535
 20
8088.5872680314
 10
3971.9027180334
 20
8088.6788619651
 10
3972.4073714364
 20
8088.7611288404
 10
3972.8448477656
 20
8088.793020725
 10
3973.1564352467
 20
8088.7650114667
 10
3973.3373901302
 20
8088.6930379958
 10
3973.3628059231
 20
8088.6263435676
  0
ARC
  5
3CE
330
1F
100
AcDbEntity
  8
0
  6
Continuous
 62
     7
370
    25
100
AcDbCircle
 10
3981.3160426444
 20
8074.6579773101
 30
0.0
 40
14.11068973688787
100
AcDbArc
 50
92.1449057132
 51
100.9943289933
  0
LWPOLYLINE
  5
3CF
330
1F
100
AcDbEntity
  8
0
  6
Continuous
 62
     7
370
    25
100
AcDbPolyline
 90
        9
 70
   128
 43
0.0
 10
3709.6034431008
 20
8088.6261541415
 10
3709.6383493326
 20
8088.6983668657
 10
3709.853162108
 20
8088.7729460018
 10
3710.2019665236
 20
8088.7917228174
 10
3710.6223026515
 20
8088.7529521645
 10
3711.0901497337
 20
8088.6743082042
 10
3711.5835352948
 20
8088.581253126
 10
3712.0339996799
 20
8088.5143340202
 10
3712.3129140171
 20
8088.5061735379
  0
ARC
  5
3D0
330
1F
100
AcDbEntity
  8
0
  6
Continuous
 62
     7
370
    25
100
AcDbCircle
 10
3704.3682948036
 20
8098.1560507995
 30
0.0
 40
9.649242834933997
100
AcDbArc
 50
256.9416106262
 51
269.6111828953
  0
ARC
  5
3D1
330
1F
100
AcDbEntity
  8
0
  6
Continuous
 62
     7
370
    25
100
AcDbCircle
 10
3860.6717988673
 20
7831.6346968665
 30
0.0
 40
4.130734942601296
100
AcDbArc
 50
69.0889427959
 51
111.1438085092
  0
LWPOLYLINE
  5
3D2
330
1F
100
AcDbEntity
  8
0
  6
Continuous
 62
     7
370
    25
100
AcDbPolyline
 90
       11
 70
   128
 43
0.0
 10
3909.8563179674
 20
7835.4902589604
 10
3909.8835311361
 20
7835.483838522
 10
3910.1210536426
 20
7835.5183547376
 10
3910.4734542922
 20
7835.5949156777
 10
3910.9303731936
 20
7835.6897965353
 10
3911.4457778643
 20
7835.7610676136
 10
3911.9238067331
 20
7835.7713518039
 10
3912.3103938663
 20
7835.7239606076
 10
3912.6010140725
 20
7835.6391365327
 10
3912.7650375716
 20
7835.5463098103
 10
3912.7623536065
 20
7835.5196667662
  0
LWPOLYLINE
  5
3D3
330
1F
100
AcDbEntity
  8
0
  6
Continuous
 62
     7
370
    25
100
AcDbPolyline
 90
       10
 70
   128
 43
0.0
 10
3935.7626796773
 20
7835.4875194538
 10
3935.9701208792
 20
7835.4977828321
 10
3936.3187907401
 20
7835.5589520767
 10
3936.7629114949
 20
7835.6501071517
 10
3937.2731696843
 20
7835.7372780733
 10
3937.7653815187
 20
7835.7750849097
 10
3938.1607688565
 20
7835.7495561064
 10
3938.4480173988
 20
7835.6777301397
 10
3938.6129983183
 20
7835.5834203984
 10
3938.6140243978
 20
7835.5439936002
  0
LWPOLYLINE
  5
3D4
330
1F
100
AcDbEntity
  8
0
  6
Continuous
 62
     7
370
    25
100
AcDbPolyline
 90
       10
 70
   128
 43
0.0
 10
3955.0670432641
 20
7835.4921088818
 10
3955.1964213194
 20
7835.4870357537
 10
3955.5426576922
 20
7835.5325319612
 10
3955.9762270916
 20
7835.6158015118
 10
3956.477184524
 20
7835.709646229
 10
3956.9779691348
 20
7835.7692070031
 10
3957.3871517794
 20
7835.7650396355
 10
3957.6775337373
 20
7835.7073922423
 10
3957.845633399
 20
7835.6175437071
 10
3957.8528895762
 20
7835.5667646351
  0
LWPOLYLINE
  5
3D5
330
1F
100
AcDbEntity
  8
0
  6
Continuous
 62
     7
370
    25
100
AcDbPolyline
 90
       10
 70
   128
 43
0.0
 10
3725.1071791992
 20
7835.5649406596
 10
3725.1419447505
 20
7835.6341468326
 10
3725.3507670928
 20
7835.7252001888
 10
3725.7063220309
 20
7835.773439134
 10
3726.1353729455
 20
7835.7575068792
 10
3726.5952868171
 20
7835.6919135458
 10
3727.0758497261
 20
7835.5990797631
 10
3727.5272909167
 20
7835.5159072615
 10
3727.8649949219
 20
7835.4833497255
 10
3727.9280436826
 20
7835.4923883882
  0
LWPOLYLINE
  5
3D6
330
1F
100
AcDbEntity
  8
0
  6
Continuous
 62
     7
370
    25
100
AcDbPolyline
 90
       10
 70
   128
 43
0.0
 10
3744.3440122672
 20
7835.5410455896
 10
3744.3807942684
 20
7835.605534212
 10
3744.5861842007
 20
7835.7001732065
 10
3744.9432704104
 20
7835.7656715162
 10
3745.3824187008
 20
7835.7684633927
 10
3745.8433573004
 20
7835.7156791428
 10
3746.3145479738
 20
7835.6280839361
 10
3746.7612522886
 20
7835.53709831
 10
3747.1037579074
 20
7835.4865716934
 10
3747.1817115902
 20
7835.4906939323
  0
ARC
  5
3D7
330
1F
100
AcDbEntity
  8
0
  6
Continuous
 62
     7
370
    25
100
AcDbCircle
 10
3771.6198365196
 20
7830.5399392227
 30
0.0
 40
5.175900715736679
100
AcDbArc
 50
72.880754573
 51
105.9968137657
  0
ARC
  5
3D8
330
1F
100
AcDbEntity
  8
0
  6
Continuous
 62
     7
370
    25
100
AcDbCircle
 10
3822.3002334977
 20
7831.2333357439
 30
0.0
 40
4.50873909691224
100
AcDbArc
 50
70.8209924241
 51
109.3934617666
  0
LWPOLYLINE
  5
3D9
330
1F
100
AcDbEntity
  8
0
  6
Continuous
 62
     7
370
    25
100
AcDbPolyline
 90
        9
 70
   128
 43
0.0
 10
3970.6958825254
 20
7835.4860543159
 10
3970.9987725882
 20
7835.5036711828
 10
3971.4182428277
 20
7835.5694820953
 10
3971.9027235076
 20
7835.661076029
 10
3972.4073769105
 20
7835.7433429044
 10
3972.8448532398
 20
7835.775234789
 10
3973.1564407209
 20
7835.7472255306
 10
3973.3373956044
 20
7835.6752520597
 10
3973.3628113973
 20
7835.6085576315
  0
ARC
  5
3DA
330
1F
100
AcDbEntity
  8
0
  6
Continuous
 62
     7
370
    25
100
AcDbCircle
 10
3981.3160481188
 20
7821.6401913725
 30
0.0
 40
14.11068973845047
100
AcDbArc
 50
92.1449057137
 51
100.9943289928
  0
LWPOLYLINE
  5
3DB
330
1F
100
AcDbEntity
  8
0
  6
Continuous
 62
     7
370
    25
100
AcDbPolyline
 90
        9
 70
   128
 43
0.0
 10
3709.603448575
 20
7835.6083682054
 10
3709.6383548068
 20
7835.6805809297
 10
3709.8531675822
 20
7835.7551600658
 10
3710.2019719978
 20
7835.7739368813
 10
3710.6223081257
 20
7835.7351662284
 10
3711.0901552079
 20
7835.6565222681
 10
3711.583540769
 20
7835.5634671899
 10
3712.0340051541
 20
7835.4965480841
 10
3712.3129194913
 20
7835.4883876018
  0
ARC
  5
3DC
330
1F
100
AcDbEntity
  8
0
  6
Continuous
 62
     7
370
    25
100
AcDbCircle
 10
3704.3683002777
 20
7845.1382648631
 30
0.0
 40
9.649242834655409
100
AcDbArc
 50
256.9416106261
 51
269.6111828955
  0
LWPOLYLINE
  5
3DD
330
1F
100
AcDbEntity
  8
0
  6
Continuous
 62
     8
370
    25
100
AcDbPolyline
 90
       13
 70
   128
 43
0.0
 10
3970.6020096475
 20
8088.5011202505
 10
3970.9397426996
 20
8088.541834483
 10
3971.5878476804
 20
8088.8625922691
 10
3972.1560859267
 20
8089.4781219531
 10
3972.5984221554
 20
8090.3385569807
 10
3972.8790209158
 20
8091.3741900232
 10
3972.9751497652
 20
8092.5011202505
 10
3972.8790209158
 20
8093.6280504779
 10
3972.5984221554
 20
8094.6636835204
 10
3972.1560859267
 20
8095.524118548
 10
3971.5878476804
 20
8096.139648232
 10
3970.9397426996
 20
8096.4604060181
 10
3970.6020096475
 20
8096.5011202505
  0
LWPOLYLINE
  5
3DE
330
1F
100
AcDbEntity
  8
0
  6
Continuous
 62
     8
370
    25
100
AcDbPolyline
 90
       13
 70
   128
 43
0.0
 10
3712.3664956313
 20
8088.5011202505
 10
3712.0287625793
 20
8088.541834483
 10
3711.3806575985
 20
8088.8625922691
 10
3710.8124193521
 20
8089.4781219531
 10
3710.3700831234
 20
8090.3385569807
 10
3710.089484363
 20
8091.3741900232
 10
3709.9933555137
 20
8092.5011202505
 10
3710.089484363
 20
8093.6280504779
 10
3710.3700831234
 20
8094.6636835204
 10
3710.8124193521
 20
8095.524118548
 10
3711.3806575985
 20
8096.139648232
 10
3712.0287625793
 20
8096.4604060181
 10
3712.3664956313
 20
8096.5011202505
  0
LINE
  5
3DF
330
1F
100
AcDbEntity
  8
0
  6
Continuous
 62
     8
370
    25
100
AcDbLine
 10
3871.2638185877
 20
8043.5011202505
 30
0.0
 11
3872.7638185877
 21
8043.5011202505
 31
0.0
  0
LINE
  5
3E0
330
1F
100
AcDbEntity
  8
0
  6
Continuous
 62
     8
370
    25
100
AcDbLine
 10
3869.7638185877
 20
8043.5011202505
 30
0.0
 11
3871.2638185877
 21
8043.5011202505
 31
0.0
  0
LINE
  5
3E1
330
1F
100
AcDbEntity
  8
0
  6
Continuous
 62
     8
370
    25
100
AcDbLine
 10
3866.2638185877
 20
8038.5011202505
 30
0.0
 11
3866.2638185877
 21
8037.0011202505
 31
0.0
  0
LINE
  5
3E2
330
1F
100
AcDbEntity
  8
0
  6
Continuous
 62
     8
370
    25
100
AcDbLine
 10
3866.2638185877
 20
8040.0011202505
 30
0.0
 11
3866.2638185877
 21
8038.5011202505
 31
0.0
  0
LINE
  5
3E3
330
1F
100
AcDbEntity
  8
0
  6
Continuous
 62
     8
370
    25
100
AcDbLine
 10
3816.7046866911
 20
8038.5011202505
 30
0.0
 11
3816.7046866911
 21
8037.0011202505
 31
0.0
  0
LINE
  5
3E4
330
1F
100
AcDbEntity
  8
0
  6
Continuous
 62
     8
370
    25
100
AcDbLine
 10
3816.7046866911
 20
8040.0011202505
 30
0.0
 11
3816.7046866911
 21
8038.5011202505
 31
0.0
  0
LINE
  5
3E5
330
1F
100
AcDbEntity
  8
0
  6
Continuous
 62
     8
370
    25
100
AcDbLine
 10
3811.7046866911
 20
8043.5011202505
 30
0.0
 11
3810.2046866911
 21
8043.5011202505
 31
0.0
  0
LINE
  5
3E6
330
1F
100
AcDbEntity
  8
0
  6
Continuous
 62
     8
370
    25
100
AcDbLine
 10
3813.2046866911
 20
8043.5011202505
 30
0.0
 11
3811.7046866911
 21
8043.5011202505
 31
0.0
  0
LINE
  5
3E7
330
1F
100
AcDbEntity
  8
0
  6
Continuous
 62
     8
370
    25
100
AcDbLine
 10
3911.2844942208
 20
8041.0011202505
 30
0.0
 11
3912.7844942208
 21
8041.0011202505
 31
0.0
  0
LINE
  5
3E8
330
1F
100
AcDbEntity
  8
0
  6
Continuous
 62
     8
370
    25
100
AcDbLine
 10
3909.7844942208
 20
8041.0011202505
 30
0.0
 11
3911.2844942208
 21
8041.0011202505
 31
0.0
  0
LINE
  5
3E9
330
1F
100
AcDbEntity
  8
0
  6
Continuous
 62
     8
370
    25
100
AcDbLine
 10
3906.2844942208
 20
8036.0011202505
 30
0.0
 11
3906.2844942208
 21
8034.5011202505
 31
0.0
  0
LINE
  5
3EA
330
1F
100
AcDbEntity
  8
0
  6
Continuous
 62
     8
370
    25
100
AcDbLine
 10
3906.2844942208
 20
8037.5011202505
 30
0.0
 11
3906.2844942208
 21
8036.0011202505
 31
0.0
  0
LINE
  5
3EB
330
1F
100
AcDbEntity
  8
0
  6
Continuous
 62
     8
370
    25
100
AcDbLine
 10
3776.6840110581
 20
8036.0011202505
 30
0.0
 11
3776.6840110581
 21
8034.5011202505
 31
0.0
  0
LINE
  5
3EC
330
1F
100
AcDbEntity
  8
0
  6
Continuous
 62
     8
370
    25
100
AcDbLine
 10
3776.6840110581
 20
8037.5011202505
 30
0.0
 11
3776.6840110581
 21
8036.0011202505
 31
0.0
  0
LINE
  5
3ED
330
1F
100
AcDbEntity
  8
0
  6
Continuous
 62
     8
370
    25
100
AcDbLine
 10
3771.6840110581
 20
8041.0011202505
 30
0.0
 11
3770.1840110581
 21
8041.0011202505
 31
0.0
  0
LINE
  5
3EE
330
1F
100
AcDbEntity
  8
0
  6
Continuous
 62
     8
370
    25
100
AcDbLine
 10
3773.1840110581
 20
8041.0011202505
 30
0.0
 11
3771.6840110581
 21
8041.0011202505
 31
0.0
  0
LINE
  5
3EF
330
1F
100
AcDbEntity
  8
0
  6
Continuous
 62
     8
370
    25
100
AcDbLine
 10
3937.1363490255
 20
8038.5011202505
 30
0.0
 11
3938.6363490255
 21
8038.5011202505
 31
0.0
  0
LINE
  5
3F0
330
1F
100
AcDbEntity
  8
0
  6
Continuous
 62
     8
370
    25
100
AcDbLine
 10
3935.6363490255
 20
8038.5011202505
 30
0.0
 11
3937.1363490255
 21
8038.5011202505
 31
0.0
  0
LINE
  5
3F1
330
1F
100
AcDbEntity
  8
0
  6
Continuous
 62
     8
370
    25
100
AcDbLine
 10
3932.1363490255
 20
8033.5011202505
 30
0.0
 11
3932.1363490255
 21
8032.0011202505
 31
0.0
  0
LINE
  5
3F2
330
1F
100
AcDbEntity
  8
0
  6
Continuous
 62
     8
370
    25
100
AcDbLine
 10
3932.1363490255
 20
8035.0011202505
 30
0.0
 11
3932.1363490255
 21
8033.5011202505
 31
0.0
  0
LINE
  5
3F3
330
1F
100
AcDbEntity
  8
0
  6
Continuous
 62
     8
370
    25
100
AcDbLine
 10
3750.8321562533
 20
8033.5011202505
 30
0.0
 11
3750.8321562533
 21
8032.0011202505
 31
0.0
  0
LINE
  5
3F4
330
1F
100
AcDbEntity
  8
0
  6
Continuous
 62
     8
370
    25
100
AcDbLine
 10
3750.8321562533
 20
8035.0011202505
 30
0.0
 11
3750.8321562533
 21
8033.5011202505
 31
0.0
  0
LINE
  5
3F5
330
1F
100
AcDbEntity
  8
0
  6
Continuous
 62
     8
370
    25
100
AcDbLine
 10
3745.8321562533
 20
8038.5011202505
 30
0.0
 11
3744.3321562533
 21
8038.5011202505
 31
0.0
  0
LINE
  5
3F6
330
1F
100
AcDbEntity
  8
0
  6
Continuous
 62
     8
370
    25
100
AcDbLine
 10
3747.3321562533
 20
8038.5011202505
 30
0.0
 11
3745.8321562533
 21
8038.5011202505
 31
0.0
  0
LINE
  5
3F7
330
1F
100
AcDbEntity
  8
0
  6
Continuous
 62
     8
370
    25
100
AcDbLine
 10
3956.3743234083
 20
8038.5011202505
 30
0.0
 11
3957.8743234083
 21
8038.5011202505
 31
0.0
  0
LINE
  5
3F8
330
1F
100
AcDbEntity
  8
0
  6
Continuous
 62
     8
370
    25
100
AcDbLine
 10
3954.8743234083
 20
8038.5011202505
 30
0.0
 11
3956.3743234083
 21
8038.5011202505
 31
0.0
  0
LINE
  5
3F9
330
1F
100
AcDbEntity
  8
0
  6
Continuous
 62
     8
370
    25
100
AcDbLine
 10
3951.3743234083
 20
8033.5011202505
 30
0.0
 11
3951.3743234083
 21
8032.0011202505
 31
0.0
  0
LINE
  5
3FA
330
1F
100
AcDbEntity
  8
0
  6
Continuous
 62
     8
370
    25
100
AcDbLine
 10
3951.3743234083
 20
8035.0011202505
 30
0.0
 11
3951.3743234083
 21
8033.5011202505
 31
0.0
  0
LINE
  5
3FB
330
1F
100
AcDbEntity
  8
0
  6
Continuous
 62
     8
370
    25
100
AcDbLine
 10
3731.5941818705
 20
8033.5011202505
 30
0.0
 11
3731.5941818705
 21
8032.0011202505
 31
0.0
  0
LINE
  5
3FC
330
1F
100
AcDbEntity
  8
0
  6
Continuous
 62
     8
370
    25
100
AcDbLine
 10
3731.5941818705
 20
8035.0011202505
 30
0.0
 11
3731.5941818705
 21
8033.5011202505
 31
0.0
  0
LINE
  5
3FD
330
1F
100
AcDbEntity
  8
0
  6
Continuous
 62
     8
370
    25
100
AcDbLine
 10
3726.5941818705
 20
8038.5011202505
 30
0.0
 11
3725.0941818705
 21
8038.5011202505
 31
0.0
  0
LINE
  5
3FE
330
1F
100
AcDbEntity
  8
0
  6
Continuous
 62
     8
370
    25
100
AcDbLine
 10
3728.0941818705
 20
8038.5011202505
 30
0.0
 11
3726.5941818705
 21
8038.5011202505
 31
0.0
  0
LINE
  5
3FF
330
1F
100
AcDbEntity
  8
0
  6
Continuous
 62
     8
370
    25
100
AcDbLine
 10
3971.8794148504
 20
8038.5011202505
 30
0.0
 11
3973.3794148504
 21
8038.5011202505
 31
0.0
  0
LINE
  5
400
330
1F
100
AcDbEntity
  8
0
  6
Continuous
 62
     8
370
    25
100
AcDbLine
 10
3970.3794148504
 20
8038.5011202505
 30
0.0
 11
3971.8794148504
 21
8038.5011202505
 31
0.0
  0
LINE
  5
401
330
1F
100
AcDbEntity
  8
0
  6
Continuous
 62
     8
370
    25
100
AcDbLine
 10
3966.8794148504
 20
8033.5011202505
 30
0.0
 11
3966.8794148504
 21
8032.0011202505
 31
0.0
  0
LINE
  5
402
330
1F
100
AcDbEntity
  8
0
  6
Continuous
 62
     8
370
    25
100
AcDbLine
 10
3966.8794148504
 20
8035.0011202505
 30
0.0
 11
3966.8794148504
 21
8033.5011202505
 31
0.0
  0
LINE
  5
403
330
1F
100
AcDbEntity
  8
0
  6
Continuous
 62
     8
370
    25
100
AcDbLine
 10
3716.0890904285
 20
8033.5011202505
 30
0.0
 11
3716.0890904285
 21
8032.0011202505
 31
0.0
  0
LINE
  5
404
330
1F
100
AcDbEntity
  8
0
  6
Continuous
 62
     8
370
    25
100
AcDbLine
 10
3716.0890904285
 20
8035.0011202505
 30
0.0
 11
3716.0890904285
 21
8033.5011202505
 31
0.0
  0
LINE
  5
405
330
1F
100
AcDbEntity
  8
0
  6
Continuous
 62
     8
370
    25
100
AcDbLine
 10
3711.0890904285
 20
8038.5011202505
 30
0.0
 11
3709.5890904285
 21
8038.5011202505
 31
0.0
  0
LINE
  5
406
330
1F
100
AcDbEntity
  8
0
  6
Continuous
 62
     8
370
    25
100
AcDbLine
 10
3712.5890904285
 20
8038.5011202505
 30
0.0
 11
3711.0890904285
 21
8038.5011202505
 31
0.0
  0
LINE
  5
407
330
1F
100
AcDbEntity
  8
0
  6
Continuous
 62
     8
370
    25
100
AcDbLine
 10
3979.2922048121
 20
8038.5011202505
 30
0.0
 11
3980.7922048121
 21
8038.5011202505
 31
0.0
  0
LINE
  5
408
330
1F
100
AcDbEntity
  8
0
  6
Continuous
 62
     8
370
    25
100
AcDbLine
 10
3977.7922048121
 20
8038.5011202505
 30
0.0
 11
3979.2922048121
 21
8038.5011202505
 31
0.0
  0
LINE
  5
409
330
1F
100
AcDbEntity
  8
0
  6
Continuous
 62
     8
370
    25
100
AcDbLine
 10
3974.2922048121
 20
8033.5011202505
 30
0.0
 11
3974.2922048121
 21
8032.0011202505
 31
0.0
  0
LINE
  5
40A
330
1F
100
AcDbEntity
  8
0
  6
Continuous
 62
     8
370
    25
100
AcDbLine
 10
3974.2922048121
 20
8035.0011202505
 30
0.0
 11
3974.2922048121
 21
8033.5011202505
 31
0.0
  0
LINE
  5
40B
330
1F
100
AcDbEntity
  8
0
  6
Continuous
 62
     8
370
    25
100
AcDbLine
 10
3708.6763004667
 20
8033.5011202505
 30
0.0
 11
3708.6763004667
 21
8032.0011202505
 31
0.0
  0
LINE
  5
40C
330
1F
100
AcDbEntity
  8
0
  6
Continuous
 62
     8
370
    25
100
AcDbLine
 10
3708.6763004667
 20
8035.0011202505
 30
0.0
 11
3708.6763004667
 21
8033.5011202505
 31
0.0
  0
LINE
  5
40D
330
1F
100
AcDbEntity
  8
0
  6
Continuous
 62
     8
370
    25
100
AcDbLine
 10
3703.6763004667
 20
8038.5011202505
 30
0.0
 11
3702.1763004667
 21
8038.5011202505
 31
0.0
  0
LINE
  5
40E
330
1F
100
AcDbEntity
  8
0
  6
Continuous
 62
     8
370
    25
100
AcDbLine
 10
3705.1763004667
 20
8038.5011202505
 30
0.0
 11
3703.6763004667
 21
8038.5011202505
 31
0.0
  0
LINE
  5
40F
330
1F
100
AcDbEntity
  8
0
  6
Continuous
 62
     8
370
    25
100
AcDbLine
 10
3980.7922048121
 20
8038.5011202505
 30
0.0
 11
3982.1744452211
 21
8038.5011202505
 31
0.0
  0
LINE
  5
410
330
1F
100
AcDbEntity
  8
0
  6
Continuous
 62
     8
370
    25
100
AcDbLine
 10
3975.6744452211
 20
8032.1497887797
 30
0.0
 11
3975.6744452211
 21
8032.0011202505
 31
0.0
  0
LINE
  5
411
330
1F
100
AcDbEntity
  8
0
  6
Continuous
 62
     8
370
    25
100
AcDbLine
 10
3707.2940600577
 20
8032.1497887797
 30
0.0
 11
3707.2940600577
 21
8032.0011202505
 31
0.0
  0
LINE
  5
412
330
1F
100
AcDbEntity
  8
0
  6
Continuous
 62
     8
370
    25
100
AcDbLine
 10
3702.1763004667
 20
8038.5011202505
 30
0.0
 11
3700.7940600577
 21
8038.5011202505
 31
0.0
  0
LINE
  5
413
330
1F
100
AcDbEntity
  8
0
  6
Continuous
 62
     8
370
    25
100
AcDbLine
 10
3977.2251808679
 20
8038.5011202505
 30
0.0
 11
3977.7922048121
 21
8038.5011202505
 31
0.0
  0
LINE
  5
414
330
1F
100
AcDbEntity
  8
0
  6
Continuous
 62
     8
370
    25
100
AcDbLine
 10
3975.7251808679
 20
8038.5011202505
 30
0.0
 11
3977.2251808679
 21
8038.5011202505
 31
0.0
  0
LINE
  5
415
330
1F
100
AcDbEntity
  8
0
  6
Continuous
 62
     8
370
    25
100
AcDbLine
 10
3705.7433244109
 20
8038.5011202505
 30
0.0
 11
3705.1763004667
 21
8038.5011202505
 31
0.0
  0
LINE
  5
416
330
1F
100
AcDbEntity
  8
0
  6
Continuous
 62
     8
370
    25
100
AcDbLine
 10
3707.2433244109
 20
8038.5011202505
 30
0.0
 11
3705.7433244109
 21
8038.5011202505
 31
0.0
  0
LINE
  5
417
330
1F
100
AcDbEntity
  8
0
  6
Continuous
 62
     8
370
    25
100
AcDbLine
 10
3967.3212822787
 20
8038.5011202505
 30
0.0
 11
3968.8212822787
 21
8038.5011202505
 31
0.0
  0
LINE
  5
418
330
1F
100
AcDbEntity
  8
0
  6
Continuous
 62
     8
370
    25
100
AcDbLine
 10
3965.8212822787
 20
8038.5011202505
 30
0.0
 11
3967.3212822787
 21
8038.5011202505
 31
0.0
  0
LINE
  5
419
330
1F
100
AcDbEntity
  8
0
  6
Continuous
 62
     8
370
    25
100
AcDbLine
 10
3715.6472230002
 20
8038.5011202505
 30
0.0
 11
3714.1472230002
 21
8038.5011202505
 31
0.0
  0
LINE
  5
41A
330
1F
100
AcDbEntity
  8
0
  6
Continuous
 62
     8
370
    25
100
AcDbLine
 10
3717.1472230002
 20
8038.5011202505
 30
0.0
 11
3715.6472230002
 21
8038.5011202505
 31
0.0
  0
LINE
  5
41B
330
1F
100
AcDbEntity
  8
0
  6
Continuous
 62
     8
370
    25
100
AcDbLine
 10
3954.5549410398
 20
8038.5011202505
 30
0.0
 11
3954.8743234083
 21
8038.5011202505
 31
0.0
  0
LINE
  5
41C
330
1F
100
AcDbEntity
  8
0
  6
Continuous
 62
     8
370
    25
100
AcDbLine
 10
3728.4135642391
 20
8038.5011202505
 30
0.0
 11
3728.0941818705
 21
8038.5011202505
 31
0.0
  0
LINE
  5
41D
330
1F
100
AcDbEntity
  8
0
  6
Continuous
 62
     8
370
    25
100
AcDbLine
 10
3944.7885998009
 20
8038.5011202505
 30
0.0
 11
3946.2885998009
 21
8038.5011202505
 31
0.0
  0
LINE
  5
41E
330
1F
100
AcDbEntity
  8
0
  6
Continuous
 62
     8
370
    25
100
AcDbLine
 10
3943.2885998009
 20
8038.5011202505
 30
0.0
 11
3944.7885998009
 21
8038.5011202505
 31
0.0
  0
LINE
  5
41F
330
1F
100
AcDbEntity
  8
0
  6
Continuous
 62
     8
370
    25
100
AcDbLine
 10
3738.1799054779
 20
8038.5011202505
 30
0.0
 11
3736.6799054779
 21
8038.5011202505
 31
0.0
  0
LINE
  5
420
330
1F
100
AcDbEntity
  8
0
  6
Continuous
 62
     8
370
    25
100
AcDbLine
 10
3739.6799054779
 20
8038.5011202505
 30
0.0
 11
3738.1799054779
 21
8038.5011202505
 31
0.0
  0
LINE
  5
421
330
1F
100
AcDbEntity
  8
0
  6
Continuous
 62
     8
370
    25
100
AcDbLine
 10
3933.522258562
 20
8038.5011202505
 30
0.0
 11
3935.022258562
 21
8038.5011202505
 31
0.0
  0
LINE
  5
422
330
1F
100
AcDbEntity
  8
0
  6
Continuous
 62
     8
370
    25
100
AcDbLine
 10
3932.022258562
 20
8038.5011202505
 30
0.0
 11
3933.522258562
 21
8038.5011202505
 31
0.0
  0
LINE
  5
423
330
1F
100
AcDbEntity
  8
0
  6
Continuous
 62
     8
370
    25
100
AcDbLine
 10
3749.4462467168
 20
8038.5011202505
 30
0.0
 11
3747.9462467168
 21
8038.5011202505
 31
0.0
  0
LINE
  5
424
330
1F
100
AcDbEntity
  8
0
  6
Continuous
 62
     8
370
    25
100
AcDbLine
 10
3750.9462467168
 20
8038.5011202505
 30
0.0
 11
3749.4462467168
 21
8038.5011202505
 31
0.0
  0
LINE
  5
425
330
1F
100
AcDbEntity
  8
0
  6
Continuous
 62
     8
370
    25
100
AcDbLine
 10
3922.2559173231
 20
8038.5011202505
 30
0.0
 11
3923.7559173231
 21
8038.5011202505
 31
0.0
  0
LINE
  5
426
330
1F
100
AcDbEntity
  8
0
  6
Continuous
 62
     8
370
    25
100
AcDbLine
 10
3920.7559173231
 20
8038.5011202505
 30
0.0
 11
3922.2559173231
 21
8038.5011202505
 31
0.0
  0
LINE
  5
427
330
1F
100
AcDbEntity
  8
0
  6
Continuous
 62
     8
370
    25
100
AcDbLine
 10
3760.7125879557
 20
8038.5011202505
 30
0.0
 11
3759.2125879557
 21
8038.5011202505
 31
0.0
  0
LINE
  5
428
330
1F
100
AcDbEntity
  8
0
  6
Continuous
 62
     8
370
    25
100
AcDbLine
 10
3762.2125879557
 20
8038.5011202505
 30
0.0
 11
3760.7125879557
 21
8038.5011202505
 31
0.0
  0
LINE
  5
429
330
1F
100
AcDbEntity
  8
0
  6
Continuous
 62
     8
370
    25
100
AcDbLine
 10
3912.2844942208
 20
8038.5011202505
 30
0.0
 11
3912.4895760842
 21
8038.5011202505
 31
0.0
  0
LINE
  5
42A
330
1F
100
AcDbEntity
  8
0
  6
Continuous
 62
     8
370
    25
100
AcDbLine
 10
3770.6840110581
 20
8038.5011202505
 30
0.0
 11
3770.4789291946
 21
8038.5011202505
 31
0.0
  0
LINE
  5
42B
330
1F
100
AcDbEntity
  8
0
  6
Continuous
 62
     8
370
    25
100
AcDbLine
 10
3899.7232348453
 20
8038.5011202505
 30
0.0
 11
3901.2232348453
 21
8038.5011202505
 31
0.0
  0
LINE
  5
42C
330
1F
100
AcDbEntity
  8
0
  6
Continuous
 62
     8
370
    25
100
AcDbLine
 10
3898.2232348453
 20
8038.5011202505
 30
0.0
 11
3899.7232348453
 21
8038.5011202505
 31
0.0
  0
LINE
  5
42D
330
1F
100
AcDbEntity
  8
0
  6
Continuous
 62
     8
370
    25
100
AcDbLine
 10
3783.2452704335
 20
8038.5011202505
 30
0.0
 11
3781.7452704335
 21
8038.5011202505
 31
0.0
  0
LINE
  5
42E
330
1F
100
AcDbEntity
  8
0
  6
Continuous
 62
     8
370
    25
100
AcDbLine
 10
3784.7452704335
 20
8038.5011202505
 30
0.0
 11
3783.2452704335
 21
8038.5011202505
 31
0.0
  0
LINE
  5
42F
330
1F
100
AcDbEntity
  8
0
  6
Continuous
 62
     8
370
    25
100
AcDbLine
 10
3888.4568936065
 20
8038.5011202505
 30
0.0
 11
3889.9568936065
 21
8038.5011202505
 31
0.0
  0
LINE
  5
430
330
1F
100
AcDbEntity
  8
0
  6
Continuous
 62
     8
370
    25
100
AcDbLine
 10
3886.9568936065
 20
8038.5011202505
 30
0.0
 11
3888.4568936065
 21
8038.5011202505
 31
0.0
  0
LINE
  5
431
330
1F
100
AcDbEntity
  8
0
  6
Continuous
 62
     8
370
    25
100
AcDbLine
 10
3794.5116116724
 20
8038.5011202505
 30
0.0
 11
3793.0116116724
 21
8038.5011202505
 31
0.0
  0
LINE
  5
432
330
1F
100
AcDbEntity
  8
0
  6
Continuous
 62
     8
370
    25
100
AcDbLine
 10
3796.0116116724
 20
8038.5011202505
 30
0.0
 11
3794.5116116724
 21
8038.5011202505
 31
0.0
  0
LINE
  5
433
330
1F
100
AcDbEntity
  8
0
  6
Continuous
 62
     8
370
    25
100
AcDbLine
 10
3877.1905523676
 20
8038.5011202505
 30
0.0
 11
3878.6905523676
 21
8038.5011202505
 31
0.0
  0
LINE
  5
434
330
1F
100
AcDbEntity
  8
0
  6
Continuous
 62
     8
370
    25
100
AcDbLine
 10
3875.6905523676
 20
8038.5011202505
 30
0.0
 11
3877.1905523676
 21
8038.5011202505
 31
0.0
  0
LINE
  5
435
330
1F
100
AcDbEntity
  8
0
  6
Continuous
 62
     8
370
    25
100
AcDbLine
 10
3805.7779529113
 20
8038.5011202505
 30
0.0
 11
3804.2779529113
 21
8038.5011202505
 31
0.0
  0
LINE
  5
436
330
1F
100
AcDbEntity
  8
0
  6
Continuous
 62
     8
370
    25
100
AcDbLine
 10
3807.2779529113
 20
8038.5011202505
 30
0.0
 11
3805.7779529113
 21
8038.5011202505
 31
0.0
  0
LINE
  5
437
330
1F
100
AcDbEntity
  8
0
  6
Continuous
 62
     8
370
    25
100
AcDbLine
 10
3854.6578698898
 20
8043.5011202505
 30
0.0
 11
3856.1578698898
 21
8043.5011202505
 31
0.0
  0
LINE
  5
438
330
1F
100
AcDbEntity
  8
0
  6
Continuous
 62
     8
370
    25
100
AcDbLine
 10
3853.1578698898
 20
8043.5011202505
 30
0.0
 11
3854.6578698898
 21
8043.5011202505
 31
0.0
  0
LINE
  5
439
330
1F
100
AcDbEntity
  8
0
  6
Continuous
 62
     8
370
    25
100
AcDbLine
 10
3828.310635389
 20
8043.5011202505
 30
0.0
 11
3826.810635389
 21
8043.5011202505
 31
0.0
  0
LINE
  5
43A
330
1F
100
AcDbEntity
  8
0
  6
Continuous
 62
     8
370
    25
100
AcDbLine
 10
3829.810635389
 20
8043.5011202505
 30
0.0
 11
3828.310635389
 21
8043.5011202505
 31
0.0
  0
LWPOLYLINE
  5
43B
330
1F
100
AcDbEntity
  8
0
  6
Continuous
 62
     8
370
    25
100
AcDbPolyline
 90
       13
 70
   128
 43
0.0
 10
3970.6020151217
 20
7835.4833343144
 10
3970.9397481738
 20
7835.5240485469
 10
3971.5878531545
 20
7835.844806333
 10
3972.1560914009
 20
7836.460336017
 10
3972.5984276296
 20
7837.3207710446
 10
3972.87902639
 20
7838.3564040871
 10
3972.9751552394
 20
7839.4833343144
 10
3972.87902639
 20
7840.6102645418
 10
3972.5984276296
 20
7841.6458975843
 10
3972.1560914009
 20
7842.5063326119
 10
3971.5878531545
 20
7843.1218622959
 10
3970.9397481738
 20
7843.442620082
 10
3970.6020151217
 20
7843.4833343144
  0
LWPOLYLINE
  5
43C
330
1F
100
AcDbEntity
  8
0
  6
Continuous
 62
     8
370
    25
100
AcDbPolyline
 90
       13
 70
   128
 43
0.0
 10
3712.3665011055
 20
7835.4833343144
 10
3712.0287680534
 20
7835.5240485469
 10
3711.3806630727
 20
7835.844806333
 10
3710.8124248263
 20
7836.460336017
 10
3710.3700885976
 20
7837.3207710446
 10
3710.0894898372
 20
7838.3564040871
 10
3709.9933609878
 20
7839.4833343144
 10
3710.0894898372
 20
7840.6102645418
 10
3710.3700885976
 20
7841.6458975843
 10
3710.8124248263
 20
7842.5063326119
 10
3711.3806630727
 20
7843.1218622959
 10
3712.0287680534
 20
7843.442620082
 10
3712.3665011055
 20
7843.4833343144
  0
LINE
  5
43D
330
1F
100
AcDbEntity
  8
0
  6
Continuous
 62
     8
370
    25
100
AcDbLine
 10
3860.6670344137
 20
7827.4833343144
 30
0.0
 11
3862.1670344137
 21
7827.4833343144
 31
0.0
  0
LINE
  5
43E
330
1F
100
AcDbEntity
  8
0
  6
Continuous
 62
     8
370
    25
100
AcDbLine
 10
3859.1670344137
 20
7827.4833343144
 30
0.0
 11
3860.6670344137
 21
7827.4833343144
 31
0.0
  0
LINE
  5
43F
330
1F
100
AcDbEntity
  8
0
  6
Continuous
 62
     8
370
    25
100
AcDbLine
 10
3855.6670344137
 20
7822.4833343144
 30
0.0
 11
3855.6670344137
 21
7820.9833343144
 31
0.0
  0
LINE
  5
440
330
1F
100
AcDbEntity
  8
0
  6
Continuous
 62
     8
370
    25
100
AcDbLine
 10
3855.6670344137
 20
7823.9833343144
 30
0.0
 11
3855.6670344137
 21
7822.4833343144
 31
0.0
  0
LINE
  5
441
330
1F
100
AcDbEntity
  8
0
  6
Continuous
 62
     8
370
    25
100
AcDbLine
 10
3827.3014818135
 20
7822.4833343144
 30
0.0
 11
3827.3014818135
 21
7820.9833343144
 31
0.0
  0
LINE
  5
442
330
1F
100
AcDbEntity
  8
0
  6
Continuous
 62
     8
370
    25
100
AcDbLine
 10
3827.3014818135
 20
7823.9833343144
 30
0.0
 11
3827.3014818135
 21
7822.4833343144
 31
0.0
  0
LINE
  5
443
330
1F
100
AcDbEntity
  8
0
  6
Continuous
 62
     8
370
    25
100
AcDbLine
 10
3822.3014818135
 20
7827.4833343144
 30
0.0
 11
3820.8014818135
 21
7827.4833343144
 31
0.0
  0
LINE
  5
444
330
1F
100
AcDbEntity
  8
0
  6
Continuous
 62
     8
370
    25
100
AcDbLine
 10
3823.8014818135
 20
7827.4833343144
 30
0.0
 11
3822.3014818135
 21
7827.4833343144
 31
0.0
  0
LINE
  5
445
330
1F
100
AcDbEntity
  8
0
  6
Continuous
 62
     8
370
    25
100
AcDbLine
 10
3911.2844996949
 20
7823.9833343144
 30
0.0
 11
3912.7844996949
 21
7823.9833343144
 31
0.0
  0
LINE
  5
446
330
1F
100
AcDbEntity
  8
0
  6
Continuous
 62
     8
370
    25
100
AcDbLine
 10
3909.7844996949
 20
7823.9833343144
 30
0.0
 11
3911.2844996949
 21
7823.9833343144
 31
0.0
  0
LINE
  5
447
330
1F
100
AcDbEntity
  8
0
  6
Continuous
 62
     8
370
    25
100
AcDbLine
 10
3906.2844996949
 20
7818.9833343144
 30
0.0
 11
3906.2844996949
 21
7817.4833343144
 31
0.0
  0
LINE
  5
448
330
1F
100
AcDbEntity
  8
0
  6
Continuous
 62
     8
370
    25
100
AcDbLine
 10
3906.2844996949
 20
7820.4833343144
 30
0.0
 11
3906.2844996949
 21
7818.9833343144
 31
0.0
  0
LINE
  5
449
330
1F
100
AcDbEntity
  8
0
  6
Continuous
 62
     8
370
    25
100
AcDbLine
 10
3776.6840165322
 20
7818.9833343144
 30
0.0
 11
3776.6840165322
 21
7817.4833343144
 31
0.0
  0
LINE
  5
44A
330
1F
100
AcDbEntity
  8
0
  6
Continuous
 62
     8
370
    25
100
AcDbLine
 10
3776.6840165322
 20
7820.4833343144
 30
0.0
 11
3776.6840165322
 21
7818.9833343144
 31
0.0
  0
LINE
  5
44B
330
1F
100
AcDbEntity
  8
0
  6
Continuous
 62
     8
370
    25
100
AcDbLine
 10
3771.6840165322
 20
7823.9833343144
 30
0.0
 11
3770.1840165322
 21
7823.9833343144
 31
0.0
  0
LINE
  5
44C
330
1F
100
AcDbEntity
  8
0
  6
Continuous
 62
     8
370
    25
100
AcDbLine
 10
3773.1840165322
 20
7823.9833343144
 30
0.0
 11
3771.6840165322
 21
7823.9833343144
 31
0.0
  0
LINE
  5
44D
330
1F
100
AcDbEntity
  8
0
  6
Continuous
 62
     8
370
    25
100
AcDbLine
 10
3937.1363544997
 20
7820.4833343144
 30
0.0
 11
3938.6363544997
 21
7820.4833343144
 31
0.0
  0
LINE
  5
44E
330
1F
100
AcDbEntity
  8
0
  6
Continuous
 62
     8
370
    25
100
AcDbLine
 10
3935.6363544997
 20
7820.4833343144
 30
0.0
 11
3937.1363544997
 21
7820.4833343144
 31
0.0
  0
LINE
  5
44F
330
1F
100
AcDbEntity
  8
0
  6
Continuous
 62
     8
370
    25
100
AcDbLine
 10
3932.1363544997
 20
7815.4833343144
 30
0.0
 11
3932.1363544997
 21
7813.9833343144
 31
0.0
  0
LINE
  5
450
330
1F
100
AcDbEntity
  8
0
  6
Continuous
 62
     8
370
    25
100
AcDbLine
 10
3932.1363544997
 20
7816.9833343144
 30
0.0
 11
3932.1363544997
 21
7815.4833343144
 31
0.0
  0
LINE
  5
451
330
1F
100
AcDbEntity
  8
0
  6
Continuous
 62
     8
370
    25
100
AcDbLine
 10
3750.8321617275
 20
7815.4833343144
 30
0.0
 11
3750.8321617275
 21
7813.9833343144
 31
0.0
  0
LINE
  5
452
330
1F
100
AcDbEntity
  8
0
  6
Continuous
 62
     8
370
    25
100
AcDbLine
 10
3750.8321617275
 20
7816.9833343144
 30
0.0
 11
3750.8321617275
 21
7815.4833343144
 31
0.0
  0
LINE
  5
453
330
1F
100
AcDbEntity
  8
0
  6
Continuous
 62
     8
370
    25
100
AcDbLine
 10
3745.8321617275
 20
7820.4833343144
 30
0.0
 11
3744.3321617275
 21
7820.4833343144
 31
0.0
  0
LINE
  5
454
330
1F
100
AcDbEntity
  8
0
  6
Continuous
 62
     8
370
    25
100
AcDbLine
 10
3747.3321617275
 20
7820.4833343144
 30
0.0
 11
3745.8321617275
 21
7820.4833343144
 31
0.0
  0
LINE
  5
455
330
1F
100
AcDbEntity
  8
0
  6
Continuous
 62
     8
370
    25
100
AcDbLine
 10
3956.3743288825
 20
7820.4833343144
 30
0.0
 11
3957.8743288825
 21
7820.4833343144
 31
0.0
  0
LINE
  5
456
330
1F
100
AcDbEntity
  8
0
  6
Continuous
 62
     8
370
    25
100
AcDbLine
 10
3954.8743288825
 20
7820.4833343144
 30
0.0
 11
3956.3743288825
 21
7820.4833343144
 31
0.0
  0
LINE
  5
457
330
1F
100
AcDbEntity
  8
0
  6
Continuous
 62
     8
370
    25
100
AcDbLine
 10
3951.3743288825
 20
7815.4833343144
 30
0.0
 11
3951.3743288825
 21
7813.9833343144
 31
0.0
  0
LINE
  5
458
330
1F
100
AcDbEntity
  8
0
  6
Continuous
 62
     8
370
    25
100
AcDbLine
 10
3951.3743288825
 20
7816.9833343144
 30
0.0
 11
3951.3743288825
 21
7815.4833343144
 31
0.0
  0
LINE
  5
459
330
1F
100
AcDbEntity
  8
0
  6
Continuous
 62
     8
370
    25
100
AcDbLine
 10
3731.5941873447
 20
7815.4833343144
 30
0.0
 11
3731.5941873447
 21
7813.9833343144
 31
0.0
  0
LINE
  5
45A
330
1F
100
AcDbEntity
  8
0
  6
Continuous
 62
     8
370
    25
100
AcDbLine
 10
3731.5941873447
 20
7816.9833343144
 30
0.0
 11
3731.5941873447
 21
7815.4833343144
 31
0.0
  0
LINE
  5
45B
330
1F
100
AcDbEntity
  8
0
  6
Continuous
 62
     8
370
    25
100
AcDbLine
 10
3726.5941873447
 20
7820.4833343144
 30
0.0
 11
3725.0941873447
 21
7820.4833343144
 31
0.0
  0
LINE
  5
45C
330
1F
100
AcDbEntity
  8
0
  6
Continuous
 62
     8
370
    25
100
AcDbLine
 10
3728.0941873447
 20
7820.4833343144
 30
0.0
 11
3726.5941873447
 21
7820.4833343144
 31
0.0
  0
LINE
  5
45D
330
1F
100
AcDbEntity
  8
0
  6
Continuous
 62
     8
370
    25
100
AcDbLine
 10
3971.8794203245
 20
7820.4833343144
 30
0.0
 11
3973.3794203245
 21
7820.4833343144
 31
0.0
  0
LINE
  5
45E
330
1F
100
AcDbEntity
  8
0
  6
Continuous
 62
     8
370
    25
100
AcDbLine
 10
3970.3794203245
 20
7820.4833343144
 30
0.0
 11
3971.8794203245
 21
7820.4833343144
 31
0.0
  0
LINE
  5
45F
330
1F
100
AcDbEntity
  8
0
  6
Continuous
 62
     8
370
    25
100
AcDbLine
 10
3966.8794203245
 20
7815.4833343144
 30
0.0
 11
3966.8794203245
 21
7813.9833343144
 31
0.0
  0
LINE
  5
460
330
1F
100
AcDbEntity
  8
0
  6
Continuous
 62
     8
370
    25
100
AcDbLine
 10
3966.8794203245
 20
7816.9833343144
 30
0.0
 11
3966.8794203245
 21
7815.4833343144
 31
0.0
  0
LINE
  5
461
330
1F
100
AcDbEntity
  8
0
  6
Continuous
 62
     8
370
    25
100
AcDbLine
 10
3716.0890959027
 20
7815.4833343144
 30
0.0
 11
3716.0890959027
 21
7813.9833343144
 31
0.0
  0
LINE
  5
462
330
1F
100
AcDbEntity
  8
0
  6
Continuous
 62
     8
370
    25
100
AcDbLine
 10
3716.0890959027
 20
7816.9833343144
 30
0.0
 11
3716.0890959027
 21
7815.4833343144
 31
0.0
  0
LINE
  5
463
330
1F
100
AcDbEntity
  8
0
  6
Continuous
 62
     8
370
    25
100
AcDbLine
 10
3711.0890959027
 20
7820.4833343144
 30
0.0
 11
3709.5890959027
 21
7820.4833343144
 31
0.0
  0
LINE
  5
464
330
1F
100
AcDbEntity
  8
0
  6
Continuous
 62
     8
370
    25
100
AcDbLine
 10
3712.5890959027
 20
7820.4833343144
 30
0.0
 11
3711.0890959027
 21
7820.4833343144
 31
0.0
  0
LINE
  5
465
330
1F
100
AcDbEntity
  8
0
  6
Continuous
 62
     8
370
    25
100
AcDbLine
 10
3979.2922102863
 20
7820.4833343144
 30
0.0
 11
3980.7922102863
 21
7820.4833343144
 31
0.0
  0
LINE
  5
466
330
1F
100
AcDbEntity
  8
0
  6
Continuous
 62
     8
370
    25
100
AcDbLine
 10
3977.7922102863
 20
7820.4833343144
 30
0.0
 11
3979.2922102863
 21
7820.4833343144
 31
0.0
  0
LINE
  5
467
330
1F
100
AcDbEntity
  8
0
  6
Continuous
 62
     8
370
    25
100
AcDbLine
 10
3974.2922102863
 20
7815.4833343144
 30
0.0
 11
3974.2922102863
 21
7813.9833343144
 31
0.0
  0
LINE
  5
468
330
1F
100
AcDbEntity
  8
0
  6
Continuous
 62
     8
370
    25
100
AcDbLine
 10
3974.2922102863
 20
7816.9833343144
 30
0.0
 11
3974.2922102863
 21
7815.4833343144
 31
0.0
  0
LINE
  5
469
330
1F
100
AcDbEntity
  8
0
  6
Continuous
 62
     8
370
    25
100
AcDbLine
 10
3708.6763059409
 20
7815.4833343144
 30
0.0
 11
3708.6763059409
 21
7813.9833343144
 31
0.0
  0
LINE
  5
46A
330
1F
100
AcDbEntity
  8
0
  6
Continuous
 62
     8
370
    25
100
AcDbLine
 10
3708.6763059409
 20
7816.9833343144
 30
0.0
 11
3708.6763059409
 21
7815.4833343144
 31
0.0
  0
LINE
  5
46B
330
1F
100
AcDbEntity
  8
0
  6
Continuous
 62
     8
370
    25
100
AcDbLine
 10
3703.6763059409
 20
7820.4833343144
 30
0.0
 11
3702.1763059409
 21
7820.4833343144
 31
0.0
  0
LINE
  5
46C
330
1F
100
AcDbEntity
  8
0
  6
Continuous
 62
     8
370
    25
100
AcDbLine
 10
3705.1763059409
 20
7820.4833343144
 30
0.0
 11
3703.6763059409
 21
7820.4833343144
 31
0.0
  0
LINE
  5
46D
330
1F
100
AcDbEntity
  8
0
  6
Continuous
 62
     8
370
    25
100
AcDbLine
 10
3980.7922102863
 20
7820.4833343144
 30
0.0
 11
3982.1744506953
 21
7820.4833343144
 31
0.0
  0
LINE
  5
46E
330
1F
100
AcDbEntity
  8
0
  6
Continuous
 62
     8
370
    25
100
AcDbLine
 10
3975.6744506953
 20
7814.1320028437
 30
0.0
 11
3975.6744506953
 21
7813.9833343144
 31
0.0
  0
LINE
  5
46F
330
1F
100
AcDbEntity
  8
0
  6
Continuous
 62
     8
370
    25
100
AcDbLine
 10
3707.2940655319
 20
7814.1320028437
 30
0.0
 11
3707.2940655319
 21
7813.9833343144
 31
0.0
  0
LINE
  5
470
330
1F
100
AcDbEntity
  8
0
  6
Continuous
 62
     8
370
    25
100
AcDbLine
 10
3702.1763059409
 20
7820.4833343144
 30
0.0
 11
3700.7940655319
 21
7820.4833343144
 31
0.0
  0
LINE
  5
471
330
1F
100
AcDbEntity
  8
0
  6
Continuous
 62
     8
370
    25
100
AcDbLine
 10
3977.2251863421
 20
7820.4833343144
 30
0.0
 11
3977.7922102863
 21
7820.4833343144
 31
0.0
  0
LINE
  5
472
330
1F
100
AcDbEntity
  8
0
  6
Continuous
 62
     8
370
    25
100
AcDbLine
 10
3975.7251863421
 20
7820.4833343144
 30
0.0
 11
3977.2251863421
 21
7820.4833343144
 31
0.0
  0
LINE
  5
473
330
1F
100
AcDbEntity
  8
0
  6
Continuous
 62
     8
370
    25
100
AcDbLine
 10
3705.7433298851
 20
7820.4833343144
 30
0.0
 11
3705.1763059409
 21
7820.4833343144
 31
0.0
  0
LINE
  5
474
330
1F
100
AcDbEntity
  8
0
  6
Continuous
 62
     8
370
    25
100
AcDbLine
 10
3707.2433298851
 20
7820.4833343144
 30
0.0
 11
3705.7433298851
 21
7820.4833343144
 31
0.0
  0
LINE
  5
475
330
1F
100
AcDbEntity
  8
0
  6
Continuous
 62
     8
370
    25
100
AcDbLine
 10
3967.3212877528
 20
7820.4833343144
 30
0.0
 11
3968.8212877528
 21
7820.4833343144
 31
0.0
  0
LINE
  5
476
330
1F
100
AcDbEntity
  8
0
  6
Continuous
 62
     8
370
    25
100
AcDbLine
 10
3965.8212877528
 20
7820.4833343144
 30
0.0
 11
3967.3212877528
 21
7820.4833343144
 31
0.0
  0
LINE
  5
477
330
1F
100
AcDbEntity
  8
0
  6
Continuous
 62
     8
370
    25
100
AcDbLine
 10
3715.6472284743
 20
7820.4833343144
 30
0.0
 11
3714.1472284743
 21
7820.4833343144
 31
0.0
  0
LINE
  5
478
330
1F
100
AcDbEntity
  8
0
  6
Continuous
 62
     8
370
    25
100
AcDbLine
 10
3717.1472284743
 20
7820.4833343144
 30
0.0
 11
3715.6472284743
 21
7820.4833343144
 31
0.0
  0
LINE
  5
479
330
1F
100
AcDbEntity
  8
0
  6
Continuous
 62
     8
370
    25
100
AcDbLine
 10
3954.554946514
 20
7820.4833343144
 30
0.0
 11
3954.8743288825
 21
7820.4833343144
 31
0.0
  0
LINE
  5
47A
330
1F
100
AcDbEntity
  8
0
  6
Continuous
 62
     8
370
    25
100
AcDbLine
 10
3728.4135697132
 20
7820.4833343144
 30
0.0
 11
3728.0941873447
 21
7820.4833343144
 31
0.0
  0
LINE
  5
47B
330
1F
100
AcDbEntity
  8
0
  6
Continuous
 62
     8
370
    25
100
AcDbLine
 10
3944.7886052751
 20
7820.4833343144
 30
0.0
 11
3946.2886052751
 21
7820.4833343144
 31
0.0
  0
LINE
  5
47C
330
1F
100
AcDbEntity
  8
0
  6
Continuous
 62
     8
370
    25
100
AcDbLine
 10
3943.2886052751
 20
7820.4833343144
 30
0.0
 11
3944.7886052751
 21
7820.4833343144
 31
0.0
  0
LINE
  5
47D
330
1F
100
AcDbEntity
  8
0
  6
Continuous
 62
     8
370
    25
100
AcDbLine
 10
3738.1799109521
 20
7820.4833343144
 30
0.0
 11
3736.6799109521
 21
7820.4833343144
 31
0.0
  0
LINE
  5
47E
330
1F
100
AcDbEntity
  8
0
  6
Continuous
 62
     8
370
    25
100
AcDbLine
 10
3739.6799109521
 20
7820.4833343144
 30
0.0
 11
3738.1799109521
 21
7820.4833343144
 31
0.0
  0
LINE
  5
47F
330
1F
100
AcDbEntity
  8
0
  6
Continuous
 62
     8
370
    25
100
AcDbLine
 10
3933.5222640362
 20
7820.4833343144
 30
0.0
 11
3935.0222640362
 21
7820.4833343144
 31
0.0
  0
LINE
  5
480
330
1F
100
AcDbEntity
  8
0
  6
Continuous
 62
     8
370
    25
100
AcDbLine
 10
3932.0222640362
 20
7820.4833343144
 30
0.0
 11
3933.5222640362
 21
7820.4833343144
 31
0.0
  0
LINE
  5
481
330
1F
100
AcDbEntity
  8
0
  6
Continuous
 62
     8
370
    25
100
AcDbLine
 10
3749.446252191
 20
7820.4833343144
 30
0.0
 11
3747.946252191
 21
7820.4833343144
 31
0.0
  0
LINE
  5
482
330
1F
100
AcDbEntity
  8
0
  6
Continuous
 62
     8
370
    25
100
AcDbLine
 10
3750.946252191
 20
7820.4833343144
 30
0.0
 11
3749.446252191
 21
7820.4833343144
 31
0.0
  0
LINE
  5
483
330
1F
100
AcDbEntity
  8
0
  6
Continuous
 62
     8
370
    25
100
AcDbLine
 10
3922.2559227973
 20
7820.4833343144
 30
0.0
 11
3923.7559227973
 21
7820.4833343144
 31
0.0
  0
LINE
  5
484
330
1F
100
AcDbEntity
  8
0
  6
Continuous
 62
     8
370
    25
100
AcDbLine
 10
3920.7559227973
 20
7820.4833343144
 30
0.0
 11
3922.2559227973
 21
7820.4833343144
 31
0.0
  0
LINE
  5
485
330
1F
100
AcDbEntity
  8
0
  6
Continuous
 62
     8
370
    25
100
AcDbLine
 10
3760.7125934299
 20
7820.4833343144
 30
0.0
 11
3759.2125934299
 21
7820.4833343144
 31
0.0
  0
LINE
  5
486
330
1F
100
AcDbEntity
  8
0
  6
Continuous
 62
     8
370
    25
100
AcDbLine
 10
3762.2125934299
 20
7820.4833343144
 30
0.0
 11
3760.7125934299
 21
7820.4833343144
 31
0.0
  0
LINE
  5
487
330
1F
100
AcDbEntity
  8
0
  6
Continuous
 62
     8
370
    25
100
AcDbLine
 10
3911.76172527
 20
7820.4833343144
 30
0.0
 11
3912.4895815584
 21
7820.4833343144
 31
0.0
  0
LINE
  5
488
330
1F
100
AcDbEntity
  8
0
  6
Continuous
 62
     8
370
    25
100
AcDbLine
 10
3771.2067909572
 20
7820.4833343144
 30
0.0
 11
3770.4789346688
 21
7820.4833343144
 31
0.0
  0
LINE
  5
489
330
1F
100
AcDbEntity
  8
0
  6
Continuous
 62
     8
370
    25
100
AcDbLine
 10
3854.657875364
 20
7826.9833343144
 30
0.0
 11
3856.157875364
 21
7826.9833343144
 31
0.0
  0
LINE
  5
48A
330
1F
100
AcDbEntity
  8
0
  6
Continuous
 62
     8
370
    25
100
AcDbLine
 10
3853.157875364
 20
7826.9833343144
 30
0.0
 11
3854.657875364
 21
7826.9833343144
 31
0.0
  0
LINE
  5
48B
330
1F
100
AcDbEntity
  8
0
  6
Continuous
 62
     8
370
    25
100
AcDbLine
 10
3849.657875364
 20
7820.9833343144
 30
0.0
 11
3849.657875364
 21
7820.4833343144
 31
0.0
  0
LINE
  5
48C
330
1F
100
AcDbEntity
  8
0
  6
Continuous
 62
     8
370
    25
100
AcDbLine
 10
3833.3106408632
 20
7820.9833343144
 30
0.0
 11
3833.3106408632
 21
7820.4833343144
 31
0.0
  0
LINE
  5
48D
330
1F
100
AcDbEntity
  8
0
  6
Continuous
 62
     8
370
    25
100
AcDbLine
 10
3828.3106408632
 20
7826.9833343144
 30
0.0
 11
3826.8106408632
 21
7826.9833343144
 31
0.0
  0
LINE
  5
48E
330
1F
100
AcDbEntity
  8
0
  6
Continuous
 62
     8
370
    25
100
AcDbLine
 10
3829.8106408632
 20
7826.9833343144
 30
0.0
 11
3828.3106408632
 21
7826.9833343144
 31
0.0
  0
LINE
  5
48F
330
1F
100
AcDbEntity
  8
0
  6
Continuous
 62
     7
370
    25
100
AcDbLine
 10
3875.0275381218
 20
7674.4597848352
 30
0.0
 11
3883.202969918
 21
7666.7316016758
 31
0.0
  0
LINE
  5
490
330
1F
100
AcDbEntity
  8
0
  6
Continuous
 62
     7
370
    25
100
AcDbLine
 10
3864.3086386556
 20
7684.5922916442
 30
0.0
 11
3872.4840704518
 21
7676.8641084848
 31
0.0
  0
LINE
  5
491
330
1F
100
AcDbEntity
  8
0
  6
Continuous
 62
     7
370
    25
100
AcDbLine
 10
3765.4190756533
 20
7634.2641139503
 30
0.0
 11
3773.5945074496
 21
7641.9922971097
 31
0.0
  0
LINE
  5
492
330
1F
100
AcDbEntity
  8
0
  6
Continuous
 62
     7
370
    25
100
AcDbLine
 10
3754.7001761871
 20
7624.1316071414
 30
0.0
 11
3762.8756079834
 21
7631.8597903007
 31
0.0
  0
LINE
  5
493
330
1F
100
AcDbEntity
  8
0
  6
Continuous
 62
     7
370
    25
100
AcDbLine
 10
3953.891926794
 20
7599.9097848352
 30
0.0
 11
3962.0673585902
 21
7592.1816016758
 31
0.0
  0
LINE
  5
494
330
1F
100
AcDbEntity
  8
0
  6
Continuous
 62
     7
370
    25
100
AcDbLine
 10
3943.1730273278
 20
7610.0422916442
 30
0.0
 11
3951.348459124
 21
7602.3141084848
 31
0.0
  0
LINE
  5
495
330
1F
100
AcDbEntity
  8
0
  6
Continuous
 62
     7
370
    25
100
AcDbLine
 10
3975.6914227231
 20
7591.6875283435
 30
0.0
 11
3854.2320510961
 21
7706.5022921075
 31
0.0
  0
LINE
  5
496
330
1F
100
AcDbEntity
  8
0
  6
Continuous
 62
     7
370
    25
100
AcDbLine
 10
3848.7364541827
 20
7700.6886517191
 30
0.0
 11
3864.9955882797
 21
7685.3189967032
 31
0.0
  0
LINE
  5
497
330
1F
100
AcDbEntity
  8
0
  6
Continuous
 62
     7
370
    25
100
AcDbLine
 10
3873.1710200759
 20
7677.5908135439
 30
0.0
 11
3875.7144877459
 21
7675.1864898943
 31
0.0
  0
LINE
  5
498
330
1F
100
AcDbEntity
  8
0
  6
Continuous
 62
     7
370
    25
100
AcDbLine
 10
3883.8899195421
 20
7667.4583067349
 30
0.0
 11
3943.8599769519
 21
7610.7689967032
 31
0.0
  0
LINE
  5
499
330
1F
100
AcDbEntity
  8
0
  6
Continuous
 62
     7
370
    25
100
AcDbLine
 10
3952.0354087481
 20
7603.0408135439
 30
0.0
 11
3954.5788764181
 21
7600.6364898943
 31
0.0
  0
LINE
  5
49A
330
1F
100
AcDbEntity
  8
0
  6
Continuous
 62
     7
370
    25
100
AcDbLine
 10
3962.7543082143
 20
7592.9083067349
 30
0.0
 11
3970.1958258098
 21
7585.873887955
 31
0.0
  0
LINE
  5
49B
330
1F
100
AcDbEntity
  8
0
  6
Continuous
 62
     7
370
    25
100
AcDbLine
 10
3828.7364541827
 20
7706.5022921075
 30
0.0
 11
3707.2770825557
 21
7591.6875283435
 31
0.0
  0
LINE
  5
49C
330
1F
100
AcDbEntity
  8
0
  6
Continuous
 62
     7
370
    25
100
AcDbLine
 10
3712.7726794691
 20
7585.873887955
 30
0.0
 11
3754.013226563
 21
7624.8583122004
 31
0.0
  0
LINE
  5
49D
330
1F
100
AcDbEntity
  8
0
  6
Continuous
 62
     7
370
    25
100
AcDbLine
 10
3762.1886583592
 20
7632.5864953598
 30
0.0
 11
3764.7321260292
 21
7634.9908190094
 31
0.0
  0
LINE
  5
49E
330
1F
100
AcDbEntity
  8
0
  6
Continuous
 62
     7
370
    25
100
AcDbLine
 10
3772.9075578254
 20
7642.7190021688
 30
0.0
 11
3834.2320510961
 21
7700.6886517191
 31
0.0
  0
ARC
  5
49F
330
1F
100
AcDbEntity
  8
0
  6
Continuous
 62
     7
370
    25
100
AcDbCircle
 10
3727.1986213665
 20
7570.6130819354
 30
0.0
 40
21.00000000000033
100
AcDbArc
 50
133.3891268071
 51
233.6095279429
  0
ARC
  5
4A0
330
1F
100
AcDbEntity
  8
0
  6
Continuous
 62
     7
370
    25
100
AcDbCircle
 10
3727.1986213665
 20
7570.6130819354
 30
0.0
 40
29.00000000000005
100
AcDbArc
 50
133.3891268071
 51
233.6095279429
  0
ARC
  5
4A1
330
1F
100
AcDbEntity
  8
0
  6
Continuous
 62
     7
370
    25
100
AcDbCircle
 10
3955.7698839123
 20
7570.6130819354
 30
0.0
 40
21.00000000000033
100
AcDbArc
 50
306.3904720571
 51
46.6108731929
  0
ARC
  5
4A2
330
1F
100
AcDbEntity
  8
0
  6
Continuous
 62
     7
370
    25
100
AcDbCircle
 10
3955.7698839123
 20
7570.6130819354
 30
0.0
 40
29.00000000000005
100
AcDbArc
 50
306.3904720571
 51
46.6108731929
  0
ARC
  5
4A3
330
1F
100
AcDbEntity
  8
0
  6
Continuous
 62
     7
370
    25
100
AcDbCircle
 10
3841.4842526394
 20
7725.6803225347
 30
0.0
 40
213.631914859754
100
AcDbArc
 50
270.0
 51
306.3904720571
  0
ARC
  5
4A4
330
1F
100
AcDbEntity
  8
0
  6
Continuous
 62
     7
370
    25
100
AcDbCircle
 10
3841.4842526394
 20
7725.6803225347
 30
0.0
 40
213.631914859754
100
AcDbArc
 50
233.6095279429
 51
270.0
  0
ARC
  5
4A5
330
1F
100
AcDbEntity
  8
0
  6
Continuous
 62
     7
370
    25
100
AcDbCircle
 10
3841.4842526394
 20
7725.6803225347
 30
0.0
 40
221.6319148597536
100
AcDbArc
 50
233.6095279429
 51
306.3904720571
  0
LINE
  5
4A6
330
1F
100
AcDbEntity
  8
0
  6
Continuous
 62
     7
370
    25
100
AcDbLine
 10
3850.0663122752
 20
7702.0954719133
 30
0.0
 11
3849.6578698898
 21
7702.0954719133
 31
0.0
  0
LINE
  5
4A7
330
1F
100
AcDbEntity
  8
0
  6
Continuous
 62
     7
370
    25
100
AcDbLine
 10
3849.6578698898
 20
7699.0954719133
 30
0.0
 11
3850.4218351543
 21
7699.0954719133
 31
0.0
  0
LINE
  5
4A8
330
1F
100
AcDbEntity
  8
0
  6
Continuous
 62
     7
370
    25
100
AcDbLine
 10
3833.310635389
 20
7702.0954719133
 30
0.0
 11
3832.9021930037
 21
7702.0954719133
 31
0.0
  0
LINE
  5
4A9
330
1F
100
AcDbEntity
  8
0
  6
Continuous
 62
     7
370
    25
100
AcDbLine
 10
3832.5466701246
 20
7699.0954719133
 30
0.0
 11
3833.310635389
 21
7699.0954719133
 31
0.0
  0
LINE
  5
4AA
330
1F
100
AcDbEntity
  8
0
  6
Continuous
 62
     7
370
    25
100
AcDbLine
 10
3849.6578698898
 20
7702.0954719133
 30
0.0
 11
3833.310635389
 21
7702.0954719133
 31
0.0
  0
LINE
  5
4AB
330
1F
100
AcDbEntity
  8
0
  6
Continuous
 62
     7
370
    25
100
AcDbLine
 10
3833.310635389
 20
7699.0954719133
 30
0.0
 11
3849.6578698898
 21
7699.0954719133
 31
0.0
  0
LINE
  5
4AC
330
1F
100
AcDbEntity
  8
0
  6
Continuous
 62
     7
370
    25
100
AcDbLine
 10
3821.2803288857
 20
7688.4454719133
 30
0.0
 11
3822.0442941501
 21
7688.4454719133
 31
0.0
  0
LINE
  5
4AD
330
1F
100
AcDbEntity
  8
0
  6
Continuous
 62
     7
370
    25
100
AcDbLine
 10
3860.9242111287
 20
7688.4454719133
 30
0.0
 11
3861.6881763932
 21
7688.4454719133
 31
0.0
  0
LINE
  5
4AE
330
1F
100
AcDbEntity
  8
0
  6
Continuous
 62
     7
370
    25
100
AcDbLine
 10
3810.0139876468
 20
7677.7954719133
 30
0.0
 11
3810.7779529113
 21
7677.7954719133
 31
0.0
  0
LINE
  5
4AF
330
1F
100
AcDbEntity
  8
0
  6
Continuous
 62
     7
370
    25
100
AcDbLine
 10
3883.5941987949
 20
7667.1454719133
 30
0.0
 11
3884.2208588709
 21
7667.1454719133
 31
0.0
  0
LINE
  5
4B0
330
1F
100
AcDbEntity
  8
0
  6
Continuous
 62
     7
370
    25
100
AcDbLine
 10
3798.7476464079
 20
7667.1454719133
 30
0.0
 11
3799.5116116724
 21
7667.1454719133
 31
0.0
  0
LINE
  5
4B1
330
1F
100
AcDbEntity
  8
0
  6
Continuous
 62
     7
370
    25
100
AcDbLine
 10
3894.7232348453
 20
7656.4954719133
 30
0.0
 11
3895.4872001098
 21
7656.4954719133
 31
0.0
  0
LINE
  5
4B2
330
1F
100
AcDbEntity
  8
0
  6
Continuous
 62
     7
370
    25
100
AcDbLine
 10
3787.481305169
 20
7656.4954719133
 30
0.0
 11
3788.2452704335
 21
7656.4954719133
 31
0.0
  0
LINE
  5
4B3
330
1F
100
AcDbEntity
  8
0
  6
Continuous
 62
     7
370
    25
100
AcDbLine
 10
3905.9895760842
 20
7645.8454719133
 30
0.0
 11
3906.7535413487
 21
7645.8454719133
 31
0.0
  0
LINE
  5
4B4
330
1F
100
AcDbEntity
  8
0
  6
Continuous
 62
     7
370
    25
100
AcDbLine
 10
3776.2149639301
 20
7645.8454719133
 30
0.0
 11
3776.9789291946
 21
7645.8454719133
 31
0.0
  0
LINE
  5
4B5
330
1F
100
AcDbEntity
  8
0
  6
Continuous
 62
     7
370
    25
100
AcDbLine
 10
3917.2559173231
 20
7635.1954719133
 30
0.0
 11
3918.0198825876
 21
7635.1954719133
 31
0.0
  0
LINE
  5
4B6
330
1F
100
AcDbEntity
  8
0
  6
Continuous
 62
     7
370
    25
100
AcDbLine
 10
3928.522258562
 20
7624.5454719133
 30
0.0
 11
3929.2862238265
 21
7624.5454719133
 31
0.0
  0
LINE
  5
4B7
330
1F
100
AcDbEntity
  8
0
  6
Continuous
 62
     7
370
    25
100
AcDbLine
 10
3753.6822814524
 20
7624.5454719133
 30
0.0
 11
3754.3089524768
 21
7624.5454719133
 31
0.0
  0
LINE
  5
4B8
330
1F
100
AcDbEntity
  8
0
  6
Continuous
 62
     7
370
    25
100
AcDbLine
 10
3939.7885998009
 20
7613.8954719133
 30
0.0
 11
3940.5525650654
 21
7613.8954719133
 31
0.0
  0
LINE
  5
4B9
330
1F
100
AcDbEntity
  8
0
  6
Continuous
 62
     7
370
    25
100
AcDbLine
 10
3742.4159402135
 20
7613.8954719133
 30
0.0
 11
3743.1799054779
 21
7613.8954719133
 31
0.0
  0
LINE
  5
4BA
330
1F
100
AcDbEntity
  8
0
  6
Continuous
 62
     7
370
    25
100
AcDbLine
 10
3731.1495989746
 20
7603.2454719133
 30
0.0
 11
3731.9135642391
 21
7603.2454719133
 31
0.0
  0
LINE
  5
4BB
330
1F
100
AcDbEntity
  8
0
  6
Continuous
 62
     7
370
    25
100
AcDbLine
 10
3719.8832577357
 20
7592.5954719133
 30
0.0
 11
3720.6472230002
 21
7592.5954719133
 31
0.0
  0
LINE
  5
4BC
330
1F
100
AcDbEntity
  8
0
  6
Continuous
 62
     7
370
    25
100
AcDbLine
 10
3962.4585874671
 20
7592.5954719133
 30
0.0
 11
3963.0852475431
 21
7592.5954719133
 31
0.0
  0
LINE
  5
4BD
330
1F
100
AcDbEntity
  8
0
  6
Continuous
 62
     7
370
    25
100
AcDbLine
 10
3972.2251808679
 20
7581.9454719133
 30
0.0
 11
3973.449729426
 21
7581.9454719133
 31
0.0
  0
LINE
  5
4BE
330
1F
100
AcDbEntity
  8
0
  6
Continuous
 62
     7
370
    25
100
AcDbLine
 10
3709.5187758529
 20
7581.9454719133
 30
0.0
 11
3710.7433244109
 21
7581.9454719133
 31
0.0
  0
LINE
  5
4BF
330
1F
100
AcDbEntity
  8
0
  6
Continuous
 62
     7
370
    25
100
AcDbLine
 10
3706.2097113444
 20
7571.2954719133
 30
0.0
 11
3707.2940600577
 21
7571.2954719133
 31
0.0
  0
LINE
  5
4C0
330
1F
100
AcDbEntity
  8
0
  6
Continuous
 62
     7
370
    25
100
AcDbLine
 10
3707.2940600577
 20
7574.2954719133
 30
0.0
 11
3706.5239991439
 21
7574.2954719133
 31
0.0
  0
LINE
  5
4C1
330
1F
100
AcDbEntity
  8
0
  6
Continuous
 62
     7
370
    25
100
AcDbLine
 10
3975.6744452211
 20
7571.2954719133
 30
0.0
 11
3976.7587939344
 21
7571.2954719133
 31
0.0
  0
LINE
  5
4C2
330
1F
100
AcDbEntity
  8
0
  6
Continuous
 62
     7
370
    25
100
AcDbLine
 10
3976.444506135
 20
7574.2954719133
 30
0.0
 11
3975.6744452211
 21
7574.2954719133
 31
0.0
  0
LINE
  5
4C3
330
1F
100
AcDbEntity
  8
0
  6
Continuous
 62
     7
370
    25
100
AcDbLine
 10
3708.6763004667
 20
7563.6454719133
 30
0.0
 11
3707.3882096954
 21
7563.6454719133
 31
0.0
  0
LINE
  5
4C4
330
1F
100
AcDbEntity
  8
0
  6
Continuous
 62
     7
370
    25
100
AcDbLine
 10
3975.5802955834
 20
7563.6454719133
 30
0.0
 11
3974.2922048121
 21
7563.6454719133
 31
0.0
  0
LINE
  5
4C5
330
1F
100
AcDbEntity
  8
0
  6
Continuous
 62
     7
370
    25
100
AcDbLine
 10
3716.0890904285
 20
7552.9954719133
 30
0.0
 11
3715.7124854875
 21
7552.9954719133
 31
0.0
  0
LINE
  5
4C6
330
1F
100
AcDbEntity
  8
0
  6
Continuous
 62
     7
370
    25
100
AcDbLine
 10
3967.2560197913
 20
7552.9954719133
 30
0.0
 11
3966.8794148504
 21
7552.9954719133
 31
0.0
  0
LINE
  5
4C7
330
1F
100
AcDbEntity
  8
0
  6
Continuous
 62
     7
370
    25
100
AcDbLine
 10
3791.2213055106
 20
7518.0454719133
 30
0.0
 11
3891.7471997682
 21
7518.0454719133
 31
0.0
  0
LINE
  5
4C8
330
1F
100
AcDbEntity
  8
0
  6
Continuous
 62
     7
370
    25
100
AcDbLine
 10
3902.8289586686
 20
7521.0454719133
 30
0.0
 11
3780.1395466103
 21
7521.0454719133
 31
0.0
  0
LINE
  5
4C9
330
1F
100
AcDbEntity
  8
0
  6
Continuous
 62
     7
370
    25
100
AcDbLine
 10
3858.5145591428
 20
7691.4454719133
 30
0.0
 11
3824.4539461361
 21
7691.4454719133
 31
0.0
  0
LINE
  5
4CA
330
1F
100
AcDbEntity
  8
0
  6
Continuous
 62
     7
370
    25
100
AcDbLine
 10
3822.0442941501
 20
7688.4454719133
 30
0.0
 11
3860.9242111287
 21
7688.4454719133
 31
0.0
  0
LINE
  5
4CB
330
1F
100
AcDbEntity
  8
0
  6
Continuous
 62
     7
370
    25
100
AcDbLine
 10
3810.7779529113
 20
7677.7954719133
 30
0.0
 11
3871.4988067708
 21
7677.7954719133
 31
0.0
  0
LINE
  5
4CC
330
1F
100
AcDbEntity
  8
0
  6
Continuous
 62
     7
370
    25
100
AcDbLine
 10
3868.3251895204
 20
7680.7954719133
 30
0.0
 11
3813.1876048972
 21
7680.7954719133
 31
0.0
  0
LINE
  5
4CD
330
1F
100
AcDbEntity
  8
0
  6
Continuous
 62
     7
370
    25
100
AcDbLine
 10
3799.5116116724
 20
7667.1454719133
 30
0.0
 11
3882.7651480097
 21
7667.1454719133
 31
0.0
  0
LINE
  5
4CE
330
1F
100
AcDbEntity
  8
0
  6
Continuous
 62
     7
370
    25
100
AcDbLine
 10
3879.5915307593
 20
7670.1454719133
 30
0.0
 11
3801.9212636583
 21
7670.1454719133
 31
0.0
  0
LINE
  5
4CF
330
1F
100
AcDbEntity
  8
0
  6
Continuous
 62
     7
370
    25
100
AcDbLine
 10
3788.2452704335
 20
7656.4954719133
 30
0.0
 11
3894.7232348453
 21
7656.4954719133
 31
0.0
  0
LINE
  5
4D0
330
1F
100
AcDbEntity
  8
0
  6
Continuous
 62
     7
370
    25
100
AcDbLine
 10
3892.3135828594
 20
7659.4954719133
 30
0.0
 11
3790.6549224194
 21
7659.4954719133
 31
0.0
  0
LINE
  5
4D1
330
1F
100
AcDbEntity
  8
0
  6
Continuous
 62
     7
370
    25
100
AcDbLine
 10
3776.9789291946
 20
7645.8454719133
 30
0.0
 11
3905.9895760842
 21
7645.8454719133
 31
0.0
  0
LINE
  5
4D2
330
1F
100
AcDbEntity
  8
0
  6
Continuous
 62
     7
370
    25
100
AcDbLine
 10
3903.5799240983
 20
7648.8454719133
 30
0.0
 11
3779.3885811805
 21
7648.8454719133
 31
0.0
  0
LINE
  5
4D3
330
1F
100
AcDbEntity
  8
0
  6
Continuous
 62
     7
370
    25
100
AcDbLine
 10
3766.4043328795
 20
7635.1954719133
 30
0.0
 11
3917.2559173231
 21
7635.1954719133
 31
0.0
  0
LINE
  5
4D4
330
1F
100
AcDbEntity
  8
0
  6
Continuous
 62
     7
370
    25
100
AcDbLine
 10
3914.8462653372
 20
7638.1954719133
 30
0.0
 11
3769.5779501299
 21
7638.1954719133
 31
0.0
  0
LINE
  5
4D5
330
1F
100
AcDbEntity
  8
0
  6
Continuous
 62
     7
370
    25
100
AcDbLine
 10
3755.1379916406
 20
7624.5454719133
 30
0.0
 11
3928.522258562
 21
7624.5454719133
 31
0.0
  0
LINE
  5
4D6
330
1F
100
AcDbEntity
  8
0
  6
Continuous
 62
     7
370
    25
100
AcDbLine
 10
3926.1126065761
 20
7627.5454719133
 30
0.0
 11
3758.311608891
 21
7627.5454719133
 31
0.0
  0
LINE
  5
4D7
330
1F
100
AcDbEntity
  8
0
  6
Continuous
 62
     7
370
    25
100
AcDbLine
 10
3743.1799054779
 20
7613.8954719133
 30
0.0
 11
3939.7885998009
 21
7613.8954719133
 31
0.0
  0
LINE
  5
4D8
330
1F
100
AcDbEntity
  8
0
  6
Continuous
 62
     7
370
    25
100
AcDbLine
 10
3937.378947815
 20
7616.8954719133
 30
0.0
 11
3745.5895574639
 21
7616.8954719133
 31
0.0
  0
LINE
  5
4D9
330
1F
100
AcDbEntity
  8
0
  6
Continuous
 62
     7
370
    25
100
AcDbLine
 10
3731.9135642391
 20
7603.2454719133
 30
0.0
 11
3950.363195443
 21
7603.2454719133
 31
0.0
  0
LINE
  5
4DA
330
1F
100
AcDbEntity
  8
0
  6
Continuous
 62
     7
370
    25
100
AcDbLine
 10
3947.1895781926
 20
7606.2454719133
 30
0.0
 11
3734.323216225
 21
7606.2454719133
 31
0.0
  0
LINE
  5
4DB
330
1F
100
AcDbEntity
  8
0
  6
Continuous
 62
     7
370
    25
100
AcDbLine
 10
3720.6472230002
 20
7592.5954719133
 30
0.0
 11
3961.6295366819
 21
7592.5954719133
 31
0.0
  0
LINE
  5
4DC
330
1F
100
AcDbEntity
  8
0
  6
Continuous
 62
     7
370
    25
100
AcDbLine
 10
3958.4559194315
 20
7595.5954719133
 30
0.0
 11
3723.0568749861
 21
7595.5954719133
 31
0.0
  0
LINE
  5
4DD
330
1F
100
AcDbEntity
  8
0
  6
Continuous
 62
     7
370
    25
100
AcDbLine
 10
3710.7433244109
 20
7581.9454719133
 30
0.0
 11
3972.2251808679
 21
7581.9454719133
 31
0.0
  0
LINE
  5
4DE
330
1F
100
AcDbEntity
  8
0
  6
Continuous
 62
     7
370
    25
100
AcDbLine
 10
3971.1185841022
 20
7584.9454719133
 30
0.0
 11
3711.8499211766
 21
7584.9454719133
 31
0.0
  0
LINE
  5
4DF
330
1F
100
AcDbEntity
  8
0
  6
Continuous
 62
     7
370
    25
100
AcDbLine
 10
3707.2940600577
 20
7571.2954719133
 30
0.0
 11
3975.6744452211
 21
7571.2954719133
 31
0.0
  0
LINE
  5
4E0
330
1F
100
AcDbEntity
  8
0
  6
Continuous
 62
     7
370
    25
100
AcDbLine
 10
3975.6744452211
 20
7574.2954719133
 30
0.0
 11
3707.2940600577
 21
7574.2954719133
 31
0.0
  0
LINE
  5
4E1
330
1F
100
AcDbEntity
  8
0
  6
Continuous
 62
     7
370
    25
100
AcDbLine
 10
3708.7149325992
 20
7560.6454719133
 30
0.0
 11
3974.2535726796
 21
7560.6454719133
 31
0.0
  0
LINE
  5
4E2
330
1F
100
AcDbEntity
  8
0
  6
Continuous
 62
     7
370
    25
100
AcDbLine
 10
3974.2922048121
 20
7563.6454719133
 30
0.0
 11
3708.6763004667
 21
7563.6454719133
 31
0.0
  0
LINE
  5
4E3
330
1F
100
AcDbEntity
  8
0
  6
Continuous
 62
     7
370
    25
100
AcDbLine
 10
3719.9382600737
 20
7549.9954719133
 30
0.0
 11
3963.0302452051
 21
7549.9954719133
 31
0.0
  0
LINE
  5
4E4
330
1F
100
AcDbEntity
  8
0
  6
Continuous
 62
     7
370
    25
100
AcDbLine
 10
3966.8794148504
 20
7552.9954719133
 30
0.0
 11
3716.0890904285
 21
7552.9954719133
 31
0.0
  0
LINE
  5
4E5
330
1F
100
AcDbEntity
  8
0
  6
Continuous
 62
     7
370
    25
100
AcDbLine
 10
3736.9954087825
 20
7539.3454719133
 30
0.0
 11
3945.9730964963
 21
7539.3454719133
 31
0.0
  0
LINE
  5
4E6
330
1F
100
AcDbEntity
  8
0
  6
Continuous
 62
     7
370
    25
100
AcDbLine
 10
3951.1516023579
 20
7542.3454719133
 30
0.0
 11
3731.8169029209
 21
7542.3454719133
 31
0.0
  0
LINE
  5
4E7
330
1F
100
AcDbEntity
  8
0
  6
Continuous
 62
     7
370
    25
100
AcDbLine
 10
3758.8067848969
 20
7528.6954719133
 30
0.0
 11
3924.1617203819
 21
7528.6954719133
 31
0.0
  0
LINE
  5
4E8
330
1F
100
AcDbEntity
  8
0
  6
Continuous
 62
     7
370
    25
100
AcDbLine
 10
3930.9743234632
 20
7531.6954719133
 30
0.0
 11
3751.9941818157
 21
7531.6954719133
 31
0.0
  0
LINE
  5
4E9
330
1F
100
AcDbEntity
  8
0
  6
Continuous
 62
     7
370
    25
100
AcDbLine
 10
3884.9056005361
 20
7668.5327676427
 30
0.0
 11
3883.202969918
 21
7666.7316016758
 31
0.0
  0
LINE
  5
4EA
330
1F
100
AcDbEntity
  8
0
  6
Continuous
 62
     7
370
    25
100
AcDbLine
 10
3866.0112692736
 20
7686.393457611
 30
0.0
 11
3864.3086386556
 21
7684.5922916442
 31
0.0
  0
LINE
  5
4EB
330
1F
100
AcDbEntity
  8
0
  6
Continuous
 62
     7
370
    25
100
AcDbLine
 10
3874.1867010699
 20
7678.6652744516
 30
0.0
 11
3866.0112692736
 21
7686.393457611
 31
0.0
  0
LINE
  5
4EC
330
1F
100
AcDbEntity
  8
0
  6
Continuous
 62
     7
370
    25
100
AcDbLine
 10
3872.4840704518
 20
7676.8641084848
 30
0.0
 11
3874.1867010699
 21
7678.6652744516
 31
0.0
  0
LINE
  5
4ED
330
1F
100
AcDbEntity
  8
0
  6
Continuous
 62
     7
370
    25
100
AcDbLine
 10
3876.7301687398
 20
7676.260950802
 30
0.0
 11
3875.0275381218
 21
7674.4597848352
 31
0.0
  0
LINE
  5
4EE
330
1F
100
AcDbEntity
  8
0
  6
Continuous
 62
     7
370
    25
100
AcDbLine
 10
3884.9056005361
 20
7668.5327676427
 30
0.0
 11
3876.7301687398
 21
7676.260950802
 31
0.0
  0
LINE
  5
4EF
330
1F
100
AcDbEntity
  8
0
  6
Continuous
 62
     7
370
    25
100
AcDbLine
 10
3874.5331245704
 20
7679.0317463173
 30
0.0
 11
3866.3576927741
 21
7686.7599294767
 31
0.0
  0
LINE
  5
4F0
330
1F
100
AcDbEntity
  8
0
  6
Continuous
 62
     7
370
    25
100
AcDbLine
 10
3866.3576927741
 20
7686.7599294767
 30
0.0
 11
3866.0112692736
 21
7686.393457611
 31
0.0
  0
LINE
  5
4F1
330
1F
100
AcDbEntity
  8
0
  6
Continuous
 62
     7
370
    25
100
AcDbLine
 10
3874.1867010699
 20
7678.6652744516
 30
0.0
 11
3874.5331245704
 21
7679.0317463173
 31
0.0
  0
LINE
  5
4F2
330
1F
100
AcDbEntity
  8
0
  6
Continuous
 62
     7
370
    25
100
AcDbLine
 10
3885.2520240366
 20
7668.8992395084
 30
0.0
 11
3877.0765922403
 21
7676.6274226678
 31
0.0
  0
LINE
  5
4F3
330
1F
100
AcDbEntity
  8
0
  6
Continuous
 62
     7
370
    25
100
AcDbLine
 10
3885.2520240366
 20
7668.8992395084
 30
0.0
 11
3884.9056005361
 21
7668.5327676427
 31
0.0
  0
LINE
  5
4F4
330
1F
100
AcDbEntity
  8
0
  6
Continuous
 62
     7
370
    25
100
AcDbLine
 10
3877.0765922403
 20
7676.6274226678
 30
0.0
 11
3876.7301687398
 21
7676.260950802
 31
0.0
  0
LINE
  5
4F5
330
1F
100
AcDbEntity
  8
0
  6
Continuous
 62
     7
370
    25
100
AcDbLine
 10
3892.1329286001
 20
7676.1783586487
 30
0.0
 11
3873.2385973376
 21
7694.0390486171
 31
0.0
  0
LINE
  5
4F6
330
1F
100
AcDbEntity
  8
0
  6
Continuous
 62
     7
370
    25
100
AcDbLine
 10
3892.1329286001
 20
7676.1783586487
 30
0.0
 11
3889.3853232995
 21
7673.2717427889
 31
0.0
  0
LINE
  5
4F7
330
1F
100
AcDbEntity
  8
0
  6
Continuous
 62
     7
370
    25
100
AcDbLine
 10
3873.2385973376
 20
7694.0390486171
 30
0.0
 11
3870.490992037
 21
7691.1324327573
 31
0.0
  0
LINE
  5
4F8
330
1F
100
AcDbEntity
  8
0
  6
Continuous
 62
     7
370
    25
100
AcDbLine
 10
3771.8918767433
 20
7643.7934631698
 30
0.0
 11
3773.5945074496
 21
7641.9922971097
 31
0.0
  0
LINE
  5
4F9
330
1F
100
AcDbEntity
  8
0
  6
Continuous
 62
     7
370
    25
100
AcDbLine
 10
3752.9975454809
 20
7625.9327732015
 30
0.0
 11
3754.7001761871
 21
7624.1316071414
 31
0.0
  0
LINE
  5
4FA
330
1F
100
AcDbEntity
  8
0
  6
Continuous
 62
     7
370
    25
100
AcDbLine
 10
3761.1729772771
 20
7633.6609563608
 30
0.0
 11
3752.9975454809
 21
7625.9327732015
 31
0.0
  0
LINE
  5
4FB
330
1F
100
AcDbEntity
  8
0
  6
Continuous
 62
     7
370
    25
100
AcDbLine
 10
3762.8756079834
 20
7631.8597903007
 30
0.0
 11
3761.1729772771
 21
7633.6609563608
 31
0.0
  0
LINE
  5
4FC
330
1F
100
AcDbEntity
  8
0
  6
Continuous
 62
     7
370
    25
100
AcDbLine
 10
3763.7164449471
 20
7636.0652800104
 30
0.0
 11
3765.4190756533
 21
7634.2641139503
 31
0.0
  0
LINE
  5
4FD
330
1F
100
AcDbEntity
  8
0
  6
Continuous
 62
     7
370
    25
100
AcDbLine
 10
3771.8918767433
 20
7643.7934631698
 30
0.0
 11
3763.7164449471
 21
7636.0652800104
 31
0.0
  0
LINE
  5
4FE
330
1F
100
AcDbEntity
  8
0
  6
Continuous
 62
     7
370
    25
100
AcDbLine
 10
3771.5454532605
 20
7644.1599350169
 30
0.0
 11
3763.3700214642
 21
7636.4317518575
 31
0.0
  0
LINE
  5
4FF
330
1F
100
AcDbEntity
  8
0
  6
Continuous
 62
     7
370
    25
100
AcDbLine
 10
3771.5454532605
 20
7644.1599350169
 30
0.0
 11
3771.8918767433
 21
7643.7934631698
 31
0.0
  0
LINE
  5
500
330
1F
100
AcDbEntity
  8
0
  6
Continuous
 62
     7
370
    25
100
AcDbLine
 10
3763.3700214642
 20
7636.4317518575
 30
0.0
 11
3763.7164449471
 21
7636.0652800104
 31
0.0
  0
LINE
  5
501
330
1F
100
AcDbEntity
  8
0
  6
Continuous
 62
     7
370
    25
100
AcDbLine
 10
3760.8265537943
 20
7634.0274282079
 30
0.0
 11
3752.651121998
 21
7626.2992450485
 31
0.0
  0
LINE
  5
502
330
1F
100
AcDbEntity
  8
0
  6
Continuous
 62
     7
370
    25
100
AcDbLine
 10
3752.651121998
 20
7626.2992450485
 30
0.0
 11
3752.9975454809
 21
7625.9327732015
 31
0.0
  0
LINE
  5
503
330
1F
100
AcDbEntity
  8
0
  6
Continuous
 62
     7
370
    25
100
AcDbLine
 10
3761.1729772771
 20
7633.6609563608
 30
0.0
 11
3760.8265537943
 21
7634.0274282079
 31
0.0
  0
LINE
  5
504
330
1F
100
AcDbEntity
  8
0
  6
Continuous
 62
     7
370
    25
100
AcDbLine
 10
3764.6645487694
 20
7651.4390540805
 30
0.0
 11
3745.770217507
 21
7633.5783641122
 31
0.0
  0
LINE
  5
505
330
1F
100
AcDbEntity
  8
0
  6
Continuous
 62
     7
370
    25
100
AcDbLine
 10
3745.770217507
 20
7633.5783641122
 30
0.0
 11
3748.5178228066
 21
7630.6717482534
 31
0.0
  0
LINE
  5
506
330
1F
100
AcDbEntity
  8
0
  6
Continuous
 62
     7
370
    25
100
AcDbLine
 10
3764.6645487694
 20
7651.4390540805
 30
0.0
 11
3767.4121540691
 21
7648.5324382218
 31
0.0
  0
LINE
  5
507
330
1F
100
AcDbEntity
  8
0
  6
Continuous
 62
     7
370
    25
100
AcDbLine
 10
3963.7699892083
 20
7593.9827676427
 30
0.0
 11
3962.0673585902
 21
7592.1816016758
 31
0.0
  0
LINE
  5
508
330
1F
100
AcDbEntity
  8
0
  6
Continuous
 62
     7
370
    25
100
AcDbLine
 10
3944.8756579458
 20
7611.843457611
 30
0.0
 11
3943.1730273278
 21
7610.0422916442
 31
0.0
  0
LINE
  5
509
330
1F
100
AcDbEntity
  8
0
  6
Continuous
 62
     7
370
    25
100
AcDbLine
 10
3953.0510897421
 20
7604.1152744516
 30
0.0
 11
3944.8756579458
 21
7611.843457611
 31
0.0
  0
LINE
  5
50A
330
1F
100
AcDbEntity
  8
0
  6
Continuous
 62
     7
370
    25
100
AcDbLine
 10
3951.348459124
 20
7602.3141084848
 30
0.0
 11
3953.0510897421
 21
7604.1152744516
 31
0.0
  0
LINE
  5
50B
330
1F
100
AcDbEntity
  8
0
  6
Continuous
 62
     7
370
    25
100
AcDbLine
 10
3955.594557412
 20
7601.710950802
 30
0.0
 11
3953.891926794
 21
7599.9097848352
 31
0.0
  0
LINE
  5
50C
330
1F
100
AcDbEntity
  8
0
  6
Continuous
 62
     7
370
    25
100
AcDbLine
 10
3963.7699892083
 20
7593.9827676427
 30
0.0
 11
3955.594557412
 21
7601.710950802
 31
0.0
  0
LINE
  5
50D
330
1F
100
AcDbEntity
  8
0
  6
Continuous
 62
     7
370
    25
100
AcDbLine
 10
3953.3975132426
 20
7604.4817463173
 30
0.0
 11
3945.2220814463
 21
7612.2099294767
 31
0.0
  0
LINE
  5
50E
330
1F
100
AcDbEntity
  8
0
  6
Continuous
 62
     7
370
    25
100
AcDbLine
 10
3945.2220814463
 20
7612.2099294767
 30
0.0
 11
3944.8756579458
 21
7611.843457611
 31
0.0
  0
LINE
  5
50F
330
1F
100
AcDbEntity
  8
0
  6
Continuous
 62
     7
370
    25
100
AcDbLine
 10
3953.0510897421
 20
7604.1152744516
 30
0.0
 11
3953.3975132426
 21
7604.4817463173
 31
0.0
  0
LINE
  5
510
330
1F
100
AcDbEntity
  8
0
  6
Continuous
 62
     7
370
    25
100
AcDbLine
 10
3964.1164127088
 20
7594.3492395084
 30
0.0
 11
3955.9409809125
 21
7602.0774226678
 31
0.0
  0
LINE
  5
511
330
1F
100
AcDbEntity
  8
0
  6
Continuous
 62
     7
370
    25
100
AcDbLine
 10
3964.1164127088
 20
7594.3492395084
 30
0.0
 11
3963.7699892083
 21
7593.9827676427
 31
0.0
  0
LINE
  5
512
330
1F
100
AcDbEntity
  8
0
  6
Continuous
 62
     7
370
    25
100
AcDbLine
 10
3955.9409809125
 20
7602.0774226678
 30
0.0
 11
3955.594557412
 21
7601.710950802
 31
0.0
  0
LINE
  5
513
330
1F
100
AcDbEntity
  8
0
  6
Continuous
 62
     7
370
    25
100
AcDbLine
 10
3970.9973172723
 20
7601.6283586487
 30
0.0
 11
3952.1029860098
 21
7619.4890486171
 31
0.0
  0
LINE
  5
514
330
1F
100
AcDbEntity
  8
0
  6
Continuous
 62
     7
370
    25
100
AcDbLine
 10
3970.9973172723
 20
7601.6283586487
 30
0.0
 11
3968.2497119716
 21
7598.7217427889
 31
0.0
  0
LINE
  5
515
330
1F
100
AcDbEntity
  8
0
  6
Continuous
 62
     7
370
    25
100
AcDbLine
 10
3952.1029860098
 20
7619.4890486171
 30
0.0
 11
3949.3553807092
 21
7616.5824327573
 31
0.0
  0
LINE
  5
516
330
1F
100
AcDbEntity
  8
0
  6
Continuous
 62
     7
370
    25
100
AcDbLine
 10
3854.2320510961
 20
7706.5022921075
 30
0.0
 11
3848.7364541827
 21
7700.6886517191
 31
0.0
  0
LINE
  5
517
330
1F
100
AcDbEntity
  8
0
  6
Continuous
 62
     7
370
    25
100
AcDbLine
 10
3828.7364541827
 20
7706.5022921075
 30
0.0
 11
3834.2320510961
 21
7700.6886517191
 31
0.0
  0
LINE
  5
518
330
1F
100
AcDbEntity
  8
0
  6
Continuous
 62
     8
370
    25
100
AcDbLine
 10
3975.6914227231
 20
7591.6875283435
 30
0.0
 11
3970.1958258098
 21
7585.873887955
 31
0.0
  0
LINE
  5
519
330
1F
100
AcDbEntity
  8
0
  6
Continuous
 62
     8
370
    25
100
AcDbLine
 10
3707.2770825557
 20
7591.6875283435
 30
0.0
 11
3712.7726794691
 21
7585.873887955
 31
0.0
  0
LINE
  5
51A
330
1F
100
AcDbEntity
  8
0
  6
Continuous
 62
     8
370
    25
100
AcDbLine
 10
3709.9933555137
 20
7547.2683003572
 30
0.0
 11
3714.7396357489
 21
7553.7082401029
 31
0.0
  0
LINE
  5
51B
330
1F
100
AcDbEntity
  8
0
  6
Continuous
 62
     8
370
    25
100
AcDbLine
 10
3972.9751497652
 20
7547.2683003572
 30
0.0
 11
3968.2288695299
 21
7553.7082401029
 31
0.0
  0
LINE
  5
51C
330
1F
100
AcDbEntity
  8
0
  6
Continuous
 62
     8
370
    25
100
AcDbLine
 10
3849.6578698898
 20
7702.0954719133
 30
0.0
 11
3849.6578698898
 21
7701.66339198
 31
0.0
  0
LINE
  5
51D
330
1F
100
AcDbEntity
  8
0
  6
Continuous
 62
     8
370
    25
100
AcDbLine
 10
3849.6578698898
 20
7699.8176433702
 30
0.0
 11
3849.6578698898
 21
7699.0954719133
 31
0.0
  0
LINE
  5
51E
330
1F
100
AcDbEntity
  8
0
  6
Continuous
 62
     8
370
    25
100
AcDbLine
 10
3833.310635389
 20
7702.0954719133
 30
0.0
 11
3833.310635389
 21
7701.66339198
 31
0.0
  0
LINE
  5
51F
330
1F
100
AcDbEntity
  8
0
  6
Continuous
 62
     8
370
    25
100
AcDbLine
 10
3833.310635389
 20
7699.8176433702
 30
0.0
 11
3833.310635389
 21
7699.0954719133
 31
0.0
  0
LINE
  5
520
330
1F
100
AcDbEntity
  8
0
  6
Continuous
 62
     8
370
    25
100
AcDbLine
 10
3822.0442941501
 20
7689.1676433702
 30
0.0
 11
3822.0442941501
 21
7688.4454719133
 31
0.0
  0
LINE
  5
521
330
1F
100
AcDbEntity
  8
0
  6
Continuous
 62
     8
370
    25
100
AcDbLine
 10
3860.9242111287
 20
7689.1676433702
 30
0.0
 11
3860.9242111287
 21
7688.4454719133
 31
0.0
  0
LINE
  5
522
330
1F
100
AcDbEntity
  8
0
  6
Continuous
 62
     8
370
    25
100
AcDbLine
 10
3810.7779529113
 20
7678.5176433702
 30
0.0
 11
3810.7779529113
 21
7677.7954719133
 31
0.0
  0
LINE
  5
523
330
1F
100
AcDbEntity
  8
0
  6
Continuous
 62
     8
370
    25
100
AcDbLine
 10
3799.5116116724
 20
7667.8676433702
 30
0.0
 11
3799.5116116724
 21
7667.1454719133
 31
0.0
  0
LINE
  5
524
330
1F
100
AcDbEntity
  8
0
  6
Continuous
 62
     8
370
    25
100
AcDbLine
 10
3894.7232348453
 20
7657.2176433702
 30
0.0
 11
3894.7232348453
 21
7656.4954719133
 31
0.0
  0
LINE
  5
525
330
1F
100
AcDbEntity
  8
0
  6
Continuous
 62
     8
370
    25
100
AcDbLine
 10
3788.2452704335
 20
7657.2176433702
 30
0.0
 11
3788.2452704335
 21
7656.4954719133
 31
0.0
  0
LINE
  5
526
330
1F
100
AcDbEntity
  8
0
  6
Continuous
 62
     8
370
    25
100
AcDbLine
 10
3905.9895760842
 20
7646.5676433702
 30
0.0
 11
3905.9895760842
 21
7645.8454719133
 31
0.0
  0
LINE
  5
527
330
1F
100
AcDbEntity
  8
0
  6
Continuous
 62
     8
370
    25
100
AcDbLine
 10
3776.9789291946
 20
7646.5676433702
 30
0.0
 11
3776.9789291946
 21
7645.8454719133
 31
0.0
  0
LINE
  5
528
330
1F
100
AcDbEntity
  8
0
  6
Continuous
 62
     8
370
    25
100
AcDbLine
 10
3917.2559173231
 20
7635.9176433702
 30
0.0
 11
3917.2559173231
 21
7635.1954719133
 31
0.0
  0
LINE
  5
529
330
1F
100
AcDbEntity
  8
0
  6
Continuous
 62
     8
370
    25
100
AcDbLine
 10
3928.522258562
 20
7625.2676433702
 30
0.0
 11
3928.522258562
 21
7624.5454719133
 31
0.0
  0
LINE
  5
52A
330
1F
100
AcDbEntity
  8
0
  6
Continuous
 62
     8
370
    25
100
AcDbLine
 10
3939.7885998009
 20
7614.6176433702
 30
0.0
 11
3939.7885998009
 21
7613.8954719133
 31
0.0
  0
LINE
  5
52B
330
1F
100
AcDbEntity
  8
0
  6
Continuous
 62
     8
370
    25
100
AcDbLine
 10
3743.1799054779
 20
7614.6176433702
 30
0.0
 11
3743.1799054779
 21
7613.8954719133
 31
0.0
  0
LINE
  5
52C
330
1F
100
AcDbEntity
  8
0
  6
Continuous
 62
     8
370
    25
100
AcDbLine
 10
3731.9135642391
 20
7603.9676433702
 30
0.0
 11
3731.9135642391
 21
7603.2454719133
 31
0.0
  0
LINE
  5
52D
330
1F
100
AcDbEntity
  8
0
  6
Continuous
 62
     8
370
    25
100
AcDbLine
 10
3720.6472230002
 20
7593.3176433702
 30
0.0
 11
3720.6472230002
 21
7592.5954719133
 31
0.0
  0
LINE
  5
52E
330
1F
100
AcDbEntity
  8
0
  6
Continuous
 62
     8
370
    25
100
AcDbLine
 10
3972.2251808679
 20
7583.660043348
 30
0.0
 11
3972.2251808679
 21
7581.9454719133
 31
0.0
  0
LINE
  5
52F
330
1F
100
AcDbEntity
  8
0
  6
Continuous
 62
     8
370
    25
100
AcDbLine
 10
3710.7433244109
 20
7583.660043348
 30
0.0
 11
3710.7433244109
 21
7581.9454719133
 31
0.0
  0
LINE
  5
530
330
1F
100
AcDbEntity
  8
0
  6
Continuous
 62
     8
370
    25
100
AcDbLine
 10
3707.2940600577
 20
7574.2954719133
 30
0.0
 11
3707.2940600577
 21
7571.2954719133
 31
0.0
  0
LINE
  5
531
330
1F
100
AcDbEntity
  8
0
  6
Continuous
 62
     8
370
    25
100
AcDbLine
 10
3975.6744452211
 20
7574.2954719133
 30
0.0
 11
3975.6744452211
 21
7571.2954719133
 31
0.0
  0
LINE
  5
532
330
1F
100
AcDbEntity
  8
0
  6
Continuous
 62
     8
370
    25
100
AcDbLine
 10
3708.6763004667
 20
7563.6454719133
 30
0.0
 11
3708.6763004667
 21
7560.7174450946
 31
0.0
  0
LINE
  5
533
330
1F
100
AcDbEntity
  8
0
  6
Continuous
 62
     8
370
    25
100
AcDbLine
 10
3974.2922048121
 20
7563.6454719133
 30
0.0
 11
3974.2922048121
 21
7560.7174450946
 31
0.0
  0
LINE
  5
534
330
1F
100
AcDbEntity
  8
0
  6
Continuous
 62
     8
370
    25
100
AcDbLine
 10
3716.0890904285
 20
7552.9954719133
 30
0.0
 11
3716.0890904285
 21
7552.7218062924
 31
0.0
  0
LINE
  5
535
330
1F
100
AcDbEntity
  8
0
  6
Continuous
 62
     8
370
    25
100
AcDbLine
 10
3966.8794148504
 20
7552.9954719133
 30
0.0
 11
3966.8794148504
 21
7552.7218062924
 31
0.0
  0
ENDSEC
  0
SECTION
  2
OBJECTS
  0
DICTIONARY
  5
C
330
0
100
AcDbDictionary
281
     1
  3
ACAD_GROUP
350
D
  3
ACAD_LAYOUT
350
1A
  3
ACAD_MLINESTYLE
350
17
  3
ACAD_PLOTSETTINGS
350
19
  3
ACAD_PLOTSTYLENAME
350
E
  3
ACAD_SCALELIST
350
47
  3
DWGPROPS
350
536
  0
DICTIONARY
  5
D
102
{ACAD_REACTORS
330
C
102
}
330
C
100
AcDbDictionary
281
     1
  0
DICTIONARY
  5
1A
102
{ACAD_REACTORS
330
C
102
}
330
C
100
AcDbDictionary
281
     1
  3
Layout1
350
1E
  3
Layout2
350
26
  3
Model
350
22
  0
DICTIONARY
  5
17
102
{ACAD_REACTORS
330
C
102
}
330
C
100
AcDbDictionary
281
     1
  3
Standard
350
18
  0
DICTIONARY
  5
19
102
{ACAD_REACTORS
330
C
102
}
330
C
100
AcDbDictionary
281
     1
  0
ACDBDICTIONARYWDFLT
  5
E
102
{ACAD_REACTORS
330
C
102
}
330
C
100
AcDbDictionary
281
     1
  3
Normal
350
F
100
AcDbDictionaryWithDefault
340
F
  0
DICTIONARY
  5
47
102
{ACAD_REACTORS
330
C
102
}
330
C
100
AcDbDictionary
281
     1
  3
A0
350
48
  3
A1
350
49
  3
A2
350
4A
  3
A3
350
4B
  3
A4
350
4C
  3
A5
350
4D
  3
A6
350
4E
  3
A7
350
4F
  3
A8
350
50
  3
A9
350
51
  3
B0
350
52
  3
B1
350
53
  3
B2
350
54
  3
B3
350
55
  3
B4
350
56
  3
B5
350
57
  3
B6
350
58
  3
B7
350
59
  3
B8
350
5A
  3
B9
350
5B
  3
C0
350
5C
  3
C1
350
5D
  3
C2
350
5E
  3
C3
350
5F
  3
C4
350
60
  3
C5
350
61
  3
C6
350
62
  3
C7
350
63
  3
C8
350
64
  3
C9
350
65
  3
D0
350
66
  3
D1
350
67
  3
D2
350
68
  0
XRECORD
  5
536
102
{ACAD_REACTORS
330
C
102
}
330
C
100
AcDbXrecord
280
     1
  1
DWGPROPS COOKIE
  2

  3

  4

  6

  7

  8
radek.stransky
  9

300
=
301
=
302
=
303
=
304
=
305
=
306
=
307
=
308
=
309
=
 40
0.0
 41
2459179.218910393
 42
2459179.218910648
  1

 90
        0
  0
LAYOUT
  5
1E
102
{ACAD_REACTORS
330
1A
102
}
330
1A
100
AcDbPlotSettings
  1

  2
none_device
  4

  6

 40
0.0
 41
0.0
 42
0.0
 43
0.0
 44
0.0
 45
0.0
 46
0.0
 47
0.0
 48
0.0
 49
0.0
140
0.0
141
0.0
142
1.0
143
1.0
 70
   688
 72
     1
 73
     0
 74
     5
  7

 75
    16
147
1.0
148
0.0
149
0.0
100
AcDbLayout
  1
Layout1
 70
     1
 71
     1
 10
0.0
 20
0.0
 11
420.0
 21
297.0
 12
0.0
 22
0.0
 32
0.0
 14
1.0000000000E+20
 24
1.0000000000E+20
 34
1.0000000000E+20
 15
-1.0000000000E+20
 25
-1.0000000000E+20
 35
-1.0000000000E+20
146
0.0
 13
0.0
 23
0.0
 33
0.0
 16
1.0
 26
0.0
 36
0.0
 17
0.0
 27
1.0
 37
0.0
 76
     0
330
1B
  0
LAYOUT
  5
26
102
{ACAD_REACTORS
330
1A
102
}
330
1A
100
AcDbPlotSettings
  1

  2
none_device
  4

  6

 40
0.0
 41
0.0
 42
0.0
 43
0.0
 44
0.0
 45
0.0
 46
0.0
 47
0.0
 48
0.0
 49
0.0
140
0.0
141
0.0
142
1.0
143
1.0
 70
   688
 72
     1
 73
     0
 74
     5
  7

 75
    16
147
1.0
148
0.0
149
0.0
100
AcDbLayout
  1
Layout2
 70
     1
 71
     2
 10
0.0
 20
0.0
 11
0.0
 21
0.0
 12
0.0
 22
0.0
 32
0.0
 14
0.0
 24
0.0
 34
0.0
 15
0.0
 25
0.0
 35
0.0
146
0.0
 13
0.0
 23
0.0
 33
0.0
 16
1.0
 26
0.0
 36
0.0
 17
0.0
 27
1.0
 37
0.0
 76
     0
330
23
  0
LAYOUT
  5
22
102
{ACAD_REACTORS
330
1A
102
}
330
1A
100
AcDbPlotSettings
  1

  2
none_device
  4
Letter_(8.50_x_11.00_Inches)
  6

 40
6.35
 41
6.35
 42
6.35000508
 43
6.35000508
 44
215.9
 45
279.4
 46
0.0
 47
0.0
 48
0.0
 49
0.0
140
0.0
141
0.0
142
1.0
143
1.0
 70
  1712
 72
     1
 73
     0
 74
     0
  7

 75
     0
147
1.0
148
0.0
149
0.0
100
AcDbLayout
  1
Model
 70
     1
 71
     0
 10
0.0
 20
0.0
 11
20000.0
 21
10000.0
 12
0.0
 22
0.0
 32
0.0
 14
0.0
 24
0.0
 34
0.0
 15
20000.0
 25
10000.0
 35
0.0
146
0.0
 13
0.0
 23
0.0
 33
0.0
 16
1.0
 26
0.0
 36
0.0
 17
0.0
 27
1.0
 37
0.0
 76
     0
330
1F
331
29
  0
MLINESTYLE
  5
18
102
{ACAD_REACTORS
330
17
102
}
330
17
100
AcDbMlineStyle
  2
Standard
 70
     0
  3

 62
   256
 51
90.0
 52
90.0
 71
     2
 49
0.5
 62
   256
  6
BYLAYER
 49
-0.5
 62
   256
  6
BYLAYER
  0
ACDBPLACEHOLDER
  5
F
102
{ACAD_REACTORS
330
E
102
}
330
E
  0
SCALE
  5
48
102
{ACAD_REACTORS
330
47
102
}
330
47
100
AcDbScale
 70
     0
300
1:1
140
1.0
141
1.0
290
     1
  0
SCALE
  5
49
102
{ACAD_REACTORS
330
47
102
}
330
47
100
AcDbScale
 70
     0
300
1:2
140
1.0
141
2.0
290
     0
  0
SCALE
  5
4A
102
{ACAD_REACTORS
330
47
102
}
330
47
100
AcDbScale
 70
     0
300
1:4
140
1.0
141
4.0
290
     0
  0
SCALE
  5
4B
102
{ACAD_REACTORS
330
47
102
}
330
47
100
AcDbScale
 70
     0
300
1:5
140
1.0
141
5.0
290
     0
  0
SCALE
  5
4C
102
{ACAD_REACTORS
330
47
102
}
330
47
100
AcDbScale
 70
     0
300
1:8
140
1.0
141
8.0
290
     0
  0
SCALE
  5
4D
102
{ACAD_REACTORS
330
47
102
}
330
47
100
AcDbScale
 70
     0
300
1:10
140
1.0
141
10.0
290
     0
  0
SCALE
  5
4E
102
{ACAD_REACTORS
330
47
102
}
330
47
100
AcDbScale
 70
     0
300
1:16
140
1.0
141
16.0
290
     0
  0
SCALE
  5
4F
102
{ACAD_REACTORS
330
47
102
}
330
47
100
AcDbScale
 70
     0
300
1:20
140
1.0
141
20.0
290
     0
  0
SCALE
  5
50
102
{ACAD_REACTORS
330
47
102
}
330
47
100
AcDbScale
 70
     0
300
1:30
140
1.0
141
30.0
290
     0
  0
SCALE
  5
51
102
{ACAD_REACTORS
330
47
102
}
330
47
100
AcDbScale
 70
     0
300
1:40
140
1.0
141
40.0
290
     0
  0
SCALE
  5
52
102
{ACAD_REACTORS
330
47
102
}
330
47
100
AcDbScale
 70
     0
300
1:50
140
1.0
141
50.0
290
     0
  0
SCALE
  5
53
102
{ACAD_REACTORS
330
47
102
}
330
47
100
AcDbScale
 70
     0
300
1:100
140
1.0
141
100.0
290
     0
  0
SCALE
  5
54
102
{ACAD_REACTORS
330
47
102
}
330
47
100
AcDbScale
 70
     0
300
2:1
140
2.0
141
1.0
290
     0
  0
SCALE
  5
55
102
{ACAD_REACTORS
330
47
102
}
330
47
100
AcDbScale
 70
     0
300
4:1
140
4.0
141
1.0
290
     0
  0
SCALE
  5
56
102
{ACAD_REACTORS
330
47
102
}
330
47
100
AcDbScale
 70
     0
300
8:1
140
8.0
141
1.0
290
     0
  0
SCALE
  5
57
102
{ACAD_REACTORS
330
47
102
}
330
47
100
AcDbScale
 70
     0
300
10:1
140
10.0
141
1.0
290
     0
  0
SCALE
  5
58
102
{ACAD_REACTORS
330
47
102
}
330
47
100
AcDbScale
 70
     0
300
100:1
140
100.0
141
1.0
290
     0
  0
SCALE
  5
59
102
{ACAD_REACTORS
330
47
102
}
330
47
100
AcDbScale
 70
     0
300
1/128" = 1'-0"
140
0.0078125
141
12.0
290
     0
  0
SCALE
  5
5A
102
{ACAD_REACTORS
330
47
102
}
330
47
100
AcDbScale
 70
     0
300
1/64" = 1'-0"
140
0.015625
141
12.0
290
     0
  0
SCALE
  5
5B
102
{ACAD_REACTORS
330
47
102
}
330
47
100
AcDbScale
 70
     0
300
1/32" = 1'-0"
140
0.03125
141
12.0
290
     0
  0
SCALE
  5
5C
102
{ACAD_REACTORS
330
47
102
}
330
47
100
AcDbScale
 70
     0
300
1/16" = 1'-0"
140
0.0625
141
12.0
290
     0
  0
SCALE
  5
5D
102
{ACAD_REACTORS
330
47
102
}
330
47
100
AcDbScale
 70
     0
300
3/32" = 1'-0"
140
0.09375
141
12.0
290
     0
  0
SCALE
  5
5E
102
{ACAD_REACTORS
330
47
102
}
330
47
100
AcDbScale
 70
     0
300
1/8" = 1'-0"
140
0.125
141
12.0
290
     0
  0
SCALE
  5
5F
102
{ACAD_REACTORS
330
47
102
}
330
47
100
AcDbScale
 70
     0
300
3/16" = 1'-0"
140
0.1875
141
12.0
290
     0
  0
SCALE
  5
60
102
{ACAD_REACTORS
330
47
102
}
330
47
100
AcDbScale
 70
     0
300
1/4" = 1'-0"
140
0.25
141
12.0
290
     0
  0
SCALE
  5
61
102
{ACAD_REACTORS
330
47
102
}
330
47
100
AcDbScale
 70
     0
300
3/8" = 1'-0"
140
0.375
141
12.0
290
     0
  0
SCALE
  5
62
102
{ACAD_REACTORS
330
47
102
}
330
47
100
AcDbScale
 70
     0
300
1/2" = 1'-0"
140
0.5
141
12.0
290
     0
  0
SCALE
  5
63
102
{ACAD_REACTORS
330
47
102
}
330
47
100
AcDbScale
 70
     0
300
3/4" = 1'-0"
140
0.75
141
12.0
290
     0
  0
SCALE
  5
64
102
{ACAD_REACTORS
330
47
102
}
330
47
100
AcDbScale
 70
     0
300
1" = 1'-0"
140
1.0
141
12.0
290
     0
  0
SCALE
  5
65
102
{ACAD_REACTORS
330
47
102
}
330
47
100
AcDbScale
 70
     0
300
1-1/2" = 1'-0"
140
1.5
141
12.0
290
     0
  0
SCALE
  5
66
102
{ACAD_REACTORS
330
47
102
}
330
47
100
AcDbScale
 70
     0
300
3" = 1'-0"
140
3.0
141
12.0
290
     0
  0
SCALE
  5
67
102
{ACAD_REACTORS
330
47
102
}
330
47
100
AcDbScale
 70
     0
300
6" = 1'-0"
140
6.0
141
12.0
290
     0
  0
SCALE
  5
68
102
{ACAD_REACTORS
330
47
102
}
330
47
100
AcDbScale
 70
     0
300
1'-0" = 1'-0"
140
12.0
141
12.0
290
     0
  0
ENDSEC
  0
EOF
