  0
SECTION
  2
HEADER
  9
$ACADVER
  1
AC1015
  9
$ACADMAINTVER
 70
     6
  9
$DWGCODEPAGE
  3
ANSI_1250
  9
$INSBASE
 10
0.0
 20
0.0
 30
0.0
  9
$EXTMIN
 10
0.0
 20
0.0
 30
0.0
  9
$EXTMAX
 10
20000.0
 20
10000.0
 30
0.0
  9
$LIMMIN
 10
0.0
 20
0.0
  9
$LIMMAX
 10
20000.0
 20
10000.0
  9
$ORTHOMODE
 70
     0
  9
$REGENMODE
 70
     1
  9
$FILLMODE
 70
     1
  9
$QTEXTMODE
 70
     0
  9
$MIRRTEXT
 70
     1
  9
$LTSCALE
 40
1.0
  9
$ATTMODE
 70
     1
  9
$TEXTSIZE
 40
2.0
  9
$TRACEWID
 40
1.0
  9
$TEXTSTYLE
  7
Standard
  9
$CLAYER
  8
0
  9
$CELTYPE
  6
ByLayer
  9
$CECOLOR
 62
   256
  9
$CELTSCALE
 40
1.0
  9
$DISPSILH
 70
     0
  9
$DIMSCALE
 40
1.0
  9
$DIMASZ
 40
2.0
  9
$DIMEXO
 40
1.0
  9
$DIMDLI
 40
3.75
  9
$DIMRND
 40
0.0
  9
$DIMDLE
 40
0.0
  9
$DIMEXE
 40
1.0
  9
$DIMTP
 40
0.0
  9
$DIMTM
 40
0.0
  9
$DIMTXT
 40
2.0
  9
$DIMCEN
 40
2.5
  9
$DIMTSZ
 40
0.0
  9
$DIMTOL
 70
     0
  9
$DIMLIM
 70
     0
  9
$DIMTIH
 70
     1
  9
$DIMTOH
 70
     1
  9
$DIMSE1
 70
     0
  9
$DIMSE2
 70
     0
  9
$DIMTAD
 70
     1
  9
$DIMZIN
 70
     0
  9
$DIMBLK
  1

  9
$DIMASO
 70
     1
  9
$DIMSHO
 70
     1
  9
$DIMPOST
  1

  9
$DIMAPOST
  1

  9
$DIMALT
 70
     0
  9
$DIMALTD
 70
     3
  9
$DIMALTF
 40
0.0393700787
  9
$DIMLFAC
 40
1.0
  9
$DIMTOFL
 70
     1
  9
$DIMTVP
 40
0.0
  9
$DIMTIX
 70
     0
  9
$DIMSOXD
 70
     0
  9
$DIMSAH
 70
     0
  9
$DIMBLK1
  1

  9
$DIMBLK2
  1

  9
$DIMSTYLE
  2
ISO-25
  9
$DIMCLRD
 70
     0
  9
$DIMCLRE
 70
     0
  9
$DIMCLRT
 70
     0
  9
$DIMTFAC
 40
1.0
  9
$DIMGAP
 40
1.524
  9
$DIMJUST
 70
     0
  9
$DIMSD1
 70
     0
  9
$DIMSD2
 70
     0
  9
$DIMTOLJ
 70
     0
  9
$DIMTZIN
 70
     0
  9
$DIMALTZ
 70
     0
  9
$DIMALTTZ
 70
     0
  9
$DIMUPT
 70
     0
  9
$DIMDEC
 70
     2
  9
$DIMTDEC
 70
     0
  9
$DIMALTU
 70
     2
  9
$DIMALTTD
 70
     3
  9
$DIMTXSTY
  7
Standard
  9
$DIMAUNIT
 70
     0
  9
$DIMADEC
 70
     2
  9
$DIMALTRND
 40
0.0
  9
$DIMAZIN
 70
     0
  9
$DIMDSEP
 70
    44
  9
$DIMATFIT
 70
     3
  9
$DIMFRAC
 70
     0
  9
$DIMLDRBLK
  1

  9
$DIMLUNIT
 70
     2
  9
$DIMLWD
 70
    -2
  9
$DIMLWE
 70
    -2
  9
$DIMTMOVE
 70
     0
  9
$LUNITS
 70
     2
  9
$LUPREC
 70
     3
  9
$SKETCHINC
 40
1.0
  9
$FILLETRAD
 40
10.0
  9
$AUNITS
 70
     0
  9
$AUPREC
 70
     2
  9
$MENU
  1
.
  9
$ELEVATION
 40
0.0
  9
$PELEVATION
 40
0.0
  9
$THICKNESS
 40
0.0
  9
$LIMCHECK
 70
     0
  9
$CHAMFERA
 40
0.0
  9
$CHAMFERB
 40
0.0
  9
$CHAMFERC
 40
0.0
  9
$CHAMFERD
 40
0.0
  9
$SKPOLY
 70
     0
  9
$TDCREATE
 40
2459293.353919769
  9
$TDUCREATE
 40
2459293.312253102
  9
$TDUPDATE
 40
2459293.35392
  9
$TDUUPDATE
 40
2459293.312253333
  9
$TDINDWG
 40
0.0000000116
  9
$TDUSRTIMER
 40
0.0000000116
  9
$USRTIMER
 70
     1
  9
$ANGBASE
 50
0.0
  9
$ANGDIR
 70
     0
  9
$PDMODE
 70
     0
  9
$PDSIZE
 40
-1.0
  9
$PLINEWID
 40
0.0
  9
$SPLFRAME
 70
     0
  9
$SPLINETYPE
 70
     6
  9
$SPLINESEGS
 70
     8
  9
$HANDSEED
  5
253
  9
$SURFTAB1
 70
     6
  9
$SURFTAB2
 70
     6
  9
$SURFTYPE
 70
     6
  9
$SURFU
 70
     6
  9
$SURFV
 70
     6
  9
$UCSBASE
  2

  9
$UCSNAME
  2

  9
$UCSORG
 10
0.0
 20
0.0
 30
0.0
  9
$UCSXDIR
 10
1.0
 20
0.0
 30
0.0
  9
$UCSYDIR
 10
0.0
 20
1.0
 30
0.0
  9
$UCSORTHOREF
  2

  9
$UCSORTHOVIEW
 70
     0
  9
$UCSORGTOP
 10
0.0
 20
0.0
 30
0.0
  9
$UCSORGBOTTOM
 10
0.0
 20
0.0
 30
0.0
  9
$UCSORGLEFT
 10
0.0
 20
0.0
 30
0.0
  9
$UCSORGRIGHT
 10
0.0
 20
0.0
 30
0.0
  9
$UCSORGFRONT
 10
0.0
 20
0.0
 30
0.0
  9
$UCSORGBACK
 10
0.0
 20
0.0
 30
0.0
  9
$PUCSBASE
  2

  9
$PUCSNAME
  2

  9
$PUCSORG
 10
0.0
 20
0.0
 30
0.0
  9
$PUCSXDIR
 10
1.0
 20
0.0
 30
0.0
  9
$PUCSYDIR
 10
0.0
 20
1.0
 30
0.0
  9
$PUCSORTHOREF
  2

  9
$PUCSORTHOVIEW
 70
     0
  9
$PUCSORGTOP
 10
0.0
 20
0.0
 30
0.0
  9
$PUCSORGBOTTOM
 10
0.0
 20
0.0
 30
0.0
  9
$PUCSORGLEFT
 10
0.0
 20
0.0
 30
0.0
  9
$PUCSORGRIGHT
 10
0.0
 20
0.0
 30
0.0
  9
$PUCSORGFRONT
 10
0.0
 20
0.0
 30
0.0
  9
$PUCSORGBACK
 10
0.0
 20
0.0
 30
0.0
  9
$USERI1
 70
     0
  9
$USERI2
 70
     0
  9
$USERI3
 70
     0
  9
$USERI4
 70
     0
  9
$USERI5
 70
     0
  9
$USERR1
 40
0.0
  9
$USERR2
 40
0.0
  9
$USERR3
 40
0.0
  9
$USERR4
 40
0.0
  9
$USERR5
 40
0.0
  9
$WORLDVIEW
 70
     1
  9
$SHADEDGE
 70
     3
  9
$SHADEDIF
 70
    70
  9
$TILEMODE
 70
     1
  9
$MAXACTVP
 70
    64
  9
$PINSBASE
 10
0.0
 20
0.0
 30
0.0
  9
$PLIMCHECK
 70
     0
  9
$PEXTMIN
 10
1.0000000000E+20
 20
1.0000000000E+20
 30
1.0000000000E+20
  9
$PEXTMAX
 10
-1.0000000000E+20
 20
-1.0000000000E+20
 30
-1.0000000000E+20
  9
$PLIMMIN
 10
0.0
 20
0.0
  9
$PLIMMAX
 10
420.0
 20
297.0
  9
$UNITMODE
 70
     0
  9
$VISRETAIN
 70
     1
  9
$PLINEGEN
 70
     0
  9
$PSLTSCALE
 70
     1
  9
$TREEDEPTH
 70
  3020
  9
$CMLSTYLE
  2
Standard
  9
$CMLJUST
 70
     0
  9
$CMLSCALE
 40
20.0
  9
$PROXYGRAPHICS
 70
     1
  9
$MEASUREMENT
 70
     1
  9
$CELWEIGHT
370
    -1
  9
$ENDCAPS
280
     0
  9
$JOINSTYLE
280
     0
  9
$LWDISPLAY
290
     1
  9
$INSUNITS
 70
     4
  9
$HYPERLINKBASE
  1

  9
$STYLESHEET
  1

  9
$XEDIT
290
     1
  9
$CEPSNTYPE
380
     0
  9
$PSTYLEMODE
290
     1
  9
$FINGERPRINTGUID
  2
{06595627-1247-45b8-a254-543b6d63625e}
  9
$VERSIONGUID
  2
{FAEB1C32-E019-11D5-929B-00C0DF256EC4}
  9
$EXTNAMES
290
     1
  9
$PSVPSCALE
 40
0.0
  9
$OLESTARTUP
290
     0
  0
ENDSEC
  0
SECTION
  2
CLASSES
  0
CLASS
  1
ACDBDICTIONARYWDFLT
  2
AcDbDictionaryWithDefault
  3
ObjectDBX Classes
 90
        0
280
     0
281
     0
  0
CLASS
  1
VISUALSTYLE
  2
AcDbVisualStyle
  3
ObjectDBX Classes
 90
     4095
280
     0
281
     0
  0
CLASS
  1
MATERIAL
  2
AcDbMaterial
  3
ObjectDBX Classes
 90
     1153
280
     0
281
     0
  0
CLASS
  1
SCALE
  2
AcDbScale
  3
ObjectDBX Classes
 90
     1153
280
     0
281
     0
  0
CLASS
  1
TABLESTYLE
  2
AcDbTableStyle
  3
ObjectDBX Classes
 90
     4095
280
     0
281
     0
  0
CLASS
  1
MLEADERSTYLE
  2
AcDbMLeaderStyle
  3
ACDB_MLEADERSTYLE_CLASS
 90
     4095
280
     0
281
     0
  0
CLASS
  1
SUN
  2
AcDbSun
  3
SCENEOE
 90
     1153
280
     0
281
     0
  0
CLASS
  1
ACDBPLACEHOLDER
  2
AcDbPlaceHolder
  3
ObjectDBX Classes
 90
        0
280
     0
281
     0
  0
CLASS
  1
LAYOUT
  2
AcDbLayout
  3
ObjectDBX Classes
 90
        0
280
     0
281
     0
  0
ENDSEC
  0
SECTION
  2
TABLES
  0
TABLE
  2
VPORT
  5
8
330
0
100
AcDbSymbolTable
 70
     1
  0
VPORT
  5
29
330
8
100
AcDbSymbolTableRecord
100
AcDbViewportTableRecord
  2
*Active
 70
     0
 10
0.0
 20
0.0
 11
1.0
 21
1.0
 12
10000.0
 22
5000.0
 13
0.0
 23
0.0
 14
10.0
 24
10.0
 15
10.0
 25
10.0
 16
0.0
 26
0.0
 36
1.0
 17
0.0
 27
0.0
 37
0.0
 40
10000.0
 41
2.0
 42
50.0
 43
0.0
 44
0.0
 50
0.0
 51
0.0
 71
     0
 72
  2000
 73
     1
 74
     3
 75
     0
 76
     0
 77
     0
 78
     0
281
     0
 65
     1
110
0.0
120
0.0
130
0.0
111
1.0
121
0.0
131
0.0
112
0.0
122
1.0
132
0.0
 79
     0
146
0.0
  0
ENDTAB
  0
TABLE
  2
LTYPE
  5
5
330
0
100
AcDbSymbolTable
 70
     6
  0
LTYPE
  5
14
330
5
100
AcDbSymbolTableRecord
100
AcDbLinetypeTableRecord
  2
ByBlock
 70
     0
  3

 72
    65
 73
     0
 40
0.0
  0
LTYPE
  5
15
330
5
100
AcDbSymbolTableRecord
100
AcDbLinetypeTableRecord
  2
ByLayer
 70
     0
  3

 72
    65
 73
     0
 40
0.0
  0
LTYPE
  5
16
330
5
100
AcDbSymbolTableRecord
100
AcDbLinetypeTableRecord
  2
Continuous
 70
     0
  3
Solid line
 72
    65
 73
     0
 40
0.0
  0
LTYPE
  5
6E
330
5
100
AcDbSymbolTableRecord
100
AcDbLinetypeTableRecord
  2
HIDDEN
 70
     0
  3
Hidden __ __ __ __ __ __ __ __ __ __ __ __ __ __
 72
    65
 73
     2
 40
1.905
 49
1.27
 74
     0
 49
-0.635
 74
     0
  0
LTYPE
  5
6F
330
5
100
AcDbSymbolTableRecord
100
AcDbLinetypeTableRecord
  2
PHANTOM
 70
     0
  3
Phantom ______  __  __  ______  __  __  ______
 72
    65
 73
     6
 40
12.7
 49
6.35
 74
     0
 49
-1.27
 74
     0
 49
1.27
 74
     0
 49
-1.27
 74
     0
 49
1.27
 74
     0
 49
-1.27
 74
     0
  0
LTYPE
  5
70
330
5
100
AcDbSymbolTableRecord
100
AcDbLinetypeTableRecord
  2
CENTER
 70
     0
  3
Center ____ _ ____ _ ____ _ ____ _ ____ _ ____
 72
    65
 73
     4
 40
10.16
 49
6.35
 74
     0
 49
-1.27
 74
     0
 49
1.27
 74
     0
 49
-1.27
 74
     0
  0
LTYPE
  5
71
330
5
100
AcDbSymbolTableRecord
100
AcDbLinetypeTableRecord
  2
CENTERX2
 70
     0
  3
Center (2x) ________  __  ________  __  _____
 72
    65
 73
     4
 40
20.32
 49
12.7
 74
     0
 49
-2.54
 74
     0
 49
2.54
 74
     0
 49
-2.54
 74
     0
  0
LTYPE
  5
72
330
5
100
AcDbSymbolTableRecord
100
AcDbLinetypeTableRecord
  2
DOT2
 70
     0
  3
Dot (.5x) ........................................
 72
    65
 73
     2
 40
0.635
 49
0.0
 74
     0
 49
-0.635
 74
     0
  0
ENDTAB
  0
TABLE
  2
LAYER
  5
2
330
0
100
AcDbSymbolTable
 70
    13
  0
LAYER
  5
10
330
2
100
AcDbSymbolTableRecord
100
AcDbLayerTableRecord
  2
0
 70
     0
 62
     7
  6
Continuous
370
    -3
390
F
  0
LAYER
  5
73
330
2
100
AcDbSymbolTableRecord
100
AcDbLayerTableRecord
  2
FORMAT
 70
     0
 62
     7
  6
Continuous
370
    -3
390
F
  0
LAYER
  5
74
330
2
100
AcDbSymbolTableRecord
100
AcDbLayerTableRecord
  2
OSA
 70
     0
 62
     7
  6
CENTER
370
    -3
390
F
  0
LAYER
  5
75
330
2
100
AcDbSymbolTableRecord
100
AcDbLayerTableRecord
  2
0_35
 70
     0
 62
     7
  6
Continuous
370
    35
390
F
  0
LAYER
  5
76
330
2
100
AcDbSymbolTableRecord
100
AcDbLayerTableRecord
  2
0_5
 70
     0
 62
     7
  6
Continuous
370
    50
390
F
  0
LAYER
  5
77
330
2
100
AcDbSymbolTableRecord
100
AcDbLayerTableRecord
  2
0_25
 70
     0
 62
     7
  6
Continuous
370
    25
390
F
  0
LAYER
  5
78
330
2
100
AcDbSymbolTableRecord
100
AcDbLayerTableRecord
  2
0_18
 70
     0
 62
     7
  6
Continuous
370
    -3
390
F
  0
LAYER
  5
79
330
2
100
AcDbSymbolTableRecord
100
AcDbLayerTableRecord
  2
SLD-0
 70
     0
 62
   179
  6
Continuous
370
    -3
390
F
  0
LAYER
  5
7A
330
2
100
AcDbSymbolTableRecord
100
AcDbLayerTableRecord
  2
KOTY
 70
     0
 62
     7
  6
Continuous
370
    -3
390
F
  0
LAYER
  5
7B
330
2
100
AcDbSymbolTableRecord
100
AcDbLayerTableRecord
  2
SILNA
 70
     0
 62
   179
  6
Continuous
370
    -3
390
F
  0
LAYER
  5
7C
330
2
100
AcDbSymbolTableRecord
100
AcDbLayerTableRecord
  2
0_18_1
 70
     0
 62
   179
  6
Continuous
370
    -3
390
F
  0
LAYER
  5
7D
330
2
100
AcDbSymbolTableRecord
100
AcDbLayerTableRecord
  2
0_35_1
 70
     0
 62
   179
  6
Continuous
370
    35
390
F
  0
LAYER
  5
7E
330
2
100
AcDbSymbolTableRecord
100
AcDbLayerTableRecord
  2
0_5_1
 70
     0
 62
   179
  6
Continuous
370
    50
390
F
  0
ENDTAB
  0
TABLE
  2
STYLE
  5
3
330
0
100
AcDbSymbolTable
 70
     1
  0
STYLE
  5
11
330
3
100
AcDbSymbolTableRecord
100
AcDbTextStyleTableRecord
  2
Standard
 70
     0
 40
0.0
 41
1.0
 50
0.0
 71
     0
 42
2.0
  3
txt
  4

  0
ENDTAB
  0
TABLE
  2
VIEW
  5
6
330
0
100
AcDbSymbolTable
 70
     0
  0
ENDTAB
  0
TABLE
  2
UCS
  5
7
330
0
100
AcDbSymbolTable
 70
     0
  0
ENDTAB
  0
TABLE
  2
APPID
  5
9
330
0
100
AcDbSymbolTable
 70
     1
  0
APPID
  5
12
330
9
100
AcDbSymbolTableRecord
100
AcDbRegAppTableRecord
  2
ACAD
 70
     0
  0
ENDTAB
  0
TABLE
  2
DIMSTYLE
  5
A
330
0
100
AcDbSymbolTable
 70
     1
100
AcDbDimStyleTable
  0
DIMSTYLE
105
27
330
A
100
AcDbSymbolTableRecord
100
AcDbDimStyleTableRecord
  2
ISO-25
 70
     0
 41
2.5
 42
0.625
 43
3.75
 44
1.25
 73
     0
 74
     0
 77
     1
 78
     8
140
2.5
141
2.5
143
0.0393700787
147
0.625
171
     3
172
     1
178
     0
271
     2
272
     2
274
     3
278
    44
283
     0
284
     8
340
11
  0
ENDTAB
  0
TABLE
  2
BLOCK_RECORD
  5
1
330
0
100
AcDbSymbolTable
 70
     1
  0
BLOCK_RECORD
  5
1F
330
1
100
AcDbSymbolTableRecord
100
AcDbBlockTableRecord
  2
*Model_Space
340
22
  0
BLOCK_RECORD
  5
1B
330
1
100
AcDbSymbolTableRecord
100
AcDbBlockTableRecord
  2
*Paper_Space
340
1E
  0
BLOCK_RECORD
  5
23
330
1
100
AcDbSymbolTableRecord
100
AcDbBlockTableRecord
  2
*Paper_Space0
340
26
  0
ENDTAB
  0
ENDSEC
  0
SECTION
  2
BLOCKS
  0
BLOCK
  5
20
330
1F
100
AcDbEntity
  8
0
100
AcDbBlockBegin
  2
*Model_Space
 70
     0
 10
0.0
 20
0.0
 30
0.0
  3
*Model_Space
  1

  0
ENDBLK
  5
21
330
1F
100
AcDbEntity
  8
0
100
AcDbBlockEnd
  0
BLOCK
  5
1C
330
1B
100
AcDbEntity
 67
     1
  8
0
100
AcDbBlockBegin
  2
*Paper_Space
 70
     0
 10
0.0
 20
0.0
 30
0.0
  3
*Paper_Space
  1

  0
ENDBLK
  5
1D
330
1B
100
AcDbEntity
 67
     1
  8
0
100
AcDbBlockEnd
  0
BLOCK
  5
24
330
23
100
AcDbEntity
  8
0
100
AcDbBlockBegin
  2
*Paper_Space0
 70
     0
 10
0.0
 20
0.0
 30
0.0
  3
*Paper_Space0
  1

  0
ENDBLK
  5
25
330
23
100
AcDbEntity
  8
0
100
AcDbBlockEnd
  0
ENDSEC
  0
SECTION
  2
ENTITIES
  0
LINE
  5
7F
330
1F
100
AcDbEntity
  8
0
  6
Continuous
 62
     7
370
    25
100
AcDbLine
 10
6222.5187553361
 20
5238.3615893737
 30
0.0
 11
6222.5187553361
 21
5234.3212328816
 31
0.0
  0
LINE
  5
80
330
1F
100
AcDbEntity
  8
0
  6
Continuous
 62
     7
370
    25
100
AcDbLine
 10
6246.5187553361
 20
5234.3212328816
 30
0.0
 11
6246.5187553361
 21
5238.3615893737
 31
0.0
  0
LINE
  5
81
330
1F
100
AcDbEntity
  8
0
  6
Continuous
 62
     7
370
    25
100
AcDbLine
 10
6225.0408652755
 20
5228.817165068
 30
0.0
 11
6225.8306894473
 21
5228.5189611377
 31
0.0
  0
LINE
  5
82
330
1F
100
AcDbEntity
  8
0
  6
Continuous
 62
     7
370
    25
100
AcDbLine
 10
6243.2068212249
 20
5228.5189611377
 30
0.0
 11
6243.9966453967
 21
5228.817165068
 31
0.0
  0
ARC
  5
83
330
1F
100
AcDbEntity
  8
0
  6
Continuous
 62
     7
370
    25
100
AcDbCircle
 10
6319.0187553361
 20
5265.7731205537
 30
0.0
 40
0.5
100
AcDbArc
 50
0.0
 51
76.657636203
  0
ARC
  5
84
330
1F
100
AcDbEntity
  8
0
  6
Continuous
 62
     7
370
    25
100
AcDbCircle
 10
6310.0187553361
 20
5265.7731205537
 30
0.0
 40
0.5
100
AcDbArc
 50
103.3423637971
 51
180.0
  0
LINE
  5
85
330
1F
100
AcDbEntity
  8
0
  6
Continuous
 62
     7
370
    25
100
AcDbLine
 10
6319.5187553361
 20
5262.1743771105
 30
0.0
 11
6319.5187553361
 21
5265.7731205537
 31
0.0
  0
LINE
  5
86
330
1F
100
AcDbEntity
  8
0
  6
Continuous
 62
     7
370
    25
100
AcDbLine
 10
6309.5187553361
 20
5265.7731205537
 30
0.0
 11
6309.5187553361
 21
5262.1826548882
 31
0.0
  0
ARC
  5
87
330
1F
100
AcDbEntity
  8
0
  6
Continuous
 62
     7
370
    25
100
AcDbCircle
 10
6314.5187553361
 20
5246.7994545927
 30
0.0
 40
20.00000000000015
100
AcDbArc
 50
76.6576362029
 51
103.3423637971
  0
ARC
  5
88
330
1F
100
AcDbEntity
  8
0
  6
Continuous
 62
     7
370
    25
100
AcDbCircle
 10
6213.7687553361
 20
5130.6994545927
 30
0.0
 40
1.500000000000631
100
AcDbArc
 50
271.1268896477
 51
88.8731103523
  0
ARC
  5
89
330
1F
100
AcDbEntity
  8
0
  6
Continuous
 62
     7
370
    25
100
AcDbCircle
 10
6240.2687553361
 20
5130.6994545927
 30
0.0
 40
1.500000000000631
100
AcDbArc
 50
91.1268896477
 51
268.8731103523
  0
LINE
  5
8A
330
1F
100
AcDbEntity
  8
0
  6
Continuous
 62
     7
370
    25
100
AcDbLine
 10
6213.7982553361
 20
5132.1994545927
 30
0.0
 11
6213.7982553361
 21
5132.1991644813
 31
0.0
  0
LINE
  5
8B
330
1F
100
AcDbEntity
  8
0
  6
Continuous
 62
     7
370
    25
100
AcDbLine
 10
6240.2392553361
 20
5132.1991644813
 30
0.0
 11
6240.2392553361
 21
5132.1994545927
 31
0.0
  0
LINE
  5
8C
330
1F
100
AcDbEntity
  8
0
  6
Continuous
 62
     7
370
    25
100
AcDbLine
 10
6213.7982553361
 20
5129.1997447041
 30
0.0
 11
6213.7982553361
 21
5124.1994545927
 31
0.0
  0
LINE
  5
8D
330
1F
100
AcDbEntity
  8
0
  6
Continuous
 62
     7
370
    25
100
AcDbLine
 10
6240.2392553361
 20
5124.1994545927
 30
0.0
 11
6240.2392553361
 21
5129.1997447041
 31
0.0
  0
LINE
  5
8E
330
1F
100
AcDbEntity
  8
0
  6
Continuous
 62
     7
370
    25
100
AcDbLine
 10
6213.7982553361
 20
5124.1994545927
 30
0.0
 11
6214.7982553361
 21
5123.1994545927
 31
0.0
  0
LINE
  5
8F
330
1F
100
AcDbEntity
  8
0
  6
Continuous
 62
     7
370
    25
100
AcDbLine
 10
6239.2392553361
 20
5123.1994545927
 30
0.0
 11
6240.2392553361
 21
5124.1994545927
 31
0.0
  0
LINE
  5
90
330
1F
100
AcDbEntity
  8
0
  6
Continuous
 62
     7
370
    25
100
AcDbLine
 10
6240.7687553361
 20
5132.1994545927
 30
0.0
 11
6241.7687553361
 21
5132.7768048619
 31
0.0
  0
LINE
  5
91
330
1F
100
AcDbEntity
  8
0
  6
Continuous
 62
     7
370
    25
100
AcDbLine
 10
6212.2687553361
 20
5132.7768048619
 30
0.0
 11
6213.2687553361
 21
5132.1994545927
 31
0.0
  0
LINE
  5
92
330
1F
100
AcDbEntity
  8
0
  6
Continuous
 62
     7
370
    25
100
AcDbLine
 10
6308.7982553361
 20
5132.1994545927
 30
0.0
 11
6308.7982553361
 21
5132.1991644813
 31
0.0
  0
LINE
  5
93
330
1F
100
AcDbEntity
  8
0
  6
Continuous
 62
     7
370
    25
100
AcDbLine
 10
6335.2392553361
 20
5132.1991644813
 30
0.0
 11
6335.2392553361
 21
5132.1994545927
 31
0.0
  0
ARC
  5
94
330
1F
100
AcDbEntity
  8
0
  6
Continuous
 62
     7
370
    25
100
AcDbCircle
 10
6308.7687553361
 20
5130.6994545927
 30
0.0
 40
1.500000000000614
100
AcDbArc
 50
271.1268896477
 51
88.8731103523
  0
ARC
  5
95
330
1F
100
AcDbEntity
  8
0
  6
Continuous
 62
     7
370
    25
100
AcDbCircle
 10
6335.2687553361
 20
5130.6994545927
 30
0.0
 40
1.500000000000596
100
AcDbArc
 50
91.1268896477
 51
268.8731103524
  0
LINE
  5
96
330
1F
100
AcDbEntity
  8
0
  6
Continuous
 62
     7
370
    25
100
AcDbLine
 10
6308.7982553361
 20
5129.1997447041
 30
0.0
 11
6308.7982553361
 21
5124.1994545927
 31
0.0
  0
LINE
  5
97
330
1F
100
AcDbEntity
  8
0
  6
Continuous
 62
     7
370
    25
100
AcDbLine
 10
6335.2392553361
 20
5124.1994545927
 30
0.0
 11
6335.2392553361
 21
5129.1997447041
 31
0.0
  0
LINE
  5
98
330
1F
100
AcDbEntity
  8
0
  6
Continuous
 62
     7
370
    25
100
AcDbLine
 10
6308.7982553361
 20
5124.1994545927
 30
0.0
 11
6309.7982553361
 21
5123.1994545927
 31
0.0
  0
LINE
  5
99
330
1F
100
AcDbEntity
  8
0
  6
Continuous
 62
     7
370
    25
100
AcDbLine
 10
6334.2392553361
 20
5123.1994545927
 30
0.0
 11
6335.2392553361
 21
5124.1994545927
 31
0.0
  0
LINE
  5
9A
330
1F
100
AcDbEntity
  8
0
  6
Continuous
 62
     7
370
    25
100
AcDbLine
 10
6335.7687553361
 20
5132.1994545927
 30
0.0
 11
6336.1550158105
 21
5132.4224621816
 31
0.0
  0
LINE
  5
9B
330
1F
100
AcDbEntity
  8
0
  6
Continuous
 62
     7
370
    25
100
AcDbLine
 10
6307.8824948617
 20
5132.4224621816
 30
0.0
 11
6308.2687553361
 21
5132.1994545927
 31
0.0
  0
LINE
  5
9C
330
1F
100
AcDbEntity
  8
0
  6
Continuous
 62
     7
370
    25
100
AcDbLine
 10
6199.0187553361
 20
5144.1994545927
 30
0.0
 11
6349.0187553361
 21
5144.1994545927
 31
0.0
  0
LINE
  5
9D
330
1F
100
AcDbEntity
  8
0
  6
Continuous
 62
     7
370
    25
100
AcDbLine
 10
6349.0187553361
 20
5144.1994545927
 30
0.0
 11
6349.0187553361
 21
5134.1994545927
 31
0.0
  0
LINE
  5
9E
330
1F
100
AcDbEntity
  8
0
  6
Continuous
 62
     7
370
    25
100
AcDbLine
 10
6199.0187553361
 20
5134.1994545927
 30
0.0
 11
6349.0187553361
 21
5134.1994545927
 31
0.0
  0
LINE
  5
9F
330
1F
100
AcDbEntity
  8
0
  6
Continuous
 62
     7
370
    25
100
AcDbLine
 10
6199.0187553361
 20
5144.1994545927
 30
0.0
 11
6199.0187553361
 21
5134.1994545927
 31
0.0
  0
LWPOLYLINE
  5
A0
330
1F
100
AcDbEntity
  8
0
  6
Continuous
 62
     7
370
    25
100
AcDbPolyline
 90
       20
 70
   128
 43
0.0
 10
6230.0187553361
 20
5136.4335032666
 10
6229.4543268966
 20
5136.3682519293
 10
6228.957426547
 20
5136.1958299229
 10
6228.5216765751
 20
5135.9322851249
 10
6228.1669226463
 20
5135.5714564602
 10
6228.0187754864
 20
5135.1754471474
 10
6228.1664317207
 20
5134.8491777786
 10
6228.5595995999
 20
5134.6390060265
 10
6229.1035677464
 20
5134.5226191768
 10
6229.732960794
 20
5134.4724219535
 10
6230.3876028136
 20
5134.4757200283
 10
6230.9995124975
 20
5134.5318877636
 10
6231.5030532103
 20
5134.6474295625
 10
6231.8493656749
 20
5134.8298962296
 10
6232.0100052547
 20
5135.0845088627
 10
6231.9615814374
 20
5135.4130236661
 10
6231.6698734809
 20
5135.8012428214
 10
6231.1134320506
 20
5136.1798884755
 10
6230.5801604501
 20
5136.3689562053
 10
6230.0187553361
 20
5136.4335032666
  0
LWPOLYLINE
  5
A1
330
1F
100
AcDbEntity
  8
0
  6
Continuous
 62
     7
370
    25
100
AcDbPolyline
 90
       20
 70
   128
 43
0.0
 10
6318.0187553361
 20
5136.4335032666
 10
6317.4543268966
 20
5136.3682519293
 10
6316.957426547
 20
5136.1958299229
 10
6316.5216765751
 20
5135.9322851249
 10
6316.1669226463
 20
5135.5714564602
 10
6316.0187754864
 20
5135.1754471474
 10
6316.1664317207
 20
5134.8491777786
 10
6316.5595995999
 20
5134.6390060265
 10
6317.1035677464
 20
5134.5226191768
 10
6317.732960794
 20
5134.4724219535
 10
6318.3876028136
 20
5134.4757200283
 10
6318.9995124975
 20
5134.5318877636
 10
6319.5030532103
 20
5134.6474295625
 10
6319.8493656749
 20
5134.8298962296
 10
6320.0100052547
 20
5135.0845088627
 10
6319.9615814374
 20
5135.4130236661
 10
6319.6698734809
 20
5135.8012428214
 10
6319.1134320506
 20
5136.1798884755
 10
6318.5801604501
 20
5136.3689562053
 10
6318.0187553361
 20
5136.4335032666
  0
ARC
  5
A2
330
1F
100
AcDbEntity
  8
0
  6
Continuous
 62
     7
370
    25
100
AcDbCircle
 10
6199.0187553361
 20
5144.1994545927
 30
0.0
 40
10.0
100
AcDbArc
 50
180.0
 51
270.0
  0
LINE
  5
A3
330
1F
100
AcDbEntity
  8
0
  6
Continuous
 62
     7
370
    25
100
AcDbLine
 10
6189.0187553361
 20
5144.1994545927
 30
0.0
 11
6199.0187553361
 21
5144.1994545927
 31
0.0
  0
LINE
  5
A4
330
1F
100
AcDbEntity
  8
0
  6
Continuous
 62
     7
370
    25
100
AcDbLine
 10
6199.0187553361
 20
5294.1994545927
 30
0.0
 11
6199.0187553361
 21
5144.1994545927
 31
0.0
  0
LINE
  5
A5
330
1F
100
AcDbEntity
  8
0
  6
Continuous
 62
     7
370
    25
100
AcDbLine
 10
6349.0187553361
 20
5294.1994545927
 30
0.0
 11
6199.0187553361
 21
5294.1994545927
 31
0.0
  0
LINE
  5
A6
330
1F
100
AcDbEntity
  8
0
  6
Continuous
 62
     7
370
    25
100
AcDbLine
 10
6349.0187553361
 20
5144.1994545927
 30
0.0
 11
6349.0187553361
 21
5294.1994545927
 31
0.0
  0
LINE
  5
A7
330
1F
100
AcDbEntity
  8
0
  6
Continuous
 62
     7
370
    25
100
AcDbLine
 10
6226.7687553361
 20
5168.4494545927
 30
0.0
 11
6242.2687553361
 21
5168.4494545927
 31
0.0
  0
ARC
  5
A8
330
1F
100
AcDbEntity
  8
0
  6
Continuous
 62
     7
370
    25
100
AcDbCircle
 10
6242.2687553361
 20
5171.9494545927
 30
0.0
 40
3.5
100
AcDbArc
 50
270.0
 51
0.0
  0
LINE
  5
A9
330
1F
100
AcDbEntity
  8
0
  6
Continuous
 62
     7
370
    25
100
AcDbLine
 10
6245.7687553361
 20
5171.9494545927
 30
0.0
 11
6245.7687553361
 21
5187.4494545927
 31
0.0
  0
ARC
  5
AA
330
1F
100
AcDbEntity
  8
0
  6
Continuous
 62
     7
370
    25
100
AcDbCircle
 10
6242.2687553361
 20
5187.4494545927
 30
0.0
 40
3.5
100
AcDbArc
 50
0.0
 51
90.0
  0
LINE
  5
AB
330
1F
100
AcDbEntity
  8
0
  6
Continuous
 62
     7
370
    25
100
AcDbLine
 10
6242.2687553361
 20
5190.9494545927
 30
0.0
 11
6226.7687553361
 21
5190.9494545927
 31
0.0
  0
ARC
  5
AC
330
1F
100
AcDbEntity
  8
0
  6
Continuous
 62
     7
370
    25
100
AcDbCircle
 10
6226.7687553361
 20
5187.4494545927
 30
0.0
 40
3.5
100
AcDbArc
 50
90.0
 51
180.0
  0
LINE
  5
AD
330
1F
100
AcDbEntity
  8
0
  6
Continuous
 62
     7
370
    25
100
AcDbLine
 10
6223.2687553361
 20
5187.4494545927
 30
0.0
 11
6223.2687553361
 21
5171.9494545927
 31
0.0
  0
ARC
  5
AE
330
1F
100
AcDbEntity
  8
0
  6
Continuous
 62
     7
370
    25
100
AcDbCircle
 10
6226.7687553361
 20
5171.9494545927
 30
0.0
 40
3.5
100
AcDbArc
 50
180.0
 51
270.0
  0
LINE
  5
AF
330
1F
100
AcDbEntity
  8
0
  6
Continuous
 62
     7
370
    25
100
AcDbLine
 10
6349.0187553361
 20
5304.1994545927
 30
0.0
 11
6349.0187553361
 21
5294.1994545927
 31
0.0
  0
ARC
  5
B0
330
1F
100
AcDbEntity
  8
0
  6
Continuous
 62
     7
370
    25
100
AcDbCircle
 10
6349.0187553361
 20
5294.1994545927
 30
0.0
 40
10.0
100
AcDbArc
 50
0.0
 51
90.0
  0
LINE
  5
B1
330
1F
100
AcDbEntity
  8
0
  6
Continuous
 62
     7
370
    25
100
AcDbLine
 10
6349.0187553361
 20
5294.1994545927
 30
0.0
 11
6359.0187553361
 21
5294.1994545927
 31
0.0
  0
LINE
  5
B2
330
1F
100
AcDbEntity
  8
0
  6
Continuous
 62
     7
370
    25
100
AcDbLine
 10
6199.0187553361
 20
5304.1994545927
 30
0.0
 11
6199.0187553361
 21
5294.1994545927
 31
0.0
  0
LINE
  5
B3
330
1F
100
AcDbEntity
  8
0
  6
Continuous
 62
     7
370
    25
100
AcDbLine
 10
6189.0187553361
 20
5294.1994545927
 30
0.0
 11
6199.0187553361
 21
5294.1994545927
 31
0.0
  0
ARC
  5
B4
330
1F
100
AcDbEntity
  8
0
  6
Continuous
 62
     7
370
    25
100
AcDbCircle
 10
6199.0187553361
 20
5294.1994545927
 30
0.0
 40
10.0
100
AcDbArc
 50
90.0
 51
180.0
  0
LINE
  5
B5
330
1F
100
AcDbEntity
  8
0
  6
Continuous
 62
     7
370
    25
100
AcDbLine
 10
6359.0187553361
 20
5144.1994545927
 30
0.0
 11
6359.0187553361
 21
5294.1994545927
 31
0.0
  0
LINE
  5
B6
330
1F
100
AcDbEntity
  8
0
  6
Continuous
 62
     7
370
    25
100
AcDbLine
 10
6349.0187553361
 20
5144.1994545927
 30
0.0
 11
6359.0187553361
 21
5144.1994545927
 31
0.0
  0
LINE
  5
B7
330
1F
100
AcDbEntity
  8
0
  6
Continuous
 62
     7
370
    25
100
AcDbLine
 10
6349.0187553361
 20
5304.1994545927
 30
0.0
 11
6199.0187553361
 21
5304.1994545927
 31
0.0
  0
LINE
  5
B8
330
1F
100
AcDbEntity
  8
0
  6
Continuous
 62
     7
370
    25
100
AcDbLine
 10
6189.0187553361
 20
5294.1994545927
 30
0.0
 11
6189.0187553361
 21
5144.1994545927
 31
0.0
  0
ARC
  5
B9
330
1F
100
AcDbEntity
  8
0
  6
Continuous
 62
     7
370
    25
100
AcDbCircle
 10
6349.0187553361
 20
5144.1994545927
 30
0.0
 40
10.0
100
AcDbArc
 50
270.0
 51
0.0
  0
ARC
  5
BA
330
1F
100
AcDbEntity
  8
0
  6
Continuous
 62
     7
370
    25
100
AcDbCircle
 10
6230.0252586321
 20
5139.2926429702
 30
0.0
 40
3.864521889840269
100
AcDbArc
 50
244.887191859
 51
295.2385136043
  0
ARC
  5
BB
330
1F
100
AcDbEntity
  8
0
  6
Continuous
 62
     7
370
    25
100
AcDbCircle
 10
6318.0252586321
 20
5139.2926429702
 30
0.0
 40
3.864521889840269
100
AcDbArc
 50
244.887191859
 51
295.2385136043
  0
LWPOLYLINE
  5
BC
330
1F
100
AcDbEntity
  8
0
  6
Continuous
 62
     7
370
    25
100
AcDbPolyline
 90
       21
 70
   128
 43
0.0
 10
6223.6282406657
 20
5230.9509106753
 10
6224.0045010388
 20
5231.4448160883
 10
6224.6396572474
 20
5231.9153835187
 10
6225.5180696379
 20
5232.3510260347
 10
6226.6181087818
 20
5232.7410166717
 10
6227.9126880646
 20
5233.075752566
 10
6229.3699306479
 20
5233.3469914089
 10
6230.953954383
 20
5233.5480543999
 10
6232.6257553485
 20
5233.6739907009
 10
6234.3441682562
 20
5233.7216993422
 10
6236.0668800772
 20
5233.6900055787
 10
6237.7514719291
 20
5233.579689816
 10
6239.3564635698
 20
5233.3934683944
 10
6240.8423347783
 20
5233.1359267032
 10
6242.1724984742
 20
5232.8134062737
 10
6243.3142016127
 20
5232.4338486292
 10
6244.2393316735
 20
5232.0065997386
 10
6244.9251088841
 20
5231.5421798876
 10
6245.3546471336
 20
5231.0520246341
 10
6245.5173697648
 20
5230.5482032273
 10
6245.4092700065
 20
5230.0431214222
  0
LWPOLYLINE
  5
BD
330
1F
100
AcDbEntity
  8
0
  6
Continuous
 62
     7
370
    25
100
AcDbPolyline
 90
        3
 70
   128
 43
0.0
 10
6223.6282406657
 20
5230.9509106753
 10
6224.2566140583
 20
5232.6635676496
 10
6224.3031993416
 20
5232.8210323104
  0
LWPOLYLINE
  5
BE
330
1F
100
AcDbEntity
  8
0
  6
Continuous
 62
     7
370
    25
100
AcDbPolyline
 90
       16
 70
   128
 43
0.0
 10
6224.3031993416
 20
5232.8210323104
 10
6225.3947259341
 20
5233.2602719735
 10
6226.7039527792
 20
5233.6449858486
 10
6228.1996415939
 20
5233.9659946244
 10
6229.8461050934
 20
5234.2156389994
 10
6231.6040584944
 20
5234.3879624339
 10
6233.4315568532
 20
5234.4788532735
 10
6235.2849958763
 20
5234.4861428537
 10
6237.1201523236
 20
5234.4096572444
 10
6238.893239179
 20
5234.2512213998
 10
6240.561950413
 20
5234.0146156151
 10
6242.086470409
 20
5233.7054853279
 10
6243.4304239675
 20
5233.3312064178
 10
6244.5617442226
 20
5232.9007092168
 10
6245.4534377598
 20
5232.4242654312
 10
6246.0842286824
 20
5231.9132430573
  0
LWPOLYLINE
  5
BF
330
1F
100
AcDbEntity
  8
0
  6
Continuous
 62
     7
370
    25
100
AcDbPolyline
 90
        3
 70
   128
 43
0.0
 10
6246.0842286824
 20
5231.9132430573
 10
6246.0376433991
 20
5231.7557783965
 10
6245.4092700065
 20
5230.0431214222
  0
LINE
  5
C0
330
1F
100
AcDbEntity
  8
0
  6
Continuous
 62
     7
370
    25
100
AcDbLine
 10
6224.3031993416
 20
5232.8210323104
 30
0.0
 11
6224.3031993416
 21
5236.1672220391
 31
0.0
  0
LWPOLYLINE
  5
C1
330
1F
100
AcDbEntity
  8
0
  6
Continuous
 62
     7
370
    25
100
AcDbPolyline
 90
        9
 70
   128
 43
0.0
 10
6224.3031993416
 20
5236.1672220391
 10
6223.7110987613
 20
5235.850171686
 10
6223.2330767643
 20
5235.5169828507
 10
6222.8741790395
 20
5235.1711724576
 10
6222.6381938775
 20
5234.816390656
 10
6222.527612184
 20
5234.4563822914
 10
6222.5436011872
 20
5234.0949473776
 10
6222.6859921178
 20
5233.7359009862
 10
6222.9532819898
 20
5233.3830329771
  0
LINE
  5
C2
330
1F
100
AcDbEntity
  8
0
  6
Continuous
 62
     7
370
    25
100
AcDbLine
 10
6222.9532819898
 20
5233.3830329771
 30
0.0
 11
6222.9532819898
 21
5230.0368432484
 31
0.0
  0
LINE
  5
C3
330
1F
100
AcDbEntity
  8
0
  6
Continuous
 62
     7
370
    25
100
AcDbLine
 10
6244.7343113306
 20
5229.1290539953
 30
0.0
 11
6243.9966453967
 21
5228.817165068
 31
0.0
  0
ARC
  5
C4
330
1F
100
AcDbEntity
  8
0
  6
Continuous
 62
     7
370
    25
100
AcDbCircle
 10
6226.9352737219
 20
5234.4559843393
 30
0.0
 40
5.948534788950622
100
AcDbArc
 50
227.9786750071
 51
251.4297955487
  0
ARC
  5
C5
330
1F
100
AcDbEntity
  8
0
  6
Continuous
 62
     7
370
    25
100
AcDbCircle
 10
6245.2076725098
 20
5234.3212328816
 30
0.0
 40
1.283966426550684
100
AcDbArc
 50
313.054521906
 51
46.9454780939
  0
LINE
  5
C6
330
1F
100
AcDbEntity
  8
0
  6
Continuous
 62
     7
370
    25
100
AcDbLine
 10
6246.0842286824
 20
5235.259432786
 30
0.0
 11
6246.0842286824
 21
5231.9132430573
 31
0.0
  0
LWPOLYLINE
  5
C7
330
1F
100
AcDbEntity
  8
0
  6
Continuous
 62
     7
370
    25
100
AcDbPolyline
 90
       21
 70
   128
 43
0.0
 10
6245.4092700065
 20
5230.0431214222
 10
6245.0330096334
 20
5229.5492160093
 10
6244.3978534248
 20
5229.0786485789
 10
6243.5194410343
 20
5228.6430060629
 10
6242.4194018904
 20
5228.2530154259
 10
6241.1248226076
 20
5227.9182795316
 10
6239.6675800243
 20
5227.6470406887
 10
6238.0835562892
 20
5227.4459776976
 10
6236.4117553237
 20
5227.3200413967
 10
6234.693342416
 20
5227.2723327554
 10
6232.970630595
 20
5227.3040265189
 10
6231.2860387431
 20
5227.4143422816
 10
6229.6810471024
 20
5227.6005637032
 10
6228.1951758939
 20
5227.8581053943
 10
6226.865012198
 20
5228.1806258238
 10
6225.7233090595
 20
5228.5601834683
 10
6224.7981789987
 20
5228.9874323589
 10
6224.1124017881
 20
5229.45185221
 10
6223.6828635386
 20
5229.9420074635
 10
6223.5201409074
 20
5230.4458288703
 10
6223.6282406657
 20
5230.9509106753
  0
LWPOLYLINE
  5
C8
330
1F
100
AcDbEntity
  8
0
  6
Continuous
 62
     7
370
    25
100
AcDbPolyline
 90
       40
 70
   128
 43
0.0
 10
6244.4192232183
 20
5230.0843845701
 10
6244.0652541479
 20
5229.6240993664
 10
6243.4640357729
 20
5229.1864222463
 10
6242.6311393333
 20
5228.7826888172
 10
6241.5881364095
 20
5228.4233555629
 10
6240.3620402292
 20
5228.117729026
 10
6238.9846060395
 20
5227.8737247732
 10
6237.4915086624
 20
5227.6976623865
 10
6235.9214185356
 20
5227.5941017892
 10
6234.3150001688
 20
5227.5657251463
 10
6232.7138589538
 20
5227.6132673982
 10
6231.159463607
 20
5227.7354972253
 10
6229.6920721514
 20
5227.9292489393
 10
6228.349689255
 20
5228.1895044728
 10
6227.1670819296
 20
5228.5095233439
 10
6226.1748790838
 20
5228.8810172322
 10
6225.3987782501
 20
5229.2943646409
 10
6224.8588800324
 20
5229.7388600894
 10
6224.569167511
 20
5230.202991379
 10
6224.537144088
 20
5230.6747377531
 10
6224.7636391532
 20
5231.1418812284
 10
6225.2427866034
 20
5231.5923230343
 10
6225.9621767713
 20
5232.0143969646
 10
6226.9031778296
 20
5232.3971715262
 10
6228.0414183449
 20
5232.730733059
 10
6229.3474184859
 20
5233.0064424947
 10
6230.787353535
 20
5233.2171591035
 10
6232.3239299307
 20
5233.357425436
 10
6233.9173511515
 20
5233.4236086679
 10
6235.5263484248
 20
5233.4139946882
 10
6237.1092495664
 20
5233.328832494
 10
6238.6250582681
 20
5233.1703277413
 10
6240.0345158808
 20
5232.9425856201
 10
6241.3011181927
 20
5232.6515045315
 10
6242.3920608693
 20
5232.3046233229
 10
6243.2790890682
 20
5231.9109260354
 10
6243.939229225
 20
5231.480609222
 10
6244.3553840564
 20
5231.024817862
 10
6244.5167753709
 20
5230.5553567123
 10
6244.4192232183
 20
5230.0843845701
  0
LINE
  5
C9
330
1F
100
AcDbEntity
  8
0
  6
Continuous
 62
     7
370
    25
100
AcDbLine
 10
6224.3031993416
 20
5236.1672220391
 30
0.0
 11
6222.9532819898
 21
5233.3830329771
 31
0.0
  0
LWPOLYLINE
  5
CA
330
1F
100
AcDbEntity
  8
0
  6
Continuous
 62
     7
370
    25
100
AcDbPolyline
 90
        3
 70
   128
 43
0.0
 10
6222.9532819898
 20
5230.0368432484
 10
6223.140791733
 20
5230.2000465793
 10
6223.6282406657
 20
5230.9509106753
  0
LWPOLYLINE
  5
CB
330
1F
100
AcDbEntity
  8
0
  6
Continuous
 62
     7
370
    25
100
AcDbPolyline
 90
        3
 70
   128
 43
0.0
 10
6245.4092700065
 20
5230.0431214222
 10
6244.9218210738
 20
5229.2922573262
 10
6244.7343113306
 20
5229.1290539953
  0
ARC
  5
CC
330
1F
100
AcDbEntity
  8
0
  6
Continuous
 62
     7
370
    25
100
AcDbCircle
 10
6234.5187553361
 20
5242.6994545927
 30
0.0
 40
13.99999999999966
100
AcDbArc
 50
0.6139062371
 51
179.3860937629
  0
LINE
  5
CD
330
1F
100
AcDbEntity
  8
0
  6
Continuous
 62
     7
370
    25
100
AcDbLine
 10
6248.5179517124
 20
5242.8494573144
 30
0.0
 11
6248.3179631928
 21
5242.8473144184
 31
0.0
  0
ARC
  5
CE
330
1F
100
AcDbEntity
  8
0
  6
Continuous
 62
     7
370
    25
100
AcDbCircle
 10
6234.5187553361
 20
5242.6994545927
 30
0.0
 40
13.7999999999998
100
AcDbArc
 50
0.6139062371
 51
179.3860937629
  0
LINE
  5
CF
330
1F
100
AcDbEntity
  8
0
  6
Continuous
 62
     7
370
    25
100
AcDbLine
 10
6220.7195474794
 20
5242.8473144184
 30
0.0
 11
6220.5195589598
 21
5242.8494573144
 31
0.0
  0
LINE
  5
D0
330
1F
100
AcDbEntity
  8
0
  6
Continuous
 62
     7
370
    25
100
AcDbLine
 10
6220.7195474794
 20
5242.8473144184
 30
0.0
 11
6248.3179631928
 21
5242.8473144184
 31
0.0
  0
ARC
  5
D1
330
1F
100
AcDbEntity
  8
0
  6
Continuous
 62
     7
370
    25
100
AcDbCircle
 10
6248.3221097864
 20
5242.8519170494
 30
0.0
 40
0.1958573723450331
100
AcDbArc
 50
268.7868719888
 51
359.2804144383
  0
LINE
  5
D2
330
1F
100
AcDbEntity
  8
0
  6
Continuous
 62
     7
370
    25
100
AcDbLine
 10
6248.3179631928
 20
5242.8473144184
 30
0.0
 11
6248.3179631928
 21
5242.6561035768
 31
0.0
  0
LINE
  5
D3
330
1F
100
AcDbEntity
  8
0
  6
Continuous
 62
     7
370
    25
100
AcDbLine
 10
6248.3179631928
 20
5242.6561035768
 30
0.0
 11
6220.7195474794
 21
5242.6561035768
 31
0.0
  0
LINE
  5
D4
330
1F
100
AcDbEntity
  8
0
  6
Continuous
 62
     7
370
    25
100
AcDbLine
 10
6220.7195474794
 20
5242.6561035768
 30
0.0
 11
6220.7195474794
 21
5242.8473144184
 31
0.0
  0
ARC
  5
D5
330
1F
100
AcDbEntity
  8
0
  6
Continuous
 62
     7
370
    25
100
AcDbCircle
 10
6220.7154008858
 20
5242.8519170494
 30
0.0
 40
0.1958573723457867
100
AcDbArc
 50
180.7195855617
 51
271.2131280109
  0
ARC
  5
D6
330
1F
100
AcDbEntity
  8
0
  6
Continuous
 62
     7
370
    25
100
AcDbCircle
 10
6234.5187553361
 20
5242.5082437511
 30
0.0
 40
13.80000000000005
100
AcDbArc
 50
186.9119079736
 51
209.591845794
  0
ARC
  5
D7
330
1F
100
AcDbEntity
  8
0
  6
Continuous
 62
     7
370
    25
100
AcDbCircle
 10
6234.5187553361
 20
5242.6994545927
 30
0.0
 40
13.99999999999977
100
AcDbArc
 50
179.3860937629
 51
211.0027191339
  0
ARC
  5
D8
330
1F
100
AcDbEntity
  8
0
  6
Continuous
 62
     7
370
    25
100
AcDbCircle
 10
6234.5187553361
 20
5242.6994545927
 30
0.0
 40
13.99999999999977
100
AcDbArc
 50
328.9972808661
 51
0.6139062371
  0
ARC
  5
D9
330
1F
100
AcDbEntity
  8
0
  6
Continuous
 62
     7
370
    25
100
AcDbCircle
 10
6234.5187553361
 20
5242.5082437511
 30
0.0
 40
13.80000000000071
100
AcDbArc
 50
330.408154206
 51
351.4331872669
  0
LWPOLYLINE
  5
DA
330
1F
100
AcDbEntity
  8
0
  6
Continuous
 62
     7
370
    25
100
AcDbPolyline
 90
        3
 70
   128
 43
0.0
 10
6222.5187553361
 20
5236.9236124363
 10
6222.2925433406
 20
5237.3208068799
 10
6222.2917954391
 20
5237.3228048638
  0
LWPOLYLINE
  5
DB
330
1F
100
AcDbEntity
  8
0
  6
Continuous
 62
     7
370
    25
100
AcDbPolyline
 90
       24
 70
   128
 43
0.0
 10
6222.2315662061
 20
5237.5506772316
 10
6222.2269613011
 20
5237.8469323723
 10
6222.4233575111
 20
5238.3702507576
 10
6222.8775461263
 20
5238.8796084129
 10
6223.5798469048
 20
5239.3641492641
 10
6224.5152915251
 20
5239.8135461643
 10
6225.6639426089
 20
5240.2182209986
 10
6227.0013186527
 20
5240.5695488257
 10
6228.498915808
 20
5240.8600417028
 10
6230.1248153915
 20
5241.0835082786
 10
6231.8443641764
 20
5241.235185751
 10
6233.6209129658
 20
5241.311841378
 10
6235.4165977064
 20
5241.311841378
 10
6237.1931464958
 20
5241.235185751
 10
6238.9126952807
 20
5241.0835082786
 10
6240.5385948642
 20
5240.8600417028
 10
6242.0361920195
 20
5240.5695488257
 10
6243.3735680633
 20
5240.2182209986
 10
6244.5222191471
 20
5239.8135461643
 10
6245.4576637674
 20
5239.3641492641
 10
6246.1599645459
 20
5238.8796084129
 10
6246.6141531611
 20
5238.3702507576
 10
6246.8105493711
 20
5237.8469323723
 10
6246.7948743434
 20
5237.4906138515
  0
LINE
  5
DC
330
1F
100
AcDbEntity
  8
0
  6
Continuous
 62
     7
370
    25
100
AcDbLine
 10
6246.6806020186
 20
5237.1762431873
 30
0.0
 11
6246.5187553361
 21
5236.9236124363
 31
0.0
  0
ARC
  5
DD
330
1F
100
AcDbEntity
  8
0
  6
Continuous
 62
     7
370
    25
100
AcDbCircle
 10
6245.3497546489
 20
5237.9180189702
 30
0.0
 40
1.25873155141163
100
AcDbArc
 50
338.2351165643
 51
52.028112265
  0
ARC
  5
DE
330
1F
100
AcDbEntity
  8
0
  6
Continuous
 62
     7
370
    25
100
AcDbCircle
 10
6223.6877560233
 20
5237.9180189702
 30
0.0
 40
1.258731551405719
100
AcDbArc
 50
127.9718877348
 51
201.7648834358
  0
LINE
  5
DF
330
1F
100
AcDbEntity
  8
0
  6
Continuous
 62
     7
370
    25
100
AcDbLine
 10
6297.186383218
 20
5237.4842003554
 30
0.0
 11
6302.0700902789
 21
5221.2536918808
 31
0.0
  0
LINE
  5
E0
330
1F
100
AcDbEntity
  8
0
  6
Continuous
 62
     7
370
    25
100
AcDbLine
 10
6302.0700902789
 20
5221.2536918808
 30
0.0
 11
6300.1549110393
 21
5220.6774206944
 31
0.0
  0
LINE
  5
E1
330
1F
100
AcDbEntity
  8
0
  6
Continuous
 62
     7
370
    25
100
AcDbLine
 10
6300.1549110393
 20
5220.6774206944
 30
0.0
 11
6295.2712039784
 21
5236.907929169
 31
0.0
  0
LINE
  5
E2
330
1F
100
AcDbEntity
  8
0
  6
Continuous
 62
     7
370
    25
100
AcDbLine
 10
6295.2712039784
 20
5236.907929169
 30
0.0
 11
6297.186383218
 21
5237.4842003554
 31
0.0
  0
LINE
  5
E3
330
1F
100
AcDbEntity
  8
0
  6
Continuous
 62
     7
370
    25
100
AcDbLine
 10
6326.9674203933
 20
5221.2536918808
 30
0.0
 11
6331.8511274542
 21
5237.4842003554
 31
0.0
  0
LINE
  5
E4
330
1F
100
AcDbEntity
  8
0
  6
Continuous
 62
     7
370
    25
100
AcDbLine
 10
6333.7663066938
 20
5236.907929169
 30
0.0
 11
6331.8511274542
 21
5237.4842003554
 31
0.0
  0
LINE
  5
E5
330
1F
100
AcDbEntity
  8
0
  6
Continuous
 62
     7
370
    25
100
AcDbLine
 10
6333.7663066938
 20
5236.907929169
 30
0.0
 11
6328.8825996329
 21
5220.6774206944
 31
0.0
  0
LINE
  5
E6
330
1F
100
AcDbEntity
  8
0
  6
Continuous
 62
     7
370
    25
100
AcDbLine
 10
6326.9674203933
 20
5221.2536918808
 30
0.0
 11
6328.8825996329
 21
5220.6774206944
 31
0.0
  0
ARC
  5
E7
330
1F
100
AcDbEntity
  8
0
  6
Continuous
 62
     7
370
    25
100
AcDbCircle
 10
6314.5187553361
 20
5242.6994545927
 30
0.0
 40
18.10000000000061
100
AcDbArc
 50
343.253630417
 51
196.746369583
  0
ARC
  5
E8
330
1F
100
AcDbEntity
  8
0
  6
Continuous
 62
     7
370
    25
100
AcDbCircle
 10
6314.5187553361
 20
5224.9994545927
 30
0.0
 40
13.0000000000002
100
AcDbArc
 50
196.746369583
 51
343.253630417
  0
ARC
  5
E9
330
1F
100
AcDbEntity
  8
0
  6
Continuous
 62
     7
370
    25
100
AcDbCircle
 10
6314.5187553361
 20
5242.6994545927
 30
0.0
 40
20.10000000000046
100
AcDbArc
 50
343.253630417
 51
196.746369583
  0
ARC
  5
EA
330
1F
100
AcDbEntity
  8
0
  6
Continuous
 62
     7
370
    25
100
AcDbCircle
 10
6314.5187553361
 20
5224.9994545927
 30
0.0
 40
14.99999999999944
100
AcDbArc
 50
196.746369583
 51
343.253630417
  0
ARC
  5
EB
330
1F
100
AcDbEntity
  8
0
  6
Continuous
 62
     7
370
    25
100
AcDbCircle
 10
6314.5187553361
 20
5242.6994545927
 30
0.0
 40
28.49999999999968
100
AcDbArc
 50
296.7987192895
 51
309.0446816692
  0
ARC
  5
EC
330
1F
100
AcDbEntity
  8
0
  6
Continuous
 62
     7
370
    25
100
AcDbCircle
 10
6314.5187553361
 20
5242.6994545927
 30
0.0
 40
28.49999999999993
100
AcDbArc
 50
309.0446816692
 51
243.2012807105
  0
ARC
  5
ED
330
1F
100
AcDbEntity
  8
0
  6
Continuous
 62
     7
370
    25
100
AcDbCircle
 10
6314.5187553361
 20
5242.6994545927
 30
0.0
 40
23.50000000000037
100
AcDbArc
 50
102.2844938564
 51
227.9513586992
  0
ARC
  5
EE
330
1F
100
AcDbEntity
  8
0
  6
Continuous
 62
     7
370
    25
100
AcDbCircle
 10
6314.5187553361
 20
5242.6994545927
 30
0.0
 40
23.50000000000017
100
AcDbArc
 50
312.0486413007
 51
77.7155061437
  0
LINE
  5
EF
330
1F
100
AcDbEntity
  8
0
  6
Continuous
 62
     7
370
    25
100
AcDbLine
 10
6231.4098496121
 20
5132.7768048619
 30
0.0
 11
6231.4098496121
 21
5134.1994545927
 31
0.0
  0
LINE
  5
F0
330
1F
100
AcDbEntity
  8
0
  6
Continuous
 62
     7
370
    25
100
AcDbLine
 10
6231.4098496121
 20
5135.6808168558
 30
0.0
 11
6231.4098496121
 21
5135.9781831111
 31
0.0
  0
LWPOLYLINE
  5
F1
330
1F
100
AcDbEntity
  8
0
  6
Continuous
 62
     7
370
    25
100
AcDbPolyline
 90
        3
 70
   128
 43
0.0
 10
6228.0985122696
 20
5132.1994545927
 10
6228.4687675197
 20
5132.2430850815
 10
6231.4098496121
 20
5132.7768048619
  0
LINE
  5
F2
330
1F
100
AcDbEntity
  8
0
  6
Continuous
 62
     7
370
    25
100
AcDbLine
 10
6219.5999467865
 20
5132.7768048619
 30
0.0
 11
6222.911284129
 21
5132.1994545927
 31
0.0
  0
LINE
  5
F3
330
1F
100
AcDbEntity
  8
0
  6
Continuous
 62
     7
370
    25
100
AcDbLine
 10
6219.5999467865
 20
5134.1994545927
 30
0.0
 11
6219.5999467865
 21
5132.7768048619
 31
0.0
  0
LINE
  5
F4
330
1F
100
AcDbEntity
  8
0
  6
Continuous
 62
     7
370
    25
100
AcDbLine
 10
6228.0985122696
 20
5132.1994545927
 30
0.0
 11
6222.911284129
 21
5132.1994545927
 31
0.0
  0
LINE
  5
F5
330
1F
100
AcDbEntity
  8
0
  6
Continuous
 62
     7
370
    25
100
AcDbLine
 10
6237.6545726534
 20
5132.1991644813
 30
0.0
 11
6240.2392553361
 21
5132.1991644813
 31
0.0
  0
LINE
  5
F6
330
1F
100
AcDbEntity
  8
0
  6
Continuous
 62
     7
370
    25
100
AcDbLine
 10
6213.7982553361
 20
5132.1991644813
 30
0.0
 11
6237.6545726534
 21
5132.1991644813
 31
0.0
  0
LINE
  5
F7
330
1F
100
AcDbEntity
  8
0
  6
Continuous
 62
     7
370
    25
100
AcDbLine
 10
6240.2392553361
 20
5129.1997447041
 30
0.0
 11
6213.7982553361
 21
5129.1997447041
 31
0.0
  0
LINE
  5
F8
330
1F
100
AcDbEntity
  8
0
  6
Continuous
 62
     7
370
    25
100
AcDbLine
 10
6237.6545726534
 20
5124.1994545927
 30
0.0
 11
6240.2392553361
 21
5124.1994545927
 31
0.0
  0
LINE
  5
F9
330
1F
100
AcDbEntity
  8
0
  6
Continuous
 62
     7
370
    25
100
AcDbLine
 10
6213.7982553361
 20
5124.1994545927
 30
0.0
 11
6237.6545726534
 21
5124.1994545927
 31
0.0
  0
LINE
  5
FA
330
1F
100
AcDbEntity
  8
0
  6
Continuous
 62
     7
370
    25
100
AcDbLine
 10
6236.8500783213
 20
5123.1994545927
 30
0.0
 11
6214.7982553361
 21
5123.1994545927
 31
0.0
  0
LINE
  5
FB
330
1F
100
AcDbEntity
  8
0
  6
Continuous
 62
     7
370
    25
100
AcDbLine
 10
6239.2392553361
 20
5123.1994545927
 30
0.0
 11
6236.8500783213
 21
5123.1994545927
 31
0.0
  0
LWPOLYLINE
  5
FC
330
1F
100
AcDbEntity
  8
0
  6
Continuous
 62
     7
370
    25
100
AcDbPolyline
 90
        3
 70
   128
 43
0.0
 10
6234.3498598711
 20
5132.7768048619
 10
6234.8771080255
 20
5132.5835581295
 10
6236.3291468531
 20
5132.1994545927
  0
LINE
  5
FD
330
1F
100
AcDbEntity
  8
0
  6
Continuous
 62
     7
370
    25
100
AcDbLine
 10
6231.4098496121
 20
5132.7768048619
 30
0.0
 11
6234.3498598711
 21
5132.7768048619
 31
0.0
  0
LINE
  5
FE
330
1F
100
AcDbEntity
  8
0
  6
Continuous
 62
     7
370
    25
100
AcDbLine
 10
6228.0985122696
 20
5132.1994545927
 30
0.0
 11
6236.3291468531
 21
5132.1994545927
 31
0.0
  0
LINE
  5
FF
330
1F
100
AcDbEntity
  8
0
  6
Continuous
 62
     7
370
    25
100
AcDbLine
 10
6234.3498598711
 20
5134.1994545927
 30
0.0
 11
6234.3498598711
 21
5132.7768048619
 31
0.0
  0
LWPOLYLINE
  5
100
330
1F
100
AcDbEntity
  8
0
  6
Continuous
 62
     7
370
    25
100
AcDbPolyline
 90
        3
 70
   128
 43
0.0
 10
6215.6875568204
 20
5132.1994545927
 10
6215.8364992531
 20
5132.2430850815
 10
6217.0196071809
 20
5132.7768048619
  0
LINE
  5
101
330
1F
100
AcDbEntity
  8
0
  6
Continuous
 62
     7
370
    25
100
AcDbLine
 10
6217.0196071809
 20
5132.7768048619
 30
0.0
 11
6219.5999467865
 21
5132.7768048619
 31
0.0
  0
LINE
  5
102
330
1F
100
AcDbEntity
  8
0
  6
Continuous
 62
     7
370
    25
100
AcDbLine
 10
6215.6875568204
 20
5132.1994545927
 30
0.0
 11
6222.911284129
 21
5132.1994545927
 31
0.0
  0
LINE
  5
103
330
1F
100
AcDbEntity
  8
0
  6
Continuous
 62
     7
370
    25
100
AcDbLine
 10
6217.0196071809
 20
5132.7768048619
 30
0.0
 11
6217.0196071809
 21
5134.1994545927
 31
0.0
  0
LINE
  5
104
330
1F
100
AcDbEntity
  8
0
  6
Continuous
 62
     7
370
    25
100
AcDbLine
 10
6241.4089977673
 20
5132.7768048619
 30
0.0
 11
6241.4089977673
 21
5134.1994545927
 31
0.0
  0
LWPOLYLINE
  5
105
330
1F
100
AcDbEntity
  8
0
  6
Continuous
 62
     7
370
    25
100
AcDbPolyline
 90
        3
 70
   128
 43
0.0
 10
6239.4297107853
 20
5132.1994545927
 10
6240.3085225434
 20
5132.4049105441
 10
6241.4089977673
 20
5132.7768048619
  0
LINE
  5
106
330
1F
100
AcDbEntity
  8
0
  6
Continuous
 62
     7
370
    25
100
AcDbLine
 10
6239.4297107853
 20
5132.1994545927
 30
0.0
 11
6236.3291468531
 21
5132.1994545927
 31
0.0
  0
LINE
  5
107
330
1F
100
AcDbEntity
  8
0
  6
Continuous
 62
     7
370
    25
100
AcDbLine
 10
6212.2688422515
 20
5132.7768048619
 30
0.0
 11
6213.600892612
 21
5132.1994545927
 31
0.0
  0
LINE
  5
108
330
1F
100
AcDbEntity
  8
0
  6
Continuous
 62
     7
370
    25
100
AcDbLine
 10
6212.2688422515
 20
5134.1994545927
 30
0.0
 11
6212.2688422515
 21
5132.7768048619
 31
0.0
  0
LINE
  5
109
330
1F
100
AcDbEntity
  8
0
  6
Continuous
 62
     7
370
    25
100
AcDbLine
 10
6215.6875568204
 20
5132.1994545927
 30
0.0
 11
6213.600892612
 21
5132.1994545927
 31
0.0
  0
LINE
  5
10A
330
1F
100
AcDbEntity
  8
0
  6
Continuous
 62
     7
370
    25
100
AcDbLine
 10
6241.4089977673
 20
5132.7768048619
 30
0.0
 11
6241.7686684207
 21
5132.7768048619
 31
0.0
  0
LINE
  5
10B
330
1F
100
AcDbEntity
  8
0
  6
Continuous
 62
     7
370
    25
100
AcDbLine
 10
6239.4297107853
 20
5132.1994545927
 30
0.0
 11
6240.7687553361
 21
5132.1994545927
 31
0.0
  0
LINE
  5
10C
330
1F
100
AcDbEntity
  8
0
  6
Continuous
 62
     7
370
    25
100
AcDbLine
 10
6241.7686684207
 20
5134.1994545927
 30
0.0
 11
6241.7686684207
 21
5132.7768048619
 31
0.0
  0
LINE
  5
10D
330
1F
100
AcDbEntity
  8
0
  6
Continuous
 62
     7
370
    25
100
AcDbLine
 10
6213.2687553361
 20
5132.1994545927
 30
0.0
 11
6213.600892612
 21
5132.1994545927
 31
0.0
  0
LINE
  5
10E
330
1F
100
AcDbEntity
  8
0
  6
Continuous
 62
     7
370
    25
100
AcDbLine
 10
6324.7632310771
 20
5132.7768048619
 30
0.0
 11
6324.7632310771
 21
5134.1994545927
 31
0.0
  0
LWPOLYLINE
  5
10F
330
1F
100
AcDbEntity
  8
0
  6
Continuous
 62
     7
370
    25
100
AcDbPolyline
 90
        3
 70
   128
 43
0.0
 10
6321.5167400775
 20
5132.1994545927
 10
6321.8797445716
 20
5132.2430850815
 10
6324.7632310771
 20
5132.7768048619
  0
LINE
  5
110
330
1F
100
AcDbEntity
  8
0
  6
Continuous
 62
     7
370
    25
100
AcDbLine
 10
6313.1846030896
 20
5132.7768048619
 30
0.0
 11
6316.4310940892
 21
5132.1994545927
 31
0.0
  0
LINE
  5
111
330
1F
100
AcDbEntity
  8
0
  6
Continuous
 62
     7
370
    25
100
AcDbLine
 10
6313.1846030896
 20
5134.1994545927
 30
0.0
 11
6313.1846030896
 21
5132.7768048619
 31
0.0
  0
LINE
  5
112
330
1F
100
AcDbEntity
  8
0
  6
Continuous
 62
     7
370
    25
100
AcDbLine
 10
6321.5167400775
 20
5132.1994545927
 30
0.0
 11
6316.4310940892
 21
5132.1994545927
 31
0.0
  0
LINE
  5
113
330
1F
100
AcDbEntity
  8
0
  6
Continuous
 62
     7
370
    25
100
AcDbLine
 10
6308.7982553361
 20
5132.1991644813
 30
0.0
 11
6335.2392553361
 21
5132.1991644813
 31
0.0
  0
LINE
  5
114
330
1F
100
AcDbEntity
  8
0
  6
Continuous
 62
     7
370
    25
100
AcDbLine
 10
6331.6821318765
 20
5129.1997447041
 30
0.0
 11
6308.7982553361
 21
5129.1997447041
 31
0.0
  0
LINE
  5
115
330
1F
100
AcDbEntity
  8
0
  6
Continuous
 62
     7
370
    25
100
AcDbLine
 10
6335.2392553361
 20
5129.1997447041
 30
0.0
 11
6331.6821318765
 21
5129.1997447041
 31
0.0
  0
LINE
  5
116
330
1F
100
AcDbEntity
  8
0
  6
Continuous
 62
     7
370
    25
100
AcDbLine
 10
6308.7982553361
 20
5124.1994545927
 30
0.0
 11
6335.2392553361
 21
5124.1994545927
 31
0.0
  0
LINE
  5
117
330
1F
100
AcDbEntity
  8
0
  6
Continuous
 62
     7
370
    25
100
AcDbLine
 10
6334.2392553361
 20
5123.1994545927
 30
0.0
 11
6309.7982553361
 21
5123.1994545927
 31
0.0
  0
LWPOLYLINE
  5
118
330
1F
100
AcDbEntity
  8
0
  6
Continuous
 62
     7
370
    25
100
AcDbPolyline
 90
        3
 70
   128
 43
0.0
 10
6327.8310580094
 20
5132.7768048619
 10
6328.4368506844
 20
5132.5835581295
 10
6330.1052007359
 20
5132.1994545927
  0
LINE
  5
119
330
1F
100
AcDbEntity
  8
0
  6
Continuous
 62
     7
370
    25
100
AcDbLine
 10
6324.7632310771
 20
5132.7768048619
 30
0.0
 11
6327.8310580094
 21
5132.7768048619
 31
0.0
  0
LINE
  5
11A
330
1F
100
AcDbEntity
  8
0
  6
Continuous
 62
     7
370
    25
100
AcDbLine
 10
6321.5167400775
 20
5132.1994545927
 30
0.0
 11
6330.1052007359
 21
5132.1994545927
 31
0.0
  0
LINE
  5
11B
330
1F
100
AcDbEntity
  8
0
  6
Continuous
 62
     7
370
    25
100
AcDbLine
 10
6327.8310580094
 20
5134.1994545927
 30
0.0
 11
6327.8310580094
 21
5132.7768048619
 31
0.0
  0
LWPOLYLINE
  5
11C
330
1F
100
AcDbEntity
  8
0
  6
Continuous
 62
     7
370
    25
100
AcDbPolyline
 90
        3
 70
   128
 43
0.0
 10
6309.8678376017
 20
5132.1994545927
 10
6309.9765601557
 20
5132.2430850815
 10
6310.8401858748
 20
5132.7768048619
  0
LINE
  5
11D
330
1F
100
AcDbEntity
  8
0
  6
Continuous
 62
     7
370
    25
100
AcDbLine
 10
6310.8401858748
 20
5132.7768048619
 30
0.0
 11
6313.1846030896
 21
5132.7768048619
 31
0.0
  0
LINE
  5
11E
330
1F
100
AcDbEntity
  8
0
  6
Continuous
 62
     7
370
    25
100
AcDbLine
 10
6309.8678376017
 20
5132.1994545927
 30
0.0
 11
6316.4310940892
 21
5132.1994545927
 31
0.0
  0
LINE
  5
11F
330
1F
100
AcDbEntity
  8
0
  6
Continuous
 62
     7
370
    25
100
AcDbLine
 10
6335.9418005384
 20
5132.7768048619
 30
0.0
 11
6335.9418005384
 21
5134.1994545927
 31
0.0
  0
LWPOLYLINE
  5
120
330
1F
100
AcDbEntity
  8
0
  6
Continuous
 62
     7
370
    25
100
AcDbPolyline
 90
        3
 70
   128
 43
0.0
 10
6333.6676578119
 20
5132.1994545927
 10
6334.6773867627
 20
5132.4049105441
 10
6335.9418005384
 20
5132.7768048619
  0
LINE
  5
121
330
1F
100
AcDbEntity
  8
0
  6
Continuous
 62
     7
370
    25
100
AcDbLine
 10
6333.6676578119
 20
5132.1994545927
 30
0.0
 11
6330.1052007359
 21
5132.1994545927
 31
0.0
  0
LINE
  5
122
330
1F
100
AcDbEntity
  8
0
  6
Continuous
 62
     7
370
    25
100
AcDbLine
 10
6310.8401858748
 20
5132.7768048619
 30
0.0
 11
6310.8401858748
 21
5134.1994545927
 31
0.0
  0
LINE
  5
123
330
1F
100
AcDbEntity
  8
0
  6
Continuous
 62
     7
370
    25
100
AcDbLine
 10
6307.3723004163
 20
5132.7768048619
 30
0.0
 11
6308.3446486894
 21
5132.1994545927
 31
0.0
  0
LINE
  5
124
330
1F
100
AcDbEntity
  8
0
  6
Continuous
 62
     7
370
    25
100
AcDbLine
 10
6307.3723004163
 20
5134.1994545927
 30
0.0
 11
6307.3723004163
 21
5132.7768048619
 31
0.0
  0
LINE
  5
125
330
1F
100
AcDbEntity
  8
0
  6
Continuous
 62
     7
370
    25
100
AcDbLine
 10
6309.8678376017
 20
5132.1994545927
 30
0.0
 11
6308.3446486894
 21
5132.1994545927
 31
0.0
  0
LINE
  5
126
330
1F
100
AcDbEntity
  8
0
  6
Continuous
 62
     7
370
    25
100
AcDbLine
 10
6335.9418005384
 20
5132.7768048619
 30
0.0
 11
6336.6652102559
 21
5132.7768048619
 31
0.0
  0
LINE
  5
127
330
1F
100
AcDbEntity
  8
0
  6
Continuous
 62
     7
370
    25
100
AcDbLine
 10
6336.6652102559
 20
5132.7768048619
 30
0.0
 11
6336.1329139131
 21
5132.4607437907
 31
0.0
  0
LINE
  5
128
330
1F
100
AcDbEntity
  8
0
  6
Continuous
 62
     7
370
    25
100
AcDbLine
 10
6333.6676578119
 20
5132.1994545927
 30
0.0
 11
6335.7687553361
 21
5132.1994545927
 31
0.0
  0
LINE
  5
129
330
1F
100
AcDbEntity
  8
0
  6
Continuous
 62
     7
370
    25
100
AcDbLine
 10
6336.6652102559
 20
5134.1994545927
 30
0.0
 11
6336.6652102559
 21
5132.7768048619
 31
0.0
  0
LINE
  5
12A
330
1F
100
AcDbEntity
  8
0
  6
Continuous
 62
     7
370
    25
100
AcDbLine
 10
6308.2687553361
 20
5132.1994545927
 30
0.0
 11
6308.3446486894
 21
5132.1994545927
 31
0.0
  0
ARC
  5
12B
330
1F
100
AcDbEntity
  8
0
  6
Continuous
 62
     7
370
    25
100
AcDbCircle
 10
6314.5187553361
 20
5242.6994545927
 30
0.0
 40
23.25000000000117
100
AcDbArc
 50
102.4186815058
 51
163.2933390825
  0
ARC
  5
12C
330
1F
100
AcDbEntity
  8
0
  6
Continuous
 62
     7
370
    25
100
AcDbCircle
 10
6314.5187553361
 20
5242.6994545927
 30
0.0
 40
23.25000000000018
100
AcDbArc
 50
313.0811297781
 51
77.5813184942
  0
ARC
  5
12D
330
1F
100
AcDbEntity
  8
0
  6
Continuous
 62
     7
370
    25
100
AcDbCircle
 10
6314.5187553361
 20
5242.6994545927
 30
0.0
 40
23.25000000000117
100
AcDbArc
 50
163.2933390825
 51
226.9188702219
  0
LINE
  5
12E
330
1F
100
AcDbEntity
  8
0
  6
Continuous
 62
     7
370
    25
100
AcDbLine
 10
6228.9678724275
 20
5136.1994545927
 30
0.0
 11
6231.058245189
 21
5136.1994545927
 31
0.0
  0
LINE
  5
12F
330
1F
100
AcDbEntity
  8
0
  6
Continuous
 62
     7
370
    25
100
AcDbLine
 10
6316.9678724275
 20
5136.1994545927
 30
0.0
 11
6319.058245189
 21
5136.1994545927
 31
0.0
  0
ARC
  5
130
330
1F
100
AcDbEntity
  8
0
  6
Continuous
 62
     8
370
    25
100
AcDbCircle
 10
6234.5187553361
 20
5242.5082437511
 30
0.0
 40
13.79999999999979
100
AcDbArc
 50
179.3860937629
 51
186.9119079736
  0
ARC
  5
131
330
1F
100
AcDbEntity
  8
0
  6
Continuous
 62
     8
370
    25
100
AcDbCircle
 10
6234.5187553361
 20
5242.5082437511
 30
0.0
 40
13.80000000000071
100
AcDbArc
 50
351.4331872669
 51
0.6139062371
  0
LINE
  5
132
330
1F
100
AcDbEntity
  8
0
  6
Continuous
 62
     8
370
    25
100
AcDbLine
 10
6222.2917954391
 20
5237.3228048638
 30
0.0
 11
6222.2315662061
 21
5237.5506772316
 31
0.0
  0
LWPOLYLINE
  5
133
330
1F
100
AcDbEntity
  8
0
  6
Continuous
 62
     8
370
    25
100
AcDbPolyline
 90
        3
 70
   128
 43
0.0
 10
6246.7948743434
 20
5237.4906138515
 10
6246.7449673316
 20
5237.3208068799
 10
6246.6806020186
 20
5237.1762431873
  0
LINE
  5
134
330
1F
100
AcDbEntity
  8
0
  6
Continuous
 62
     8
370
    25
100
AcDbLine
 10
6319.5187553361
 20
5265.7731205537
 30
0.0
 11
6309.5187553361
 21
5265.7731205537
 31
0.0
  0
LINE
  5
135
330
1F
100
AcDbEntity
  8
0
  6
Continuous
 62
     8
370
    25
100
AcDbLine
 10
6309.9033707207
 20
5266.2596248091
 30
0.0
 11
6319.1341399515
 21
5266.2596248091
 31
0.0
  0
ARC
  5
136
330
1F
100
AcDbEntity
  8
0
  6
Continuous
 62
     8
370
    25
100
AcDbCircle
 10
6314.5187553361
 20
5242.6994545927
 30
0.0
 40
28.29999999999967
100
AcDbArc
 50
297.4312028237
 51
309.0446816692
  0
ARC
  5
137
330
1F
100
AcDbEntity
  8
0
  6
Continuous
 62
     8
370
    25
100
AcDbCircle
 10
6314.5187553361
 20
5242.6994545927
 30
0.0
 40
28.30000000000015
100
AcDbArc
 50
309.0446816692
 51
242.5687971763
  0
LINE
  5
138
330
1F
100
AcDbEntity
  8
0
  6
Continuous
 62
     7
370
    25
100
AcDbLine
 10
6709.5832604914
 20
5234.1969458345
 30
0.0
 11
6711.6502496895
 21
5227.4567636667
 31
0.0
  0
LINE
  5
139
330
1F
100
AcDbEntity
  8
0
  6
Continuous
 62
     7
370
    25
100
AcDbLine
 10
6734.5955506862
 20
5234.493322639
 30
0.0
 11
6732.5285614881
 21
5241.2335048068
 31
0.0
  0
LINE
  5
13A
330
1F
100
AcDbEntity
  8
0
  6
Continuous
 62
     7
370
    25
100
AcDbLine
 10
6711.6502496895
 20
5227.4567636667
 30
0.0
 11
6712.7528988763
 21
5227.2719265198
 31
0.0
  0
LINE
  5
13B
330
1F
100
AcDbEntity
  8
0
  6
Continuous
 62
     7
370
    25
100
AcDbLine
 10
6733.7860914566
 20
5233.7221055778
 30
0.0
 11
6734.5955506862
 21
5234.493322639
 31
0.0
  0
ARC
  5
13C
330
1F
100
AcDbEntity
  8
0
  6
Continuous
 62
     7
370
    25
100
AcDbCircle
 10
6555.5088325291
 20
5228.8994545927
 30
0.0
 40
0.2000000000007276
100
AcDbArc
 50
180.0
 51
270.0
  0
ARC
  5
13D
330
1F
100
AcDbEntity
  8
0
  6
Continuous
 62
     7
370
    25
100
AcDbCircle
 10
6555.5088325291
 20
5256.4994545927
 30
0.0
 40
0.1999999999998181
100
AcDbArc
 50
90.0
 51
180.0
  0
LINE
  5
13E
330
1F
100
AcDbEntity
  8
0
  6
Continuous
 62
     7
370
    25
100
AcDbLine
 10
6737.1088325291
 20
5256.6994545927
 30
0.0
 11
6555.5088325291
 21
5256.6994545927
 31
0.0
  0
LINE
  5
13F
330
1F
100
AcDbEntity
  8
0
  6
Continuous
 62
     7
370
    25
100
AcDbLine
 10
6566.2699708617
 20
5228.6994545927
 30
0.0
 11
6700.2575862944
 21
5228.6994545927
 31
0.0
  0
LINE
  5
140
330
1F
100
AcDbEntity
  8
0
  6
Continuous
 62
     7
370
    25
100
AcDbLine
 10
6555.5088325291
 20
5228.6994545927
 30
0.0
 11
6561.6988325291
 21
5228.6994545927
 31
0.0
  0
ARC
  5
141
330
1F
100
AcDbEntity
  8
0
  6
Continuous
 62
     7
370
    25
100
AcDbCircle
 10
6737.1088325291
 20
5256.4994545927
 30
0.0
 40
0.1999999999989086
100
AcDbArc
 50
0.0
 51
90.0
  0
ARC
  5
142
330
1F
100
AcDbEntity
  8
0
  6
Continuous
 62
     7
370
    25
100
AcDbCircle
 10
6563.9870971023
 20
5214.8625088486
 30
0.0
 40
14.0261032263146
100
AcDbArc
 50
80.631840178
 51
94.3310934505
  0
ARC
  5
143
330
1F
100
AcDbEntity
  8
0
  6
Continuous
 62
     7
370
    25
100
AcDbCircle
 10
6563.9888192666
 20
5215.2183823853
 30
0.0
 40
13.67140591630807
100
AcDbArc
 50
94.4509235724
 51
99.4678265185
  0
LINE
  5
144
330
1F
100
AcDbEntity
  8
0
  6
Continuous
 62
     7
370
    25
100
AcDbLine
 10
6561.7837320675
 20
5228.7107458808
 30
0.0
 11
6561.7948952599
 21
5228.7125636337
 31
0.0
  0
LWPOLYLINE
  5
145
330
1F
100
AcDbEntity
  8
0
  6
Continuous
 62
     7
370
    25
100
AcDbPolyline
 90
        3
 70
   128
 43
0.0
 10
6561.7948952599
 20
5228.7125636337
 10
6561.9093737971
 20
5228.7306768694
 10
6561.9904522504
 20
5228.7420365918
  0
LINE
  5
146
330
1F
100
AcDbEntity
  8
0
  6
Continuous
 62
     7
370
    25
100
AcDbLine
 10
6568.308832529
 20
5222.5994545927
 30
0.0
 11
6601.108832529
 21
5222.5994545927
 31
0.0
  0
LINE
  5
147
330
1F
100
AcDbEntity
  8
0
  6
Continuous
 62
     7
370
    25
100
AcDbLine
 10
6591.308832529
 20
5262.7994545927
 30
0.0
 11
6568.308832529
 21
5262.7994545927
 31
0.0
  0
LINE
  5
148
330
1F
100
AcDbEntity
  8
0
  6
Continuous
 62
     7
370
    25
100
AcDbLine
 10
6607.308832529
 20
5262.7994545927
 30
0.0
 11
6601.242227209
 21
5262.7994545927
 31
0.0
  0
ARC
  5
149
330
1F
100
AcDbEntity
  8
0
  6
Continuous
 62
     7
370
    25
100
AcDbCircle
 10
6607.308832529
 20
5260.7994545927
 30
0.0
 40
2.000000000000909
100
AcDbArc
 50
0.0
 51
90.0
  0
ARC
  5
14A
330
1F
100
AcDbEntity
  8
0
  6
Continuous
 62
     7
370
    25
100
AcDbCircle
 10
6601.108832529
 20
5219.5994545927
 30
0.0
 40
3.0
100
AcDbArc
 50
0.0
 51
90.0
  0
ARC
  5
14B
330
1F
100
AcDbEntity
  8
0
  6
Continuous
 62
     7
370
    25
100
AcDbCircle
 10
6604.608832529
 20
5210.4994545927
 30
0.0
 40
0.5000000000009095
100
AcDbArc
 50
180.0
 51
270.0
  0
LINE
  5
14C
330
1F
100
AcDbEntity
  8
0
  6
Continuous
 62
     7
370
    25
100
AcDbLine
 10
6604.608832529
 20
5209.9994545927
 30
0.0
 11
6607.308832529
 21
5209.9994545927
 31
0.0
  0
ARC
  5
14D
330
1F
100
AcDbEntity
  8
0
  6
Continuous
 62
     7
370
    25
100
AcDbCircle
 10
6607.308832529
 20
5211.9994545927
 30
0.0
 40
2.0
100
AcDbArc
 50
270.0
 51
0.0
  0
ARC
  5
14E
330
1F
100
AcDbEntity
  8
0
  6
Continuous
 62
     7
370
    25
100
AcDbCircle
 10
6600.808832529
 20
5265.7731205537
 30
0.0
 40
0.5
100
AcDbArc
 50
0.0
 51
76.657636203
  0
ARC
  5
14F
330
1F
100
AcDbEntity
  8
0
  6
Continuous
 62
     7
370
    25
100
AcDbCircle
 10
6591.808832529
 20
5265.7731205537
 30
0.0
 40
0.5
100
AcDbArc
 50
103.3423637972
 51
180.0
  0
LINE
  5
150
330
1F
100
AcDbEntity
  8
0
  6
Continuous
 62
     7
370
    25
100
AcDbLine
 10
6601.308832529
 20
5262.7830191617
 30
0.0
 11
6601.308832529
 21
5265.7731205537
 31
0.0
  0
LINE
  5
151
330
1F
100
AcDbEntity
  8
0
  6
Continuous
 62
     7
370
    25
100
AcDbLine
 10
6591.308832529
 20
5265.7731205537
 30
0.0
 11
6591.308832529
 21
5262.7994545927
 31
0.0
  0
ARC
  5
152
330
1F
100
AcDbEntity
  8
0
  6
Continuous
 62
     7
370
    25
100
AcDbCircle
 10
6596.308832529
 20
5246.7994545927
 30
0.0
 40
19.99999999999948
100
AcDbArc
 50
76.6576362029
 51
103.3423637971
  0
ARC
  5
153
330
1F
100
AcDbEntity
  8
0
  6
Continuous
 62
     7
370
    25
100
AcDbCircle
 10
6555.5088325291
 20
5214.3994545927
 30
0.0
 40
0.2000000000007276
100
AcDbArc
 50
180.0
 51
270.0
  0
ARC
  5
154
330
1F
100
AcDbEntity
  8
0
  6
Continuous
 62
     7
370
    25
100
AcDbCircle
 10
6555.5088325291
 20
5270.9994545927
 30
0.0
 40
0.2000000000007276
100
AcDbArc
 50
90.0
 51
180.0
  0
LINE
  5
155
330
1F
100
AcDbEntity
  8
0
  6
Continuous
 62
     7
370
    25
100
AcDbLine
 10
6555.5088325291
 20
5214.1994545927
 30
0.0
 11
6558.1088325291
 21
5214.1994545927
 31
0.0
  0
LINE
  5
156
330
1F
100
AcDbEntity
  8
0
  6
Continuous
 62
     7
370
    25
100
AcDbLine
 10
6558.1088325291
 20
5271.1994545927
 30
0.0
 11
6555.5088325291
 21
5271.1994545927
 31
0.0
  0
ARC
  5
157
330
1F
100
AcDbEntity
  8
0
  6
Continuous
 62
     7
370
    25
100
AcDbCircle
 10
6558.1088325291
 20
5214.3994545927
 30
0.0
 40
0.2000000000007276
100
AcDbArc
 50
270.0
 51
0.0
  0
ARC
  5
158
330
1F
100
AcDbEntity
  8
0
  6
Continuous
 62
     7
370
    25
100
AcDbCircle
 10
6558.1088325291
 20
5270.9994545927
 30
0.0
 40
0.1999999999998181
100
AcDbArc
 50
0.0
 51
90.0
  0
LINE
  5
159
330
1F
100
AcDbEntity
  8
0
  6
Continuous
 62
     7
370
    25
100
AcDbLine
 10
6463.7883325291
 20
5129.1997447041
 30
0.0
 11
6463.7883325291
 21
5124.1994545927
 31
0.0
  0
LINE
  5
15A
330
1F
100
AcDbEntity
  8
0
  6
Continuous
 62
     7
370
    25
100
AcDbLine
 10
6490.2293325291
 20
5124.1994545927
 30
0.0
 11
6490.2293325291
 21
5129.1997447041
 31
0.0
  0
LINE
  5
15B
330
1F
100
AcDbEntity
  8
0
  6
Continuous
 62
     7
370
    25
100
AcDbLine
 10
6463.7883325291
 20
5132.1994545927
 30
0.0
 11
6463.7883325291
 21
5132.1991644813
 31
0.0
  0
LINE
  5
15C
330
1F
100
AcDbEntity
  8
0
  6
Continuous
 62
     7
370
    25
100
AcDbLine
 10
6490.2293325291
 20
5132.1991644813
 30
0.0
 11
6490.2293325291
 21
5132.1994545927
 31
0.0
  0
LINE
  5
15D
330
1F
100
AcDbEntity
  8
0
  6
Continuous
 62
     7
370
    25
100
AcDbLine
 10
6463.7883325291
 20
5124.1994545927
 30
0.0
 11
6464.7883325291
 21
5123.1994545927
 31
0.0
  0
LINE
  5
15E
330
1F
100
AcDbEntity
  8
0
  6
Continuous
 62
     7
370
    25
100
AcDbLine
 10
6489.2293325291
 20
5123.1994545927
 30
0.0
 11
6490.2293325291
 21
5124.1994545927
 31
0.0
  0
ARC
  5
15F
330
1F
100
AcDbEntity
  8
0
  6
Continuous
 62
     7
370
    25
100
AcDbCircle
 10
6463.7588325291
 20
5130.6994545927
 30
0.0
 40
1.500000000000631
100
AcDbArc
 50
271.1268896477
 51
88.8731103523
  0
ARC
  5
160
330
1F
100
AcDbEntity
  8
0
  6
Continuous
 62
     7
370
    25
100
AcDbCircle
 10
6490.2588325291
 20
5130.6994545927
 30
0.0
 40
1.500000000000614
100
AcDbArc
 50
91.1268896477
 51
268.8731103523
  0
LINE
  5
161
330
1F
100
AcDbEntity
  8
0
  6
Continuous
 62
     7
370
    25
100
AcDbLine
 10
6463.2588325291
 20
5142.1994545927
 30
0.0
 11
6463.1498547795
 21
5142.0904768432
 31
0.0
  0
LINE
  5
162
330
1F
100
AcDbEntity
  8
0
  6
Continuous
 62
     7
370
    25
100
AcDbLine
 10
6490.8678102786
 20
5142.0904768432
 30
0.0
 11
6490.7588325291
 21
5142.1994545927
 31
0.0
  0
LINE
  5
163
330
1F
100
AcDbEntity
  8
0
  6
Continuous
 62
     7
370
    25
100
AcDbLine
 10
6558.3088325291
 20
5219.4494545927
 30
0.0
 11
6568.308832529
 21
5219.4494545927
 31
0.0
  0
LINE
  5
164
330
1F
100
AcDbEntity
  8
0
  6
Continuous
 62
     7
370
    25
100
AcDbLine
 10
6568.308832529
 20
5265.9494545927
 30
0.0
 11
6558.3088325291
 21
5265.9494545927
 31
0.0
  0
ARC
  5
165
330
1F
100
AcDbEntity
  8
0
  6
Continuous
 62
     7
370
    25
100
AcDbCircle
 10
6545.3088325291
 20
5294.1994545927
 30
0.0
 40
10.0
100
AcDbArc
 50
0.0
 51
90.0
  0
LINE
  5
166
330
1F
100
AcDbEntity
  8
0
  6
Continuous
 62
     7
370
    25
100
AcDbLine
 10
6545.3088325291
 20
5294.1994545927
 30
0.0
 11
6555.3088325291
 21
5294.1994545927
 31
0.0
  0
LINE
  5
167
330
1F
100
AcDbEntity
  8
0
  6
Continuous
 62
     7
370
    25
100
AcDbLine
 10
6545.3088325291
 20
5304.1994545927
 30
0.0
 11
6545.3088325291
 21
5294.1994545927
 31
0.0
  0
ARC
  5
168
330
1F
100
AcDbEntity
  8
0
  6
Continuous
 62
     7
370
    25
100
AcDbCircle
 10
6545.3088325291
 20
5144.1994545927
 30
0.0
 40
10.0
100
AcDbArc
 50
270.0
 51
0.0
  0
LINE
  5
169
330
1F
100
AcDbEntity
  8
0
  6
Continuous
 62
     7
370
    25
100
AcDbLine
 10
6545.3088325291
 20
5144.1994545927
 30
0.0
 11
6555.3088325291
 21
5144.1994545927
 31
0.0
  0
LINE
  5
16A
330
1F
100
AcDbEntity
  8
0
  6
Continuous
 62
     7
370
    25
100
AcDbLine
 10
6545.3088325291
 20
5144.1994545927
 30
0.0
 11
6545.3088325291
 21
5134.1994545927
 31
0.0
  0
LINE
  5
16B
330
1F
100
AcDbEntity
  8
0
  6
Continuous
 62
     7
370
    25
100
AcDbLine
 10
6555.3088325291
 20
5294.1994545927
 30
0.0
 11
6555.3088325291
 21
5144.1994545927
 31
0.0
  0
LINE
  5
16C
330
1F
100
AcDbEntity
  8
0
  6
Continuous
 62
     7
370
    25
100
AcDbLine
 10
6545.3088325291
 20
5294.1994545927
 30
0.0
 11
6545.3088325291
 21
5144.1994545927
 31
0.0
  0
LINE
  5
16D
330
1F
100
AcDbEntity
  8
0
  6
Continuous
 62
     7
370
    25
100
AcDbLine
 10
6729.1424300494
 20
5232.8210323104
 30
0.0
 11
6734.5955506862
 21
5234.493322639
 31
0.0
  0
LINE
  5
16E
330
1F
100
AcDbEntity
  8
0
  6
Continuous
 62
     7
370
    25
100
AcDbLine
 10
6729.1424300494
 20
5232.8210323104
 30
0.0
 11
6728.1162651993
 21
5236.1672220391
 31
0.0
  0
LINE
  5
16F
330
1F
100
AcDbEntity
  8
0
  6
Continuous
 62
     7
370
    25
100
AcDbLine
 10
6728.1162651993
 20
5236.1672220391
 30
0.0
 11
6719.0373878232
 21
5233.3830329771
 31
0.0
  0
LINE
  5
170
330
1F
100
AcDbEntity
  8
0
  6
Continuous
 62
     7
370
    25
100
AcDbLine
 10
6719.0373878232
 20
5233.3830329771
 30
0.0
 11
6720.0635526733
 21
5230.0368432484
 31
0.0
  0
LINE
  5
171
330
1F
100
AcDbEntity
  8
0
  6
Continuous
 62
     7
370
    25
100
AcDbLine
 10
6711.6502496895
 20
5227.4567636667
 30
0.0
 11
6720.0635526733
 21
5230.0368432484
 31
0.0
  0
LWPOLYLINE
  5
172
330
1F
100
AcDbEntity
  8
0
  6
Continuous
 62
     7
370
    25
100
AcDbPolyline
 90
        3
 70
   128
 43
0.0
 10
6720.0635526733
 20
5230.0368432484
 10
6721.3932008257
 20
5230.2000465793
 10
6724.74958634
 20
5230.9509106753
  0
LINE
  5
173
330
1F
100
AcDbEntity
  8
0
  6
Continuous
 62
     7
370
    25
100
AcDbLine
 10
6712.7528988763
 20
5227.2719265198
 30
0.0
 11
6724.74958634
 21
5230.9509106753
 31
0.0
  0
LWPOLYLINE
  5
174
330
1F
100
AcDbEntity
  8
0
  6
Continuous
 62
     7
370
    25
100
AcDbPolyline
 90
        3
 70
   128
 43
0.0
 10
6724.74958634
 20
5230.9509106753
 10
6728.847944577
 20
5232.6635676496
 10
6729.1424300494
 20
5232.8210323104
  0
LINE
  5
175
330
1F
100
AcDbEntity
  8
0
  6
Continuous
 62
     7
370
    25
100
AcDbLine
 10
6724.74958634
 20
5230.9509106753
 30
0.0
 11
6733.7860914566
 21
5233.7221055778
 31
0.0
  0
LINE
  5
176
330
1F
100
AcDbEntity
  8
0
  6
Continuous
 62
     7
370
    25
100
AcDbLine
 10
6705.7225695989
 20
5233.0848421806
 30
0.0
 11
6732.9928750322
 21
5241.5689372043
 31
0.0
  0
LWPOLYLINE
  5
177
330
1F
100
AcDbEntity
  8
0
  6
Continuous
 62
     7
370
    25
100
AcDbPolyline
 90
        3
 70
   128
 43
0.0
 10
6705.7225695989
 20
5233.0848421806
 10
6705.68140116
 20
5233.0701407928
 10
6705.5242140196
 20
5232.9766048824
  0
LWPOLYLINE
  5
178
330
1F
100
AcDbEntity
  8
0
  6
Continuous
 62
     7
370
    25
100
AcDbPolyline
 90
        8
 70
   128
 43
0.0
 10
6700.2575862944
 20
5228.7234752395
 10
6700.2568041246
 20
5228.7228451367
 10
6700.5022878744
 20
5228.9206219599
 10
6700.9547838121
 20
5229.2852842696
 10
6701.6049886389
 20
5229.8095231564
 10
6702.7476851524
 20
5230.7315893721
 10
6704.1356346363
 20
5231.8529666916
 10
6705.5242140196
 20
5232.9766048824
  0
LINE
  5
179
330
1F
100
AcDbEntity
  8
0
  6
Continuous
 62
     7
370
    25
100
AcDbLine
 10
6737.1674705205
 20
5242.6561035768
 30
0.0
 11
6705.7812075903
 21
5233.0309829448
 31
0.0
  0
LWPOLYLINE
  5
17A
330
1F
100
AcDbEntity
  8
0
  6
Continuous
 62
     7
370
    25
100
AcDbPolyline
 90
        9
 70
   128
 43
0.0
 10
6705.7812075903
 20
5233.0309829448
 10
6705.7754314587
 20
5233.0304038625
 10
6705.7690527707
 20
5233.0320109353
 10
6705.7621442352
 20
5233.0357858447
 10
6705.7547846004
 20
5233.0416855617
 10
6705.7470577565
 20
5233.0496428373
 10
6705.7390517796
 20
5233.0595669687
 10
6705.7308579273
 20
5233.0713448339
 10
6705.7225695989
 20
5233.0848421806
  0
ARC
  5
17B
330
1F
100
AcDbEntity
  8
0
  6
Continuous
 62
     7
370
    25
100
AcDbCircle
 10
6721.6976038407
 20
5238.0701572194
 30
0.0
 40
16.13529296554304
100
AcDbArc
 50
16.5121313326
 51
17.2296064237
  0
ARC
  5
17C
330
1F
100
AcDbEntity
  8
0
  6
Continuous
 62
     7
370
    25
100
AcDbCircle
 10
6737.1588267891
 20
5238.1812681515
 30
0.0
 40
4.668456863519865
100
AcDbArc
 50
88.1586687689
 51
90.6135892299
  0
ARC
  5
17D
330
1F
100
AcDbEntity
  8
0
  6
Continuous
 62
     7
370
    25
100
AcDbCircle
 10
6737.1088325291
 20
5242.8473144184
 30
0.0
 40
0.199999999999848
100
AcDbArc
 50
287.049030972
 51
0.0
  0
LINE
  5
17E
330
1F
100
AcDbEntity
  8
0
  6
Continuous
 62
     7
370
    25
100
AcDbLine
 10
6737.3088325291
 20
5256.4994545927
 30
0.0
 11
6737.3088325291
 21
5242.8473144184
 31
0.0
  0
LWPOLYLINE
  5
17F
330
1F
100
AcDbEntity
  8
0
  6
Continuous
 62
     7
370
    25
100
AcDbPolyline
 90
        3
 70
   128
 43
0.0
 10
6705.6598155868
 20
5232.9708250604
 10
6705.7570413696
 20
5233.0226387805
 10
6705.7812075903
 20
5233.0309829448
  0
LWPOLYLINE
  5
180
330
1F
100
AcDbEntity
  8
0
  6
Continuous
 62
     7
370
    25
100
AcDbPolyline
 90
        9
 70
   128
 43
0.0
 10
6705.6598155868
 20
5232.9708250604
 10
6705.6497227569
 20
5232.9597942997
 10
6705.6370410959
 20
5232.9519752905
 10
6705.6220321844
 20
5232.9475293129
 10
6705.6050056068
 20
5232.946548073
 10
6705.5863125654
 20
5232.9490518104
 10
6705.5663386358
 20
5232.9549888813
 10
6705.5454958143
 20
5232.9642368235
 10
6705.5242140196
 20
5232.9766048824
  0
LWPOLYLINE
  5
181
330
1F
100
AcDbEntity
  8
0
  6
Continuous
 62
     7
370
    25
100
AcDbPolyline
 90
        8
 70
   128
 43
0.0
 10
6705.6598155868
 20
5232.9708250604
 10
6704.272280084
 20
5231.8635589671
 10
6702.9029497553
 20
5230.7725506467
 10
6701.7433727739
 20
5229.8498406798
 10
6701.1015157204
 20
5229.3395220675
 10
6700.6413706361
 20
5228.9738523174
 10
6700.3999327059
 20
5228.7820366034
 10
6700.3986257875
 20
5228.7810009631
  0
LWPOLYLINE
  5
182
330
1F
100
AcDbEntity
  8
0
  6
Continuous
 62
     7
370
    25
100
AcDbPolyline
 90
        9
 70
   128
 43
0.0
 10
6604.108832529
 20
5225.345488342
 10
6604.1184398888
 20
5225.3173821092
 10
6604.1468927628
 20
5225.2903559831
 10
6604.1930977229
 20
5225.2654485627
 10
6604.2552791384
 20
5225.2436170261
 10
6604.3310474125
 20
5225.225700347
 10
6604.4174908128
 20
5225.2123870534
 10
6604.511287368
 20
5225.2041887677
 10
6604.608832529
 20
5225.2014205454
  0
LINE
  5
183
330
1F
100
AcDbEntity
  8
0
  6
Continuous
 62
     7
370
    25
100
AcDbLine
 10
6604.608832529
 20
5225.2014205454
 30
0.0
 11
6604.608832529
 21
5220.6774206944
 31
0.0
  0
LINE
  5
184
330
1F
100
AcDbEntity
  8
0
  6
Continuous
 62
     7
370
    25
100
AcDbLine
 10
6604.608832529
 20
5220.6774206944
 30
0.0
 11
6607.308832529
 21
5220.6774206944
 31
0.0
  0
LWPOLYLINE
  5
185
330
1F
100
AcDbEntity
  8
0
  6
Continuous
 62
     7
370
    25
100
AcDbPolyline
 90
       11
 70
   128
 43
0.0
 10
6591.308832529
 20
5262.7994545927
 10
6591.5808425349
 20
5262.7335228112
 10
6592.361915429
 20
5262.5636977093
 10
6593.5902370742
 20
5262.3565337564
 10
6595.1502969633
 20
5262.2020750489
 10
6596.8162020532
 20
5262.1742440353
 10
6598.3861684664
 20
5262.2781502744
 10
6599.7428953485
 20
5262.4681871633
 10
6600.7533606659
 20
5262.6685264379
 10
6601.2630862107
 20
5262.7881237757
 10
6601.242227209
 20
5262.7830044982
  0
LINE
  5
186
330
1F
100
AcDbEntity
  8
0
  6
Continuous
 62
     7
370
    25
100
AcDbLine
 10
6609.308832529
 20
5260.7994545927
 30
0.0
 11
6609.308832529
 21
5256.6994545927
 31
0.0
  0
LINE
  5
187
330
1F
100
AcDbEntity
  8
0
  6
Continuous
 62
     7
370
    25
100
AcDbLine
 10
6609.308832529
 20
5228.6994545927
 30
0.0
 11
6609.308832529
 21
5221.2536918808
 31
0.0
  0
LWPOLYLINE
  5
188
330
1F
100
AcDbEntity
  8
0
  6
Continuous
 62
     7
370
    25
100
AcDbPolyline
 90
        9
 70
   128
 43
0.0
 10
6609.308832529
 20
5221.2536918808
 10
6609.2704030898
 20
5221.1412669495
 10
6609.156591594
 20
5221.0331624452
 10
6608.9717717536
 20
5220.9335327635
 10
6608.7230460914
 20
5220.8462066171
 10
6608.419972995
 20
5220.7745399009
 10
6608.0741993937
 20
5220.7212867265
 10
6607.699013173
 20
5220.6884935837
 10
6607.308832529
 20
5220.6774206944
  0
LINE
  5
189
330
1F
100
AcDbEntity
  8
0
  6
Continuous
 62
     7
370
    25
100
AcDbLine
 10
6604.108832529
 20
5220.821488491
 30
0.0
 11
6604.108832529
 21
5225.345488342
 31
0.0
  0
LWPOLYLINE
  5
18A
330
1F
100
AcDbEntity
  8
0
  6
Continuous
 62
     7
370
    25
100
AcDbPolyline
 90
        9
 70
   128
 43
0.0
 10
6604.108832529
 20
5220.821488491
 10
6604.1184398888
 20
5220.7933822582
 10
6604.1468927628
 20
5220.7663561321
 10
6604.1930977229
 20
5220.7414487117
 10
6604.2552791384
 20
5220.7196171751
 10
6604.3310474125
 20
5220.701700496
 10
6604.4174908128
 20
5220.6883872024
 10
6604.511287368
 20
5220.6801889167
 10
6604.608832529
 20
5220.6774206944
  0
LINE
  5
18B
330
1F
100
AcDbEntity
  8
0
  6
Continuous
 62
     7
370
    25
100
AcDbLine
 10
6604.108832529
 20
5210.4994545927
 30
0.0
 11
6604.108832529
 21
5220.821488491
 31
0.0
  0
LINE
  5
18C
330
1F
100
AcDbEntity
  8
0
  6
Continuous
 62
     7
370
    25
100
AcDbLine
 10
6609.308832529
 20
5221.2536918808
 30
0.0
 11
6609.308832529
 21
5211.9994545927
 31
0.0
  0
LINE
  5
18D
330
1F
100
AcDbEntity
  8
0
  6
Continuous
 62
     7
370
    25
100
AcDbLine
 10
6558.3088325291
 20
5214.3994545927
 30
0.0
 11
6558.3088325291
 21
5228.6994545927
 31
0.0
  0
LINE
  5
18E
330
1F
100
AcDbEntity
  8
0
  6
Continuous
 62
     7
370
    25
100
AcDbLine
 10
6558.3088325291
 20
5256.6994545927
 30
0.0
 11
6558.3088325291
 21
5270.9994545927
 31
0.0
  0
LINE
  5
18F
330
1F
100
AcDbEntity
  8
0
  6
Continuous
 62
     7
370
    25
100
AcDbLine
 10
6463.7883325291
 20
5124.1994545927
 30
0.0
 11
6490.2293325291
 21
5124.1994545927
 31
0.0
  0
LINE
  5
190
330
1F
100
AcDbEntity
  8
0
  6
Continuous
 62
     7
370
    25
100
AcDbLine
 10
6469.1563800304
 20
5129.1997447041
 30
0.0
 11
6463.7883325291
 21
5129.1997447041
 31
0.0
  0
LINE
  5
191
330
1F
100
AcDbEntity
  8
0
  6
Continuous
 62
     7
370
    25
100
AcDbLine
 10
6490.2293325291
 20
5129.1997447041
 30
0.0
 11
6469.1563800304
 21
5129.1997447041
 31
0.0
  0
LINE
  5
192
330
1F
100
AcDbEntity
  8
0
  6
Continuous
 62
     7
370
    25
100
AcDbLine
 10
6463.7883325291
 20
5132.1991644813
 30
0.0
 11
6490.2293325291
 21
5132.1991644813
 31
0.0
  0
LINE
  5
193
330
1F
100
AcDbEntity
  8
0
  6
Continuous
 62
     7
370
    25
100
AcDbLine
 10
6489.2293325291
 20
5123.1994545927
 30
0.0
 11
6464.7883325291
 21
5123.1994545927
 31
0.0
  0
LWPOLYLINE
  5
194
330
1F
100
AcDbEntity
  8
0
  6
Continuous
 62
     7
370
    25
100
AcDbPolyline
 90
        3
 70
   128
 43
0.0
 10
6487.8522423327
 20
5141.1994545927
 10
6485.4685180901
 20
5142.0419622623
 10
6484.7976989548
 20
5142.1994545927
  0
LINE
  5
195
330
1F
100
AcDbEntity
  8
0
  6
Continuous
 62
     7
370
    25
100
AcDbLine
 10
6487.8522423327
 20
5132.7768048619
 30
0.0
 11
6487.8522423327
 21
5141.1994545927
 31
0.0
  0
LWPOLYLINE
  5
196
330
1F
100
AcDbEntity
  8
0
  6
Continuous
 62
     7
370
    25
100
AcDbPolyline
 90
        3
 70
   128
 43
0.0
 10
6484.7976989548
 20
5132.1994545927
 10
6485.1392409377
 20
5132.2430850815
 10
6487.8522423327
 20
5132.7768048619
  0
LINE
  5
197
330
1F
100
AcDbEntity
  8
0
  6
Continuous
 62
     7
370
    25
100
AcDbLine
 10
6476.9581965926
 20
5132.7768048619
 30
0.0
 11
6480.0127399705
 21
5132.1994545927
 31
0.0
  0
LINE
  5
198
330
1F
100
AcDbEntity
  8
0
  6
Continuous
 62
     7
370
    25
100
AcDbLine
 10
6476.9581965926
 20
5141.1994545927
 30
0.0
 11
6476.9581965926
 21
5132.7768048619
 31
0.0
  0
LINE
  5
199
330
1F
100
AcDbEntity
  8
0
  6
Continuous
 62
     7
370
    25
100
AcDbLine
 10
6480.0127399705
 20
5142.1994545927
 30
0.0
 11
6476.9581965926
 21
5141.1994545927
 31
0.0
  0
LINE
  5
19A
330
1F
100
AcDbEntity
  8
0
  6
Continuous
 62
     7
370
    25
100
AcDbLine
 10
6484.7976989548
 20
5132.1994545927
 30
0.0
 11
6480.0127399705
 21
5132.1994545927
 31
0.0
  0
LINE
  5
19B
330
1F
100
AcDbEntity
  8
0
  6
Continuous
 62
     7
370
    25
100
AcDbLine
 10
6473.7710211122
 20
5141.1994545927
 30
0.0
 11
6471.090159972
 21
5142.1994545927
 31
0.0
  0
LINE
  5
19C
330
1F
100
AcDbEntity
  8
0
  6
Continuous
 62
     7
370
    25
100
AcDbLine
 10
6473.7710211122
 20
5141.1994545927
 30
0.0
 11
6476.9581965926
 21
5141.1994545927
 31
0.0
  0
LWPOLYLINE
  5
19D
330
1F
100
AcDbEntity
  8
0
  6
Continuous
 62
     7
370
    25
100
AcDbPolyline
 90
        3
 70
   128
 43
0.0
 10
6471.090159972
 20
5132.1994545927
 10
6472.2804736119
 20
5132.4049105441
 10
6473.7710211122
 20
5132.7768048619
  0
LINE
  5
19E
330
1F
100
AcDbEntity
  8
0
  6
Continuous
 62
     7
370
    25
100
AcDbLine
 10
6473.7710211122
 20
5132.7768048619
 30
0.0
 11
6476.9581965926
 21
5132.7768048619
 31
0.0
  0
LINE
  5
19F
330
1F
100
AcDbEntity
  8
0
  6
Continuous
 62
     7
370
    25
100
AcDbLine
 10
6471.090159972
 20
5132.1994545927
 30
0.0
 11
6480.0127399705
 21
5132.1994545927
 31
0.0
  0
LINE
  5
1A0
330
1F
100
AcDbEntity
  8
0
  6
Continuous
 62
     7
370
    25
100
AcDbLine
 10
6473.7710211122
 20
5132.7768048619
 30
0.0
 11
6473.7710211122
 21
5141.1994545927
 31
0.0
  0
LWPOLYLINE
  5
1A1
330
1F
100
AcDbEntity
  8
0
  6
Continuous
 62
     7
370
    25
100
AcDbPolyline
 90
        3
 70
   128
 43
0.0
 10
6464.209715126
 20
5132.7768048619
 10
6464.9238506209
 20
5132.5835581295
 10
6466.8905762662
 20
5132.1994545927
  0
LINE
  5
1A2
330
1F
100
AcDbEntity
  8
0
  6
Continuous
 62
     7
370
    25
100
AcDbLine
 10
6464.209715126
 20
5141.1994545927
 30
0.0
 11
6464.209715126
 21
5132.7768048619
 31
0.0
  0
LWPOLYLINE
  5
1A3
330
1F
100
AcDbEntity
  8
0
  6
Continuous
 62
     7
370
    25
100
AcDbPolyline
 90
        3
 70
   128
 43
0.0
 10
6466.8905762662
 20
5142.1994545927
 10
6465.9490140905
 20
5141.9301167179
 10
6464.209715126
 20
5141.1994545927
  0
LINE
  5
1A4
330
1F
100
AcDbEntity
  8
0
  6
Continuous
 62
     7
370
    25
100
AcDbLine
 10
6471.090159972
 20
5132.1994545927
 30
0.0
 11
6466.8905762662
 21
5132.1994545927
 31
0.0
  0
LINE
  5
1A5
330
1F
100
AcDbEntity
  8
0
  6
Continuous
 62
     7
370
    25
100
AcDbLine
 10
6490.1309962334
 20
5142.1994545927
 30
0.0
 11
6489.7573139957
 21
5141.1994545927
 31
0.0
  0
LINE
  5
1A6
330
1F
100
AcDbEntity
  8
0
  6
Continuous
 62
     7
370
    25
100
AcDbLine
 10
6487.8522423327
 20
5141.1994545927
 30
0.0
 11
6489.7573139957
 21
5141.1994545927
 31
0.0
  0
LINE
  5
1A7
330
1F
100
AcDbEntity
  8
0
  6
Continuous
 62
     7
370
    25
100
AcDbLine
 10
6489.7573139957
 20
5132.7768048619
 30
0.0
 11
6490.1309962334
 21
5132.1994545927
 31
0.0
  0
LINE
  5
1A8
330
1F
100
AcDbEntity
  8
0
  6
Continuous
 62
     7
370
    25
100
AcDbLine
 10
6487.8522423327
 20
5132.7768048619
 30
0.0
 11
6489.7573139957
 21
5132.7768048619
 31
0.0
  0
LINE
  5
1A9
330
1F
100
AcDbEntity
  8
0
  6
Continuous
 62
     7
370
    25
100
AcDbLine
 10
6484.7976989548
 20
5132.1994545927
 30
0.0
 11
6490.1309962334
 21
5132.1994545927
 31
0.0
  0
LINE
  5
1AA
330
1F
100
AcDbEntity
  8
0
  6
Continuous
 62
     7
370
    25
100
AcDbLine
 10
6489.7573139957
 20
5141.1994545927
 30
0.0
 11
6489.7573139957
 21
5132.7768048619
 31
0.0
  0
LWPOLYLINE
  5
1AB
330
1F
100
AcDbEntity
  8
0
  6
Continuous
 62
     7
370
    25
100
AcDbPolyline
 90
        3
 70
   128
 43
0.0
 10
6463.3012935463
 20
5132.1994545927
 10
6463.2595104852
 20
5132.2430850815
 10
6462.9276113086
 20
5132.7768048619
  0
LINE
  5
1AC
330
1F
100
AcDbEntity
  8
0
  6
Continuous
 62
     7
370
    25
100
AcDbLine
 10
6462.9276113086
 20
5132.7768048619
 30
0.0
 11
6464.209715126
 21
5132.7768048619
 31
0.0
  0
LINE
  5
1AD
330
1F
100
AcDbEntity
  8
0
  6
Continuous
 62
     7
370
    25
100
AcDbLine
 10
6463.3012935463
 20
5132.1994545927
 30
0.0
 11
6466.8905762662
 21
5132.1994545927
 31
0.0
  0
LINE
  5
1AE
330
1F
100
AcDbEntity
  8
0
  6
Continuous
 62
     7
370
    25
100
AcDbLine
 10
6462.9276113086
 20
5141.1994545927
 30
0.0
 11
6464.209715126
 21
5141.1994545927
 31
0.0
  0
LWPOLYLINE
  5
1AF
330
1F
100
AcDbEntity
  8
0
  6
Continuous
 62
     7
370
    25
100
AcDbPolyline
 90
        3
 70
   128
 43
0.0
 10
6462.9276113086
 20
5141.1994545927
 10
6463.219227861
 20
5142.0419622623
 10
6463.3012935463
 20
5142.1994545927
  0
LINE
  5
1B0
330
1F
100
AcDbEntity
  8
0
  6
Continuous
 62
     7
370
    25
100
AcDbLine
 10
6463.3012935463
 20
5142.1994545927
 30
0.0
 11
6465.3088325291
 21
5142.1994545927
 31
0.0
  0
LWPOLYLINE
  5
1B1
330
1F
100
AcDbEntity
  8
0
  6
Continuous
 62
     7
370
    25
100
AcDbPolyline
 90
        3
 70
   128
 43
0.0
 10
6491.0900537495
 20
5141.1994545927
 10
6490.7984371971
 20
5142.0419622623
 10
6490.7163715118
 20
5142.1994545927
  0
LINE
  5
1B2
330
1F
100
AcDbEntity
  8
0
  6
Continuous
 62
     7
370
    25
100
AcDbLine
 10
6491.0900537495
 20
5132.7768048619
 30
0.0
 11
6491.0900537495
 21
5141.1994545927
 31
0.0
  0
LWPOLYLINE
  5
1B3
330
1F
100
AcDbEntity
  8
0
  6
Continuous
 62
     7
370
    25
100
AcDbPolyline
 90
        3
 70
   128
 43
0.0
 10
6490.7163715118
 20
5132.1994545927
 10
6490.7581545729
 20
5132.2430850815
 10
6491.0900537495
 20
5132.7768048619
  0
LINE
  5
1B4
330
1F
100
AcDbEntity
  8
0
  6
Continuous
 62
     7
370
    25
100
AcDbLine
 10
6490.7163715118
 20
5132.1994545927
 30
0.0
 11
6490.1309962334
 21
5132.1994545927
 31
0.0
  0
LINE
  5
1B5
330
1F
100
AcDbEntity
  8
0
  6
Continuous
 62
     7
370
    25
100
AcDbLine
 10
6462.9276113086
 20
5132.7768048619
 30
0.0
 11
6462.9276113086
 21
5141.1994545927
 31
0.0
  0
LWPOLYLINE
  5
1B6
330
1F
100
AcDbEntity
  8
0
  6
Continuous
 62
     7
370
    25
100
AcDbPolyline
 90
        3
 70
   128
 43
0.0
 10
6491.5012565122
 20
5141.1994545927
 10
6490.9147247898
 20
5142.0419622623
 10
6490.8658908227
 20
5142.0885573873
  0
LINE
  5
1B7
330
1F
100
AcDbEntity
  8
0
  6
Continuous
 62
     7
370
    25
100
AcDbLine
 10
6491.5012565122
 20
5132.7768048619
 30
0.0
 11
6491.5012565122
 21
5141.1994545927
 31
0.0
  0
LWPOLYLINE
  5
1B8
330
1F
100
AcDbEntity
  8
0
  6
Continuous
 62
     7
370
    25
100
AcDbPolyline
 90
        3
 70
   128
 43
0.0
 10
6490.7496651341
 20
5132.1994545927
 10
6490.8337038849
 20
5132.2430850815
 10
6491.5012565122
 20
5132.7768048619
  0
LWPOLYLINE
  5
1B9
330
1F
100
AcDbEntity
  8
0
  6
Continuous
 62
     7
370
    25
100
AcDbPolyline
 90
        3
 70
   128
 43
0.0
 10
6463.267999924
 20
5132.1994545927
 10
6463.1839611732
 20
5132.2430850815
 10
6462.5164085459
 20
5132.7768048619
  0
LINE
  5
1BA
330
1F
100
AcDbEntity
  8
0
  6
Continuous
 62
     7
370
    25
100
AcDbLine
 10
6462.5164085459
 20
5132.7768048619
 30
0.0
 11
6462.8450957521
 21
5132.7768048619
 31
0.0
  0
LINE
  5
1BB
330
1F
100
AcDbEntity
  8
0
  6
Continuous
 62
     7
370
    25
100
AcDbLine
 10
6463.267999924
 20
5132.1994545927
 30
0.0
 11
6463.3012935463
 21
5132.1994545927
 31
0.0
  0
LINE
  5
1BC
330
1F
100
AcDbEntity
  8
0
  6
Continuous
 62
     7
370
    25
100
AcDbLine
 10
6462.5164085459
 20
5141.1994545927
 30
0.0
 11
6462.8450957521
 21
5141.1994545927
 31
0.0
  0
LWPOLYLINE
  5
1BD
330
1F
100
AcDbEntity
  8
0
  6
Continuous
 62
     7
370
    25
100
AcDbPolyline
 90
        3
 70
   128
 43
0.0
 10
6462.5164085459
 20
5141.1994545927
 10
6463.1029402683
 20
5142.0419622623
 10
6463.1517742354
 20
5142.0885573873
  0
LINE
  5
1BE
330
1F
100
AcDbEntity
  8
0
  6
Continuous
 62
     7
370
    25
100
AcDbLine
 10
6463.2588325291
 20
5142.1994545927
 30
0.0
 11
6463.3012935463
 21
5142.1994545927
 31
0.0
  0
LINE
  5
1BF
330
1F
100
AcDbEntity
  8
0
  6
Continuous
 62
     7
370
    25
100
AcDbLine
 10
6462.5164085459
 20
5132.7768048619
 30
0.0
 11
6462.5164085459
 21
5141.1994545927
 31
0.0
  0
LINE
  5
1C0
330
1F
100
AcDbEntity
  8
0
  6
Continuous
 62
     7
370
    25
100
AcDbLine
 10
6568.308832529
 20
5256.6994545927
 30
0.0
 11
6568.308832529
 21
5265.9494545927
 31
0.0
  0
LINE
  5
1C1
330
1F
100
AcDbEntity
  8
0
  6
Continuous
 62
     7
370
    25
100
AcDbLine
 10
6568.308832529
 20
5219.4494545927
 30
0.0
 11
6568.308832529
 21
5228.6994545927
 31
0.0
  0
LINE
  5
1C2
330
1F
100
AcDbEntity
  8
0
  6
Continuous
 62
     7
370
    25
100
AcDbLine
 10
6465.3088325291
 20
5295.4923478115
 30
0.0
 11
6543.5088325291
 21
5295.4923478115
 31
0.0
  0
LINE
  5
1C3
330
1F
100
AcDbEntity
  8
0
  6
Continuous
 62
     7
370
    25
100
AcDbLine
 10
6543.5088325291
 20
5294.1923478115
 30
0.0
 11
6543.5088325291
 21
5295.4923478115
 31
0.0
  0
LINE
  5
1C4
330
1F
100
AcDbEntity
  8
0
  6
Continuous
 62
     7
370
    25
100
AcDbLine
 10
6543.5088325291
 20
5277.1994545927
 30
0.0
 11
6543.5088325291
 21
5294.1923478115
 31
0.0
  0
LINE
  5
1C5
330
1F
100
AcDbEntity
  8
0
  6
Continuous
 62
     7
370
    25
100
AcDbLine
 10
6543.5088325291
 20
5277.1994545927
 30
0.0
 11
6543.5088325291
 21
5162.1994545927
 31
0.0
  0
LINE
  5
1C6
330
1F
100
AcDbEntity
  8
0
  6
Continuous
 62
     7
370
    25
100
AcDbLine
 10
6543.5088325291
 20
5145.2065613739
 30
0.0
 11
6543.5088325291
 21
5162.1994545927
 31
0.0
  0
LINE
  5
1C7
330
1F
100
AcDbEntity
  8
0
  6
Continuous
 62
     7
370
    25
100
AcDbLine
 10
6543.5088325291
 20
5143.9065613739
 30
0.0
 11
6543.5088325291
 21
5145.2065613739
 31
0.0
  0
LINE
  5
1C8
330
1F
100
AcDbEntity
  8
0
  6
Continuous
 62
     7
370
    25
100
AcDbLine
 10
6465.3088325291
 20
5143.9065613739
 30
0.0
 11
6543.5088325291
 21
5143.9065613739
 31
0.0
  0
LINE
  5
1C9
330
1F
100
AcDbEntity
  8
0
  6
Continuous
 62
     7
370
    25
100
AcDbLine
 10
6465.3088325291
 20
5143.9065613739
 30
0.0
 11
6465.3088325291
 21
5295.4923478115
 31
0.0
  0
LINE
  5
1CA
330
1F
100
AcDbEntity
  8
0
  6
Continuous
 62
     7
370
    25
100
AcDbLine
 10
6543.5088325291
 20
5294.1923478115
 30
0.0
 11
6545.3088325291
 21
5294.1923478115
 31
0.0
  0
LINE
  5
1CB
330
1F
100
AcDbEntity
  8
0
  6
Continuous
 62
     7
370
    25
100
AcDbLine
 10
6545.3088325291
 20
5277.1994545927
 30
0.0
 11
6543.5088325291
 21
5277.1994545927
 31
0.0
  0
LINE
  5
1CC
330
1F
100
AcDbEntity
  8
0
  6
Continuous
 62
     7
370
    25
100
AcDbLine
 10
6545.3088325291
 20
5145.2065613739
 30
0.0
 11
6543.5088325291
 21
5145.2065613739
 31
0.0
  0
LINE
  5
1CD
330
1F
100
AcDbEntity
  8
0
  6
Continuous
 62
     7
370
    25
100
AcDbLine
 10
6543.5088325291
 20
5162.1994545927
 30
0.0
 11
6545.3088325291
 21
5162.1994545927
 31
0.0
  0
ARC
  5
1CE
330
1F
100
AcDbEntity
  8
0
  6
Continuous
 62
     7
370
    25
100
AcDbCircle
 10
6465.36726002
 20
5276.8743681482
 30
0.0
 40
18.61807134255121
100
AcDbArc
 50
90.1798067088
 51
95.7287175667
  0
ARC
  5
1CF
330
1F
100
AcDbEntity
  8
0
  6
Continuous
 62
     7
370
    25
100
AcDbCircle
 10
6465.36726002
 20
5162.5245410378
 30
0.0
 40
18.61807134311701
100
AcDbArc
 50
264.2712824333
 51
269.8201932911
  0
LINE
  5
1D0
330
1F
100
AcDbEntity
  8
0
  6
Continuous
 62
     7
370
    25
100
AcDbLine
 10
6463.5088325291
 20
5143.9994545927
 30
0.0
 11
6463.5088325291
 21
5295.3994545927
 31
0.0
  0
LINE
  5
1D1
330
1F
100
AcDbEntity
  8
0
  6
Continuous
 62
     7
370
    25
100
AcDbLine
 10
6465.3088325291
 20
5142.1994545927
 30
0.0
 11
6465.3088325291
 21
5143.1994545927
 31
0.0
  0
LINE
  5
1D2
330
1F
100
AcDbEntity
  8
0
  6
Continuous
 62
     7
370
    25
100
AcDbLine
 10
6465.3088325291
 20
5143.1994545927
 30
0.0
 11
6543.5088325291
 21
5143.1994545927
 31
0.0
  0
LINE
  5
1D3
330
1F
100
AcDbEntity
  8
0
  6
Continuous
 62
     7
370
    25
100
AcDbLine
 10
6543.5088325291
 20
5142.1994545927
 30
0.0
 11
6543.5088325291
 21
5143.1994545927
 31
0.0
  0
LINE
  5
1D4
330
1F
100
AcDbEntity
  8
0
  6
Continuous
 62
     7
370
    25
100
AcDbLine
 10
6465.3088325291
 20
5142.1994545927
 30
0.0
 11
6543.5088325291
 21
5142.1994545927
 31
0.0
  0
ARC
  5
1D5
330
1F
100
AcDbEntity
  8
0
  6
Continuous
 62
     7
370
    25
100
AcDbCircle
 10
6465.3088325291
 20
5143.9994545927
 30
0.0
 40
1.800000000000182
100
AcDbArc
 50
180.0
 51
270.0
  0
ARC
  5
1D6
330
1F
100
AcDbEntity
  8
0
  6
Continuous
 62
     7
370
    25
100
AcDbCircle
 10
6465.3088325291
 20
5143.9994545927
 30
0.0
 40
0.8000000000001819
100
AcDbArc
 50
179.9999999999
 51
270.0
  0
LINE
  5
1D7
330
1F
100
AcDbEntity
  8
0
  6
Continuous
 62
     7
370
    25
100
AcDbLine
 10
6465.3088325291
 20
5297.1994545927
 30
0.0
 11
6465.3088325291
 21
5296.1994545927
 31
0.0
  0
ARC
  5
1D8
330
1F
100
AcDbEntity
  8
0
  6
Continuous
 62
     7
370
    25
100
AcDbCircle
 10
6465.3088325291
 20
5295.3994545927
 30
0.0
 40
0.8000000000001819
100
AcDbArc
 50
90.0
 51
180.0
  0
ARC
  5
1D9
330
1F
100
AcDbEntity
  8
0
  6
Continuous
 62
     7
370
    25
100
AcDbCircle
 10
6465.3088325291
 20
5295.3994545927
 30
0.0
 40
1.800000000000182
100
AcDbArc
 50
90.0
 51
180.0
  0
LINE
  5
1DA
330
1F
100
AcDbEntity
  8
0
  6
Continuous
 62
     7
370
    25
100
AcDbLine
 10
6543.5088325291
 20
5297.1994545927
 30
0.0
 11
6543.5088325291
 21
5296.1994545927
 31
0.0
  0
LINE
  5
1DB
330
1F
100
AcDbEntity
  8
0
  6
Continuous
 62
     7
370
    25
100
AcDbLine
 10
6465.3088325291
 20
5297.1994545927
 30
0.0
 11
6543.5088325291
 21
5297.1994545927
 31
0.0
  0
LINE
  5
1DC
330
1F
100
AcDbEntity
  8
0
  6
Continuous
 62
     7
370
    25
100
AcDbLine
 10
6465.3088325291
 20
5296.1994545927
 30
0.0
 11
6543.5088325291
 21
5296.1994545927
 31
0.0
  0
LINE
  5
1DD
330
1F
100
AcDbEntity
  8
0
  6
Continuous
 62
     7
370
    25
100
AcDbLine
 10
6525.3088325291
 20
5295.9923478115
 30
0.0
 11
6525.3088325291
 21
5295.4923478115
 31
0.0
  0
LINE
  5
1DE
330
1F
100
AcDbEntity
  8
0
  6
Continuous
 62
     7
370
    25
100
AcDbLine
 10
6543.5088325291
 20
5295.9923478115
 30
0.0
 11
6525.3088325291
 21
5295.9923478115
 31
0.0
  0
LINE
  5
1DF
330
1F
100
AcDbEntity
  8
0
  6
Continuous
 62
     7
370
    25
100
AcDbLine
 10
6525.3088325291
 20
5143.4065613739
 30
0.0
 11
6525.3088325291
 21
5143.9065613739
 31
0.0
  0
LINE
  5
1E0
330
1F
100
AcDbEntity
  8
0
  6
Continuous
 62
     7
370
    25
100
AcDbLine
 10
6525.3088325291
 20
5143.4065613739
 30
0.0
 11
6543.5088325291
 21
5143.4065613739
 31
0.0
  0
ARC
  5
1E1
330
1F
100
AcDbEntity
  8
0
  6
Continuous
 62
     7
370
    25
100
AcDbCircle
 10
6543.5088325291
 20
5145.2065613739
 30
0.0
 40
1.800000000000182
100
AcDbArc
 50
270.0
 51
0.0
  0
ARC
  5
1E2
330
1F
100
AcDbEntity
  8
0
  6
Continuous
 62
     7
370
    25
100
AcDbCircle
 10
6543.5088325291
 20
5145.2065613739
 30
0.0
 40
0.8000000000001819
100
AcDbArc
 50
270.0
 51
0.0
  0
ARC
  5
1E3
330
1F
100
AcDbEntity
  8
0
  6
Continuous
 62
     7
370
    25
100
AcDbCircle
 10
6543.5088325291
 20
5294.1923478115
 30
0.0
 40
1.800000000000182
100
AcDbArc
 50
0.0
 51
90.0
  0
ARC
  5
1E4
330
1F
100
AcDbEntity
  8
0
  6
Continuous
 62
     7
370
    25
100
AcDbCircle
 10
6543.5088325291
 20
5294.1923478115
 30
0.0
 40
0.8000000000001819
100
AcDbArc
 50
0.0
 51
90.0
  0
LINE
  5
1E5
330
1F
100
AcDbEntity
  8
0
  6
Continuous
 62
     8
370
    25
100
AcDbLine
 10
6555.5088325291
 20
5242.6994545927
 30
0.0
 11
6555.5088325291
 21
5228.6994545927
 31
0.0
  0
LINE
  5
1E6
330
1F
100
AcDbEntity
  8
0
  6
Continuous
 62
     8
370
    25
100
AcDbLine
 10
6555.5088325291
 20
5256.6994545927
 30
0.0
 11
6555.5088325291
 21
5242.6994545927
 31
0.0
  0
LWPOLYLINE
  5
1E7
330
1F
100
AcDbEntity
  8
0
  6
Continuous
 62
     8
370
    25
100
AcDbPolyline
 90
       12
 70
   128
 43
0.0
 10
6561.6988325291
 20
5228.6994545927
 10
6561.7103081832
 20
5228.701390214
 10
6561.9108338002
 20
5228.7336900521
 10
6562.34164661
 20
5228.7932689388
 10
6562.9633705928
 20
5228.855356937
 10
6563.7046805967
 20
5228.8920432832
 10
6564.4711461047
 20
5228.8869548691
 10
6565.1796285788
 20
5228.8433894365
 10
6565.7624912137
 20
5228.7797972684
 10
6566.1527015842
 20
5228.7233982806
 10
6566.2837206805
 20
5228.7020015737
 10
6566.2699708617
 20
5228.7042919576
  0
LINE
  5
1E8
330
1F
100
AcDbEntity
  8
0
  6
Continuous
 62
     8
370
    25
100
AcDbLine
 10
6732.9928750322
 20
5241.5689372043
 30
0.0
 11
6737.1088325291
 21
5242.8494573144
 31
0.0
  0
LINE
  5
1E9
330
1F
100
AcDbEntity
  8
0
  6
Continuous
 62
     8
370
    25
100
AcDbLine
 10
6737.1088325291
 20
5242.8494573144
 30
0.0
 11
6737.1088325291
 21
5256.6994545927
 31
0.0
  0
LWPOLYLINE
  5
1EA
330
1F
100
AcDbEntity
  8
0
  6
Continuous
 62
     8
370
    25
100
AcDbPolyline
 90
        3
 70
   128
 43
0.0
 10
6604.108832529
 20
5225.345488342
 10
6603.8816744186
 20
5227.8820069411
 10
6603.6974523714
 20
5228.6994545927
  0
LWPOLYLINE
  5
1EB
330
1F
100
AcDbEntity
  8
0
  6
Continuous
 62
     8
370
    25
100
AcDbPolyline
 90
        3
 70
   128
 43
0.0
 10
6604.1287777992
 20
5228.6994545927
 10
6604.3385970155
 20
5227.8758220191
 10
6604.608832529
 20
5225.2014205454
  0
LINE
  5
1EC
330
1F
100
AcDbEntity
  8
0
  6
Continuous
 62
     8
370
    25
100
AcDbLine
 10
6607.308832529
 20
5220.6774206944
 30
0.0
 11
6607.308832529
 21
5228.6994545927
 31
0.0
  0
LINE
  5
1ED
330
1F
100
AcDbEntity
  8
0
  6
Continuous
 62
     8
370
    25
100
AcDbLine
 10
6601.108832529
 20
5222.5994545927
 30
0.0
 11
6601.108832529
 21
5228.6994545927
 31
0.0
  0
LINE
  5
1EE
330
1F
100
AcDbEntity
  8
0
  6
Continuous
 62
     8
370
    25
100
AcDbLine
 10
6607.308832529
 20
5256.6994545927
 30
0.0
 11
6607.308832529
 21
5262.7994545927
 31
0.0
  0
LINE
  5
1EF
330
1F
100
AcDbEntity
  8
0
  6
Continuous
 62
     8
370
    25
100
AcDbLine
 10
6604.608832529
 20
5220.6774206944
 30
0.0
 11
6604.608832529
 21
5209.9994545927
 31
0.0
  0
LINE
  5
1F0
330
1F
100
AcDbEntity
  8
0
  6
Continuous
 62
     8
370
    25
100
AcDbLine
 10
6607.308832529
 20
5209.9994545927
 30
0.0
 11
6607.308832529
 21
5220.6774206944
 31
0.0
  0
LINE
  5
1F1
330
1F
100
AcDbEntity
  8
0
  6
Continuous
 62
     8
370
    25
100
AcDbLine
 10
6601.308832529
 20
5265.7731205537
 30
0.0
 11
6591.308832529
 21
5265.7731205537
 31
0.0
  0
LINE
  5
1F2
330
1F
100
AcDbEntity
  8
0
  6
Continuous
 62
     8
370
    25
100
AcDbLine
 10
6591.6934479136
 20
5266.2596248091
 30
0.0
 11
6600.9242171444
 21
5266.2596248091
 31
0.0
  0
LINE
  5
1F3
330
1F
100
AcDbEntity
  8
0
  6
Continuous
 62
     8
370
    25
100
AcDbLine
 10
6555.5088325291
 20
5214.1994545927
 30
0.0
 11
6555.5088325291
 21
5228.6994545927
 31
0.0
  0
LINE
  5
1F4
330
1F
100
AcDbEntity
  8
0
  6
Continuous
 62
     8
370
    25
100
AcDbLine
 10
6555.5088325291
 20
5256.6994545927
 30
0.0
 11
6555.5088325291
 21
5271.1994545927
 31
0.0
  0
LINE
  5
1F5
330
1F
100
AcDbEntity
  8
0
  6
Continuous
 62
     8
370
    25
100
AcDbLine
 10
6558.1088325291
 20
5214.1994545927
 30
0.0
 11
6558.1088325291
 21
5228.6994545927
 31
0.0
  0
LINE
  5
1F6
330
1F
100
AcDbEntity
  8
0
  6
Continuous
 62
     8
370
    25
100
AcDbLine
 10
6558.1088325291
 20
5256.6994545927
 30
0.0
 11
6558.1088325291
 21
5271.1994545927
 31
0.0
  0
LINE
  5
1F7
330
1F
100
AcDbEntity
  8
0
  6
Continuous
 62
     8
370
    25
100
AcDbLine
 10
6543.5088325291
 20
5295.4923478115
 30
0.0
 11
6543.5088325291
 21
5295.9923478115
 31
0.0
  0
LINE
  5
1F8
330
1F
100
AcDbEntity
  8
0
  6
Continuous
 62
     8
370
    25
100
AcDbLine
 10
6543.5088325291
 20
5143.9065613739
 30
0.0
 11
6543.5088325291
 21
5143.4065613739
 31
0.0
  0
LINE
  5
1F9
330
1F
100
AcDbEntity
  8
0
  6
Continuous
 62
     7
370
    25
100
AcDbLine
 10
6248.5187553361
 20
4746.3450772035
 30
0.0
 11
6248.5187553361
 21
4927.462925598
 31
0.0
  0
LINE
  5
1FA
330
1F
100
AcDbEntity
  8
0
  6
Continuous
 62
     7
370
    25
100
AcDbLine
 10
6220.5187553361
 20
4927.462925598
 30
0.0
 11
6220.5187553361
 21
4746.3450772035
 31
0.0
  0
ARC
  5
1FB
330
1F
100
AcDbEntity
  8
0
  6
Continuous
 62
     7
370
    25
100
AcDbCircle
 10
6220.7187553361
 20
4927.462925598
 30
0.0
 40
0.1999999999998181
100
AcDbArc
 50
90.0
 51
180.0
  0
ARC
  5
1FC
330
1F
100
AcDbEntity
  8
0
  6
Continuous
 62
     7
370
    25
100
AcDbCircle
 10
6248.3187553361
 20
4927.462925598
 30
0.0
 40
0.1999999999998181
100
AcDbArc
 50
0.0
 51
90.0
  0
LINE
  5
1FD
330
1F
100
AcDbEntity
  8
0
  6
Continuous
 62
     7
370
    25
100
AcDbLine
 10
6294.4187553361
 20
4914.662925598
 30
0.0
 11
6294.4187553361
 21
4875.662925598
 31
0.0
  0
LINE
  5
1FE
330
1F
100
AcDbEntity
  8
0
  6
Continuous
 62
     7
370
    25
100
AcDbLine
 10
6334.6187553361
 20
4875.662925598
 30
0.0
 11
6334.6187553361
 21
4914.662925598
 31
0.0
  0
ARC
  5
1FF
330
1F
100
AcDbEntity
  8
0
  6
Continuous
 62
     7
370
    25
100
AcDbCircle
 10
6332.6187553361
 20
4875.662925598
 30
0.0
 40
2.000000000000909
100
AcDbArc
 50
270.0
 51
0.0
  0
ARC
  5
200
330
1F
100
AcDbEntity
  8
0
  6
Continuous
 62
     7
370
    25
100
AcDbCircle
 10
6296.4187553361
 20
4875.662925598
 30
0.0
 40
2.000000000000909
100
AcDbArc
 50
180.0
 51
270.0
  0
LINE
  5
201
330
1F
100
AcDbEntity
  8
0
  6
Continuous
 62
     7
370
    25
100
AcDbLine
 10
6286.0187553361
 20
4927.462925598
 30
0.0
 11
6286.0187553361
 21
4924.862925598
 31
0.0
  0
LINE
  5
202
330
1F
100
AcDbEntity
  8
0
  6
Continuous
 62
     7
370
    25
100
AcDbLine
 10
6343.0187553361
 20
4924.862925598
 30
0.0
 11
6343.0187553361
 21
4927.462925598
 31
0.0
  0
ARC
  5
203
330
1F
100
AcDbEntity
  8
0
  6
Continuous
 62
     7
370
    25
100
AcDbCircle
 10
6286.2187553361
 20
4927.462925598
 30
0.0
 40
0.1999999999998181
100
AcDbArc
 50
90.0
 51
180.0
  0
ARC
  5
204
330
1F
100
AcDbEntity
  8
0
  6
Continuous
 62
     7
370
    25
100
AcDbCircle
 10
6342.8187553361
 20
4927.462925598
 30
0.0
 40
0.1999999999998181
100
AcDbArc
 50
0.0
 51
90.0
  0
ARC
  5
205
330
1F
100
AcDbEntity
  8
0
  6
Continuous
 62
     7
370
    25
100
AcDbCircle
 10
6286.2187553361
 20
4924.862925598
 30
0.0
 40
0.2000000000007276
100
AcDbArc
 50
180.0
 51
270.0
  0
ARC
  5
206
330
1F
100
AcDbEntity
  8
0
  6
Continuous
 62
     7
370
    25
100
AcDbCircle
 10
6342.8187553361
 20
4924.862925598
 30
0.0
 40
0.2000000000007276
100
AcDbArc
 50
270.0
 51
0.0
  0
ARC
  5
207
330
1F
100
AcDbEntity
  8
0
  6
Continuous
 62
     7
370
    25
100
AcDbCircle
 10
6352.9187553361
 20
4984.162925598
 30
0.0
 40
0.8000000000001819
100
AcDbArc
 50
270.0
 51
0.0
  0
ARC
  5
208
330
1F
100
AcDbEntity
  8
0
  6
Continuous
 62
     7
370
    25
100
AcDbCircle
 10
6352.9187553361
 20
4995.762925598
 30
0.0
 40
0.8000000000001819
100
AcDbArc
 50
0.0
 51
90.0
  0
LINE
  5
209
330
1F
100
AcDbEntity
  8
0
  6
Continuous
 62
     7
370
    25
100
AcDbLine
 10
6352.0187553361
 20
4983.362925598
 30
0.0
 11
6352.9187553361
 21
4983.362925598
 31
0.0
  0
LINE
  5
20A
330
1F
100
AcDbEntity
  8
0
  6
Continuous
 62
     7
370
    25
100
AcDbLine
 10
6352.9187553361
 20
4996.562925598
 30
0.0
 11
6352.0187553361
 21
4996.562925598
 31
0.0
  0
LINE
  5
20B
330
1F
100
AcDbEntity
  8
0
  6
Continuous
 62
     7
370
    25
100
AcDbLine
 10
6350.3116485549
 20
4985.212925598
 30
0.0
 11
6351.0187553361
 21
4985.212925598
 31
0.0
  0
LINE
  5
20C
330
1F
100
AcDbEntity
  8
0
  6
Continuous
 62
     7
370
    25
100
AcDbLine
 10
6351.0187553361
 20
4994.712925598
 30
0.0
 11
6350.3116485549
 21
4994.712925598
 31
0.0
  0
LINE
  5
20D
330
1F
100
AcDbEntity
  8
0
  6
Continuous
 62
     7
370
    25
100
AcDbLine
 10
6291.2687553361
 20
4924.662925598
 30
0.0
 11
6291.2687553361
 21
4914.662925598
 31
0.0
  0
LINE
  5
20E
330
1F
100
AcDbEntity
  8
0
  6
Continuous
 62
     7
370
    25
100
AcDbLine
 10
6337.7687553361
 20
4914.662925598
 30
0.0
 11
6337.7687553361
 21
4924.662925598
 31
0.0
  0
LINE
  5
20F
330
1F
100
AcDbEntity
  8
0
  6
Continuous
 62
     7
370
    25
100
AcDbLine
 10
6349.0187553361
 20
4937.662925598
 30
0.0
 11
6349.0187553361
 21
4927.662925598
 31
0.0
  0
ARC
  5
210
330
1F
100
AcDbEntity
  8
0
  6
Continuous
 62
     7
370
    25
100
AcDbCircle
 10
6349.0187553361
 20
4937.662925598
 30
0.0
 40
10.0
100
AcDbArc
 50
270.0
 51
0.0
  0
LINE
  5
211
330
1F
100
AcDbEntity
  8
0
  6
Continuous
 62
     7
370
    25
100
AcDbLine
 10
6359.0187553361
 20
4937.662925598
 30
0.0
 11
6349.0187553361
 21
4937.662925598
 31
0.0
  0
LINE
  5
212
330
1F
100
AcDbEntity
  8
0
  6
Continuous
 62
     7
370
    25
100
AcDbLine
 10
6349.0187553361
 20
4927.662925598
 30
0.0
 11
6199.0187553361
 21
4927.662925598
 31
0.0
  0
LINE
  5
213
330
1F
100
AcDbEntity
  8
0
  6
Continuous
 62
     7
370
    25
100
AcDbLine
 10
6199.0187553361
 20
4937.662925598
 30
0.0
 11
6199.0187553361
 21
4927.662925598
 31
0.0
  0
LINE
  5
214
330
1F
100
AcDbEntity
  8
0
  6
Continuous
 62
     7
370
    25
100
AcDbLine
 10
6349.0187553361
 20
4937.662925598
 30
0.0
 11
6199.0187553361
 21
4937.662925598
 31
0.0
  0
ARC
  5
215
330
1F
100
AcDbEntity
  8
0
  6
Continuous
 62
     7
370
    25
100
AcDbCircle
 10
6199.0187553361
 20
4937.662925598
 30
0.0
 40
10.0
100
AcDbArc
 50
180.0
 51
270.0
  0
LINE
  5
216
330
1F
100
AcDbEntity
  8
0
  6
Continuous
 62
     7
370
    25
100
AcDbLine
 10
6199.0187553361
 20
4937.662925598
 30
0.0
 11
6189.0187553361
 21
4937.662925598
 31
0.0
  0
ELLIPSE
  5
217
330
1F
100
AcDbEntity
  8
0
  6
Continuous
 62
     7
370
    25
100
AcDbEllipse
 10
6234.5187553361
 20
4746.3450772035
 30
0.0
 11
0.0
 21
45.0
 31
0.0
210
0.0
220
0.0
230
1.0
 40
0.3111111111
 41
1.570796326794897
 42
1.581511011931053
  0
ELLIPSE
  5
218
330
1F
100
AcDbEntity
  8
0
  6
Continuous
 62
     7
370
    25
100
AcDbEllipse
 10
6234.5187553361
 20
4746.3450772035
 30
0.0
 11
0.0
 21
45.0
 31
0.0
210
0.0
220
0.0
230
1.0
 40
0.3111111111
 41
4.701674295248537
 42
4.712388980384694
  0
LINE
  5
219
330
1F
100
AcDbEntity
  8
0
  6
Continuous
 62
     7
370
    25
100
AcDbLine
 10
6220.5195589598
 20
4745.862925598
 30
0.0
 11
6248.5179517124
 21
4745.862925598
 31
0.0
  0
ARC
  5
21A
330
1F
100
AcDbEntity
  8
0
  6
Continuous
 62
     7
370
    25
100
AcDbCircle
 10
6248.3179574525
 20
4745.862919858
 30
0.0
 40
0.1999942600774182
100
AcDbArc
 50
270.0016445312
 51
0.0016444377
  0
LINE
  5
21B
330
1F
100
AcDbEntity
  8
0
  6
Continuous
 62
     7
370
    25
100
AcDbLine
 10
6248.3179631928
 20
4745.662925598
 30
0.0
 11
6220.7195474794
 21
4745.662925598
 31
0.0
  0
ARC
  5
21C
330
1F
100
AcDbEntity
  8
0
  6
Continuous
 62
     7
370
    25
100
AcDbCircle
 10
6220.7195532198
 20
4745.862919858
 30
0.0
 40
0.1999942600792278
100
AcDbArc
 50
179.9983555623
 51
269.998355468
  0
CIRCLE
  5
21D
330
1F
100
AcDbEntity
  8
0
  6
Continuous
 62
     7
370
    25
100
AcDbCircle
 10
6314.5187553361
 20
4886.662925598
 30
0.0
 40
4.615384615384755
  0
CIRCLE
  5
21E
330
1F
100
AcDbEntity
  8
0
  6
Continuous
 62
     7
370
    25
100
AcDbCircle
 10
6314.5187553361
 20
4886.662925598
 30
0.0
 40
5.000000000000909
  0
LINE
  5
21F
330
1F
100
AcDbEntity
  8
0
  6
Continuous
 62
     7
370
    25
100
AcDbLine
 10
6332.6187553361
 20
4873.662925598
 30
0.0
 11
6296.4187553361
 21
4873.662925598
 31
0.0
  0
LINE
  5
220
330
1F
100
AcDbEntity
  8
0
  6
Continuous
 62
     7
370
    25
100
AcDbLine
 10
6286.2187553361
 20
4924.662925598
 30
0.0
 11
6342.8187553361
 21
4924.662925598
 31
0.0
  0
LWPOLYLINE
  5
221
330
1F
100
AcDbEntity
  8
0
  6
Continuous
 62
     7
370
    25
100
AcDbPolyline
 90
        3
 70
   128
 43
0.0
 10
6225.9389984026
 20
5019.6704645808
 10
6224.8042052426
 20
5019.5334181419
 10
6224.4086787089
 20
5019.462925598
  0
LINE
  5
222
330
1F
100
AcDbEntity
  8
0
  6
Continuous
 62
     7
370
    25
100
AcDbLine
 10
6225.9389984026
 20
5019.6704645808
 30
0.0
 11
6227.7780785472
 21
5019.462925598
 31
0.0
  0
ARC
  5
223
330
1F
100
AcDbEntity
  8
0
  6
Continuous
 62
     7
370
    25
100
AcDbCircle
 10
6227.0187553361
 20
5005.962925598
 30
0.0
 40
14.74999999999909
100
AcDbArc
 50
107.3195904736
 51
113.7581420554
  0
LINE
  5
224
330
1F
100
AcDbEntity
  8
0
  6
Continuous
 62
     7
370
    25
100
AcDbLine
 10
6222.6276610601
 20
5020.0441468184
 30
0.0
 11
6225.9389984026
 21
5019.6704645808
 31
0.0
  0
ARC
  5
225
330
1F
100
AcDbEntity
  8
0
  6
Continuous
 62
     7
370
    25
100
AcDbCircle
 10
6322.0187553361
 20
5005.962925598
 30
0.0
 40
13.74999999999992
100
AcDbArc
 50
87.9076545719
 51
100.9424989068
  0
LINE
  5
226
330
1F
100
AcDbEntity
  8
0
  6
Continuous
 62
     7
370
    25
100
AcDbLine
 10
6322.5207705947
 20
5019.703758203
 30
0.0
 11
6323.5610444822
 21
5019.462925598
 31
0.0
  0
ARC
  5
227
330
1F
100
AcDbEntity
  8
0
  6
Continuous
 62
     7
370
    25
100
AcDbCircle
 10
6322.0187553361
 20
5005.962925598
 30
0.0
 40
14.75000000000043
100
AcDbArc
 50
100.7232977203
 51
113.2070136097
  0
LINE
  5
228
330
1F
100
AcDbEntity
  8
0
  6
Continuous
 62
     7
370
    25
100
AcDbLine
 10
6319.2742795951
 20
5020.4553495811
 30
0.0
 11
6322.5207705947
 21
5019.703758203
 31
0.0
  0
LINE
  5
229
330
1F
100
AcDbEntity
  8
0
  6
Continuous
 62
     7
370
    25
100
AcDbLine
 10
6353.7187553361
 20
4984.162925598
 30
0.0
 11
6353.7187553361
 21
4995.7629248994
 31
0.0
  0
LINE
  5
22A
330
1F
100
AcDbEntity
  8
0
  6
Continuous
 62
     7
370
    25
100
AcDbLine
 10
6351.0187553361
 20
4991.812925598
 30
0.0
 11
6350.3116485549
 21
4991.812925598
 31
0.0
  0
LINE
  5
22B
330
1F
100
AcDbEntity
  8
0
  6
Continuous
 62
     7
370
    25
100
AcDbLine
 10
6350.3116485549
 20
4990.562925598
 30
0.0
 11
6351.0187553361
 21
4990.562925598
 31
0.0
  0
LINE
  5
22C
330
1F
100
AcDbEntity
  8
0
  6
Continuous
 62
     7
370
    25
100
AcDbLine
 10
6350.3116485549
 20
4988.112925598
 30
0.0
 11
6351.0187553361
 21
4988.112925598
 31
0.0
  0
LINE
  5
22D
330
1F
100
AcDbEntity
  8
0
  6
Continuous
 62
     7
370
    25
100
AcDbLine
 10
6351.0187553361
 20
4989.362925598
 30
0.0
 11
6350.3116485549
 21
4989.362925598
 31
0.0
  0
LINE
  5
22E
330
1F
100
AcDbEntity
  8
0
  6
Continuous
 62
     7
370
    25
100
AcDbLine
 10
6350.3116485549
 20
4992.812925598
 30
0.0
 11
6351.0187553361
 21
4992.812925598
 31
0.0
  0
LINE
  5
22F
330
1F
100
AcDbEntity
  8
0
  6
Continuous
 62
     7
370
    25
100
AcDbLine
 10
6351.0187553361
 20
4987.112925598
 30
0.0
 11
6350.3116485549
 21
4987.112925598
 31
0.0
  0
LINE
  5
230
330
1F
100
AcDbEntity
  8
0
  6
Continuous
 62
     7
370
    25
100
AcDbLine
 10
6292.250159196
 20
4914.662925598
 30
0.0
 11
6337.7687553361
 21
4914.662925598
 31
0.0
  0
LINE
  5
231
330
1F
100
AcDbEntity
  8
0
  6
Continuous
 62
     7
370
    25
100
AcDbLine
 10
6291.2687553361
 20
4914.662925598
 30
0.0
 11
6292.250159196
 21
4914.662925598
 31
0.0
  0
LINE
  5
232
330
1F
100
AcDbEntity
  8
0
  6
Continuous
 62
     7
370
    25
100
AcDbLine
 10
6198.7258621173
 20
4939.462925598
 30
0.0
 11
6350.3116485549
 21
4939.462925598
 31
0.0
  0
LINE
  5
233
330
1F
100
AcDbEntity
  8
0
  6
Continuous
 62
     7
370
    25
100
AcDbLine
 10
6198.7258621173
 20
5017.662925598
 30
0.0
 11
6198.7258621173
 21
4939.462925598
 31
0.0
  0
LINE
  5
234
330
1F
100
AcDbEntity
  8
0
  6
Continuous
 62
     7
370
    25
100
AcDbLine
 10
6198.7258621173
 20
5017.662925598
 30
0.0
 11
6350.3116485549
 21
5017.662925598
 31
0.0
  0
LINE
  5
235
330
1F
100
AcDbEntity
  8
0
  6
Continuous
 62
     7
370
    25
100
AcDbLine
 10
6350.3116485549
 20
5017.662925598
 30
0.0
 11
6350.3116485549
 21
4939.462925598
 31
0.0
  0
ARC
  5
236
330
1F
100
AcDbEntity
  8
0
  6
Continuous
 62
     7
370
    25
100
AcDbCircle
 10
6331.6936688919
 20
5017.6044981071
 30
0.0
 40
18.61807134226101
100
AcDbArc
 50
0.1798067088
 51
5.7287175668
  0
ARC
  5
237
330
1F
100
AcDbEntity
  8
0
  6
Continuous
 62
     7
370
    25
100
AcDbCircle
 10
6217.3438417802
 20
5017.6044981071
 30
0.0
 40
18.61807134208361
100
AcDbArc
 50
174.2712824332
 51
179.8201932913
  0
LINE
  5
238
330
1F
100
AcDbEntity
  8
0
  6
Continuous
 62
     7
370
    25
100
AcDbLine
 10
6198.8187553361
 20
5019.462925598
 30
0.0
 11
6350.2187553361
 21
5019.462925598
 31
0.0
  0
LINE
  5
239
330
1F
100
AcDbEntity
  8
0
  6
Continuous
 62
     7
370
    25
100
AcDbLine
 10
6198.8187553361
 20
4937.662925598
 30
0.0
 11
6198.8187553361
 21
4939.462925598
 31
0.0
  0
LINE
  5
23A
330
1F
100
AcDbEntity
  8
0
  6
Continuous
 62
     7
370
    25
100
AcDbLine
 10
6217.0187553361
 20
4939.462925598
 30
0.0
 11
6217.0187553361
 21
4937.662925598
 31
0.0
  0
LINE
  5
23B
330
1F
100
AcDbEntity
  8
0
  6
Continuous
 62
     7
370
    25
100
AcDbLine
 10
6350.2187553361
 20
4939.462925598
 30
0.0
 11
6350.2187553361
 21
4937.662925598
 31
0.0
  0
LINE
  5
23C
330
1F
100
AcDbEntity
  8
0
  6
Continuous
 62
     7
370
    25
100
AcDbLine
 10
6332.0187553361
 20
4937.662925598
 30
0.0
 11
6332.0187553361
 21
4939.462925598
 31
0.0
  0
ARC
  5
23D
330
1F
100
AcDbEntity
  8
0
  6
Continuous
 62
     7
370
    25
100
AcDbCircle
 10
6350.2187553361
 20
5017.662925598
 30
0.0
 40
1.799999999997453
100
AcDbArc
 50
359.9999999999
 51
90.0000000001
  0
LINE
  5
23E
330
1F
100
AcDbEntity
  8
0
  6
Continuous
 62
     7
370
    25
100
AcDbLine
 10
6352.0187553361
 20
5017.662925598
 30
0.0
 11
6351.0187553361
 21
5017.662925598
 31
0.0
  0
ARC
  5
23F
330
1F
100
AcDbEntity
  8
0
  6
Continuous
 62
     7
370
    25
100
AcDbCircle
 10
6350.2187553361
 20
5017.662925598
 30
0.0
 40
0.8000000000020009
100
AcDbArc
 50
0.0000000001
 51
89.9999999999
  0
LINE
  5
240
330
1F
100
AcDbEntity
  8
0
  6
Continuous
 62
     7
370
    25
100
AcDbLine
 10
6351.0187553361
 20
5017.662925598
 30
0.0
 11
6351.0187553361
 21
4939.462925598
 31
0.0
  0
LINE
  5
241
330
1F
100
AcDbEntity
  8
0
  6
Continuous
 62
     7
370
    25
100
AcDbLine
 10
6352.0187553361
 20
5017.662925598
 30
0.0
 11
6352.0187553361
 21
4939.462925598
 31
0.0
  0
LINE
  5
242
330
1F
100
AcDbEntity
  8
0
  6
Continuous
 62
     7
370
    25
100
AcDbLine
 10
6352.0187553361
 20
4939.462925598
 30
0.0
 11
6351.0187553361
 21
4939.462925598
 31
0.0
  0
ARC
  5
243
330
1F
100
AcDbEntity
  8
0
  6
Continuous
 62
     7
370
    25
100
AcDbCircle
 10
6198.8187553361
 20
5017.662925598
 30
0.0
 40
1.799999999998363
100
AcDbArc
 50
90.0
 51
180.0
  0
ARC
  5
244
330
1F
100
AcDbEntity
  8
0
  6
Continuous
 62
     7
370
    25
100
AcDbCircle
 10
6198.8187553361
 20
5017.662925598
 30
0.0
 40
0.8000000000029104
100
AcDbArc
 50
90.0000000001
 51
179.9999999998
  0
LINE
  5
245
330
1F
100
AcDbEntity
  8
0
  6
Continuous
 62
     7
370
    25
100
AcDbLine
 10
6197.0187553361
 20
5017.662925598
 30
0.0
 11
6198.0187553361
 21
5017.662925598
 31
0.0
  0
LINE
  5
246
330
1F
100
AcDbEntity
  8
0
  6
Continuous
 62
     7
370
    25
100
AcDbLine
 10
6198.0187553361
 20
5017.662925598
 30
0.0
 11
6198.0187553361
 21
4939.462925598
 31
0.0
  0
LINE
  5
247
330
1F
100
AcDbEntity
  8
0
  6
Continuous
 62
     7
370
    25
100
AcDbLine
 10
6197.0187553361
 20
4939.462925598
 30
0.0
 11
6198.0187553361
 21
4939.462925598
 31
0.0
  0
LINE
  5
248
330
1F
100
AcDbEntity
  8
0
  6
Continuous
 62
     7
370
    25
100
AcDbLine
 10
6197.0187553361
 20
5017.662925598
 30
0.0
 11
6197.0187553361
 21
4939.462925598
 31
0.0
  0
ARC
  5
249
330
1F
100
AcDbEntity
  8
0
  6
Continuous
 62
     7
370
    25
100
AcDbCircle
 10
6198.8187553361
 20
4939.462925598
 30
0.0
 40
0.8000000000001819
100
AcDbArc
 50
180.0
 51
270.0
  0
ARC
  5
24A
330
1F
100
AcDbEntity
  8
0
  6
Continuous
 62
     7
370
    25
100
AcDbCircle
 10
6198.8187553361
 20
4939.462925598
 30
0.0
 40
1.800000000000182
100
AcDbArc
 50
180.0
 51
270.0
  0
ARC
  5
24B
330
1F
100
AcDbEntity
  8
0
  6
Continuous
 62
     7
370
    25
100
AcDbCircle
 10
6350.2187553361
 20
4939.462925598
 30
0.0
 40
1.800000000000182
100
AcDbArc
 50
270.0
 51
0.0
  0
ARC
  5
24C
330
1F
100
AcDbEntity
  8
0
  6
Continuous
 62
     7
370
    25
100
AcDbCircle
 10
6350.2187553361
 20
4939.462925598
 30
0.0
 40
0.8000000000001819
100
AcDbArc
 50
270.0
 51
0.0
  0
LINE
  5
24D
330
1F
100
AcDbEntity
  8
0
  6
Continuous
 62
     8
370
    25
100
AcDbLine
 10
6248.5187553361
 20
4927.462925598
 30
0.0
 11
6220.5187553361
 21
4927.462925598
 31
0.0
  0
LINE
  5
24E
330
1F
100
AcDbEntity
  8
0
  6
Continuous
 62
     8
370
    25
100
AcDbLine
 10
6294.4187553361
 20
4875.662925598
 30
0.0
 11
6334.6187553361
 21
4875.662925598
 31
0.0
  0
LINE
  5
24F
330
1F
100
AcDbEntity
  8
0
  6
Continuous
 62
     8
370
    25
100
AcDbLine
 10
6286.0187553361
 20
4924.862925598
 30
0.0
 11
6343.0187553361
 21
4924.862925598
 31
0.0
  0
LINE
  5
250
330
1F
100
AcDbEntity
  8
0
  6
Continuous
 62
     8
370
    25
100
AcDbLine
 10
6286.0187553361
 20
4927.462925598
 30
0.0
 11
6343.0187553361
 21
4927.462925598
 31
0.0
  0
LINE
  5
251
330
1F
100
AcDbEntity
  8
0
  6
Continuous
 62
     8
370
    25
100
AcDbLine
 10
6352.9187553361
 20
4983.362925598
 30
0.0
 11
6352.9187553361
 21
4996.562925598
 31
0.0
  0
ENDSEC
  0
SECTION
  2
OBJECTS
  0
DICTIONARY
  5
C
330
0
100
AcDbDictionary
281
     1
  3
ACAD_GROUP
350
D
  3
ACAD_LAYOUT
350
1A
  3
ACAD_MLINESTYLE
350
17
  3
ACAD_PLOTSETTINGS
350
19
  3
ACAD_PLOTSTYLENAME
350
E
  3
ACAD_SCALELIST
350
47
  3
DWGPROPS
350
252
  0
DICTIONARY
  5
D
102
{ACAD_REACTORS
330
C
102
}
330
C
100
AcDbDictionary
281
     1
  0
DICTIONARY
  5
1A
102
{ACAD_REACTORS
330
C
102
}
330
C
100
AcDbDictionary
281
     1
  3
Layout1
350
1E
  3
Layout2
350
26
  3
Model
350
22
  0
DICTIONARY
  5
17
102
{ACAD_REACTORS
330
C
102
}
330
C
100
AcDbDictionary
281
     1
  3
Standard
350
18
  0
DICTIONARY
  5
19
102
{ACAD_REACTORS
330
C
102
}
330
C
100
AcDbDictionary
281
     1
  0
ACDBDICTIONARYWDFLT
  5
E
102
{ACAD_REACTORS
330
C
102
}
330
C
100
AcDbDictionary
281
     1
  3
Normal
350
F
100
AcDbDictionaryWithDefault
340
F
  0
DICTIONARY
  5
47
102
{ACAD_REACTORS
330
C
102
}
330
C
100
AcDbDictionary
281
     1
  3
A0
350
48
  3
A1
350
49
  3
A2
350
4A
  3
A3
350
4B
  3
A4
350
4C
  3
A5
350
4D
  3
A6
350
4E
  3
A7
350
4F
  3
A8
350
50
  3
A9
350
51
  3
B0
350
52
  3
B1
350
53
  3
B2
350
54
  3
B3
350
55
  3
B4
350
56
  3
B5
350
57
  3
B6
350
58
  3
B7
350
59
  3
B8
350
5A
  3
B9
350
5B
  3
C0
350
5C
  3
C1
350
5D
  3
C2
350
5E
  3
C3
350
5F
  3
C4
350
60
  3
C5
350
61
  3
C6
350
62
  3
C7
350
63
  3
C8
350
64
  3
C9
350
65
  3
D0
350
66
  3
D1
350
67
  3
D2
350
68
  0
XRECORD
  5
252
102
{ACAD_REACTORS
330
C
102
}
330
C
100
AcDbXrecord
280
     1
  1
DWGPROPS COOKIE
  2

  3

  4

  6

  7

  8
radek.stransky
  9

300
=
301
=
302
=
303
=
304
=
305
=
306
=
307
=
308
=
309
=
 40
0.0
 41
2459293.312253102
 42
2459293.312253333
  1

 90
        0
  0
LAYOUT
  5
1E
102
{ACAD_REACTORS
330
1A
102
}
330
1A
100
AcDbPlotSettings
  1

  2
none_device
  4

  6

 40
0.0
 41
0.0
 42
0.0
 43
0.0
 44
0.0
 45
0.0
 46
0.0
 47
0.0
 48
0.0
 49
0.0
140
0.0
141
0.0
142
1.0
143
1.0
 70
   688
 72
     1
 73
     0
 74
     5
  7

 75
    16
147
1.0
148
0.0
149
0.0
100
AcDbLayout
  1
Layout1
 70
     1
 71
     1
 10
0.0
 20
0.0
 11
420.0
 21
297.0
 12
0.0
 22
0.0
 32
0.0
 14
1.0000000000E+20
 24
1.0000000000E+20
 34
1.0000000000E+20
 15
-1.0000000000E+20
 25
-1.0000000000E+20
 35
-1.0000000000E+20
146
0.0
 13
0.0
 23
0.0
 33
0.0
 16
1.0
 26
0.0
 36
0.0
 17
0.0
 27
1.0
 37
0.0
 76
     0
330
1B
  0
LAYOUT
  5
26
102
{ACAD_REACTORS
330
1A
102
}
330
1A
100
AcDbPlotSettings
  1

  2
none_device
  4

  6

 40
0.0
 41
0.0
 42
0.0
 43
0.0
 44
0.0
 45
0.0
 46
0.0
 47
0.0
 48
0.0
 49
0.0
140
0.0
141
0.0
142
1.0
143
1.0
 70
   688
 72
     1
 73
     0
 74
     5
  7

 75
    16
147
1.0
148
0.0
149
0.0
100
AcDbLayout
  1
Layout2
 70
     1
 71
     2
 10
0.0
 20
0.0
 11
0.0
 21
0.0
 12
0.0
 22
0.0
 32
0.0
 14
0.0
 24
0.0
 34
0.0
 15
0.0
 25
0.0
 35
0.0
146
0.0
 13
0.0
 23
0.0
 33
0.0
 16
1.0
 26
0.0
 36
0.0
 17
0.0
 27
1.0
 37
0.0
 76
     0
330
23
  0
LAYOUT
  5
22
102
{ACAD_REACTORS
330
1A
102
}
330
1A
100
AcDbPlotSettings
  1

  2
none_device
  4
Letter_(8.50_x_11.00_Inches)
  6

 40
6.35
 41
6.35
 42
6.35000508
 43
6.35000508
 44
215.9
 45
279.4
 46
0.0
 47
0.0
 48
0.0
 49
0.0
140
0.0
141
0.0
142
1.0
143
1.0
 70
  1712
 72
     1
 73
     0
 74
     0
  7

 75
     0
147
1.0
148
0.0
149
0.0
100
AcDbLayout
  1
Model
 70
     1
 71
     0
 10
0.0
 20
0.0
 11
20000.0
 21
10000.0
 12
0.0
 22
0.0
 32
0.0
 14
0.0
 24
0.0
 34
0.0
 15
20000.0
 25
10000.0
 35
0.0
146
0.0
 13
0.0
 23
0.0
 33
0.0
 16
1.0
 26
0.0
 36
0.0
 17
0.0
 27
1.0
 37
0.0
 76
     0
330
1F
331
29
  0
MLINESTYLE
  5
18
102
{ACAD_REACTORS
330
17
102
}
330
17
100
AcDbMlineStyle
  2
Standard
 70
     0
  3

 62
   256
 51
90.0
 52
90.0
 71
     2
 49
0.5
 62
   256
  6
BYLAYER
 49
-0.5
 62
   256
  6
BYLAYER
  0
ACDBPLACEHOLDER
  5
F
102
{ACAD_REACTORS
330
E
102
}
330
E
  0
SCALE
  5
48
102
{ACAD_REACTORS
330
47
102
}
330
47
100
AcDbScale
 70
     0
300
1:1
140
1.0
141
1.0
290
     1
  0
SCALE
  5
49
102
{ACAD_REACTORS
330
47
102
}
330
47
100
AcDbScale
 70
     0
300
1:2
140
1.0
141
2.0
290
     0
  0
SCALE
  5
4A
102
{ACAD_REACTORS
330
47
102
}
330
47
100
AcDbScale
 70
     0
300
1:4
140
1.0
141
4.0
290
     0
  0
SCALE
  5
4B
102
{ACAD_REACTORS
330
47
102
}
330
47
100
AcDbScale
 70
     0
300
1:5
140
1.0
141
5.0
290
     0
  0
SCALE
  5
4C
102
{ACAD_REACTORS
330
47
102
}
330
47
100
AcDbScale
 70
     0
300
1:8
140
1.0
141
8.0
290
     0
  0
SCALE
  5
4D
102
{ACAD_REACTORS
330
47
102
}
330
47
100
AcDbScale
 70
     0
300
1:10
140
1.0
141
10.0
290
     0
  0
SCALE
  5
4E
102
{ACAD_REACTORS
330
47
102
}
330
47
100
AcDbScale
 70
     0
300
1:16
140
1.0
141
16.0
290
     0
  0
SCALE
  5
4F
102
{ACAD_REACTORS
330
47
102
}
330
47
100
AcDbScale
 70
     0
300
1:20
140
1.0
141
20.0
290
     0
  0
SCALE
  5
50
102
{ACAD_REACTORS
330
47
102
}
330
47
100
AcDbScale
 70
     0
300
1:30
140
1.0
141
30.0
290
     0
  0
SCALE
  5
51
102
{ACAD_REACTORS
330
47
102
}
330
47
100
AcDbScale
 70
     0
300
1:40
140
1.0
141
40.0
290
     0
  0
SCALE
  5
52
102
{ACAD_REACTORS
330
47
102
}
330
47
100
AcDbScale
 70
     0
300
1:50
140
1.0
141
50.0
290
     0
  0
SCALE
  5
53
102
{ACAD_REACTORS
330
47
102
}
330
47
100
AcDbScale
 70
     0
300
1:100
140
1.0
141
100.0
290
     0
  0
SCALE
  5
54
102
{ACAD_REACTORS
330
47
102
}
330
47
100
AcDbScale
 70
     0
300
2:1
140
2.0
141
1.0
290
     0
  0
SCALE
  5
55
102
{ACAD_REACTORS
330
47
102
}
330
47
100
AcDbScale
 70
     0
300
4:1
140
4.0
141
1.0
290
     0
  0
SCALE
  5
56
102
{ACAD_REACTORS
330
47
102
}
330
47
100
AcDbScale
 70
     0
300
8:1
140
8.0
141
1.0
290
     0
  0
SCALE
  5
57
102
{ACAD_REACTORS
330
47
102
}
330
47
100
AcDbScale
 70
     0
300
10:1
140
10.0
141
1.0
290
     0
  0
SCALE
  5
58
102
{ACAD_REACTORS
330
47
102
}
330
47
100
AcDbScale
 70
     0
300
100:1
140
100.0
141
1.0
290
     0
  0
SCALE
  5
59
102
{ACAD_REACTORS
330
47
102
}
330
47
100
AcDbScale
 70
     0
300
1/128" = 1'-0"
140
0.0078125
141
12.0
290
     0
  0
SCALE
  5
5A
102
{ACAD_REACTORS
330
47
102
}
330
47
100
AcDbScale
 70
     0
300
1/64" = 1'-0"
140
0.015625
141
12.0
290
     0
  0
SCALE
  5
5B
102
{ACAD_REACTORS
330
47
102
}
330
47
100
AcDbScale
 70
     0
300
1/32" = 1'-0"
140
0.03125
141
12.0
290
     0
  0
SCALE
  5
5C
102
{ACAD_REACTORS
330
47
102
}
330
47
100
AcDbScale
 70
     0
300
1/16" = 1'-0"
140
0.0625
141
12.0
290
     0
  0
SCALE
  5
5D
102
{ACAD_REACTORS
330
47
102
}
330
47
100
AcDbScale
 70
     0
300
3/32" = 1'-0"
140
0.09375
141
12.0
290
     0
  0
SCALE
  5
5E
102
{ACAD_REACTORS
330
47
102
}
330
47
100
AcDbScale
 70
     0
300
1/8" = 1'-0"
140
0.125
141
12.0
290
     0
  0
SCALE
  5
5F
102
{ACAD_REACTORS
330
47
102
}
330
47
100
AcDbScale
 70
     0
300
3/16" = 1'-0"
140
0.1875
141
12.0
290
     0
  0
SCALE
  5
60
102
{ACAD_REACTORS
330
47
102
}
330
47
100
AcDbScale
 70
     0
300
1/4" = 1'-0"
140
0.25
141
12.0
290
     0
  0
SCALE
  5
61
102
{ACAD_REACTORS
330
47
102
}
330
47
100
AcDbScale
 70
     0
300
3/8" = 1'-0"
140
0.375
141
12.0
290
     0
  0
SCALE
  5
62
102
{ACAD_REACTORS
330
47
102
}
330
47
100
AcDbScale
 70
     0
300
1/2" = 1'-0"
140
0.5
141
12.0
290
     0
  0
SCALE
  5
63
102
{ACAD_REACTORS
330
47
102
}
330
47
100
AcDbScale
 70
     0
300
3/4" = 1'-0"
140
0.75
141
12.0
290
     0
  0
SCALE
  5
64
102
{ACAD_REACTORS
330
47
102
}
330
47
100
AcDbScale
 70
     0
300
1" = 1'-0"
140
1.0
141
12.0
290
     0
  0
SCALE
  5
65
102
{ACAD_REACTORS
330
47
102
}
330
47
100
AcDbScale
 70
     0
300
1-1/2" = 1'-0"
140
1.5
141
12.0
290
     0
  0
SCALE
  5
66
102
{ACAD_REACTORS
330
47
102
}
330
47
100
AcDbScale
 70
     0
300
3" = 1'-0"
140
3.0
141
12.0
290
     0
  0
SCALE
  5
67
102
{ACAD_REACTORS
330
47
102
}
330
47
100
AcDbScale
 70
     0
300
6" = 1'-0"
140
6.0
141
12.0
290
     0
  0
SCALE
  5
68
102
{ACAD_REACTORS
330
47
102
}
330
47
100
AcDbScale
 70
     0
300
1'-0" = 1'-0"
140
12.0
141
12.0
290
     0
  0
ENDSEC
  0
EOF
