  0
SECTION
  2
HEADER
  9
$ACADVER
  1
AC1015
  9
$ACADMAINTVER
 70
     6
  9
$DWGCODEPAGE
  3
ANSI_1250
  9
$INSBASE
 10
0.0
 20
0.0
 30
0.0
  9
$EXTMIN
 10
0.0
 20
0.0
 30
0.0
  9
$EXTMAX
 10
20000.0
 20
10000.0
 30
0.0
  9
$LIMMIN
 10
0.0
 20
0.0
  9
$LIMMAX
 10
20000.0
 20
10000.0
  9
$ORTHOMODE
 70
     0
  9
$REGENMODE
 70
     1
  9
$FILLMODE
 70
     1
  9
$QTEXTMODE
 70
     0
  9
$MIRRTEXT
 70
     1
  9
$LTSCALE
 40
1.0
  9
$ATTMODE
 70
     1
  9
$TEXTSIZE
 40
2.0
  9
$TRACEWID
 40
1.0
  9
$TEXTSTYLE
  7
Standard
  9
$CLAYER
  8
0
  9
$CELTYPE
  6
ByLayer
  9
$CECOLOR
 62
   256
  9
$CELTSCALE
 40
1.0
  9
$DISPSILH
 70
     0
  9
$DIMSCALE
 40
1.0
  9
$DIMASZ
 40
2.0
  9
$DIMEXO
 40
1.0
  9
$DIMDLI
 40
3.75
  9
$DIMRND
 40
0.0
  9
$DIMDLE
 40
0.0
  9
$DIMEXE
 40
1.0
  9
$DIMTP
 40
0.0
  9
$DIMTM
 40
0.0
  9
$DIMTXT
 40
2.0
  9
$DIMCEN
 40
2.5
  9
$DIMTSZ
 40
0.0
  9
$DIMTOL
 70
     0
  9
$DIMLIM
 70
     0
  9
$DIMTIH
 70
     1
  9
$DIMTOH
 70
     1
  9
$DIMSE1
 70
     0
  9
$DIMSE2
 70
     0
  9
$DIMTAD
 70
     1
  9
$DIMZIN
 70
     0
  9
$DIMBLK
  1

  9
$DIMASO
 70
     1
  9
$DIMSHO
 70
     1
  9
$DIMPOST
  1

  9
$DIMAPOST
  1

  9
$DIMALT
 70
     0
  9
$DIMALTD
 70
     3
  9
$DIMALTF
 40
0.0393700787
  9
$DIMLFAC
 40
1.0
  9
$DIMTOFL
 70
     1
  9
$DIMTVP
 40
0.0
  9
$DIMTIX
 70
     0
  9
$DIMSOXD
 70
     0
  9
$DIMSAH
 70
     0
  9
$DIMBLK1
  1

  9
$DIMBLK2
  1

  9
$DIMSTYLE
  2
ISO-25
  9
$DIMCLRD
 70
     0
  9
$DIMCLRE
 70
     0
  9
$DIMCLRT
 70
     0
  9
$DIMTFAC
 40
1.0
  9
$DIMGAP
 40
1.524
  9
$DIMJUST
 70
     0
  9
$DIMSD1
 70
     0
  9
$DIMSD2
 70
     0
  9
$DIMTOLJ
 70
     0
  9
$DIMTZIN
 70
     0
  9
$DIMALTZ
 70
     0
  9
$DIMALTTZ
 70
     0
  9
$DIMUPT
 70
     0
  9
$DIMDEC
 70
     2
  9
$DIMTDEC
 70
     0
  9
$DIMALTU
 70
     2
  9
$DIMALTTD
 70
     3
  9
$DIMTXSTY
  7
Standard
  9
$DIMAUNIT
 70
     0
  9
$DIMADEC
 70
     2
  9
$DIMALTRND
 40
0.0
  9
$DIMAZIN
 70
     0
  9
$DIMDSEP
 70
    44
  9
$DIMATFIT
 70
     3
  9
$DIMFRAC
 70
     0
  9
$DIMLDRBLK
  1

  9
$DIMLUNIT
 70
     2
  9
$DIMLWD
 70
    -2
  9
$DIMLWE
 70
    -2
  9
$DIMTMOVE
 70
     0
  9
$LUNITS
 70
     2
  9
$LUPREC
 70
     3
  9
$SKETCHINC
 40
1.0
  9
$FILLETRAD
 40
10.0
  9
$AUNITS
 70
     0
  9
$AUPREC
 70
     2
  9
$MENU
  1
.
  9
$ELEVATION
 40
0.0
  9
$PELEVATION
 40
0.0
  9
$THICKNESS
 40
0.0
  9
$LIMCHECK
 70
     0
  9
$CHAMFERA
 40
0.0
  9
$CHAMFERB
 40
0.0
  9
$CHAMFERC
 40
0.0
  9
$CHAMFERD
 40
0.0
  9
$SKPOLY
 70
     0
  9
$TDCREATE
 40
2459345.343774236
  9
$TDUCREATE
 40
2459345.260440903
  9
$TDUPDATE
 40
2459345.343774491
  9
$TDUUPDATE
 40
2459345.260441158
  9
$TDINDWG
 40
0.0000000116
  9
$TDUSRTIMER
 40
0.0000000116
  9
$USRTIMER
 70
     1
  9
$ANGBASE
 50
0.0
  9
$ANGDIR
 70
     0
  9
$PDMODE
 70
     0
  9
$PDSIZE
 40
-1.0
  9
$PLINEWID
 40
0.0
  9
$SPLFRAME
 70
     0
  9
$SPLINETYPE
 70
     6
  9
$SPLINESEGS
 70
     8
  9
$HANDSEED
  5
348
  9
$SURFTAB1
 70
     6
  9
$SURFTAB2
 70
     6
  9
$SURFTYPE
 70
     6
  9
$SURFU
 70
     6
  9
$SURFV
 70
     6
  9
$UCSBASE
  2

  9
$UCSNAME
  2

  9
$UCSORG
 10
0.0
 20
0.0
 30
0.0
  9
$UCSXDIR
 10
1.0
 20
0.0
 30
0.0
  9
$UCSYDIR
 10
0.0
 20
1.0
 30
0.0
  9
$UCSORTHOREF
  2

  9
$UCSORTHOVIEW
 70
     0
  9
$UCSORGTOP
 10
0.0
 20
0.0
 30
0.0
  9
$UCSORGBOTTOM
 10
0.0
 20
0.0
 30
0.0
  9
$UCSORGLEFT
 10
0.0
 20
0.0
 30
0.0
  9
$UCSORGRIGHT
 10
0.0
 20
0.0
 30
0.0
  9
$UCSORGFRONT
 10
0.0
 20
0.0
 30
0.0
  9
$UCSORGBACK
 10
0.0
 20
0.0
 30
0.0
  9
$PUCSBASE
  2

  9
$PUCSNAME
  2

  9
$PUCSORG
 10
0.0
 20
0.0
 30
0.0
  9
$PUCSXDIR
 10
1.0
 20
0.0
 30
0.0
  9
$PUCSYDIR
 10
0.0
 20
1.0
 30
0.0
  9
$PUCSORTHOREF
  2

  9
$PUCSORTHOVIEW
 70
     0
  9
$PUCSORGTOP
 10
0.0
 20
0.0
 30
0.0
  9
$PUCSORGBOTTOM
 10
0.0
 20
0.0
 30
0.0
  9
$PUCSORGLEFT
 10
0.0
 20
0.0
 30
0.0
  9
$PUCSORGRIGHT
 10
0.0
 20
0.0
 30
0.0
  9
$PUCSORGFRONT
 10
0.0
 20
0.0
 30
0.0
  9
$PUCSORGBACK
 10
0.0
 20
0.0
 30
0.0
  9
$USERI1
 70
     0
  9
$USERI2
 70
     0
  9
$USERI3
 70
     0
  9
$USERI4
 70
     0
  9
$USERI5
 70
     0
  9
$USERR1
 40
0.0
  9
$USERR2
 40
0.0
  9
$USERR3
 40
0.0
  9
$USERR4
 40
0.0
  9
$USERR5
 40
0.0
  9
$WORLDVIEW
 70
     1
  9
$SHADEDGE
 70
     3
  9
$SHADEDIF
 70
    70
  9
$TILEMODE
 70
     1
  9
$MAXACTVP
 70
    64
  9
$PINSBASE
 10
0.0
 20
0.0
 30
0.0
  9
$PLIMCHECK
 70
     0
  9
$PEXTMIN
 10
1.0000000000E+20
 20
1.0000000000E+20
 30
1.0000000000E+20
  9
$PEXTMAX
 10
-1.0000000000E+20
 20
-1.0000000000E+20
 30
-1.0000000000E+20
  9
$PLIMMIN
 10
0.0
 20
0.0
  9
$PLIMMAX
 10
420.0
 20
297.0
  9
$UNITMODE
 70
     0
  9
$VISRETAIN
 70
     1
  9
$PLINEGEN
 70
     0
  9
$PSLTSCALE
 70
     1
  9
$TREEDEPTH
 70
  3020
  9
$CMLSTYLE
  2
Standard
  9
$CMLJUST
 70
     0
  9
$CMLSCALE
 40
20.0
  9
$PROXYGRAPHICS
 70
     1
  9
$MEASUREMENT
 70
     1
  9
$CELWEIGHT
370
    -1
  9
$ENDCAPS
280
     0
  9
$JOINSTYLE
280
     0
  9
$LWDISPLAY
290
     1
  9
$INSUNITS
 70
     4
  9
$HYPERLINKBASE
  1

  9
$STYLESHEET
  1

  9
$XEDIT
290
     1
  9
$CEPSNTYPE
380
     0
  9
$PSTYLEMODE
290
     1
  9
$FINGERPRINTGUID
  2
{dc7575a3-6f27-45ee-b01e-0bd3f9318905}
  9
$VERSIONGUID
  2
{FAEB1C32-E019-11D5-929B-00C0DF256EC4}
  9
$EXTNAMES
290
     1
  9
$PSVPSCALE
 40
0.0
  9
$OLESTARTUP
290
     0
  0
ENDSEC
  0
SECTION
  2
CLASSES
  0
CLASS
  1
ACDBDICTIONARYWDFLT
  2
AcDbDictionaryWithDefault
  3
ObjectDBX Classes
 90
        0
280
     0
281
     0
  0
CLASS
  1
VISUALSTYLE
  2
AcDbVisualStyle
  3
ObjectDBX Classes
 90
     4095
280
     0
281
     0
  0
CLASS
  1
MATERIAL
  2
AcDbMaterial
  3
ObjectDBX Classes
 90
     1153
280
     0
281
     0
  0
CLASS
  1
SCALE
  2
AcDbScale
  3
ObjectDBX Classes
 90
     1153
280
     0
281
     0
  0
CLASS
  1
TABLESTYLE
  2
AcDbTableStyle
  3
ObjectDBX Classes
 90
     4095
280
     0
281
     0
  0
CLASS
  1
MLEADERSTYLE
  2
AcDbMLeaderStyle
  3
ACDB_MLEADERSTYLE_CLASS
 90
     4095
280
     0
281
     0
  0
CLASS
  1
SUN
  2
AcDbSun
  3
SCENEOE
 90
     1153
280
     0
281
     0
  0
CLASS
  1
ACDBPLACEHOLDER
  2
AcDbPlaceHolder
  3
ObjectDBX Classes
 90
        0
280
     0
281
     0
  0
CLASS
  1
LAYOUT
  2
AcDbLayout
  3
ObjectDBX Classes
 90
        0
280
     0
281
     0
  0
ENDSEC
  0
SECTION
  2
TABLES
  0
TABLE
  2
VPORT
  5
8
330
0
100
AcDbSymbolTable
 70
     1
  0
VPORT
  5
29
330
8
100
AcDbSymbolTableRecord
100
AcDbViewportTableRecord
  2
*Active
 70
     0
 10
0.0
 20
0.0
 11
1.0
 21
1.0
 12
10000.0
 22
5000.0
 13
0.0
 23
0.0
 14
10.0
 24
10.0
 15
10.0
 25
10.0
 16
0.0
 26
0.0
 36
1.0
 17
0.0
 27
0.0
 37
0.0
 40
10000.0
 41
2.0
 42
50.0
 43
0.0
 44
0.0
 50
0.0
 51
0.0
 71
     0
 72
  2000
 73
     1
 74
     3
 75
     0
 76
     0
 77
     0
 78
     0
281
     0
 65
     1
110
0.0
120
0.0
130
0.0
111
1.0
121
0.0
131
0.0
112
0.0
122
1.0
132
0.0
 79
     0
146
0.0
  0
ENDTAB
  0
TABLE
  2
LTYPE
  5
5
330
0
100
AcDbSymbolTable
 70
     6
  0
LTYPE
  5
14
330
5
100
AcDbSymbolTableRecord
100
AcDbLinetypeTableRecord
  2
ByBlock
 70
     0
  3

 72
    65
 73
     0
 40
0.0
  0
LTYPE
  5
15
330
5
100
AcDbSymbolTableRecord
100
AcDbLinetypeTableRecord
  2
ByLayer
 70
     0
  3

 72
    65
 73
     0
 40
0.0
  0
LTYPE
  5
16
330
5
100
AcDbSymbolTableRecord
100
AcDbLinetypeTableRecord
  2
Continuous
 70
     0
  3
Solid line
 72
    65
 73
     0
 40
0.0
  0
LTYPE
  5
6E
330
5
100
AcDbSymbolTableRecord
100
AcDbLinetypeTableRecord
  2
HIDDEN
 70
     0
  3
Hidden __ __ __ __ __ __ __ __ __ __ __ __ __ __
 72
    65
 73
     2
 40
1.905
 49
1.27
 74
     0
 49
-0.635
 74
     0
  0
LTYPE
  5
6F
330
5
100
AcDbSymbolTableRecord
100
AcDbLinetypeTableRecord
  2
PHANTOM
 70
     0
  3
Phantom ______  __  __  ______  __  __  ______
 72
    65
 73
     6
 40
12.7
 49
6.35
 74
     0
 49
-1.27
 74
     0
 49
1.27
 74
     0
 49
-1.27
 74
     0
 49
1.27
 74
     0
 49
-1.27
 74
     0
  0
LTYPE
  5
70
330
5
100
AcDbSymbolTableRecord
100
AcDbLinetypeTableRecord
  2
CENTER
 70
     0
  3
Center ____ _ ____ _ ____ _ ____ _ ____ _ ____
 72
    65
 73
     4
 40
10.16
 49
6.35
 74
     0
 49
-1.27
 74
     0
 49
1.27
 74
     0
 49
-1.27
 74
     0
  0
LTYPE
  5
71
330
5
100
AcDbSymbolTableRecord
100
AcDbLinetypeTableRecord
  2
CENTERX2
 70
     0
  3
Center (2x) ________  __  ________  __  _____
 72
    65
 73
     4
 40
20.32
 49
12.7
 74
     0
 49
-2.54
 74
     0
 49
2.54
 74
     0
 49
-2.54
 74
     0
  0
LTYPE
  5
72
330
5
100
AcDbSymbolTableRecord
100
AcDbLinetypeTableRecord
  2
DOT2
 70
     0
  3
Dot (.5x) ........................................
 72
    65
 73
     2
 40
0.635
 49
0.0
 74
     0
 49
-0.635
 74
     0
  0
ENDTAB
  0
TABLE
  2
LAYER
  5
2
330
0
100
AcDbSymbolTable
 70
    13
  0
LAYER
  5
10
330
2
100
AcDbSymbolTableRecord
100
AcDbLayerTableRecord
  2
0
 70
     0
 62
     7
  6
Continuous
370
    -3
390
F
  0
LAYER
  5
73
330
2
100
AcDbSymbolTableRecord
100
AcDbLayerTableRecord
  2
FORMAT
 70
     0
 62
     7
  6
Continuous
370
    -3
390
F
  0
LAYER
  5
74
330
2
100
AcDbSymbolTableRecord
100
AcDbLayerTableRecord
  2
OSA
 70
     0
 62
     7
  6
CENTER
370
    -3
390
F
  0
LAYER
  5
75
330
2
100
AcDbSymbolTableRecord
100
AcDbLayerTableRecord
  2
0_35
 70
     0
 62
     7
  6
Continuous
370
    35
390
F
  0
LAYER
  5
76
330
2
100
AcDbSymbolTableRecord
100
AcDbLayerTableRecord
  2
0_5
 70
     0
 62
     7
  6
Continuous
370
    50
390
F
  0
LAYER
  5
77
330
2
100
AcDbSymbolTableRecord
100
AcDbLayerTableRecord
  2
0_25
 70
     0
 62
     7
  6
Continuous
370
    25
390
F
  0
LAYER
  5
78
330
2
100
AcDbSymbolTableRecord
100
AcDbLayerTableRecord
  2
0_18
 70
     0
 62
     7
  6
Continuous
370
    -3
390
F
  0
LAYER
  5
79
330
2
100
AcDbSymbolTableRecord
100
AcDbLayerTableRecord
  2
SLD-0
 70
     0
 62
   179
  6
Continuous
370
    -3
390
F
  0
LAYER
  5
7A
330
2
100
AcDbSymbolTableRecord
100
AcDbLayerTableRecord
  2
KOTY
 70
     0
 62
     7
  6
Continuous
370
    -3
390
F
  0
LAYER
  5
7B
330
2
100
AcDbSymbolTableRecord
100
AcDbLayerTableRecord
  2
SILNA
 70
     0
 62
   179
  6
Continuous
370
    -3
390
F
  0
LAYER
  5
7C
330
2
100
AcDbSymbolTableRecord
100
AcDbLayerTableRecord
  2
0_18_1
 70
     0
 62
   179
  6
Continuous
370
    -3
390
F
  0
LAYER
  5
7D
330
2
100
AcDbSymbolTableRecord
100
AcDbLayerTableRecord
  2
0_35_1
 70
     0
 62
   179
  6
Continuous
370
    35
390
F
  0
LAYER
  5
7E
330
2
100
AcDbSymbolTableRecord
100
AcDbLayerTableRecord
  2
0_5_1
 70
     0
 62
   179
  6
Continuous
370
    50
390
F
  0
ENDTAB
  0
TABLE
  2
STYLE
  5
3
330
0
100
AcDbSymbolTable
 70
     1
  0
STYLE
  5
11
330
3
100
AcDbSymbolTableRecord
100
AcDbTextStyleTableRecord
  2
Standard
 70
     0
 40
0.0
 41
1.0
 50
0.0
 71
     0
 42
2.0
  3
txt
  4

  0
ENDTAB
  0
TABLE
  2
VIEW
  5
6
330
0
100
AcDbSymbolTable
 70
     0
  0
ENDTAB
  0
TABLE
  2
UCS
  5
7
330
0
100
AcDbSymbolTable
 70
     0
  0
ENDTAB
  0
TABLE
  2
APPID
  5
9
330
0
100
AcDbSymbolTable
 70
     1
  0
APPID
  5
12
330
9
100
AcDbSymbolTableRecord
100
AcDbRegAppTableRecord
  2
ACAD
 70
     0
  0
ENDTAB
  0
TABLE
  2
DIMSTYLE
  5
A
330
0
100
AcDbSymbolTable
 70
     1
100
AcDbDimStyleTable
  0
DIMSTYLE
105
27
330
A
100
AcDbSymbolTableRecord
100
AcDbDimStyleTableRecord
  2
ISO-25
 70
     0
 41
2.5
 42
0.625
 43
3.75
 44
1.25
 73
     0
 74
     0
 77
     1
 78
     8
140
2.5
141
2.5
143
0.0393700787
147
0.625
171
     3
172
     1
178
     0
271
     2
272
     2
274
     3
278
    44
283
     0
284
     8
340
11
  0
ENDTAB
  0
TABLE
  2
BLOCK_RECORD
  5
1
330
0
100
AcDbSymbolTable
 70
     1
  0
BLOCK_RECORD
  5
1F
330
1
100
AcDbSymbolTableRecord
100
AcDbBlockTableRecord
  2
*Model_Space
340
22
  0
BLOCK_RECORD
  5
1B
330
1
100
AcDbSymbolTableRecord
100
AcDbBlockTableRecord
  2
*Paper_Space
340
1E
  0
BLOCK_RECORD
  5
23
330
1
100
AcDbSymbolTableRecord
100
AcDbBlockTableRecord
  2
*Paper_Space0
340
26
  0
ENDTAB
  0
ENDSEC
  0
SECTION
  2
BLOCKS
  0
BLOCK
  5
20
330
1F
100
AcDbEntity
  8
0
100
AcDbBlockBegin
  2
*Model_Space
 70
     0
 10
0.0
 20
0.0
 30
0.0
  3
*Model_Space
  1

  0
ENDBLK
  5
21
330
1F
100
AcDbEntity
  8
0
100
AcDbBlockEnd
  0
BLOCK
  5
1C
330
1B
100
AcDbEntity
 67
     1
  8
0
100
AcDbBlockBegin
  2
*Paper_Space
 70
     0
 10
0.0
 20
0.0
 30
0.0
  3
*Paper_Space
  1

  0
ENDBLK
  5
1D
330
1B
100
AcDbEntity
 67
     1
  8
0
100
AcDbBlockEnd
  0
BLOCK
  5
24
330
23
100
AcDbEntity
  8
0
100
AcDbBlockBegin
  2
*Paper_Space0
 70
     0
 10
0.0
 20
0.0
 30
0.0
  3
*Paper_Space0
  1

  0
ENDBLK
  5
25
330
23
100
AcDbEntity
  8
0
100
AcDbBlockEnd
  0
ENDSEC
  0
SECTION
  2
ENTITIES
  0
ARC
  5
7F
330
1F
100
AcDbEntity
  8
0
  6
Continuous
 62
     7
370
    25
100
AcDbCircle
 10
6478.5981140244
 20
4956.0201164752
 30
0.0
 40
1.499999999999704
100
AcDbArc
 50
271.1268896477
 51
88.8731103523
  0
ARC
  5
80
330
1F
100
AcDbEntity
  8
0
  6
Continuous
 62
     7
370
    25
100
AcDbCircle
 10
6505.0981140244
 20
4956.0201164752
 30
0.0
 40
1.499999999999704
100
AcDbArc
 50
91.1268896477
 51
268.8731103523
  0
LINE
  5
81
330
1F
100
AcDbEntity
  8
0
  6
Continuous
 62
     7
370
    25
100
AcDbLine
 10
6478.6276140244
 20
4957.5201164752
 30
0.0
 11
6478.6276140244
 21
4957.5198263639
 31
0.0
  0
LINE
  5
82
330
1F
100
AcDbEntity
  8
0
  6
Continuous
 62
     7
370
    25
100
AcDbLine
 10
6505.0686140244
 20
4957.5198263639
 30
0.0
 11
6505.0686140244
 21
4957.5201164752
 31
0.0
  0
LINE
  5
83
330
1F
100
AcDbEntity
  8
0
  6
Continuous
 62
     7
370
    25
100
AcDbLine
 10
6478.6276140244
 20
4954.5204065866
 30
0.0
 11
6478.6276140244
 21
4949.5201164752
 31
0.0
  0
LINE
  5
84
330
1F
100
AcDbEntity
  8
0
  6
Continuous
 62
     7
370
    25
100
AcDbLine
 10
6505.0686140244
 20
4949.5201164752
 30
0.0
 11
6505.0686140244
 21
4954.5204065866
 31
0.0
  0
LINE
  5
85
330
1F
100
AcDbEntity
  8
0
  6
Continuous
 62
     7
370
    25
100
AcDbLine
 10
6478.6276140244
 20
4949.5201164752
 30
0.0
 11
6479.6276140244
 21
4948.5201164752
 31
0.0
  0
LINE
  5
86
330
1F
100
AcDbEntity
  8
0
  6
Continuous
 62
     7
370
    25
100
AcDbLine
 10
6504.0686140244
 20
4948.5201164752
 30
0.0
 11
6505.0686140244
 21
4949.5201164752
 31
0.0
  0
LINE
  5
87
330
1F
100
AcDbEntity
  8
0
  6
Continuous
 62
     7
370
    25
100
AcDbLine
 10
6477.0981140244
 20
4958.0974667444
 30
0.0
 11
6478.0981140244
 21
4957.5201164752
 31
0.0
  0
LINE
  5
88
330
1F
100
AcDbEntity
  8
0
  6
Continuous
 62
     7
370
    25
100
AcDbLine
 10
6505.5981140244
 20
4957.5201164752
 30
0.0
 11
6506.5981140244
 21
4958.0974667444
 31
0.0
  0
LINE
  5
89
330
1F
100
AcDbEntity
  8
0
  6
Continuous
 62
     7
370
    25
100
AcDbLine
 10
6477.0981140244
 20
4959.0201164752
 30
0.0
 11
6477.0981140244
 21
4958.0974667444
 31
0.0
  0
LINE
  5
8A
330
1F
100
AcDbEntity
  8
0
  6
Continuous
 62
     7
370
    25
100
AcDbLine
 10
6506.5981140244
 20
4958.0974667444
 30
0.0
 11
6506.5981140244
 21
4959.0201164752
 31
0.0
  0
ARC
  5
8B
330
1F
100
AcDbEntity
  8
0
  6
Continuous
 62
     7
370
    25
100
AcDbCircle
 10
6388.5981140244
 20
4956.0201164752
 30
0.0
 40
1.499999999999722
100
AcDbArc
 50
271.1268896477
 51
88.8731103523
  0
ARC
  5
8C
330
1F
100
AcDbEntity
  8
0
  6
Continuous
 62
     7
370
    25
100
AcDbCircle
 10
6415.0981140244
 20
4956.0201164752
 30
0.0
 40
1.499999999999704
100
AcDbArc
 50
91.1268896477
 51
268.8731103523
  0
LINE
  5
8D
330
1F
100
AcDbEntity
  8
0
  6
Continuous
 62
     7
370
    25
100
AcDbLine
 10
6388.6276140244
 20
4957.5201164752
 30
0.0
 11
6388.6276140244
 21
4957.5198263639
 31
0.0
  0
LINE
  5
8E
330
1F
100
AcDbEntity
  8
0
  6
Continuous
 62
     7
370
    25
100
AcDbLine
 10
6415.0686140244
 20
4957.5198263639
 30
0.0
 11
6415.0686140244
 21
4957.5201164752
 31
0.0
  0
LINE
  5
8F
330
1F
100
AcDbEntity
  8
0
  6
Continuous
 62
     7
370
    25
100
AcDbLine
 10
6388.6276140244
 20
4954.5204065866
 30
0.0
 11
6388.6276140244
 21
4949.5201164752
 31
0.0
  0
LINE
  5
90
330
1F
100
AcDbEntity
  8
0
  6
Continuous
 62
     7
370
    25
100
AcDbLine
 10
6415.0686140244
 20
4949.5201164752
 30
0.0
 11
6415.0686140244
 21
4954.5204065866
 31
0.0
  0
LINE
  5
91
330
1F
100
AcDbEntity
  8
0
  6
Continuous
 62
     7
370
    25
100
AcDbLine
 10
6388.6276140244
 20
4949.5201164752
 30
0.0
 11
6389.6276140244
 21
4948.5201164752
 31
0.0
  0
LINE
  5
92
330
1F
100
AcDbEntity
  8
0
  6
Continuous
 62
     7
370
    25
100
AcDbLine
 10
6414.0686140244
 20
4948.5201164752
 30
0.0
 11
6415.0686140244
 21
4949.5201164752
 31
0.0
  0
LINE
  5
93
330
1F
100
AcDbEntity
  8
0
  6
Continuous
 62
     7
370
    25
100
AcDbLine
 10
6387.0981140244
 20
4958.0974667444
 30
0.0
 11
6388.0981140244
 21
4957.5201164752
 31
0.0
  0
LINE
  5
94
330
1F
100
AcDbEntity
  8
0
  6
Continuous
 62
     7
370
    25
100
AcDbLine
 10
6415.5981140244
 20
4957.5201164752
 30
0.0
 11
6416.5981140244
 21
4958.0974667444
 31
0.0
  0
LINE
  5
95
330
1F
100
AcDbEntity
  8
0
  6
Continuous
 62
     7
370
    25
100
AcDbLine
 10
6387.0981140244
 20
4959.0201164752
 30
0.0
 11
6387.0981140244
 21
4958.0974667444
 31
0.0
  0
LINE
  5
96
330
1F
100
AcDbEntity
  8
0
  6
Continuous
 62
     7
370
    25
100
AcDbLine
 10
6416.5981140244
 20
4958.0974667444
 30
0.0
 11
6416.5981140244
 21
4959.0201164752
 31
0.0
  0
LINE
  5
97
330
1F
100
AcDbEntity
  8
0
  6
Continuous
 62
     7
370
    25
100
AcDbLine
 10
6437.5981140244
 20
5014.9000888637
 30
0.0
 11
6437.5981140244
 21
5014.1371791378
 31
0.0
  0
LINE
  5
98
330
1F
100
AcDbEntity
  8
0
  6
Continuous
 62
     7
370
    25
100
AcDbLine
 10
6456.0981140244
 20
5014.1371791378
 30
0.0
 11
6456.0981140244
 21
5014.9000888637
 31
0.0
  0
LINE
  5
99
330
1F
100
AcDbEntity
  8
0
  6
Continuous
 62
     7
370
    25
100
AcDbLine
 10
6454.3481140244
 20
5015.0032045415
 30
0.0
 11
6454.3481140244
 21
5015.8692299453
 31
0.0
  0
LINE
  5
9A
330
1F
100
AcDbEntity
  8
0
  6
Continuous
 62
     7
370
    25
100
AcDbLine
 10
6439.3481140244
 20
5015.8692299453
 30
0.0
 11
6439.3481140244
 21
5015.0032045415
 31
0.0
  0
LWPOLYLINE
  5
9B
330
1F
100
AcDbEntity
  8
0
  6
Continuous
 62
     7
370
    25
100
AcDbPolyline
 90
        3
 70
   128
 43
0.0
 10
6435.2165707207
 20
5010.9186485219
 10
6435.6817845309
 20
5010.5334825388
 10
6436.1557001385
 20
5010.1400036012
  0
LWPOLYLINE
  5
9C
330
1F
100
AcDbEntity
  8
0
  6
Continuous
 62
     7
370
    25
100
AcDbPolyline
 90
        3
 70
   128
 43
0.0
 10
6457.5405279102
 20
5010.1400036012
 10
6458.0144435179
 20
5010.5334825388
 10
6458.479657328
 20
5010.9186485219
  0
LINE
  5
9D
330
1F
100
AcDbEntity
  8
0
  6
Continuous
 62
     7
370
    25
100
AcDbLine
 10
6432.8481140244
 20
5051.4690366283
 30
0.0
 11
6432.8481140244
 21
5015.2343794496
 31
0.0
  0
LINE
  5
9E
330
1F
100
AcDbEntity
  8
0
  6
Continuous
 62
     7
370
    25
100
AcDbLine
 10
6460.8481140244
 20
5015.2343794496
 30
0.0
 11
6460.8481140244
 21
5051.4690366283
 31
0.0
  0
CIRCLE
  5
9F
330
1F
100
AcDbEntity
  8
0
  6
Continuous
 62
     7
370
    25
100
AcDbCircle
 10
6496.8481140244
 20
5076.0201164752
 30
0.0
 40
12.5
  0
CIRCLE
  5
A0
330
1F
100
AcDbEntity
  8
0
  6
Continuous
 62
     7
370
    25
100
AcDbCircle
 10
6496.8481140244
 20
5076.0201164752
 30
0.0
 40
14.0
  0
LINE
  5
A1
330
1F
100
AcDbEntity
  8
0
  6
Continuous
 62
     7
370
    25
100
AcDbLine
 10
6496.458187789
 20
5081.2165102882
 30
0.0
 11
6496.458187789
 21
5084.7622299327
 31
0.0
  0
ARC
  5
A2
330
1F
100
AcDbEntity
  8
0
  6
Continuous
 62
     7
370
    25
100
AcDbCircle
 10
6494.8411448937
 20
5084.7622299327
 30
0.0
 40
1.617042895245504
100
AcDbArc
 50
0.0
 51
180.0
  0
LINE
  5
A3
330
1F
100
AcDbEntity
  8
0
  6
Continuous
 62
     7
370
    25
100
AcDbLine
 10
6493.2241019985
 20
5084.7622299327
 30
0.0
 11
6493.2241019985
 21
5077.2237783471
 31
0.0
  0
ARC
  5
A4
330
1F
100
AcDbEntity
  8
0
  6
Continuous
 62
     7
370
    25
100
AcDbCircle
 10
6491.3790517353
 20
5075.436149545
 30
0.0
 40
2.569012885871177
100
AcDbArc
 50
44.0944057146
 51
105.4941474424
  0
LINE
  5
A5
330
1F
100
AcDbEntity
  8
0
  6
Continuous
 62
     7
370
    25
100
AcDbLine
 10
6490.6927657786
 20
5077.911798711
 30
0.0
 11
6490.6927657786
 21
5072.4906841456
 31
0.0
  0
ARC
  5
A6
330
1F
100
AcDbEntity
  8
0
  6
Continuous
 62
     7
370
    25
100
AcDbCircle
 10
6497.0152961064
 20
5072.4906841456
 30
0.0
 40
6.322530327734057
100
AcDbArc
 50
180.0
 51
270.0
  0
LINE
  5
A7
330
1F
100
AcDbEntity
  8
0
  6
Continuous
 62
     7
370
    25
100
AcDbLine
 10
6497.0152961064
 20
5066.1681538179
 30
0.0
 11
6499.3825205134
 21
5066.1681538179
 31
0.0
  0
ARC
  5
A8
330
1F
100
AcDbEntity
  8
0
  6
Continuous
 62
     7
370
    25
100
AcDbCircle
 10
6499.3825205134
 20
5070.7237543685
 30
0.0
 40
4.555600550638701
100
AcDbArc
 50
270.0
 51
0.0
  0
LINE
  5
A9
330
1F
100
AcDbEntity
  8
0
  6
Continuous
 62
     7
370
    25
100
AcDbLine
 10
6503.938121064
 20
5070.7237543685
 30
0.0
 11
6503.938121064
 21
5078.5605248968
 31
0.0
  0
ARC
  5
AA
330
1F
100
AcDbEntity
  8
0
  6
Continuous
 62
     7
370
    25
100
AcDbCircle
 10
6502.5845098178
 20
5078.5605248968
 30
0.0
 40
1.353611246209766
100
AcDbArc
 50
0.0
 51
90.0
  0
LINE
  5
AB
330
1F
100
AcDbEntity
  8
0
  6
Continuous
 62
     7
370
    25
100
AcDbLine
 10
6502.5845098178
 20
5079.914136143
 30
0.0
 11
6502.0902843531
 21
5079.914136143
 31
0.0
  0
ARC
  5
AC
330
1F
100
AcDbEntity
  8
0
  6
Continuous
 62
     7
370
    25
100
AcDbCircle
 10
6502.0902843531
 20
5078.5605248968
 30
0.0
 40
1.353611246209766
100
AcDbArc
 50
90.0
 51
118.7365577357
  0
ARC
  5
AD
330
1F
100
AcDbEntity
  8
0
  6
Continuous
 62
     7
370
    25
100
AcDbCircle
 10
6500.1070244834
 20
5079.5091048203
 30
0.0
 40
1.353611246209233
100
AcDbArc
 50
10.1404867648
 51
90.0
  0
LINE
  5
AE
330
1F
100
AcDbEntity
  8
0
  6
Continuous
 62
     7
370
    25
100
AcDbLine
 10
6500.1070244834
 20
5080.8627160665
 30
0.0
 11
6499.5277072013
 21
5080.8627160665
 31
0.0
  0
ARC
  5
AF
330
1F
100
AcDbEntity
  8
0
  6
Continuous
 62
     7
370
    25
100
AcDbCircle
 10
6499.5277072013
 20
5079.5091048203
 30
0.0
 40
1.353611246208857
100
AcDbArc
 50
90.0
 51
124.744002227
  0
ARC
  5
B0
330
1F
100
AcDbEntity
  8
0
  6
Continuous
 62
     7
370
    25
100
AcDbCircle
 10
6497.5444473316
 20
5080.0182590554
 30
0.0
 40
1.353611246208593
100
AcDbArc
 50
26.4592691592
 51
90.0
  0
LINE
  5
B1
330
1F
100
AcDbEntity
  8
0
  6
Continuous
 62
     7
370
    25
100
AcDbLine
 10
6497.5444473316
 20
5081.3718703017
 30
0.0
 11
6497.0878364125
 21
5081.3718703017
 31
0.0
  0
ARC
  5
B2
330
1F
100
AcDbEntity
  8
0
  6
Continuous
 62
     7
370
    25
100
AcDbCircle
 10
6497.0878364125
 20
5080.0182590554
 30
0.0
 40
1.353611246208857
100
AcDbArc
 50
90.0
 51
117.7207121261
  0
ARC
  5
B3
330
1F
100
AcDbEntity
  8
0
  6
Continuous
 62
     7
370
    25
100
AcDbCircle
 10
6496.0962064776
 20
5077.0913896586
 30
0.0
 40
0.6676186886570576
100
AcDbArc
 50
180.0
 51
0.0
  0
LINE
  5
B4
330
1F
100
AcDbEntity
  8
0
  6
Continuous
 62
     7
370
    25
100
AcDbLine
 10
6496.7638251663
 20
5080.0324211932
 30
0.0
 11
6496.7638251663
 21
5077.0913896586
 31
0.0
  0
ARC
  5
B5
330
1F
100
AcDbEntity
  8
0
  6
Continuous
 62
     7
370
    25
100
AcDbCircle
 10
6497.0039352826
 20
5080.0324211932
 30
0.0
 40
0.2401101162877239
100
AcDbArc
 50
90.0
 51
180.0
  0
LINE
  5
B6
330
1F
100
AcDbEntity
  8
0
  6
Continuous
 62
     7
370
    25
100
AcDbLine
 10
6497.6283484615
 20
5080.2725313095
 30
0.0
 11
6497.0039352826
 21
5080.2725313095
 31
0.0
  0
ARC
  5
B7
330
1F
100
AcDbEntity
  8
0
  6
Continuous
 62
     7
370
    25
100
AcDbCircle
 10
6497.6283484615
 20
5080.0324211932
 30
0.0
 40
0.2401101162886334
100
AcDbArc
 50
0.0
 51
90.0
  0
LINE
  5
B8
330
1F
100
AcDbEntity
  8
0
  6
Continuous
 62
     7
370
    25
100
AcDbLine
 10
6497.8684585778
 20
5077.0913896586
 30
0.0
 11
6497.8684585778
 21
5080.0324211932
 31
0.0
  0
ARC
  5
B9
330
1F
100
AcDbEntity
  8
0
  6
Continuous
 62
     7
370
    25
100
AcDbCircle
 10
6498.5360772664
 20
5077.0913896586
 30
0.0
 40
0.6676186886570576
100
AcDbArc
 50
180.0
 51
0.0
  0
LINE
  5
BA
330
1F
100
AcDbEntity
  8
0
  6
Continuous
 62
     7
370
    25
100
AcDbLine
 10
6499.2036959551
 20
5079.523266958
 30
0.0
 11
6499.2036959551
 21
5077.0913896586
 31
0.0
  0
ARC
  5
BB
330
1F
100
AcDbEntity
  8
0
  6
Continuous
 62
     7
370
    25
100
AcDbCircle
 10
6499.4438060714
 20
5079.523266958
 30
0.0
 40
0.2401101162877239
100
AcDbArc
 50
90.0
 51
180.0
  0
LINE
  5
BC
330
1F
100
AcDbEntity
  8
0
  6
Continuous
 62
     7
370
    25
100
AcDbLine
 10
6500.1909256133
 20
5079.7633770743
 30
0.0
 11
6499.4438060714
 21
5079.7633770743
 31
0.0
  0
ARC
  5
BD
330
1F
100
AcDbEntity
  8
0
  6
Continuous
 62
     7
370
    25
100
AcDbCircle
 10
6500.1909256133
 20
5079.523266958
 30
0.0
 40
0.2401101162877239
100
AcDbArc
 50
0.0
 51
90.0
  0
LINE
  5
BE
330
1F
100
AcDbEntity
  8
0
  6
Continuous
 62
     7
370
    25
100
AcDbLine
 10
6500.4310357296
 20
5077.0913896586
 30
0.0
 11
6500.4310357296
 21
5079.523266958
 31
0.0
  0
ARC
  5
BF
330
1F
100
AcDbEntity
  8
0
  6
Continuous
 62
     7
370
    25
100
AcDbCircle
 10
6501.0986544182
 20
5077.0913896586
 30
0.0
 40
0.6676186886570576
100
AcDbArc
 50
180.0
 51
0.0
  0
LINE
  5
C0
330
1F
100
AcDbEntity
  8
0
  6
Continuous
 62
     7
370
    25
100
AcDbLine
 10
6501.7662731069
 20
5078.6069166494
 30
0.0
 11
6501.7662731069
 21
5077.0913896586
 31
0.0
  0
ARC
  5
C1
330
1F
100
AcDbEntity
  8
0
  6
Continuous
 62
     7
370
    25
100
AcDbCircle
 10
6502.0063832232
 20
5078.6069166494
 30
0.0
 40
0.2401101162868144
100
AcDbArc
 50
90.0
 51
180.0
  0
LINE
  5
C2
330
1F
100
AcDbEntity
  8
0
  6
Continuous
 62
     7
370
    25
100
AcDbLine
 10
6502.6684109477
 20
5078.8470267656
 30
0.0
 11
6502.0063832232
 21
5078.8470267656
 31
0.0
  0
ARC
  5
C3
330
1F
100
AcDbEntity
  8
0
  6
Continuous
 62
     7
370
    25
100
AcDbCircle
 10
6502.6684109477
 20
5078.6069166494
 30
0.0
 40
0.2401101162877239
100
AcDbArc
 50
0.0
 51
90.0
  0
LINE
  5
C4
330
1F
100
AcDbEntity
  8
0
  6
Continuous
 62
     7
370
    25
100
AcDbLine
 10
6502.908521064
 20
5070.7237543685
 30
0.0
 11
6502.908521064
 21
5078.6069166494
 31
0.0
  0
ARC
  5
C5
330
1F
100
AcDbEntity
  8
0
  6
Continuous
 62
     7
370
    25
100
AcDbCircle
 10
6499.3825205134
 20
5070.7237543685
 30
0.0
 40
3.526000550638855
100
AcDbArc
 50
270.0
 51
0.0
  0
LINE
  5
C6
330
1F
100
AcDbEntity
  8
0
  6
Continuous
 62
     7
370
    25
100
AcDbLine
 10
6497.0152961064
 20
5067.1977538179
 30
0.0
 11
6499.3825205134
 21
5067.1977538179
 31
0.0
  0
ARC
  5
C7
330
1F
100
AcDbEntity
  8
0
  6
Continuous
 62
     7
370
    25
100
AcDbCircle
 10
6497.0152961064
 20
5072.4906841456
 30
0.0
 40
5.292930327734211
100
AcDbArc
 50
180.0
 51
270.0
  0
LINE
  5
C8
330
1F
100
AcDbEntity
  8
0
  6
Continuous
 62
     7
370
    25
100
AcDbLine
 10
6491.7223657786
 20
5076.9367919077
 30
0.0
 11
6491.7223657786
 21
5072.4906841456
 31
0.0
  0
ARC
  5
C9
330
1F
100
AcDbEntity
  8
0
  6
Continuous
 62
     7
370
    25
100
AcDbCircle
 10
6491.3790517353
 20
5075.436149545
 30
0.0
 40
1.539412885871924
100
AcDbArc
 50
0.0
 51
77.1137478469
  0
LINE
  5
CA
330
1F
100
AcDbEntity
  8
0
  6
Continuous
 62
     7
370
    25
100
AcDbLine
 10
6492.9184646212
 20
5073.4817286629
 30
0.0
 11
6492.9184646212
 21
5075.436149545
 31
0.0
  0
ARC
  5
CB
330
1F
100
AcDbEntity
  8
0
  6
Continuous
 62
     7
370
    25
100
AcDbCircle
 10
6493.5860833098
 20
5073.4817286629
 30
0.0
 40
0.6676186886561482
100
AcDbArc
 50
180.0
 51
0.0
  0
LINE
  5
CC
330
1F
100
AcDbEntity
  8
0
  6
Continuous
 62
     7
370
    25
100
AcDbLine
 10
6494.2537019985
 20
5084.7622299327
 30
0.0
 11
6494.2537019985
 21
5073.4817286629
 31
0.0
  0
ARC
  5
CD
330
1F
100
AcDbEntity
  8
0
  6
Continuous
 62
     7
370
    25
100
AcDbCircle
 10
6494.8411448937
 20
5084.7622299327
 30
0.0
 40
0.5874428952447488
100
AcDbArc
 50
0.0
 51
180.0
  0
LINE
  5
CE
330
1F
100
AcDbEntity
  8
0
  6
Continuous
 62
     7
370
    25
100
AcDbLine
 10
6495.428587789
 20
5077.0913896586
 30
0.0
 11
6495.428587789
 21
5084.7622299327
 31
0.0
  0
CIRCLE
  5
CF
330
1F
100
AcDbEntity
  8
0
  6
Continuous
 62
     7
370
    25
100
AcDbCircle
 10
6396.8481140244
 20
5076.0201164752
 30
0.0
 40
12.50000000000091
  0
CIRCLE
  5
D0
330
1F
100
AcDbEntity
  8
0
  6
Continuous
 62
     7
370
    25
100
AcDbCircle
 10
6396.8481140244
 20
5076.0201164752
 30
0.0
 40
14.00000000000091
  0
LINE
  5
D1
330
1F
100
AcDbEntity
  8
0
  6
Continuous
 62
     7
370
    25
100
AcDbLine
 10
6396.458187789
 20
5081.2165102882
 30
0.0
 11
6396.458187789
 21
5084.7622299327
 31
0.0
  0
ARC
  5
D2
330
1F
100
AcDbEntity
  8
0
  6
Continuous
 62
     7
370
    25
100
AcDbCircle
 10
6394.8411448937
 20
5084.7622299327
 30
0.0
 40
1.617042895244595
100
AcDbArc
 50
0.0
 51
180.0
  0
LINE
  5
D3
330
1F
100
AcDbEntity
  8
0
  6
Continuous
 62
     7
370
    25
100
AcDbLine
 10
6393.2241019985
 20
5084.7622299327
 30
0.0
 11
6393.2241019985
 21
5077.2237783471
 31
0.0
  0
ARC
  5
D4
330
1F
100
AcDbEntity
  8
0
  6
Continuous
 62
     7
370
    25
100
AcDbCircle
 10
6391.3790517353
 20
5075.436149545
 30
0.0
 40
2.569012885871402
100
AcDbArc
 50
44.0944057146
 51
105.4941474424
  0
LINE
  5
D5
330
1F
100
AcDbEntity
  8
0
  6
Continuous
 62
     7
370
    25
100
AcDbLine
 10
6390.6927657786
 20
5077.911798711
 30
0.0
 11
6390.6927657786
 21
5072.4906841456
 31
0.0
  0
ARC
  5
D6
330
1F
100
AcDbEntity
  8
0
  6
Continuous
 62
     7
370
    25
100
AcDbCircle
 10
6397.0152961064
 20
5072.4906841456
 30
0.0
 40
6.322530327734057
100
AcDbArc
 50
180.0
 51
270.0
  0
LINE
  5
D7
330
1F
100
AcDbEntity
  8
0
  6
Continuous
 62
     7
370
    25
100
AcDbLine
 10
6397.0152961064
 20
5066.1681538179
 30
0.0
 11
6399.3825205134
 21
5066.1681538179
 31
0.0
  0
ARC
  5
D8
330
1F
100
AcDbEntity
  8
0
  6
Continuous
 62
     7
370
    25
100
AcDbCircle
 10
6399.3825205134
 20
5070.7237543685
 30
0.0
 40
4.555600550638701
100
AcDbArc
 50
270.0
 51
0.0
  0
LINE
  5
D9
330
1F
100
AcDbEntity
  8
0
  6
Continuous
 62
     7
370
    25
100
AcDbLine
 10
6403.938121064
 20
5070.7237543685
 30
0.0
 11
6403.938121064
 21
5078.5605248968
 31
0.0
  0
ARC
  5
DA
330
1F
100
AcDbEntity
  8
0
  6
Continuous
 62
     7
370
    25
100
AcDbCircle
 10
6402.5845098178
 20
5078.5605248968
 30
0.0
 40
1.353611246209766
100
AcDbArc
 50
0.0
 51
90.0
  0
LINE
  5
DB
330
1F
100
AcDbEntity
  8
0
  6
Continuous
 62
     7
370
    25
100
AcDbLine
 10
6402.5845098178
 20
5079.914136143
 30
0.0
 11
6402.0902843531
 21
5079.914136143
 31
0.0
  0
ARC
  5
DC
330
1F
100
AcDbEntity
  8
0
  6
Continuous
 62
     7
370
    25
100
AcDbCircle
 10
6402.0902843531
 20
5078.5605248968
 30
0.0
 40
1.353611246209766
100
AcDbArc
 50
90.0
 51
118.7365577358
  0
ARC
  5
DD
330
1F
100
AcDbEntity
  8
0
  6
Continuous
 62
     7
370
    25
100
AcDbCircle
 10
6400.1070244834
 20
5079.5091048203
 30
0.0
 40
1.353611246208857
100
AcDbArc
 50
10.1404867648
 51
90.0000000001
  0
LINE
  5
DE
330
1F
100
AcDbEntity
  8
0
  6
Continuous
 62
     7
370
    25
100
AcDbLine
 10
6400.1070244834
 20
5080.8627160665
 30
0.0
 11
6399.5277072013
 21
5080.8627160665
 31
0.0
  0
ARC
  5
DF
330
1F
100
AcDbEntity
  8
0
  6
Continuous
 62
     7
370
    25
100
AcDbCircle
 10
6399.5277072013
 20
5079.5091048203
 30
0.0
 40
1.353611246208857
100
AcDbArc
 50
90.0
 51
124.7440022271
  0
ARC
  5
E0
330
1F
100
AcDbEntity
  8
0
  6
Continuous
 62
     7
370
    25
100
AcDbCircle
 10
6397.5444473316
 20
5080.0182590554
 30
0.0
 40
1.353611246208857
100
AcDbArc
 50
26.4592691593
 51
90.0
  0
LINE
  5
E1
330
1F
100
AcDbEntity
  8
0
  6
Continuous
 62
     7
370
    25
100
AcDbLine
 10
6397.5444473316
 20
5081.3718703017
 30
0.0
 11
6397.0878364125
 21
5081.3718703017
 31
0.0
  0
ARC
  5
E2
330
1F
100
AcDbEntity
  8
0
  6
Continuous
 62
     7
370
    25
100
AcDbCircle
 10
6397.0878364125
 20
5080.0182590554
 30
0.0
 40
1.353611246209766
100
AcDbArc
 50
90.0
 51
117.7207121261
  0
ARC
  5
E3
330
1F
100
AcDbEntity
  8
0
  6
Continuous
 62
     7
370
    25
100
AcDbCircle
 10
6396.0962064776
 20
5077.0913896586
 30
0.0
 40
0.6676186886570576
100
AcDbArc
 50
180.0000000001
 51
0.0
  0
LINE
  5
E4
330
1F
100
AcDbEntity
  8
0
  6
Continuous
 62
     7
370
    25
100
AcDbLine
 10
6396.7638251663
 20
5080.0324211932
 30
0.0
 11
6396.7638251663
 21
5077.0913896586
 31
0.0
  0
ARC
  5
E5
330
1F
100
AcDbEntity
  8
0
  6
Continuous
 62
     7
370
    25
100
AcDbCircle
 10
6397.0039352826
 20
5080.0324211932
 30
0.0
 40
0.2401101162877239
100
AcDbArc
 50
90.0
 51
180.0
  0
LINE
  5
E6
330
1F
100
AcDbEntity
  8
0
  6
Continuous
 62
     7
370
    25
100
AcDbLine
 10
6397.6283484615
 20
5080.2725313095
 30
0.0
 11
6397.0039352826
 21
5080.2725313095
 31
0.0
  0
ARC
  5
E7
330
1F
100
AcDbEntity
  8
0
  6
Continuous
 62
     7
370
    25
100
AcDbCircle
 10
6397.6283484615
 20
5080.0324211932
 30
0.0
 40
0.2401101162877239
100
AcDbArc
 50
0.0
 51
90.0
  0
LINE
  5
E8
330
1F
100
AcDbEntity
  8
0
  6
Continuous
 62
     7
370
    25
100
AcDbLine
 10
6397.8684585778
 20
5077.0913896586
 30
0.0
 11
6397.8684585778
 21
5080.0324211932
 31
0.0
  0
ARC
  5
E9
330
1F
100
AcDbEntity
  8
0
  6
Continuous
 62
     7
370
    25
100
AcDbCircle
 10
6398.5360772664
 20
5077.0913896586
 30
0.0
 40
0.6676186886570576
100
AcDbArc
 50
180.0
 51
0.0
  0
LINE
  5
EA
330
1F
100
AcDbEntity
  8
0
  6
Continuous
 62
     7
370
    25
100
AcDbLine
 10
6399.2036959551
 20
5079.523266958
 30
0.0
 11
6399.2036959551
 21
5077.0913896586
 31
0.0
  0
ARC
  5
EB
330
1F
100
AcDbEntity
  8
0
  6
Continuous
 62
     7
370
    25
100
AcDbCircle
 10
6399.4438060714
 20
5079.523266958
 30
0.0
 40
0.2401101162877239
100
AcDbArc
 50
90.0
 51
180.0
  0
LINE
  5
EC
330
1F
100
AcDbEntity
  8
0
  6
Continuous
 62
     7
370
    25
100
AcDbLine
 10
6400.1909256133
 20
5079.7633770743
 30
0.0
 11
6399.4438060714
 21
5079.7633770743
 31
0.0
  0
ARC
  5
ED
330
1F
100
AcDbEntity
  8
0
  6
Continuous
 62
     7
370
    25
100
AcDbCircle
 10
6400.1909256133
 20
5079.523266958
 30
0.0
 40
0.2401101162877239
100
AcDbArc
 50
0.0
 51
90.0
  0
LINE
  5
EE
330
1F
100
AcDbEntity
  8
0
  6
Continuous
 62
     7
370
    25
100
AcDbLine
 10
6400.4310357296
 20
5077.0913896586
 30
0.0
 11
6400.4310357296
 21
5079.523266958
 31
0.0
  0
ARC
  5
EF
330
1F
100
AcDbEntity
  8
0
  6
Continuous
 62
     7
370
    25
100
AcDbCircle
 10
6401.0986544182
 20
5077.0913896586
 30
0.0
 40
0.6676186886570576
100
AcDbArc
 50
180.0
 51
0.0
  0
LINE
  5
F0
330
1F
100
AcDbEntity
  8
0
  6
Continuous
 62
     7
370
    25
100
AcDbLine
 10
6401.7662731069
 20
5078.6069166494
 30
0.0
 11
6401.7662731069
 21
5077.0913896586
 31
0.0
  0
ARC
  5
F1
330
1F
100
AcDbEntity
  8
0
  6
Continuous
 62
     7
370
    25
100
AcDbCircle
 10
6402.0063832232
 20
5078.6069166494
 30
0.0
 40
0.2401101162877239
100
AcDbArc
 50
90.0
 51
180.0
  0
LINE
  5
F2
330
1F
100
AcDbEntity
  8
0
  6
Continuous
 62
     7
370
    25
100
AcDbLine
 10
6402.6684109477
 20
5078.8470267656
 30
0.0
 11
6402.0063832232
 21
5078.8470267656
 31
0.0
  0
ARC
  5
F3
330
1F
100
AcDbEntity
  8
0
  6
Continuous
 62
     7
370
    25
100
AcDbCircle
 10
6402.6684109477
 20
5078.6069166494
 30
0.0
 40
0.2401101162877239
100
AcDbArc
 50
0.0
 51
90.0
  0
LINE
  5
F4
330
1F
100
AcDbEntity
  8
0
  6
Continuous
 62
     7
370
    25
100
AcDbLine
 10
6402.908521064
 20
5070.7237543685
 30
0.0
 11
6402.908521064
 21
5078.6069166494
 31
0.0
  0
ARC
  5
F5
330
1F
100
AcDbEntity
  8
0
  6
Continuous
 62
     7
370
    25
100
AcDbCircle
 10
6399.3825205134
 20
5070.7237543685
 30
0.0
 40
3.526000550637946
100
AcDbArc
 50
270.0
 51
0.0
  0
LINE
  5
F6
330
1F
100
AcDbEntity
  8
0
  6
Continuous
 62
     7
370
    25
100
AcDbLine
 10
6397.0152961064
 20
5067.1977538179
 30
0.0
 11
6399.3825205134
 21
5067.1977538179
 31
0.0
  0
ARC
  5
F7
330
1F
100
AcDbEntity
  8
0
  6
Continuous
 62
     7
370
    25
100
AcDbCircle
 10
6397.0152961064
 20
5072.4906841456
 30
0.0
 40
5.292930327734211
100
AcDbArc
 50
180.0
 51
270.0
  0
LINE
  5
F8
330
1F
100
AcDbEntity
  8
0
  6
Continuous
 62
     7
370
    25
100
AcDbLine
 10
6391.7223657786
 20
5076.9367919077
 30
0.0
 11
6391.7223657786
 21
5072.4906841456
 31
0.0
  0
ARC
  5
F9
330
1F
100
AcDbEntity
  8
0
  6
Continuous
 62
     7
370
    25
100
AcDbCircle
 10
6391.3790517353
 20
5075.436149545
 30
0.0
 40
1.53941288587157
100
AcDbArc
 50
0.0
 51
77.1137478469
  0
LINE
  5
FA
330
1F
100
AcDbEntity
  8
0
  6
Continuous
 62
     7
370
    25
100
AcDbLine
 10
6392.9184646212
 20
5073.4817286629
 30
0.0
 11
6392.9184646212
 21
5075.436149545
 31
0.0
  0
ARC
  5
FB
330
1F
100
AcDbEntity
  8
0
  6
Continuous
 62
     7
370
    25
100
AcDbCircle
 10
6393.5860833098
 20
5073.4817286629
 30
0.0
 40
0.6676186886570576
100
AcDbArc
 50
180.0
 51
0.0
  0
LINE
  5
FC
330
1F
100
AcDbEntity
  8
0
  6
Continuous
 62
     7
370
    25
100
AcDbLine
 10
6394.2537019985
 20
5084.7622299327
 30
0.0
 11
6394.2537019985
 21
5073.4817286629
 31
0.0
  0
ARC
  5
FD
330
1F
100
AcDbEntity
  8
0
  6
Continuous
 62
     7
370
    25
100
AcDbCircle
 10
6394.8411448937
 20
5084.7622299327
 30
0.0
 40
0.5874428952447488
100
AcDbArc
 50
0.0
 51
180.0
  0
LINE
  5
FE
330
1F
100
AcDbEntity
  8
0
  6
Continuous
 62
     7
370
    25
100
AcDbLine
 10
6395.428587789
 20
5077.0913896586
 30
0.0
 11
6395.428587789
 21
5084.7622299327
 31
0.0
  0
LINE
  5
FF
330
1F
100
AcDbEntity
  8
0
  6
Continuous
 62
     7
370
    25
100
AcDbLine
 10
6497.7905461864
 20
4958.0974667444
 30
0.0
 11
6497.7905461864
 21
4959.0201164752
 31
0.0
  0
LWPOLYLINE
  5
100
330
1F
100
AcDbEntity
  8
0
  6
Continuous
 62
     7
370
    25
100
AcDbPolyline
 90
        3
 70
   128
 43
0.0
 10
6494.4581906516
 20
4957.5201164752
 10
6494.8307960385
 20
4957.563746964
 10
6497.7905461864
 20
4958.0974667444
  0
LINE
  5
101
330
1F
100
AcDbEntity
  8
0
  6
Continuous
 62
     7
370
    25
100
AcDbLine
 10
6485.9056818624
 20
4958.0974667444
 30
0.0
 11
6489.2380373971
 21
4957.5201164752
 31
0.0
  0
LINE
  5
102
330
1F
100
AcDbEntity
  8
0
  6
Continuous
 62
     7
370
    25
100
AcDbLine
 10
6485.9056818624
 20
4959.0201164752
 30
0.0
 11
6485.9056818624
 21
4958.0974667444
 31
0.0
  0
LINE
  5
103
330
1F
100
AcDbEntity
  8
0
  6
Continuous
 62
     7
370
    25
100
AcDbLine
 10
6494.4581906516
 20
4957.5201164752
 30
0.0
 11
6489.2380373971
 21
4957.5201164752
 31
0.0
  0
LINE
  5
104
330
1F
100
AcDbEntity
  8
0
  6
Continuous
 62
     7
370
    25
100
AcDbLine
 10
6478.6276140244
 20
4957.5198263639
 30
0.0
 11
6505.0686140244
 21
4957.5198263639
 31
0.0
  0
LINE
  5
105
330
1F
100
AcDbEntity
  8
0
  6
Continuous
 62
     7
370
    25
100
AcDbLine
 10
6480.3988251736
 20
4954.5204065866
 30
0.0
 11
6478.6276140244
 21
4954.5204065866
 31
0.0
  0
LINE
  5
106
330
1F
100
AcDbEntity
  8
0
  6
Continuous
 62
     7
370
    25
100
AcDbLine
 10
6505.0686140244
 20
4954.5204065866
 30
0.0
 11
6480.3988251736
 21
4954.5204065866
 31
0.0
  0
LINE
  5
107
330
1F
100
AcDbEntity
  8
0
  6
Continuous
 62
     7
370
    25
100
AcDbLine
 10
6478.6276140244
 20
4949.5201164752
 30
0.0
 11
6505.0686140244
 21
4949.5201164752
 31
0.0
  0
LINE
  5
108
330
1F
100
AcDbEntity
  8
0
  6
Continuous
 62
     7
370
    25
100
AcDbLine
 10
6504.0686140244
 20
4948.5201164752
 30
0.0
 11
6479.6276140244
 21
4948.5201164752
 31
0.0
  0
LWPOLYLINE
  5
109
330
1F
100
AcDbEntity
  8
0
  6
Continuous
 62
     7
370
    25
100
AcDbPolyline
 90
        3
 70
   128
 43
0.0
 10
6481.4618093869
 20
4957.5201164752
 10
6482.2015993347
 20
4957.7255724266
 10
6483.1279871543
 20
4958.0974667444
  0
LINE
  5
10A
330
1F
100
AcDbEntity
  8
0
  6
Continuous
 62
     7
370
    25
100
AcDbLine
 10
6483.1279871543
 20
4958.0974667444
 30
0.0
 11
6485.9056818624
 21
4958.0974667444
 31
0.0
  0
LINE
  5
10B
330
1F
100
AcDbEntity
  8
0
  6
Continuous
 62
     7
370
    25
100
AcDbLine
 10
6481.4618093869
 20
4957.5201164752
 30
0.0
 11
6489.2380373971
 21
4957.5201164752
 31
0.0
  0
LINE
  5
10C
330
1F
100
AcDbEntity
  8
0
  6
Continuous
 62
     7
370
    25
100
AcDbLine
 10
6500.5682408945
 20
4958.0974667444
 30
0.0
 11
6502.2344186619
 21
4957.5201164752
 31
0.0
  0
LINE
  5
10D
330
1F
100
AcDbEntity
  8
0
  6
Continuous
 62
     7
370
    25
100
AcDbLine
 10
6497.7905461864
 20
4958.0974667444
 30
0.0
 11
6500.5682408945
 21
4958.0974667444
 31
0.0
  0
LINE
  5
10E
330
1F
100
AcDbEntity
  8
0
  6
Continuous
 62
     7
370
    25
100
AcDbLine
 10
6494.4581906516
 20
4957.5201164752
 30
0.0
 11
6502.2344186619
 21
4957.5201164752
 31
0.0
  0
LINE
  5
10F
330
1F
100
AcDbEntity
  8
0
  6
Continuous
 62
     7
370
    25
100
AcDbLine
 10
6483.1279871543
 20
4958.0974667444
 30
0.0
 11
6483.1279871543
 21
4959.0201164752
 31
0.0
  0
LINE
  5
110
330
1F
100
AcDbEntity
  8
0
  6
Continuous
 62
     7
370
    25
100
AcDbLine
 10
6500.5682408945
 20
4959.0201164752
 30
0.0
 11
6500.5682408945
 21
4958.0974667444
 31
0.0
  0
LWPOLYLINE
  5
111
330
1F
100
AcDbEntity
  8
0
  6
Continuous
 62
     7
370
    25
100
AcDbPolyline
 90
        3
 70
   128
 43
0.0
 10
6477.1855549923
 20
4958.0974667444
 10
6477.6293962143
 20
4957.9042200121
 10
6478.8517327597
 20
4957.5201164752
  0
LINE
  5
112
330
1F
100
AcDbEntity
  8
0
  6
Continuous
 62
     7
370
    25
100
AcDbLine
 10
6477.1855549923
 20
4959.0201164752
 30
0.0
 11
6477.1855549923
 21
4958.0974667444
 31
0.0
  0
LINE
  5
113
330
1F
100
AcDbEntity
  8
0
  6
Continuous
 62
     7
370
    25
100
AcDbLine
 10
6481.4618093869
 20
4957.5201164752
 30
0.0
 11
6478.8517327597
 21
4957.5201164752
 31
0.0
  0
LINE
  5
114
330
1F
100
AcDbEntity
  8
0
  6
Continuous
 62
     7
370
    25
100
AcDbLine
 10
6506.5106730565
 20
4958.0974667444
 30
0.0
 11
6506.5106730565
 21
4959.0201164752
 31
0.0
  0
LWPOLYLINE
  5
115
330
1F
100
AcDbEntity
  8
0
  6
Continuous
 62
     7
370
    25
100
AcDbPolyline
 90
        3
 70
   128
 43
0.0
 10
6504.8444952891
 20
4957.5201164752
 10
6505.0307979825
 20
4957.563746964
 10
6506.5106730565
 20
4958.0974667444
  0
LINE
  5
116
330
1F
100
AcDbEntity
  8
0
  6
Continuous
 62
     7
370
    25
100
AcDbLine
 10
6504.8444952891
 20
4957.5201164752
 30
0.0
 11
6502.2344186619
 21
4957.5201164752
 31
0.0
  0
LINE
  5
117
330
1F
100
AcDbEntity
  8
0
  6
Continuous
 62
     7
370
    25
100
AcDbLine
 10
6477.0981140244
 20
4958.0974667444
 30
0.0
 11
6477.1855549923
 21
4958.0974667444
 31
0.0
  0
LINE
  5
118
330
1F
100
AcDbEntity
  8
0
  6
Continuous
 62
     7
370
    25
100
AcDbLine
 10
6478.0981140244
 20
4957.5201164752
 30
0.0
 11
6478.8517327597
 21
4957.5201164752
 31
0.0
  0
LINE
  5
119
330
1F
100
AcDbEntity
  8
0
  6
Continuous
 62
     7
370
    25
100
AcDbLine
 10
6506.5106730565
 20
4958.0974667444
 30
0.0
 11
6506.5981140244
 21
4958.0974667444
 31
0.0
  0
LINE
  5
11A
330
1F
100
AcDbEntity
  8
0
  6
Continuous
 62
     7
370
    25
100
AcDbLine
 10
6504.8444952891
 20
4957.5201164752
 30
0.0
 11
6505.5981140244
 21
4957.5201164752
 31
0.0
  0
LINE
  5
11B
330
1F
100
AcDbEntity
  8
0
  6
Continuous
 62
     7
370
    25
100
AcDbLine
 10
6407.7905461864
 20
4958.0974667444
 30
0.0
 11
6407.7905461864
 21
4959.0201164752
 31
0.0
  0
LWPOLYLINE
  5
11C
330
1F
100
AcDbEntity
  8
0
  6
Continuous
 62
     7
370
    25
100
AcDbPolyline
 90
        3
 70
   128
 43
0.0
 10
6404.4581906516
 20
4957.5201164752
 10
6404.8307960385
 20
4957.563746964
 10
6407.7905461864
 20
4958.0974667444
  0
LINE
  5
11D
330
1F
100
AcDbEntity
  8
0
  6
Continuous
 62
     7
370
    25
100
AcDbLine
 10
6395.9056818624
 20
4958.0974667444
 30
0.0
 11
6399.2380373971
 21
4957.5201164752
 31
0.0
  0
LINE
  5
11E
330
1F
100
AcDbEntity
  8
0
  6
Continuous
 62
     7
370
    25
100
AcDbLine
 10
6395.9056818624
 20
4959.0201164752
 30
0.0
 11
6395.9056818624
 21
4958.0974667444
 31
0.0
  0
LINE
  5
11F
330
1F
100
AcDbEntity
  8
0
  6
Continuous
 62
     7
370
    25
100
AcDbLine
 10
6404.4581906516
 20
4957.5201164752
 30
0.0
 11
6399.2380373971
 21
4957.5201164752
 31
0.0
  0
LINE
  5
120
330
1F
100
AcDbEntity
  8
0
  6
Continuous
 62
     7
370
    25
100
AcDbLine
 10
6388.6276140244
 20
4957.5198263639
 30
0.0
 11
6415.0686140244
 21
4957.5198263639
 31
0.0
  0
LINE
  5
121
330
1F
100
AcDbEntity
  8
0
  6
Continuous
 62
     7
370
    25
100
AcDbLine
 10
6390.3988251736
 20
4954.5204065866
 30
0.0
 11
6388.6276140244
 21
4954.5204065866
 31
0.0
  0
LINE
  5
122
330
1F
100
AcDbEntity
  8
0
  6
Continuous
 62
     7
370
    25
100
AcDbLine
 10
6415.0686140244
 20
4954.5204065866
 30
0.0
 11
6390.3988251736
 21
4954.5204065866
 31
0.0
  0
LINE
  5
123
330
1F
100
AcDbEntity
  8
0
  6
Continuous
 62
     7
370
    25
100
AcDbLine
 10
6388.6276140244
 20
4949.5201164752
 30
0.0
 11
6415.0686140244
 21
4949.5201164752
 31
0.0
  0
LINE
  5
124
330
1F
100
AcDbEntity
  8
0
  6
Continuous
 62
     7
370
    25
100
AcDbLine
 10
6414.0686140244
 20
4948.5201164752
 30
0.0
 11
6389.6276140244
 21
4948.5201164752
 31
0.0
  0
LWPOLYLINE
  5
125
330
1F
100
AcDbEntity
  8
0
  6
Continuous
 62
     7
370
    25
100
AcDbPolyline
 90
        3
 70
   128
 43
0.0
 10
6391.4618093869
 20
4957.5201164752
 10
6392.2015993347
 20
4957.7255724266
 10
6393.1279871543
 20
4958.0974667444
  0
LINE
  5
126
330
1F
100
AcDbEntity
  8
0
  6
Continuous
 62
     7
370
    25
100
AcDbLine
 10
6393.1279871543
 20
4958.0974667444
 30
0.0
 11
6395.9056818624
 21
4958.0974667444
 31
0.0
  0
LINE
  5
127
330
1F
100
AcDbEntity
  8
0
  6
Continuous
 62
     7
370
    25
100
AcDbLine
 10
6391.4618093869
 20
4957.5201164752
 30
0.0
 11
6399.2380373971
 21
4957.5201164752
 31
0.0
  0
LINE
  5
128
330
1F
100
AcDbEntity
  8
0
  6
Continuous
 62
     7
370
    25
100
AcDbLine
 10
6410.5682408945
 20
4958.0974667444
 30
0.0
 11
6412.2344186619
 21
4957.5201164752
 31
0.0
  0
LINE
  5
129
330
1F
100
AcDbEntity
  8
0
  6
Continuous
 62
     7
370
    25
100
AcDbLine
 10
6407.7905461864
 20
4958.0974667444
 30
0.0
 11
6410.5682408945
 21
4958.0974667444
 31
0.0
  0
LINE
  5
12A
330
1F
100
AcDbEntity
  8
0
  6
Continuous
 62
     7
370
    25
100
AcDbLine
 10
6404.4581906516
 20
4957.5201164752
 30
0.0
 11
6412.2344186619
 21
4957.5201164752
 31
0.0
  0
LINE
  5
12B
330
1F
100
AcDbEntity
  8
0
  6
Continuous
 62
     7
370
    25
100
AcDbLine
 10
6393.1279871543
 20
4958.0974667444
 30
0.0
 11
6393.1279871543
 21
4959.0201164752
 31
0.0
  0
LINE
  5
12C
330
1F
100
AcDbEntity
  8
0
  6
Continuous
 62
     7
370
    25
100
AcDbLine
 10
6410.5682408945
 20
4959.0201164752
 30
0.0
 11
6410.5682408945
 21
4958.0974667444
 31
0.0
  0
LWPOLYLINE
  5
12D
330
1F
100
AcDbEntity
  8
0
  6
Continuous
 62
     7
370
    25
100
AcDbPolyline
 90
        3
 70
   128
 43
0.0
 10
6387.1855549923
 20
4958.0974667444
 10
6387.6293962143
 20
4957.9042200121
 10
6388.8517327597
 20
4957.5201164752
  0
LINE
  5
12E
330
1F
100
AcDbEntity
  8
0
  6
Continuous
 62
     7
370
    25
100
AcDbLine
 10
6387.1855549923
 20
4959.0201164752
 30
0.0
 11
6387.1855549923
 21
4958.0974667444
 31
0.0
  0
LINE
  5
12F
330
1F
100
AcDbEntity
  8
0
  6
Continuous
 62
     7
370
    25
100
AcDbLine
 10
6391.4618093869
 20
4957.5201164752
 30
0.0
 11
6388.8517327597
 21
4957.5201164752
 31
0.0
  0
LINE
  5
130
330
1F
100
AcDbEntity
  8
0
  6
Continuous
 62
     7
370
    25
100
AcDbLine
 10
6416.5106730565
 20
4958.0974667444
 30
0.0
 11
6416.5106730565
 21
4959.0201164752
 31
0.0
  0
LWPOLYLINE
  5
131
330
1F
100
AcDbEntity
  8
0
  6
Continuous
 62
     7
370
    25
100
AcDbPolyline
 90
        3
 70
   128
 43
0.0
 10
6414.8444952891
 20
4957.5201164752
 10
6415.0307979825
 20
4957.563746964
 10
6416.5106730565
 20
4958.0974667444
  0
LINE
  5
132
330
1F
100
AcDbEntity
  8
0
  6
Continuous
 62
     7
370
    25
100
AcDbLine
 10
6414.8444952891
 20
4957.5201164752
 30
0.0
 11
6412.2344186619
 21
4957.5201164752
 31
0.0
  0
LINE
  5
133
330
1F
100
AcDbEntity
  8
0
  6
Continuous
 62
     7
370
    25
100
AcDbLine
 10
6387.0981140244
 20
4958.0974667444
 30
0.0
 11
6387.1855549923
 21
4958.0974667444
 31
0.0
  0
LINE
  5
134
330
1F
100
AcDbEntity
  8
0
  6
Continuous
 62
     7
370
    25
100
AcDbLine
 10
6388.0981140244
 20
4957.5201164752
 30
0.0
 11
6388.8517327597
 21
4957.5201164752
 31
0.0
  0
LINE
  5
135
330
1F
100
AcDbEntity
  8
0
  6
Continuous
 62
     7
370
    25
100
AcDbLine
 10
6416.5106730565
 20
4958.0974667444
 30
0.0
 11
6416.5981140244
 21
4958.0974667444
 31
0.0
  0
LINE
  5
136
330
1F
100
AcDbEntity
  8
0
  6
Continuous
 62
     7
370
    25
100
AcDbLine
 10
6414.8444952891
 20
4957.5201164752
 30
0.0
 11
6415.5981140244
 21
4957.5201164752
 31
0.0
  0
CIRCLE
  5
137
330
1F
100
AcDbEntity
  8
0
  6
Continuous
 62
     7
370
    25
100
AcDbCircle
 10
6385.3481140244
 20
5105.5201164752
 30
0.0
 40
0.7500000000003454
  0
CIRCLE
  5
138
330
1F
100
AcDbEntity
  8
0
  6
Continuous
 62
     7
370
    25
100
AcDbCircle
 10
6385.3481140244
 20
5105.5201164752
 30
0.0
 40
4.49999999999934
  0
ARC
  5
139
330
1F
100
AcDbEntity
  8
0
  6
Continuous
 62
     7
370
    25
100
AcDbCircle
 10
6383.3537258623
 20
5105.6698357418
 30
0.0
 40
0.6110625643874219
100
AcDbArc
 50
96.1123299639
 51
255.301355612
  0
LINE
  5
13A
330
1F
100
AcDbEntity
  8
0
  6
Continuous
 62
     7
370
    25
100
AcDbLine
 10
6383.4284150318
 20
5105.0185063523
 30
0.0
 11
6383.1986778664
 21
5105.0787709598
 31
0.0
  0
ARC
  5
13B
330
1F
100
AcDbEntity
  8
0
  6
Continuous
 62
     7
370
    25
100
AcDbCircle
 10
6383.3015475022
 20
5104.5348694741
 30
0.0
 40
0.5000000000045949
100
AcDbArc
 50
336.1123299644
 51
75.3013556118
  0
LINE
  5
13C
330
1F
100
AcDbEntity
  8
0
  6
Continuous
 62
     7
370
    25
100
AcDbLine
 10
6383.6625396256
 20
5104.1152319222
 30
0.0
 11
6383.7587180622
 21
5104.3323970584
 31
0.0
  0
ARC
  5
13D
330
1F
100
AcDbEntity
  8
0
  6
Continuous
 62
     7
370
    25
100
AcDbCircle
 10
6384.221259255
 20
5103.8677852951
 30
0.0
 40
0.6110625643863618
100
AcDbArc
 50
156.1123299639
 51
315.3013556122
  0
LINE
  5
13E
330
1F
100
AcDbEntity
  8
0
  6
Continuous
 62
     7
370
    25
100
AcDbLine
 10
6384.8226716373
 20
5103.6068033186
 30
0.0
 11
6384.6556123736
 21
5103.4379774009
 31
0.0
  0
ARC
  5
13F
330
1F
100
AcDbEntity
  8
0
  6
Continuous
 62
     7
370
    25
100
AcDbCircle
 10
6385.1780796953
 20
5103.255114376
 30
0.0
 40
0.5000000000008985
100
AcDbArc
 50
36.1123299639
 51
135.3013556124
  0
LINE
  5
140
330
1F
100
AcDbEntity
  8
0
  6
Continuous
 62
     7
370
    25
100
AcDbLine
 10
6385.7219925373
 20
5103.3579239494
 30
0.0
 11
6385.5820112308
 21
5103.5497994869
 31
0.0
  0
ARC
  5
141
330
1F
100
AcDbEntity
  8
0
  6
Continuous
 62
     7
370
    25
100
AcDbCircle
 10
6386.2156474171
 20
5103.7180660285
 30
0.0
 40
0.6110625643875531
100
AcDbArc
 50
216.1123299637
 51
15.3013556124
  0
LINE
  5
142
330
1F
100
AcDbEntity
  8
0
  6
Continuous
 62
     7
370
    25
100
AcDbLine
 10
6386.7423706299
 20
5104.1084134415
 30
0.0
 11
6386.8050485316
 21
5103.8793229163
 31
0.0
  0
ARC
  5
143
330
1F
100
AcDbEntity
  8
0
  6
Continuous
 62
     7
370
    25
100
AcDbCircle
 10
6387.2246462174
 20
5104.2403613771
 30
0.0
 40
0.5000000000022372
100
AcDbArc
 50
96.1123299641
 51
195.301355612
  0
LINE
  5
144
330
1F
100
AcDbEntity
  8
0
  6
Continuous
 62
     7
370
    25
100
AcDbLine
 10
6387.4075669361
 20
5104.7628085024
 30
0.0
 11
6387.171407193
 21
5104.7375189037
 31
0.0
  0
ARC
  5
145
330
1F
100
AcDbEntity
  8
0
  6
Continuous
 62
     7
370
    25
100
AcDbCircle
 10
6387.3425021865
 20
5105.3703972087
 30
0.0
 40
0.6110625643865931
100
AcDbArc
 50
276.1123299639
 51
75.3013556122
  0
LINE
  5
146
330
1F
100
AcDbEntity
  8
0
  6
Continuous
 62
     7
370
    25
100
AcDbLine
 10
6387.267813017
 20
5106.0217265982
 30
0.0
 11
6387.4975501824
 21
5105.9614619907
 31
0.0
  0
ARC
  5
147
330
1F
100
AcDbEntity
  8
0
  6
Continuous
 62
     7
370
    25
100
AcDbCircle
 10
6387.3946805465
 20
5106.5053634764
 30
0.0
 40
0.5000000000018735
100
AcDbArc
 50
156.1123299638
 51
255.3013556119
  0
LINE
  5
148
330
1F
100
AcDbEntity
  8
0
  6
Continuous
 62
     7
370
    25
100
AcDbLine
 10
6387.0336884232
 20
5106.9250010283
 30
0.0
 11
6386.9375099865
 21
5106.707835892
 31
0.0
  0
ARC
  5
149
330
1F
100
AcDbEntity
  8
0
  6
Continuous
 62
     7
370
    25
100
AcDbCircle
 10
6386.4749687937
 20
5107.1724476554
 30
0.0
 40
0.6110625643858859
100
AcDbArc
 50
336.1123299637
 51
135.3013556124
  0
LINE
  5
14A
330
1F
100
AcDbEntity
  8
0
  6
Continuous
 62
     7
370
    25
100
AcDbLine
 10
6385.8735564114
 20
5107.4334296319
 30
0.0
 11
6386.0406156751
 21
5107.6022555496
 31
0.0
  0
ARC
  5
14B
330
1F
100
AcDbEntity
  8
0
  6
Continuous
 62
     7
370
    25
100
AcDbCircle
 10
6385.5181483535
 20
5107.7851185745
 30
0.0
 40
0.5000000000047232
100
AcDbArc
 50
216.1123299643
 51
315.3013556116
  0
LINE
  5
14C
330
1F
100
AcDbEntity
  8
0
  6
Continuous
 62
     7
370
    25
100
AcDbLine
 10
6384.9742355115
 20
5107.6823090011
 30
0.0
 11
6385.1142168179
 21
5107.4904334635
 31
0.0
  0
ARC
  5
14D
330
1F
100
AcDbEntity
  8
0
  6
Continuous
 62
     7
370
    25
100
AcDbCircle
 10
6384.4805806316
 20
5107.3221669219
 30
0.0
 40
0.6110625643869569
100
AcDbArc
 50
36.1123299641
 51
195.301355612
  0
LINE
  5
14E
330
1F
100
AcDbEntity
  8
0
  6
Continuous
 62
     7
370
    25
100
AcDbLine
 10
6383.9538574188
 20
5106.931819509
 30
0.0
 11
6383.8911795171
 21
5107.1609100341
 31
0.0
  0
ARC
  5
14F
330
1F
100
AcDbEntity
  8
0
  6
Continuous
 62
     7
370
    25
100
AcDbCircle
 10
6383.4715818313
 20
5106.7998715734
 30
0.0
 40
0.4999999999954945
100
AcDbArc
 50
276.1123299633
 51
15.3013556127
  0
LINE
  5
150
330
1F
100
AcDbEntity
  8
0
  6
Continuous
 62
     7
370
    25
100
AcDbLine
 10
6383.2886611127
 20
5106.2774244481
 30
0.0
 11
6383.5248208558
 21
5106.3027140468
 31
0.0
  0
CIRCLE
  5
151
330
1F
100
AcDbEntity
  8
0
  6
Continuous
 62
     7
370
    25
100
AcDbCircle
 10
6385.3481140244
 20
4982.5201164752
 30
0.0
 40
0.7499999999993178
  0
CIRCLE
  5
152
330
1F
100
AcDbEntity
  8
0
  6
Continuous
 62
     7
370
    25
100
AcDbCircle
 10
6385.3481140244
 20
4982.5201164752
 30
0.0
 40
4.499999999999392
  0
ARC
  5
153
330
1F
100
AcDbEntity
  8
0
  6
Continuous
 62
     7
370
    25
100
AcDbCircle
 10
6384.5798497405
 20
4980.6735602237
 30
0.0
 40
0.6110625643889263
100
AcDbArc
 50
167.8156140386
 51
327.0046396866
  0
LINE
  5
154
330
1F
100
AcDbEntity
  8
0
  6
Continuous
 62
     7
370
    25
100
AcDbLine
 10
6385.2216979497
 20
4980.5399962987
 30
0.0
 11
6385.0923568769
 21
4980.3407931989
 31
0.0
  0
ARC
  5
155
330
1F
100
AcDbEntity
  8
0
  6
Continuous
 62
     7
370
    25
100
AcDbCircle
 10
6385.6410552841
 20
4980.2677107389
 30
0.0
 40
0.5000000000063375
100
AcDbArc
 50
47.8156140392
 51
147.0046396859
  0
LINE
  5
156
330
1F
100
AcDbEntity
  8
0
  6
Continuous
 62
     7
370
    25
100
AcDbLine
 10
6386.1528065773
 20
4980.4787121653
 30
0.0
 11
6385.9768146256
 21
4980.6382045507
 31
0.0
  0
ARC
  5
157
330
1F
100
AcDbEntity
  8
0
  6
Continuous
 62
     7
370
    25
100
AcDbCircle
 10
6386.5631465058
 20
4980.9315019628
 30
0.0
 40
0.611062564388122
100
AcDbArc
 50
227.8156140386
 51
27.0046396865
  0
LINE
  5
158
330
1F
100
AcDbEntity
  8
0
  6
Continuous
 62
     7
370
    25
100
AcDbLine
 10
6386.9997403625
 20
4981.4205768548
 30
0.0
 11
6387.107584771
 21
4981.2089626501
 31
0.0
  0
ARC
  5
159
330
1F
100
AcDbEntity
  8
0
  6
Continuous
 62
     7
370
    25
100
AcDbCircle
 10
6387.4452252415
 20
4981.6476081798
 30
0.0
 40
0.4999999999965202
100
AcDbArc
 50
107.8156140379
 51
207.0046396872
  0
LINE
  5
15A
330
1F
100
AcDbEntity
  8
0
  6
Continuous
 62
     7
370
    25
100
AcDbLine
 10
6387.5183682926
 20
4982.1962985134
 30
0.0
 11
6387.2922478593
 21
4982.123631205
 31
0.0
  0
ARC
  5
15B
330
1F
100
AcDbEntity
  8
0
  6
Continuous
 62
     7
370
    25
100
AcDbCircle
 10
6387.3314107897
 20
4982.7780582144
 30
0.0
 40
0.6110625643880463
100
AcDbArc
 50
287.8156140385
 51
87.0046396866
  0
LINE
  5
15C
330
1F
100
AcDbEntity
  8
0
  6
Continuous
 62
     7
370
    25
100
AcDbLine
 10
6387.1261564372
 20
4983.4006970314
 30
0.0
 11
6387.3633419185
 21
4983.3882859265
 31
0.0
  0
ARC
  5
15D
330
1F
100
AcDbEntity
  8
0
  6
Continuous
 62
     7
370
    25
100
AcDbCircle
 10
6387.1522839818
 20
4983.9000139161
 30
0.0
 40
0.5000000000001051
100
AcDbArc
 50
167.8156140384
 51
267.0046396869
  0
LINE
  5
15E
330
1F
100
AcDbEntity
  8
0
  6
Continuous
 62
     7
370
    25
100
AcDbLine
 10
6386.7136757397
 20
4984.2377028233
 30
0.0
 11
6386.6635472581
 21
4984.0055431295
 31
0.0
  0
ARC
  5
15F
330
1F
100
AcDbEntity
  8
0
  6
Continuous
 62
     7
370
    25
100
AcDbCircle
 10
6386.1163783082
 20
4984.3666727268
 30
0.0
 40
0.6110625643864696
100
AcDbArc
 50
347.8156140384
 51
147.0046396867
  0
LINE
  5
160
330
1F
100
AcDbEntity
  8
0
  6
Continuous
 62
     7
370
    25
100
AcDbLine
 10
6385.4745300991
 20
4984.5002366518
 30
0.0
 11
6385.6038711719
 21
4984.6994397516
 31
0.0
  0
ARC
  5
161
330
1F
100
AcDbEntity
  8
0
  6
Continuous
 62
     7
370
    25
100
AcDbCircle
 10
6385.0551727646
 20
4984.7725222116
 30
0.0
 40
0.4999999999996314
100
AcDbArc
 50
227.8156140382
 51
327.0046396869
  0
LINE
  5
162
330
1F
100
AcDbEntity
  8
0
  6
Continuous
 62
     7
370
    25
100
AcDbLine
 10
6384.5434214714
 20
4984.5615207851
 30
0.0
 11
6384.7194134231
 21
4984.4020283997
 31
0.0
  0
ARC
  5
163
330
1F
100
AcDbEntity
  8
0
  6
Continuous
 62
     7
370
    25
100
AcDbCircle
 10
6384.133081543
 20
4984.1087309877
 30
0.0
 40
0.611062564386711
100
AcDbArc
 50
47.8156140383
 51
207.0046396868
  0
LINE
  5
164
330
1F
100
AcDbEntity
  8
0
  6
Continuous
 62
     7
370
    25
100
AcDbLine
 10
6383.6964876863
 20
4983.6196560957
 30
0.0
 11
6383.5886432778
 21
4983.8312703004
 31
0.0
  0
ARC
  5
165
330
1F
100
AcDbEntity
  8
0
  6
Continuous
 62
     7
370
    25
100
AcDbCircle
 10
6383.2510028072
 20
4983.3926247707
 30
0.0
 40
0.4999999999985156
100
AcDbArc
 50
287.8156140382
 51
27.004639687
  0
LINE
  5
166
330
1F
100
AcDbEntity
  8
0
  6
Continuous
 62
     7
370
    25
100
AcDbLine
 10
6383.1778597561
 20
4982.8439344371
 30
0.0
 11
6383.4039801895
 21
4982.9166017455
 31
0.0
  0
ARC
  5
167
330
1F
100
AcDbEntity
  8
0
  6
Continuous
 62
     7
370
    25
100
AcDbCircle
 10
6383.3648172591
 20
4982.2621747361
 30
0.0
 40
0.6110625643862125
100
AcDbArc
 50
107.8156140383
 51
267.0046396869
  0
LINE
  5
168
330
1F
100
AcDbEntity
  8
0
  6
Continuous
 62
     7
370
    25
100
AcDbLine
 10
6383.5700716116
 20
4981.6395359191
 30
0.0
 11
6383.3328861303
 21
4981.651947024
 31
0.0
  0
ARC
  5
169
330
1F
100
AcDbEntity
  8
0
  6
Continuous
 62
     7
370
    25
100
AcDbCircle
 10
6383.5439440669
 20
4981.1402190343
 30
0.0
 40
0.5000000000030675
100
AcDbArc
 50
347.8156140388
 51
87.0046396864
  0
LINE
  5
16A
330
1F
100
AcDbEntity
  8
0
  6
Continuous
 62
     7
370
    25
100
AcDbLine
 10
6383.9825523091
 20
4980.8025301272
 30
0.0
 11
6384.0326807907
 21
4981.034689821
 31
0.0
  0
CIRCLE
  5
16B
330
1F
100
AcDbEntity
  8
0
  6
Continuous
 62
     7
370
    25
100
AcDbCircle
 10
6508.3481140244
 20
4982.5201164752
 30
0.0
 40
0.7499999999995832
  0
CIRCLE
  5
16C
330
1F
100
AcDbEntity
  8
0
  6
Continuous
 62
     7
370
    25
100
AcDbCircle
 10
6508.3481140244
 20
4982.5201164752
 30
0.0
 40
4.500000000001391
  0
ARC
  5
16D
330
1F
100
AcDbEntity
  8
0
  6
Continuous
 62
     7
370
    25
100
AcDbCircle
 10
6509.4287052901
 20
4980.8371659363
 30
0.0
 40
0.6110625643873305
100
AcDbArc
 50
223.1092532972
 51
22.2982789454
  0
LINE
  5
16E
330
1F
100
AcDbEntity
  8
0
  6
Continuous
 62
     7
370
    25
100
AcDbLine
 10
6509.9039552558
 20
4981.2887696516
 30
0.0
 11
6509.9940732779
 21
4981.0690204077
 31
0.0
  0
ARC
  5
16F
330
1F
100
AcDbEntity
  8
0
  6
Continuous
 62
     7
370
    25
100
AcDbCircle
 10
6510.3665658139
 20
4981.4784838355
 30
0.0
 40
0.4999999999906776
100
AcDbArc
 50
103.1092532959
 51
202.2982789466
  0
LINE
  5
170
330
1F
100
AcDbEntity
  8
0
  6
Continuous
 62
     7
370
    25
100
AcDbLine
 10
6510.4844818233
 20
4982.019322816
 30
0.0
 11
6510.2531615128
 21
4981.9654535107
 31
0.0
  0
ARC
  5
171
330
1F
100
AcDbEntity
  8
0
  6
Continuous
 62
     7
370
    25
100
AcDbCircle
 10
6510.3458875773
 20
4982.6144606929
 30
0.0
 40
0.6110625643873442
100
AcDbArc
 50
283.1092532974
 51
82.2982789453
  0
LINE
  5
172
330
1F
100
AcDbEntity
  8
0
  6
Continuous
 62
     7
370
    25
100
AcDbLine
 10
6510.1924122702
 20
4983.2518410941
 30
0.0
 11
6510.4277797089
 21
4983.2200109686
 31
0.0
  0
ARC
  5
173
330
1F
100
AcDbEntity
  8
0
  6
Continuous
 62
     7
370
    25
100
AcDbCircle
 10
6510.2594202465
 20
4983.7473306814
 30
0.0
 40
0.5000000000027987
100
AcDbArc
 50
163.1092532975
 51
262.2982789451
  0
LINE
  5
174
330
1F
100
AcDbEntity
  8
0
  6
Continuous
 62
     7
370
    25
100
AcDbLine
 10
6509.8499979548
 20
4984.1198684313
 30
0.0
 11
6509.7809899865
 21
4983.8926045134
 31
0.0
  0
ARC
  5
175
330
1F
100
AcDbEntity
  8
0
  6
Continuous
 62
     7
370
    25
100
AcDbCircle
 10
6509.2652963116
 20
4984.2974112319
 30
0.0
 40
0.6110625643859668
100
AcDbArc
 50
343.1092532971
 51
142.2982789455
  0
LINE
  5
176
330
1F
100
AcDbEntity
  8
0
  6
Continuous
 62
     7
370
    25
100
AcDbLine
 10
6508.6365710388
 20
4984.4831879178
 30
0.0
 11
6508.7818204554
 21
4984.6711070361
 31
0.0
  0
ARC
  5
177
330
1F
100
AcDbEntity
  8
0
  6
Continuous
 62
     7
370
    25
100
AcDbCircle
 10
6508.240968457
 20
4984.7889633211
 30
0.0
 40
0.4999999999977863
100
AcDbArc
 50
223.1092532966
 51
322.2982789458
  0
LINE
  5
178
330
1F
100
AcDbEntity
  8
0
  6
Continuous
 62
     7
370
    25
100
AcDbLine
 10
6507.7136301559
 20
4984.6206620905
 30
0.0
 11
6507.875942498
 21
4984.447267478
 31
0.0
  0
ARC
  5
179
330
1F
100
AcDbEntity
  8
0
  6
Continuous
 62
     7
370
    25
100
AcDbCircle
 10
6507.2675227587
 20
4984.2030670142
 30
0.0
 40
0.6110625643860875
100
AcDbArc
 50
43.109253297
 51
202.2982789455
  0
LINE
  5
17A
330
1F
100
AcDbEntity
  8
0
  6
Continuous
 62
     7
370
    25
100
AcDbLine
 10
6506.7922727929
 20
4983.7514632989
 30
0.0
 11
6506.7021547709
 21
4983.9712125427
 31
0.0
  0
ARC
  5
17B
330
1F
100
AcDbEntity
  8
0
  6
Continuous
 62
     7
370
    25
100
AcDbCircle
 10
6506.3296622349
 20
4983.5617491149
 30
0.0
 40
0.5000000000004964
100
AcDbArc
 50
283.1092532974
 51
22.2982789453
  0
LINE
  5
17C
330
1F
100
AcDbEntity
  8
0
  6
Continuous
 62
     7
370
    25
100
AcDbLine
 10
6506.2117462255
 20
4983.0209101345
 30
0.0
 11
6506.4430665359
 21
4983.0747794398
 31
0.0
  0
ARC
  5
17D
330
1F
100
AcDbEntity
  8
0
  6
Continuous
 62
     7
370
    25
100
AcDbCircle
 10
6506.3503404715
 20
4982.4257722575
 30
0.0
 40
0.6110625643869316
100
AcDbArc
 50
103.1092532972
 51
262.2982789453
  0
LINE
  5
17E
330
1F
100
AcDbEntity
  8
0
  6
Continuous
 62
     7
370
    25
100
AcDbLine
 10
6506.5038157785
 20
4981.7883918564
 30
0.0
 11
6506.2684483398
 21
4981.8202219819
 31
0.0
  0
ARC
  5
17F
330
1F
100
AcDbEntity
  8
0
  6
Continuous
 62
     7
370
    25
100
AcDbCircle
 10
6506.4368078022
 20
4981.2929022691
 30
0.0
 40
0.5000000000085395
100
AcDbArc
 50
343.1092532981
 51
82.2982789443
  0
LINE
  5
180
330
1F
100
AcDbEntity
  8
0
  6
Continuous
 62
     7
370
    25
100
AcDbLine
 10
6506.846230094
 20
4980.9203645192
 30
0.0
 11
6506.9152380623
 21
4981.1476284371
 31
0.0
  0
ARC
  5
181
330
1F
100
AcDbEntity
  8
0
  6
Continuous
 62
     7
370
    25
100
AcDbCircle
 10
6507.4309317372
 20
4980.7428217186
 30
0.0
 40
0.6110625643864146
100
AcDbArc
 50
163.1092532971
 51
322.2982789455
  0
LINE
  5
182
330
1F
100
AcDbEntity
  8
0
  6
Continuous
 62
     7
370
    25
100
AcDbLine
 10
6508.05965701
 20
4980.5570450327
 30
0.0
 11
6507.9144075933
 21
4980.3691259144
 31
0.0
  0
ARC
  5
183
330
1F
100
AcDbEntity
  8
0
  6
Continuous
 62
     7
370
    25
100
AcDbCircle
 10
6508.4552595917
 20
4980.2512696294
 30
0.0
 40
0.4999999999970181
100
AcDbArc
 50
43.109253297
 51
142.2982789459
  0
LINE
  5
184
330
1F
100
AcDbEntity
  8
0
  6
Continuous
 62
     7
370
    25
100
AcDbLine
 10
6508.9825978929
 20
4980.41957086
 30
0.0
 11
6508.8202855508
 21
4980.5929654725
 31
0.0
  0
CIRCLE
  5
185
330
1F
100
AcDbEntity
  8
0
  6
Continuous
 62
     7
370
    25
100
AcDbCircle
 10
6508.3481140244
 20
5105.5201164752
 30
0.0
 40
0.7499999999999397
  0
CIRCLE
  5
186
330
1F
100
AcDbEntity
  8
0
  6
Continuous
 62
     7
370
    25
100
AcDbCircle
 10
6508.3481140244
 20
5105.5201164752
 30
0.0
 40
4.499999999999409
  0
ARC
  5
187
330
1F
100
AcDbEntity
  8
0
  6
Continuous
 62
     7
370
    25
100
AcDbCircle
 10
6508.6706728646
 20
5103.5462989065
 30
0.0
 40
0.611062564388398
100
AcDbArc
 50
199.6866533106
 51
358.8756789586
  0
LINE
  5
188
330
1F
100
AcDbEntity
  8
0
  6
Continuous
 62
     7
370
    25
100
AcDbLine
 10
6509.2862781668
 20
5103.7717729794
 30
0.0
 11
6509.281617783
 21
5103.5343087318
 31
0.0
  0
ARC
  5
189
330
1F
100
AcDbEntity
  8
0
  6
Continuous
 62
     7
370
    25
100
AcDbCircle
 10
6509.7861819034
 20
5103.7619620571
 30
0.0
 40
0.4999999999979235
100
AcDbArc
 50
79.6866533103
 51
178.875678959
  0
LINE
  5
18A
330
1F
100
AcDbEntity
  8
0
  6
Continuous
 62
     7
370
    25
100
AcDbLine
 10
6510.109370215
 20
5104.211361994
 30
0.0
 11
6509.8756976034
 21
5104.2538837373
 31
0.0
  0
ARC
  5
18B
330
1F
100
AcDbEntity
  8
0
  6
Continuous
 62
     7
370
    25
100
AcDbCircle
 10
6510.2187696014
 20
5104.8125518407
 30
0.0
 40
0.6110625643864024
100
AcDbArc
 50
259.6866533106
 51
58.8756789587
  0
LINE
  5
18C
330
1F
100
AcDbEntity
  8
0
  6
Continuous
 62
     7
370
    25
100
AcDbLine
 10
6510.3313059775
 20
5105.4584187076
 30
0.0
 11
6510.5346258565
 21
5105.335650573
 31
0.0
  0
ARC
  5
18D
330
1F
100
AcDbEntity
  8
0
  6
Continuous
 62
     7
370
    25
100
AcDbCircle
 10
6510.5897543538
 20
5105.8864425817
 30
0.0
 40
0.4999999999981952
100
AcDbArc
 50
139.6866533102
 51
238.8756789591
  0
LINE
  5
18E
330
1F
100
AcDbEntity
  8
0
  6
Continuous
 62
     7
370
    25
100
AcDbLine
 10
6510.3621567478
 20
5106.3910318383
 30
0.0
 11
6510.2084955321
 21
5106.2099262921
 31
0.0
  0
ARC
  5
18F
330
1F
100
AcDbEntity
  8
0
  6
Continuous
 62
     7
370
    25
100
AcDbCircle
 10
6509.8962107612
 20
5106.7863694094
 30
0.0
 40
0.6110625643859869
100
AcDbArc
 50
319.6866533104
 51
118.8756789588
  0
LINE
  5
190
330
1F
100
AcDbEntity
  8
0
  6
Continuous
 62
     7
370
    25
100
AcDbLine
 10
6509.3931418351
 20
5107.2067622034
 30
0.0
 11
6509.6011220979
 21
5107.3214583164
 31
0.0
  0
ARC
  5
191
330
1F
100
AcDbEntity
  8
0
  6
Continuous
 62
     7
370
    25
100
AcDbCircle
 10
6509.1516864748
 20
5107.6445969999
 30
0.0
 40
0.4999999999993215
100
AcDbArc
 50
199.6866533103
 51
298.8756789588
  0
LINE
  5
192
330
1F
100
AcDbEntity
  8
0
  6
Continuous
 62
     7
370
    25
100
AcDbLine
 10
6508.6009005572
 20
5107.6997863195
 30
0.0
 11
6508.6809119531
 21
5107.4761590301
 31
0.0
  0
ARC
  5
193
330
1F
100
AcDbEntity
  8
0
  6
Continuous
 62
     7
370
    25
100
AcDbCircle
 10
6508.0255551842
 20
5107.493934044
 30
0.0
 40
0.6110625643877852
100
AcDbArc
 50
19.6866533104
 51
178.8756789587
  0
LINE
  5
194
330
1F
100
AcDbEntity
  8
0
  6
Continuous
 62
     7
370
    25
100
AcDbLine
 10
6507.4099498819
 20
5107.2684599711
 30
0.0
 11
6507.4146102658
 21
5107.5059242187
 31
0.0
  0
ARC
  5
195
330
1F
100
AcDbEntity
  8
0
  6
Continuous
 62
     7
370
    25
100
AcDbCircle
 10
6506.9100461454
 20
5107.2782708934
 30
0.0
 40
0.4999999999980108
100
AcDbArc
 50
259.68665331
 51
358.8756789589
  0
LINE
  5
196
330
1F
100
AcDbEntity
  8
0
  6
Continuous
 62
     7
370
    25
100
AcDbLine
 10
6506.5868578337
 20
5106.8288709565
 30
0.0
 11
6506.8205304454
 21
5106.7863492132
 31
0.0
  0
ARC
  5
197
330
1F
100
AcDbEntity
  8
0
  6
Continuous
 62
     7
370
    25
100
AcDbCircle
 10
6506.4774584473
 20
5106.2276811098
 30
0.0
 40
0.611062564387181
100
AcDbArc
 50
79.6866533103
 51
238.8756789588
  0
LINE
  5
198
330
1F
100
AcDbEntity
  8
0
  6
Continuous
 62
     7
370
    25
100
AcDbLine
 10
6506.3649220712
 20
5105.5818142429
 30
0.0
 11
6506.1616021922
 21
5105.7045823775
 31
0.0
  0
ARC
  5
199
330
1F
100
AcDbEntity
  8
0
  6
Continuous
 62
     7
370
    25
100
AcDbCircle
 10
6506.106473695
 20
5105.1537903688
 30
0.0
 40
0.500000000000053
100
AcDbArc
 50
319.6866533103
 51
58.8756789588
  0
LINE
  5
19A
330
1F
100
AcDbEntity
  8
0
  6
Continuous
 62
     7
370
    25
100
AcDbLine
 10
6506.334071301
 20
5104.6492011122
 30
0.0
 11
6506.4877325167
 21
5104.8303066584
 31
0.0
  0
ARC
  5
19B
330
1F
100
AcDbEntity
  8
0
  6
Continuous
 62
     7
370
    25
100
AcDbCircle
 10
6506.8000172875
 20
5104.253863541
 30
0.0
 40
0.6110625643868905
100
AcDbArc
 50
139.6866533106
 51
298.8756789585
  0
LINE
  5
19C
330
1F
100
AcDbEntity
  8
0
  6
Continuous
 62
     7
370
    25
100
AcDbLine
 10
6507.3030862137
 20
5103.833470747
 30
0.0
 11
6507.0951059508
 21
5103.718774634
 31
0.0
  0
ARC
  5
19D
330
1F
100
AcDbEntity
  8
0
  6
Continuous
 62
     7
370
    25
100
AcDbCircle
 10
6507.544541574
 20
5103.3956359506
 30
0.0
 40
0.5000000000007906
100
AcDbArc
 50
19.6866533104
 51
118.8756789586
  0
LINE
  5
19E
330
1F
100
AcDbEntity
  8
0
  6
Continuous
 62
     7
370
    25
100
AcDbLine
 10
6508.0953274916
 20
5103.3404466309
 30
0.0
 11
6508.0153160957
 21
5103.5640739204
 31
0.0
  0
LINE
  5
19F
330
1F
100
AcDbEntity
  8
0
  6
Continuous
 62
     7
370
    25
100
AcDbLine
 10
6437.6075963445
 20
5014.9282951231
 30
0.0
 11
6437.6075963445
 21
5014.3465430607
 31
0.0
  0
ARC
  5
1A0
330
1F
100
AcDbEntity
  8
0
  6
Continuous
 62
     7
370
    25
100
AcDbCircle
 10
6440.106366005
 20
5014.1505640824
 30
0.0
 40
2.506443212240738
100
AcDbArc
 50
175.5154613527
 51
211.0732947104
  0
ARC
  5
1A1
330
1F
100
AcDbEntity
  8
0
  6
Continuous
 62
     7
370
    25
100
AcDbCircle
 10
6442.8366776289
 20
5017.2622354925
 30
0.0
 40
6.071894280814074
100
AcDbArc
 50
223.921857376
 51
242.3403865923
  0
LINE
  5
1A2
330
1F
100
AcDbEntity
  8
0
  6
Continuous
 62
     7
370
    25
100
AcDbLine
 10
6440.017996012
 20
5011.8842308346
 30
0.0
 11
6440.017996012
 21
5011.0182054308
 31
0.0
  0
ARC
  5
1A3
330
1F
100
AcDbEntity
  8
0
  6
Continuous
 62
     7
370
    25
100
AcDbCircle
 10
6445.2279508838
 20
5020.7788901609
 30
0.0
 40
11.06411298595096
100
AcDbArc
 50
241.9080645867
 51
255.0493491853
  0
ARC
  5
1A4
330
1F
100
AcDbEntity
  8
0
  6
Continuous
 62
     7
370
    25
100
AcDbCircle
 10
6446.7432840617
 20
5027.3283970265
 30
0.0
 40
16.94835840084039
100
AcDbArc
 50
256.1549011963
 51
268.9387731929
  0
ARC
  5
1A5
330
1F
100
AcDbEntity
  8
0
  6
Continuous
 62
     7
370
    25
100
AcDbCircle
 10
6446.8548064967
 20
5027.6206751766
 30
0.0
 40
18.10875266705395
100
AcDbArc
 50
268.6538536463
 51
278.1073954824
  0
LINE
  5
1A6
330
1F
100
AcDbEntity
  8
0
  6
Continuous
 62
     7
370
    25
100
AcDbLine
 10
6449.408666113
 20
5010.5589365197
 30
0.0
 11
6449.408666113
 21
5009.6929111159
 31
0.0
  0
ARC
  5
1A7
330
1F
100
AcDbEntity
  8
0
  6
Continuous
 62
     7
370
    25
100
AcDbCircle
 10
6447.5479107311
 20
5024.373623601
 30
0.0
 40
13.93944008014215
100
AcDbArc
 50
277.6712280489
 51
291.6377324256
  0
ARC
  5
1A8
330
1F
100
AcDbEntity
  8
0
  6
Continuous
 62
     7
370
    25
100
AcDbCircle
 10
6450.168969536
 20
5017.377505419
 30
0.0
 40
7.266607082375566
100
AcDbArc
 50
293.6681029435
 51
311.078916871
  0
LINE
  5
1A9
330
1F
100
AcDbEntity
  8
0
  6
Continuous
 62
     7
370
    25
100
AcDbLine
 10
6454.9438418812
 20
5012.7659243586
 30
0.0
 11
6454.9438418812
 21
5011.8998989548
 31
0.0
  0
ARC
  5
1AA
330
1F
100
AcDbEntity
  8
0
  6
Continuous
 62
     7
370
    25
100
AcDbCircle
 10
6452.4686591364
 20
5015.615808762
 30
0.0
 40
3.774701409758363
100
AcDbArc
 50
310.9749811777
 51
333.184637835
  0
ARC
  5
1AB
330
1F
100
AcDbEntity
  8
0
  6
Continuous
 62
     7
370
    25
100
AcDbCircle
 10
6453.5898620437
 20
5014.1237941931
 30
0.0
 40
2.506443212244633
100
AcDbArc
 50
355.5154613527
 51
31.0732947103
  0
LINE
  5
1AC
330
1F
100
AcDbEntity
  8
0
  6
Continuous
 62
     7
370
    25
100
AcDbLine
 10
6455.7366500681
 20
5015.6275274191
 30
0.0
 11
6455.7366500681
 21
5015.4174551821
 31
0.0
  0
LINE
  5
1AD
330
1F
100
AcDbEntity
  8
0
  6
Continuous
 62
     7
370
    25
100
AcDbLine
 10
6453.6782320367
 20
5017.348102406
 30
0.0
 11
6453.6782320367
 21
5017.2561528447
 31
0.0
  0
ARC
  5
1AE
330
1F
100
AcDbEntity
  8
0
  6
Continuous
 62
     7
370
    25
100
AcDbCircle
 10
6448.4682771649
 20
5007.4954681144
 30
0.0
 40
11.06411298608015
100
AcDbArc
 50
61.9080645868
 51
75.0493491852
  0
LINE
  5
1AF
330
1F
100
AcDbEntity
  8
0
  6
Continuous
 62
     7
370
    25
100
AcDbLine
 10
6451.3226743903
 20
5018.2563093412
 30
0.0
 11
6451.3226743903
 21
5018.1850430662
 31
0.0
  0
LINE
  5
1B0
330
1F
100
AcDbEntity
  8
0
  6
Continuous
 62
     7
370
    25
100
AcDbLine
 10
6447.2668418702
 20
5018.8200012567
 30
0.0
 11
6447.2668418702
 21
5018.7574379777
 31
0.0
  0
ARC
  5
1B1
330
1F
100
AcDbEntity
  8
0
  6
Continuous
 62
     7
370
    25
100
AcDbCircle
 10
6446.8414215521
 20
5000.6536830992
 30
0.0
 40
18.10875266679142
100
AcDbArc
 50
88.6538536462
 51
98.1073954825
  0
LINE
  5
1B2
330
1F
100
AcDbEntity
  8
0
  6
Continuous
 62
     7
370
    25
100
AcDbLine
 10
6444.2875619357
 20
5018.6464528598
 30
0.0
 11
6444.2875619357
 21
5018.5814471596
 31
0.0
  0
LINE
  5
1B3
330
1F
100
AcDbEntity
  8
0
  6
Continuous
 62
     7
370
    25
100
AcDbLine
 10
6440.6101666105
 20
5017.6364160925
 30
0.0
 11
6440.6101666106
 21
5017.5522381439
 31
0.0
  0
ARC
  5
1B4
330
1F
100
AcDbEntity
  8
0
  6
Continuous
 62
     7
370
    25
100
AcDbCircle
 10
6443.5272585127
 20
5010.8968528566
 30
0.0
 40
7.266607082280766
100
AcDbArc
 50
113.6681029434
 51
131.0789168711
  0
LINE
  5
1B5
330
1F
100
AcDbEntity
  8
0
  6
Continuous
 62
     7
370
    25
100
AcDbLine
 10
6438.7523861675
 20
5016.5009587102
 30
0.0
 11
6438.7523861675
 21
5016.3744593207
 31
0.0
  0
LWPOLYLINE
  5
1B6
330
1F
100
AcDbEntity
  8
0
  6
Continuous
 62
     7
370
    25
100
AcDbPolyline
 90
       27
 70
   128
 43
0.0
 10
6453.6782320367
 20
5017.3168590067
 10
6453.8351485912
 20
5017.1965950655
 10
6454.4483574954
 20
5016.6077916521
 10
6454.8647240858
 20
5015.9774302755
 10
6455.0734646866
 20
5015.321836964
 10
6455.0691730259
 20
5014.6579912402
 10
6454.8519602553
 20
5014.0030863596
 10
6454.4274520716
 20
5013.3740840145
 10
6453.8066430137
 20
5012.7872750354
 10
6453.0056117101
 20
5012.2578574665
 10
6452.0451044508
 20
5011.7995429447
 10
6450.9499978694
 20
5011.4242015755
 10
6449.7486546509
 20
5011.1415545032
 10
6448.4721889539
 20
5010.9589221385
 10
6447.1536605692
 20
5010.8810345636
 10
6445.8272186896
 20
5010.9099090258
 10
6444.5272174628
 20
5011.0447976918
 10
6443.2873262379
 20
5011.282207016
 10
6442.1396575463
 20
5011.6159882215
 10
6441.1139354042
 20
5012.0374965505
 10
6440.2367254763
 20
5012.5358151587
 10
6439.5307470391
 20
5013.0980378558
 10
6439.0142845631
 20
5013.7096033693
 10
6438.7007141552
 20
5014.3546724737
 10
6438.5981571243
 20
5015.016538218
 10
6438.7092696437
 20
5015.678058627
 10
6439.0009502272
 20
5016.2764406096
  0
ARC
  5
1B7
330
1F
100
AcDbEntity
  8
0
  6
Continuous
 62
     7
370
    25
100
AcDbCircle
 10
6445.3185883449
 20
5021.277511985
 30
0.0
 40
10.45940350697133
100
AcDbArc
 50
241.52636009
 51
255.431053682
  0
LINE
  5
1B8
330
1F
100
AcDbEntity
  8
0
  6
Continuous
 62
     7
370
    25
100
AcDbLine
 10
6440.3320217845
 20
5012.0833140504
 30
0.0
 11
6440.017996012
 21
5011.8842308346
 31
0.0
  0
ARC
  5
1B9
330
1F
100
AcDbEntity
  8
0
  6
Continuous
 62
     7
370
    25
100
AcDbCircle
 10
6440.5901690031
 20
5015.0598440898
 30
0.0
 40
2.496556557814503
100
AcDbArc
 50
186.8034549387
 51
211.5732453425
  0
LINE
  5
1BA
330
1F
100
AcDbEntity
  8
0
  6
Continuous
 62
     7
370
    25
100
AcDbLine
 10
6437.7264825378
 20
5015.2195912615
 30
0.0
 11
6438.1111922815
 21
5015.2423166797
 31
0.0
  0
LINE
  5
1BB
330
1F
100
AcDbEntity
  8
0
  6
Continuous
 62
     7
370
    25
100
AcDbLine
 10
6454.5456754497
 20
5012.9229372448
 30
0.0
 11
6454.9438418812
 21
5012.7659243586
 31
0.0
  0
ARC
  5
1BC
330
1F
100
AcDbEntity
  8
0
  6
Continuous
 62
     7
370
    25
100
AcDbCircle
 10
6449.9852677461
 20
5018.0622559006
 30
0.0
 40
6.870947145009589
100
AcDbArc
 50
293.162565078
 51
311.5844547365
  0
LINE
  5
1BD
330
1F
100
AcDbEntity
  8
0
  6
Continuous
 62
     7
370
    25
100
AcDbLine
 10
6449.408666113
 20
5010.5589365197
 30
0.0
 11
6449.3491696824
 21
5010.8107344881
 31
0.0
  0
ARC
  5
1BE
330
1F
100
AcDbEntity
  8
0
  6
Continuous
 62
     7
370
    25
100
AcDbCircle
 10
6446.8539394142
 20
5027.7459851766
 30
0.0
 40
17.11808663299299
100
AcDbArc
 50
268.379626131
 51
278.3816229977
  0
LINE
  5
1BF
330
1F
100
AcDbEntity
  8
0
  6
Continuous
 62
     7
370
    25
100
AcDbLine
 10
6447.2668418702
 20
5018.7574379777
 30
0.0
 11
6447.3263383008
 21
5018.5056400092
 31
0.0
  0
ARC
  5
1C0
330
1F
100
AcDbEntity
  8
0
  6
Continuous
 62
     7
370
    25
100
AcDbCircle
 10
6446.8422886346
 20
5001.3943985028
 30
0.0
 40
17.11808663288498
100
AcDbArc
 50
88.379626131
 51
98.3816229977
  0
LINE
  5
1C1
330
1F
100
AcDbEntity
  8
0
  6
Continuous
 62
     7
370
    25
100
AcDbLine
 10
6444.2875619357
 20
5018.5814471596
 30
0.0
 11
6444.3470583663
 21
5018.3296491912
 31
0.0
  0
LINE
  5
1C2
330
1F
100
AcDbEntity
  8
0
  6
Continuous
 62
     7
370
    25
100
AcDbLine
 10
6447.3263383008
 20
5018.8185765397
 30
0.0
 11
6447.3263383008
 21
5018.5056400092
 31
0.0
  0
ARC
  5
1C3
330
1F
100
AcDbEntity
  8
0
  6
Continuous
 62
     7
370
    25
100
AcDbCircle
 10
6452.0348795669
 20
5016.2302262511
 30
0.0
 40
3.120366317792441
100
AcDbArc
 50
306.7870832706
 51
345.2583987336
  0
ARC
  5
1C4
330
1F
100
AcDbEntity
  8
0
  6
Continuous
 62
     7
370
    25
100
AcDbCircle
 10
6441.6625952381
 20
5016.231066479
 30
0.0
 40
3.121785878666927
100
AcDbArc
 50
194.7506921442
 51
233.2038258516
  0
ARC
  5
1C5
330
1F
100
AcDbEntity
  8
0
  6
Continuous
 62
     7
370
    25
100
AcDbCircle
 10
6448.3776397039
 20
5007.8628716944
 30
0.0
 40
10.4594035068895
100
AcDbArc
 50
61.5263600899
 51
75.431053682
  0
LINE
  5
1C6
330
1F
100
AcDbEntity
  8
0
  6
Continuous
 62
     7
370
    25
100
AcDbLine
 10
6451.0086486178
 20
5017.9859598504
 30
0.0
 11
6451.3226743903
 21
5018.1850430662
 31
0.0
  0
LINE
  5
1C7
330
1F
100
AcDbEntity
  8
0
  6
Continuous
 62
     7
370
    25
100
AcDbLine
 10
6453.3642062642
 20
5017.0570696289
 30
0.0
 11
6453.6782320367
 21
5017.2561528447
 31
0.0
  0
LINE
  5
1C8
330
1F
100
AcDbEntity
  8
0
  6
Continuous
 62
     7
370
    25
100
AcDbLine
 10
6451.0086486178
 20
5018.3377915008
 30
0.0
 11
6451.0086486178
 21
5017.9859598504
 31
0.0
  0
ARC
  5
1C9
330
1F
100
AcDbEntity
  8
0
  6
Continuous
 62
     7
370
    25
100
AcDbCircle
 10
6452.2225006639
 20
5015.8399096187
 30
0.0
 40
2.125815570543446
100
AcDbArc
 50
0.7902775112
 51
37.7443455624
  0
LWPOLYLINE
  5
1CA
330
1F
100
AcDbEntity
  8
0
  6
Continuous
 62
     7
370
    25
100
AcDbPolyline
 90
        3
 70
   128
 43
0.0
 10
6439.3481140244
 20
5015.8692299453
 10
6439.411811164
 20
5016.3569285634
 10
6439.4447049789
 20
5016.4691329594
  0
ARC
  5
1CB
330
1F
100
AcDbEntity
  8
0
  6
Continuous
 62
     7
370
    25
100
AcDbCircle
 10
6447.0379015713
 20
5005.8325774638
 30
0.0
 40
12.91621702561979
100
AcDbArc
 50
72.0959804081
 51
88.7204007873
  0
LWPOLYLINE
  5
1CC
330
1F
100
AcDbEntity
  8
0
  6
Continuous
 62
     7
370
    25
100
AcDbPolyline
 90
       33
 70
   128
 43
0.0
 10
6452.4403507843
 20
5017.5020486754
 10
6452.6022079818
 20
5017.4084281657
 10
6453.315503234
 20
5016.9020776818
 10
6453.8523849678
 20
5016.3439308886
 10
6454.1982084491
 20
5015.7492125756
 10
6454.3435405147
 20
5015.1341451082
 10
6454.2844168848
 20
5014.5155059235
 10
6454.0224502978
 20
5013.9101698857
 10
6453.5647865194
 20
5013.334648984
 10
6452.9239094244
 20
5012.8046419283
 10
6452.1173004693
 20
5012.3346059295
 10
6451.1669618437
 20
5011.9373623443
 10
6450.0988163081
 20
5011.6237469422
 10
6448.942000088
 20
5011.4023143338
 10
6447.7280681145
 20
5011.2791046235
 10
6446.4901332873
 20
5011.2574786509
 10
6445.2619632414
 20
5011.3380263162
 10
6444.0770592541
 20
5011.5185504891
 10
6442.9677424173
 20
5011.7941269408
 10
6441.9642720026
 20
5012.1572386639
 10
6441.094020067
 20
5012.5979809173
 10
6440.3807248147
 20
5013.1043314013
 10
6439.8438430809
 20
5013.6624781945
 10
6439.4980195997
 20
5014.2571965074
 10
6439.352687534
 20
5014.8722639748
 10
6439.411811164
 20
5015.4909031596
 10
6439.6737777509
 20
5016.0962391974
 10
6440.1314415293
 20
5016.6717600991
 10
6440.7723186243
 20
5017.2017671547
 10
6441.5789275794
 20
5017.6718031536
 10
6442.529266205
 20
5018.0690467388
 10
6443.5974117407
 20
5018.3826621409
 10
6444.2996978472
 20
5018.5300861311
  0
LINE
  5
1CD
330
1F
100
AcDbEntity
  8
0
  6
Continuous
 62
     7
370
    25
100
AcDbLine
 10
6441.008333042
 20
5017.8041800608
 30
0.0
 11
6441.008333042
 21
5017.3952252577
 31
0.0
  0
LINE
  5
1CE
330
1F
100
AcDbEntity
  8
0
  6
Continuous
 62
     7
370
    25
100
AcDbLine
 10
6441.008333042
 20
5017.3952252577
 30
0.0
 11
6440.6101666106
 21
5017.5522381439
 31
0.0
  0
ARC
  5
1CF
330
1F
100
AcDbEntity
  8
0
  6
Continuous
 62
     7
370
    25
100
AcDbCircle
 10
6443.7109603026
 20
5011.0781277787
 30
0.0
 40
6.870947144939613
100
AcDbArc
 50
113.1625650779
 51
131.5844547366
  0
LINE
  5
1D0
330
1F
100
AcDbEntity
  8
0
  6
Continuous
 62
     7
370
    25
100
AcDbLine
 10
6439.150552599
 20
5016.2174464345
 30
0.0
 11
6438.7523861675
 21
5016.3744593207
 31
0.0
  0
LINE
  5
1D1
330
1F
100
AcDbEntity
  8
0
  6
Continuous
 62
     7
370
    25
100
AcDbLine
 10
6456.0886317042
 20
5013.9278152148
 30
0.0
 11
6455.5850357673
 21
5013.8980669996
 31
0.0
  0
ARC
  5
1D2
330
1F
100
AcDbEntity
  8
0
  6
Continuous
 62
     7
370
    25
100
AcDbCircle
 10
6453.2195043419
 20
5014.1255283582
 30
0.0
 40
2.376442213460174
100
AcDbArc
 50
354.5075215147
 51
32.0812345484
  0
LINE
  5
1D3
330
1F
100
AcDbEntity
  8
0
  6
Continuous
 62
     7
370
    25
100
AcDbLine
 10
6455.7366500681
 20
5015.4174551821
 30
0.0
 11
6455.2330541312
 21
5015.3877069668
 31
0.0
  0
LINE
  5
1D4
330
1F
100
AcDbEntity
  8
0
  6
Continuous
 62
     7
370
    25
100
AcDbLine
 10
6455.2330541312
 20
5016.2338076459
 30
0.0
 11
6455.2330541312
 21
5015.3877069668
 31
0.0
  0
LINE
  5
1D5
330
1F
100
AcDbEntity
  8
0
  6
Continuous
 62
     7
370
    25
100
AcDbLine
 10
6455.5850357673
 20
5014.376291276
 30
0.0
 11
6455.5850357673
 21
5013.8980669996
 31
0.0
  0
LINE
  5
1D6
330
1F
100
AcDbEntity
  8
0
  6
Continuous
 62
     7
370
    25
100
AcDbLine
 10
6438.1111922815
 20
5015.2423166797
 30
0.0
 11
6438.1111922815
 21
5014.376291276
 31
0.0
  0
LINE
  5
1D7
330
1F
100
AcDbEntity
  8
0
  6
Continuous
 62
     7
370
    25
100
AcDbLine
 10
6437.6075963445
 20
5014.3465430607
 30
0.0
 11
6438.1111922815
 21
5014.376291276
 31
0.0
  0
LINE
  5
1D8
330
1F
100
AcDbEntity
  8
0
  6
Continuous
 62
     7
370
    25
100
AcDbLine
 10
6437.9595779806
 20
5012.8569030934
 30
0.0
 11
6438.4631739175
 21
5012.8866513087
 31
0.0
  0
ARC
  5
1D9
330
1F
100
AcDbEntity
  8
0
  6
Continuous
 62
     7
370
    25
100
AcDbCircle
 10
6440.4767237068
 20
5014.1488299173
 30
0.0
 40
2.376442213464614
100
AcDbArc
 50
174.5075215147
 51
212.0812345483
  0
LINE
  5
1DA
330
1F
100
AcDbEntity
  8
0
  6
Continuous
 62
     7
370
    25
100
AcDbLine
 10
6438.4631739175
 20
5013.7526767125
 30
0.0
 11
6438.4631739175
 21
5012.8866513087
 31
0.0
  0
LINE
  5
1DB
330
1F
100
AcDbEntity
  8
0
  6
Continuous
 62
     7
370
    25
100
AcDbLine
 10
6452.6878950067
 20
5010.8791330178
 30
0.0
 11
6453.0860614382
 21
5010.7221201316
 31
0.0
  0
ARC
  5
1DC
330
1F
100
AcDbEntity
  8
0
  6
Continuous
 62
     7
370
    25
100
AcDbCircle
 10
6449.9852677461
 20
5017.1962304968
 30
0.0
 40
6.87094714497938
100
AcDbArc
 50
293.1625650779
 51
311.5844547366
  0
LINE
  5
1DD
330
1F
100
AcDbEntity
  8
0
  6
Continuous
 62
     7
370
    25
100
AcDbLine
 10
6454.5456754497
 20
5012.056911841
 30
0.0
 11
6454.9438418812
 21
5011.8998989548
 31
0.0
  0
LINE
  5
1DE
330
1F
100
AcDbEntity
  8
0
  6
Continuous
 62
     7
370
    25
100
AcDbLine
 10
6454.5456754497
 20
5012.9229372448
 30
0.0
 11
6454.5456754497
 21
5012.056911841
 31
0.0
  0
LINE
  5
1DF
330
1F
100
AcDbEntity
  8
0
  6
Continuous
 62
     7
370
    25
100
AcDbLine
 10
6452.6878950067
 20
5011.7451584216
 30
0.0
 11
6452.6878950067
 21
5010.8791330178
 31
0.0
  0
LINE
  5
1E0
330
1F
100
AcDbEntity
  8
0
  6
Continuous
 62
     7
370
    25
100
AcDbLine
 10
6442.6875794309
 20
5011.1544238289
 30
0.0
 11
6442.6875794309
 21
5010.2883984251
 31
0.0
  0
ARC
  5
1E1
330
1F
100
AcDbEntity
  8
0
  6
Continuous
 62
     7
370
    25
100
AcDbCircle
 10
6445.3185883448
 20
5020.4114865811
 30
0.0
 40
10.45940350691462
100
AcDbArc
 50
241.52636009
 51
255.431053682
  0
LINE
  5
1E2
330
1F
100
AcDbEntity
  8
0
  6
Continuous
 62
     7
370
    25
100
AcDbLine
 10
6440.3320217845
 20
5012.0833140504
 30
0.0
 11
6440.3320217845
 21
5011.2172886466
 31
0.0
  0
LINE
  5
1E3
330
1F
100
AcDbEntity
  8
0
  6
Continuous
 62
     7
370
    25
100
AcDbLine
 10
6442.6875794309
 20
5010.2883984251
 30
0.0
 11
6442.3735536585
 21
5010.0893152093
 31
0.0
  0
LINE
  5
1E4
330
1F
100
AcDbEntity
  8
0
  6
Continuous
 62
     7
370
    25
100
AcDbLine
 10
6440.3320217845
 20
5011.2172886466
 30
0.0
 11
6440.017996012
 21
5011.0182054308
 31
0.0
  0
LINE
  5
1E5
330
1F
100
AcDbEntity
  8
0
  6
Continuous
 62
     7
370
    25
100
AcDbLine
 10
6449.3491696824
 20
5010.8107344881
 30
0.0
 11
6449.3491696824
 21
5009.9447090843
 31
0.0
  0
ARC
  5
1E6
330
1F
100
AcDbEntity
  8
0
  6
Continuous
 62
     7
370
    25
100
AcDbCircle
 10
6446.8539394141
 20
5026.879959773
 30
0.0
 40
17.11808663313112
100
AcDbArc
 50
268.3796261311
 51
278.3816229976
  0
LINE
  5
1E7
330
1F
100
AcDbEntity
  8
0
  6
Continuous
 62
     7
370
    25
100
AcDbLine
 10
6446.369889748
 20
5010.6347436701
 30
0.0
 11
6446.369889748
 21
5009.7687182663
 31
0.0
  0
LINE
  5
1E8
330
1F
100
AcDbEntity
  8
0
  6
Continuous
 62
     7
370
    25
100
AcDbLine
 10
6449.408666113
 20
5009.6929111159
 30
0.0
 11
6449.3491696824
 21
5009.9447090843
 31
0.0
  0
LINE
  5
1E9
330
1F
100
AcDbEntity
  8
0
  6
Continuous
 62
     7
370
    25
100
AcDbLine
 10
6446.4293861785
 20
5009.5169202978
 30
0.0
 11
6446.369889748
 21
5009.7687182663
 31
0.0
  0
LWPOLYLINE
  5
1EA
330
1F
100
AcDbEntity
  8
0
  6
Continuous
 62
     7
370
    25
100
AcDbPolyline
 90
       38
 70
   128
 43
0.0
 10
6435.24082776
 20
5010.928347656
 10
6434.7280630394
 20
5011.3529208213
 10
6433.9138005692
 20
5012.2668027215
 10
6433.5364937573
 20
5012.8326567778
 10
6433.2399249162
 20
5013.4126126418
 10
6433.0262638892
 20
5014.0012099025
 10
6432.8931496689
 20
5014.6128760141
 10
6432.8481140244
 20
5015.2343794496
 10
6432.8933344093
 20
5015.8571545204
 10
6433.026256933
 20
5016.4675250967
 10
6433.2399143928
 20
5017.0561221246
 10
6433.5364844426
 20
5017.6360862251
 10
6433.9138005692
 20
5018.2019561776
 10
6435.2075394521
 20
5019.5426330997
 10
6436.9486190878
 20
5020.71774625
 10
6439.0701307621
 20
5021.6821366893
 10
6441.4905459713
 20
5022.3987434339
 10
6444.1168495161
 20
5022.8400276883
 10
6446.8481140244
 20
5022.9890311462
 10
6449.5793785326
 20
5022.8400276883
 10
6452.2056820775
 20
5022.3987434339
 10
6454.6260972866
 20
5021.6821366893
 10
6456.747608961
 20
5020.71774625
 10
6457.9510926567
 20
5019.9579818734
 10
6458.9681650057
 20
5019.1158380812
 10
6459.7824274795
 20
5018.2019561776
 10
6460.1597342929
 20
5017.6361021188
 10
6460.4563031347
 20
5017.0561462524
 10
6460.6699641615
 20
5016.4675489897
 10
6460.8030783799
 20
5015.8558828843
 10
6460.8481140244
 20
5015.2343794496
 10
6460.8028936358
 20
5014.6116043541
 10
6460.669971113
 20
5014.001233793
 10
6460.4563136543
 20
5013.4126367708
 10
6460.1597436053
 20
5012.8326726728
 10
6459.7824274795
 20
5012.2668027215
 10
6458.4886885966
 20
5010.9261257995
 10
6458.4784264478
 20
5010.9191995304
  0
LWPOLYLINE
  5
1EB
330
1F
100
AcDbEntity
  8
0
  6
Continuous
 62
     7
370
    25
100
AcDbPolyline
 90
       33
 70
   128
 43
0.0
 10
6446.8481140244
 20
5007.0263645591
 10
6449.3247062042
 20
5007.1561532974
 10
6451.7061243354
 20
5007.540531804
 10
6453.9008518547
 20
5008.1647286283
 10
6455.8245466145
 20
5009.0047562365
 10
6457.4032821038
 20
5010.0283328387
 10
6458.5763884033
 20
5011.19612296
 10
6459.2987836957
 20
5012.4632490811
 10
6459.542706735
 20
5013.7810162557
 10
6459.2987836957
 20
5015.0987834304
 10
6458.5763884033
 20
5016.3659095515
 10
6457.4032821038
 20
5017.5336996728
 10
6455.8245466145
 20
5018.557276275
 10
6453.9008518547
 20
5019.3973038832
 10
6451.7061243354
 20
5020.0215007075
 10
6449.3247062042
 20
5020.4058792141
 10
6446.8481140244
 20
5020.5356679524
 10
6444.3715218446
 20
5020.4058792141
 10
6441.9901037134
 20
5020.0215007075
 10
6439.795376194
 20
5019.3973038832
 10
6437.8716814343
 20
5018.557276275
 10
6436.2929459449
 20
5017.5336996728
 10
6435.1198396454
 20
5016.3659095515
 10
6434.397444353
 20
5015.0987834304
 10
6434.1535213137
 20
5013.7810162558
 10
6434.397444353
 20
5012.4632490811
 10
6435.1198396454
 20
5011.19612296
 10
6436.2929459449
 20
5010.0283328387
 10
6437.8716814343
 20
5009.0047562365
 10
6439.795376194
 20
5008.1647286283
 10
6441.9901037134
 20
5007.540531804
 10
6444.3715218446
 20
5007.1561532974
 10
6446.8481140244
 20
5007.0263645591
  0
LWPOLYLINE
  5
1EC
330
1F
100
AcDbEntity
  8
0
  6
Continuous
 62
     7
370
    25
100
AcDbPolyline
 90
       43
 70
   128
 43
0.0
 10
6446.8481140244
 20
5009.4496791378
 10
6448.2453852698
 20
5009.5020346398
 10
6449.6114437845
 20
5009.6579316106
 10
6450.9157740786
 20
5009.9138875695
 10
6452.1292395687
 20
5010.2641848831
 10
6453.224733441
 20
5010.7009984885
 10
6454.1777841725
 20
5011.2145706915
 10
6454.9671021849
 20
5011.7934291378
 10
6455.5750554179
 20
5012.424643086
 10
6455.9880632011
 20
5013.0941122598
 10
6456.1968996229
 20
5013.7868818241
 10
6456.1968996229
 20
5014.4874764514
 10
6455.9880632011
 20
5015.1802460157
 10
6455.5750554179
 20
5015.8497151895
 10
6454.9671021849
 20
5016.4809291378
 10
6454.1777841725
 20
5017.059787584
 10
6453.224733441
 20
5017.573359787
 10
6452.1292395687
 20
5018.0101733924
 10
6450.9157740786
 20
5018.360470706
 10
6449.6114437845
 20
5018.6164266649
 10
6448.2453852698
 20
5018.7723236357
 10
6446.8481140244
 20
5018.8246791378
 10
6445.450842779
 20
5018.7723236357
 10
6444.0847842643
 20
5018.6164266649
 10
6442.7804539701
 20
5018.360470706
 10
6441.56698848
 20
5018.0101733924
 10
6440.4714946078
 20
5017.573359787
 10
6439.5184438762
 20
5017.059787584
 10
6438.7291258639
 20
5016.4809291378
 10
6438.1211726308
 20
5015.8497151895
 10
6437.7081648477
 20
5015.1802460157
 10
6437.4993284258
 20
5014.4874764514
 10
6437.4993284258
 20
5013.7868818241
 10
6437.7081648477
 20
5013.0941122598
 10
6438.1211726308
 20
5012.424643086
 10
6438.7291258639
 20
5011.7934291378
 10
6439.5184438762
 20
5011.2145706915
 10
6440.4714946078
 20
5010.7009984885
 10
6441.56698848
 20
5010.2641848831
 10
6442.7804539701
 20
5009.9138875695
 10
6444.0847842643
 20
5009.6579316106
 10
6445.450842779
 20
5009.5020346398
 10
6446.8481140244
 20
5009.4496791378
  0
ELLIPSE
  5
1ED
330
1F
100
AcDbEntity
  8
0
  6
Continuous
 62
     7
370
    25
100
AcDbEllipse
 10
6446.8481140244
 20
5051.4690366283
 30
0.0
 11
9.094947017729282E-13
 21
18.2757020506524
 31
-1.065814103640150E-14
210
-7.105427357600925E-15
220
5.831864082084604E-16
230
1.0
 40
0.7660444431
 41
0.0
 42
1.570796326794835
  0
ELLIPSE
  5
1EE
330
1F
100
AcDbEntity
  8
0
  6
Continuous
 62
     7
370
    25
100
AcDbEllipse
 10
6446.8481140244
 20
5051.4690366283
 30
0.0
 11
9.094947017729282E-13
 21
18.2757020506524
 31
-1.065814103640150E-14
210
-7.105427357600925E-15
220
5.831864082084604E-16
230
1.0
 40
0.7660444431
 41
4.712388980384689
 42
6.283185307179586
  0
ARC
  5
1EF
330
1F
100
AcDbEntity
  8
0
  6
Continuous
 62
     7
370
    25
100
AcDbCircle
 10
6366.8481140244
 20
5124.0201164752
 30
0.0
 40
3.5
100
AcDbArc
 50
90.0
 51
180.0
  0
LINE
  5
1F0
330
1F
100
AcDbEntity
  8
0
  6
Continuous
 62
     7
370
    25
100
AcDbLine
 10
6363.3481140244
 20
5124.0201164752
 30
0.0
 11
6361.8481140244
 21
5124.0201164752
 31
0.0
  0
ARC
  5
1F1
330
1F
100
AcDbEntity
  8
0
  6
Continuous
 62
     7
370
    25
100
AcDbCircle
 10
6366.8481140244
 20
5124.0201164752
 30
0.0
 40
5.0
100
AcDbArc
 50
90.0
 51
180.0
  0
LINE
  5
1F2
330
1F
100
AcDbEntity
  8
0
  6
Continuous
 62
     7
370
    25
100
AcDbLine
 10
6366.8481140244
 20
5127.5201164752
 30
0.0
 11
6366.8481140244
 21
5129.0201164752
 31
0.0
  0
ARC
  5
1F3
330
1F
100
AcDbEntity
  8
0
  6
Continuous
 62
     7
370
    25
100
AcDbCircle
 10
6366.8481140244
 20
4964.0201164752
 30
0.0
 40
3.5
100
AcDbArc
 50
180.0
 51
270.0
  0
LINE
  5
1F4
330
1F
100
AcDbEntity
  8
0
  6
Continuous
 62
     7
370
    25
100
AcDbLine
 10
6366.8481140244
 20
4960.5201164752
 30
0.0
 11
6366.8481140244
 21
4959.0201164752
 31
0.0
  0
ARC
  5
1F5
330
1F
100
AcDbEntity
  8
0
  6
Continuous
 62
     7
370
    25
100
AcDbCircle
 10
6366.8481140244
 20
4964.0201164752
 30
0.0
 40
5.0
100
AcDbArc
 50
180.0
 51
270.0
  0
LINE
  5
1F6
330
1F
100
AcDbEntity
  8
0
  6
Continuous
 62
     7
370
    25
100
AcDbLine
 10
6363.3481140244
 20
4964.0201164752
 30
0.0
 11
6361.8481140244
 21
4964.0201164752
 31
0.0
  0
CIRCLE
  5
1F7
330
1F
100
AcDbEntity
  8
0
  6
Continuous
 62
     7
370
    25
100
AcDbCircle
 10
6385.3481140244
 20
5105.5201164752
 30
0.0
 40
5.199999999998909
  0
LINE
  5
1F8
330
1F
100
AcDbEntity
  8
0
  6
Continuous
 62
     7
370
    25
100
AcDbLine
 10
6531.8481140244
 20
5124.0201164752
 30
0.0
 11
6531.8481140244
 21
4964.0201164752
 31
0.0
  0
LINE
  5
1F9
330
1F
100
AcDbEntity
  8
0
  6
Continuous
 62
     7
370
    25
100
AcDbLine
 10
6531.8481140244
 20
4964.0201164752
 30
0.0
 11
6530.3481140244
 21
4964.0201164752
 31
0.0
  0
LINE
  5
1FA
330
1F
100
AcDbEntity
  8
0
  6
Continuous
 62
     7
370
    25
100
AcDbLine
 10
6530.3481140244
 20
4964.0201164752
 30
0.0
 11
6530.3481140244
 21
5124.0201164752
 31
0.0
  0
LINE
  5
1FB
330
1F
100
AcDbEntity
  8
0
  6
Continuous
 62
     7
370
    25
100
AcDbLine
 10
6531.8481140244
 20
5124.0201164752
 30
0.0
 11
6530.3481140244
 21
5124.0201164752
 31
0.0
  0
CIRCLE
  5
1FC
330
1F
100
AcDbEntity
  8
0
  6
Continuous
 62
     7
370
    25
100
AcDbCircle
 10
6508.3481140244
 20
4982.5201164752
 30
0.0
 40
5.199999999999818
  0
LINE
  5
1FD
330
1F
100
AcDbEntity
  8
0
  6
Continuous
 62
     7
370
    25
100
AcDbLine
 10
6363.3481140244
 20
5124.0201164752
 30
0.0
 11
6363.3481140244
 21
4964.0201164752
 31
0.0
  0
LINE
  5
1FE
330
1F
100
AcDbEntity
  8
0
  6
Continuous
 62
     7
370
    25
100
AcDbLine
 10
6361.8481140244
 20
4964.0201164752
 30
0.0
 11
6361.8481140244
 21
5124.0201164752
 31
0.0
  0
CIRCLE
  5
1FF
330
1F
100
AcDbEntity
  8
0
  6
Continuous
 62
     7
370
    25
100
AcDbCircle
 10
6385.3481140244
 20
4982.5201164752
 30
0.0
 40
5.199999999998909
  0
CIRCLE
  5
200
330
1F
100
AcDbEntity
  8
0
  6
Continuous
 62
     7
370
    25
100
AcDbCircle
 10
6508.3481140244
 20
5105.5201164752
 30
0.0
 40
5.199999999999818
  0
LINE
  5
201
330
1F
100
AcDbEntity
  8
0
  6
Continuous
 62
     7
370
    25
100
AcDbLine
 10
6526.8481140244
 20
5127.5201164752
 30
0.0
 11
6366.8481140244
 21
5127.5201164752
 31
0.0
  0
ARC
  5
202
330
1F
100
AcDbEntity
  8
0
  6
Continuous
 62
     7
370
    25
100
AcDbCircle
 10
6526.8481140244
 20
5124.0201164752
 30
0.0
 40
3.5
100
AcDbArc
 50
0.0
 51
90.0
  0
ARC
  5
203
330
1F
100
AcDbEntity
  8
0
  6
Continuous
 62
     7
370
    25
100
AcDbCircle
 10
6526.8481140244
 20
4964.0201164752
 30
0.0
 40
3.5
100
AcDbArc
 50
270.0
 51
0.0
  0
LINE
  5
204
330
1F
100
AcDbEntity
  8
0
  6
Continuous
 62
     7
370
    25
100
AcDbLine
 10
6366.8481140244
 20
4960.5201164752
 30
0.0
 11
6526.8481140244
 21
4960.5201164752
 31
0.0
  0
ARC
  5
205
330
1F
100
AcDbEntity
  8
0
  6
Continuous
 62
     7
370
    25
100
AcDbCircle
 10
6526.8481140244
 20
5124.0201164752
 30
0.0
 40
5.0
100
AcDbArc
 50
0.0
 51
90.0
  0
LINE
  5
206
330
1F
100
AcDbEntity
  8
0
  6
Continuous
 62
     7
370
    25
100
AcDbLine
 10
6526.8481140244
 20
5129.0201164752
 30
0.0
 11
6526.8481140244
 21
5127.5201164752
 31
0.0
  0
LINE
  5
207
330
1F
100
AcDbEntity
  8
0
  6
Continuous
 62
     7
370
    25
100
AcDbLine
 10
6526.8481140244
 20
4959.0201164752
 30
0.0
 11
6526.8481140244
 21
4960.5201164752
 31
0.0
  0
LINE
  5
208
330
1F
100
AcDbEntity
  8
0
  6
Continuous
 62
     7
370
    25
100
AcDbLine
 10
6526.8481140244
 20
4959.0201164752
 30
0.0
 11
6366.8481140244
 21
4959.0201164752
 31
0.0
  0
ARC
  5
209
330
1F
100
AcDbEntity
  8
0
  6
Continuous
 62
     7
370
    25
100
AcDbCircle
 10
6526.8481140244
 20
4964.0201164752
 30
0.0
 40
5.0
100
AcDbArc
 50
270.0
 51
0.0
  0
LINE
  5
20A
330
1F
100
AcDbEntity
  8
0
  6
Continuous
 62
     7
370
    25
100
AcDbLine
 10
6366.8481140244
 20
5129.0201164752
 30
0.0
 11
6526.8481140244
 21
5129.0201164752
 31
0.0
  0
LINE
  5
20B
330
1F
100
AcDbEntity
  8
0
  6
Continuous
 62
     7
370
    25
100
AcDbLine
 10
6762.5514203907
 20
5062.0201164752
 30
0.0
 11
6763.0514203907
 21
5062.0201164752
 31
0.0
  0
LINE
  5
20C
330
1F
100
AcDbEntity
  8
0
  6
Continuous
 62
     7
370
    25
100
AcDbLine
 10
6763.0514203907
 20
5090.0201164752
 30
0.0
 11
6762.5514203907
 21
5090.0201164752
 31
0.0
  0
LINE
  5
20D
330
1F
100
AcDbEntity
  8
0
  6
Continuous
 62
     7
370
    25
100
AcDbLine
 10
6763.0514203907
 20
5062.0201164752
 30
0.0
 11
6764.5514203907
 21
5063.5201164752
 31
0.0
  0
LINE
  5
20E
330
1F
100
AcDbEntity
  8
0
  6
Continuous
 62
     7
370
    25
100
AcDbLine
 10
6764.5514203907
 20
5088.5201164752
 30
0.0
 11
6763.0514203907
 21
5090.0201164752
 31
0.0
  0
LINE
  5
20F
330
1F
100
AcDbEntity
  8
0
  6
Continuous
 62
     7
370
    25
100
AcDbLine
 10
6699.1514203907
 20
5120.5201164752
 30
0.0
 11
6699.1514203907
 21
5121.4201164752
 31
0.0
  0
LINE
  5
210
330
1F
100
AcDbEntity
  8
0
  6
Continuous
 62
     7
370
    25
100
AcDbLine
 10
6685.9514203907
 20
5121.4201164752
 30
0.0
 11
6685.9514203907
 21
5120.5201164752
 31
0.0
  0
ARC
  5
211
330
1F
100
AcDbEntity
  8
0
  6
Continuous
 62
     7
370
    25
100
AcDbCircle
 10
6698.3514203907
 20
5121.4201164752
 30
0.0
 40
0.8000000000001819
100
AcDbArc
 50
0.0
 51
90.0
  0
ARC
  5
212
330
1F
100
AcDbEntity
  8
0
  6
Continuous
 62
     7
370
    25
100
AcDbCircle
 10
6686.7514203907
 20
5121.4201164752
 30
0.0
 40
0.8000000000001819
100
AcDbArc
 50
90.0
 51
180.0
  0
LINE
  5
213
330
1F
100
AcDbEntity
  8
0
  6
Continuous
 62
     7
370
    25
100
AcDbLine
 10
6697.3014203907
 20
5119.5101164752
 30
0.0
 11
6697.3014203907
 21
5119.5201164752
 31
0.0
  0
LINE
  5
214
330
1F
100
AcDbEntity
  8
0
  6
Continuous
 62
     7
370
    25
100
AcDbLine
 10
6687.8014203907
 20
5119.5201164752
 30
0.0
 11
6687.8014203907
 21
5119.5101164752
 31
0.0
  0
LINE
  5
215
330
1F
100
AcDbEntity
  8
0
  6
Continuous
 62
     7
370
    25
100
AcDbLine
 10
6660.3309203907
 20
4949.5201164752
 30
0.0
 11
6661.3309203907
 21
4948.5201164752
 31
0.0
  0
LINE
  5
216
330
1F
100
AcDbEntity
  8
0
  6
Continuous
 62
     7
370
    25
100
AcDbLine
 10
6685.7719203907
 20
4948.5201164752
 30
0.0
 11
6686.7719203907
 21
4949.5201164752
 31
0.0
  0
LINE
  5
217
330
1F
100
AcDbEntity
  8
0
  6
Continuous
 62
     7
370
    25
100
AcDbLine
 10
6660.3309203907
 20
4957.5201164752
 30
0.0
 11
6660.3309203907
 21
4957.5198263639
 31
0.0
  0
LINE
  5
218
330
1F
100
AcDbEntity
  8
0
  6
Continuous
 62
     7
370
    25
100
AcDbLine
 10
6686.7719203907
 20
4957.5198263639
 30
0.0
 11
6686.7719203907
 21
4957.5201164752
 31
0.0
  0
ARC
  5
219
330
1F
100
AcDbEntity
  8
0
  6
Continuous
 62
     7
370
    25
100
AcDbCircle
 10
6660.3014203907
 20
4956.0201164752
 30
0.0
 40
1.499999999999722
100
AcDbArc
 50
271.1268896477
 51
88.8731103523
  0
ARC
  5
21A
330
1F
100
AcDbEntity
  8
0
  6
Continuous
 62
     7
370
    25
100
AcDbCircle
 10
6686.8014203907
 20
4956.0201164752
 30
0.0
 40
1.499999999999722
100
AcDbArc
 50
91.1268896477
 51
268.8731103523
  0
LINE
  5
21B
330
1F
100
AcDbEntity
  8
0
  6
Continuous
 62
     7
370
    25
100
AcDbLine
 10
6660.3309203907
 20
4954.5204065866
 30
0.0
 11
6660.3309203907
 21
4949.5201164752
 31
0.0
  0
LINE
  5
21C
330
1F
100
AcDbEntity
  8
0
  6
Continuous
 62
     7
370
    25
100
AcDbLine
 10
6686.7719203907
 20
4949.5201164752
 30
0.0
 11
6686.7719203907
 21
4954.5204065866
 31
0.0
  0
LINE
  5
21D
330
1F
100
AcDbEntity
  8
0
  6
Continuous
 62
     7
370
    25
100
AcDbLine
 10
6762.572322103
 20
5107.3192199345
 30
0.0
 11
6762.5445087236
 21
5107.6110369055
 31
0.0
  0
LINE
  5
21E
330
1F
100
AcDbEntity
  8
0
  6
Continuous
 62
     7
370
    25
100
AcDbLine
 10
6762.5514203907
 20
5103.4977416336
 30
0.0
 11
6762.5720071888
 21
5103.7174421231
 31
0.0
  0
LINE
  5
21F
330
1F
100
AcDbEntity
  8
0
  6
Continuous
 62
     7
370
    25
100
AcDbLine
 10
6762.574040276
 20
5104.7701164752
 30
0.0
 11
6762.6376962845
 21
5104.7701164752
 31
0.0
  0
LINE
  5
220
330
1F
100
AcDbEntity
  8
0
  6
Continuous
 62
     7
370
    25
100
AcDbLine
 10
6762.6376962845
 20
5106.2701164752
 30
0.0
 11
6762.5514203907
 21
5106.2701164752
 31
0.0
  0
ARC
  5
221
330
1F
100
AcDbEntity
  8
0
  6
Continuous
 62
     7
370
    25
100
AcDbCircle
 10
6742.1514203907
 20
5105.5201164752
 30
0.0
 40
20.4999999999994
100
AcDbArc
 50
357.9033450422
 51
2.0966549578
  0
LINE
  5
222
330
1F
100
AcDbEntity
  8
0
  6
Continuous
 62
     7
370
    25
100
AcDbLine
 10
6762.5740777046
 20
5103.755114376
 30
0.0
 11
6762.5514203907
 21
5103.755114376
 31
0.0
  0
LINE
  5
223
330
1F
100
AcDbEntity
  8
0
  6
Continuous
 62
     7
370
    25
100
AcDbLine
 10
6762.5514203907
 20
5107.2851185745
 30
0.0
 11
6762.5740777046
 21
5107.2851185745
 31
0.0
  0
LINE
  5
224
330
1F
100
AcDbEntity
  8
0
  6
Continuous
 62
     7
370
    25
100
AcDbLine
 10
6762.5681680836
 20
4984.3657636906
 30
0.0
 11
6762.5465078303
 21
4984.5914465625
 31
0.0
  0
LINE
  5
225
330
1F
100
AcDbEntity
  8
0
  6
Continuous
 62
     7
370
    25
100
AcDbLine
 10
6762.5514203907
 20
4980.4977416336
 30
0.0
 11
6762.5673713598
 21
4980.6656769301
 31
0.0
  0
LINE
  5
226
330
1F
100
AcDbEntity
  8
0
  6
Continuous
 62
     7
370
    25
100
AcDbLine
 10
6757.5514203907
 20
4980.0201164752
 30
0.0
 11
6759.5514203907
 21
4980.0201164752
 31
0.0
  0
LINE
  5
227
330
1F
100
AcDbEntity
  8
0
  6
Continuous
 62
     7
370
    25
100
AcDbLine
 10
6762.5514203907
 20
4981.7701164752
 30
0.0
 11
6762.6376962845
 21
4981.7701164752
 31
0.0
  0
LINE
  5
228
330
1F
100
AcDbEntity
  8
0
  6
Continuous
 62
     7
370
    25
100
AcDbLine
 10
6762.6376962845
 20
4983.2701164752
 30
0.0
 11
6762.5741269636
 21
4983.2701164752
 31
0.0
  0
ARC
  5
229
330
1F
100
AcDbEntity
  8
0
  6
Continuous
 62
     7
370
    25
100
AcDbCircle
 10
6742.1514203907
 20
4982.5201164752
 30
0.0
 40
20.49999999999943
100
AcDbArc
 50
357.9033450422
 51
2.0966549578
  0
LINE
  5
22A
330
1F
100
AcDbEntity
  8
0
  6
Continuous
 62
     7
370
    25
100
AcDbLine
 10
6762.5514203907
 20
4984.2725222116
 30
0.0
 11
6762.5738072258
 21
4984.2725222116
 31
0.0
  0
LINE
  5
22B
330
1F
100
AcDbEntity
  8
0
  6
Continuous
 62
     7
370
    25
100
AcDbLine
 10
6762.5738072258
 20
4980.7677107389
 30
0.0
 11
6762.5514203907
 21
4980.7677107389
 31
0.0
  0
LINE
  5
22C
330
1F
100
AcDbEntity
  8
0
  6
Continuous
 62
     7
370
    25
100
AcDbLine
 10
6762.570473501
 20
5103.8956359506
 30
0.0
 11
6762.5514203907
 21
5103.8956359506
 31
0.0
  0
LINE
  5
22D
330
1F
100
AcDbEntity
  8
0
  6
Continuous
 62
     7
370
    25
100
AcDbLine
 10
6793.1957037026
 20
5007.4797277529
 30
0.0
 11
6794.8739029649
 21
5007.0263645591
 31
0.0
  0
LINE
  5
22E
330
1F
100
AcDbEntity
  8
0
  6
Continuous
 62
     7
370
    25
100
AcDbLine
 10
6818.272702817
 20
5020.5356679524
 30
0.0
 11
6818.272702817
 21
5022.9890311462
 31
0.0
  0
LINE
  5
22F
330
1F
100
AcDbEntity
  8
0
  6
Continuous
 62
     7
370
    25
100
AcDbLine
 10
6762.5514203907
 20
5033.1933345776
 30
0.0
 11
6793.1957037026
 21
5007.4797277529
 31
0.0
  0
LINE
  5
230
330
1F
100
AcDbEntity
  8
0
  6
Continuous
 62
     7
370
    25
100
AcDbLine
 10
6818.2732031108
 20
5022.9886113499
 30
0.0
 11
6764.5514203907
 21
5068.0665394165
 31
0.0
  0
LINE
  5
231
330
1F
100
AcDbEntity
  8
0
  6
Continuous
 62
     7
370
    25
100
AcDbLine
 10
6763.0514203907
 20
5062.0201164752
 30
0.0
 11
6763.0514203907
 21
5090.0201164752
 31
0.0
  0
LINE
  5
232
330
1F
100
AcDbEntity
  8
0
  6
Continuous
 62
     7
370
    25
100
AcDbLine
 10
6764.5514203907
 20
5088.5201164752
 30
0.0
 11
6764.5514203907
 21
5063.5201164752
 31
0.0
  0
LINE
  5
233
330
1F
100
AcDbEntity
  8
0
  6
Continuous
 62
     7
370
    25
100
AcDbLine
 10
6657.5514203907
 20
5117.5101164752
 30
0.0
 11
6657.5514203907
 21
5119.5101164752
 31
0.0
  0
LINE
  5
234
330
1F
100
AcDbEntity
  8
0
  6
Continuous
 62
     7
370
    25
100
AcDbLine
 10
6754.8443136095
 20
5119.5101164752
 30
0.0
 11
6657.5514203907
 21
5119.5101164752
 31
0.0
  0
ARC
  5
235
330
1F
100
AcDbEntity
  8
0
  6
Continuous
 62
     7
370
    25
100
AcDbCircle
 10
6750.8758033806
 20
5116.9820362282
 30
0.0
 40
4.705344107717834
100
AcDbArc
 50
6.4438749228
 51
32.4985663461
  0
LINE
  5
236
330
1F
100
AcDbEntity
  8
0
  6
Continuous
 62
     7
370
    25
100
AcDbLine
 10
6755.5514203907
 20
5117.5101164752
 30
0.0
 11
6657.5514203907
 21
5117.5101164752
 31
0.0
  0
LINE
  5
237
330
1F
100
AcDbEntity
  8
0
  6
Continuous
 62
     7
370
    25
100
AcDbLine
 10
6755.5514203907
 20
4970.5301164752
 30
0.0
 11
6755.5514203907
 21
5117.5101164752
 31
0.0
  0
LINE
  5
238
330
1F
100
AcDbEntity
  8
0
  6
Continuous
 62
     7
370
    25
100
AcDbLine
 10
6657.5514203907
 20
4970.5301164752
 30
0.0
 11
6755.5514203907
 21
4970.5301164752
 31
0.0
  0
LINE
  5
239
330
1F
100
AcDbEntity
  8
0
  6
Continuous
 62
     7
370
    25
100
AcDbLine
 10
6657.5514203907
 20
4970.5301164752
 30
0.0
 11
6657.5514203907
 21
5117.5101164752
 31
0.0
  0
LINE
  5
23A
330
1F
100
AcDbEntity
  8
0
  6
Continuous
 62
     7
370
    25
100
AcDbLine
 10
6757.5514203907
 20
4970.5301164752
 30
0.0
 11
6757.5514203907
 21
4984.0201164752
 31
0.0
  0
LINE
  5
23B
330
1F
100
AcDbEntity
  8
0
  6
Continuous
 62
     7
370
    25
100
AcDbLine
 10
6757.5514203907
 20
4970.5301164752
 30
0.0
 11
6755.5514203907
 21
4970.5301164752
 31
0.0
  0
LINE
  5
23C
330
1F
100
AcDbEntity
  8
0
  6
Continuous
 62
     7
370
    25
100
AcDbLine
 10
6755.5514203907
 20
5117.5101164752
 30
0.0
 11
6757.5514203907
 21
5117.5101164752
 31
0.0
  0
LINE
  5
23D
330
1F
100
AcDbEntity
  8
0
  6
Continuous
 62
     7
370
    25
100
AcDbLine
 10
6655.5514203907
 20
4970.5301164752
 30
0.0
 11
6655.5514203907
 21
5117.5101164752
 31
0.0
  0
LINE
  5
23E
330
1F
100
AcDbEntity
  8
0
  6
Continuous
 62
     7
370
    25
100
AcDbLine
 10
6655.5514203907
 20
5117.5101164752
 30
0.0
 11
6657.5514203907
 21
5117.5101164752
 31
0.0
  0
LINE
  5
23F
330
1F
100
AcDbEntity
  8
0
  6
Continuous
 62
     7
370
    25
100
AcDbLine
 10
6657.5514203907
 20
4970.5301164752
 30
0.0
 11
6655.5514203907
 21
4970.5301164752
 31
0.0
  0
ARC
  5
240
330
1F
100
AcDbEntity
  8
0
  6
Continuous
 62
     7
370
    25
100
AcDbCircle
 10
6752.2751288756
 20
4970.563460449
 30
0.0
 40
3.276461187372032
100
AcDbArc
 50
321.6406579458
 51
359.4169007853
  0
LINE
  5
241
330
1F
100
AcDbEntity
  8
0
  6
Continuous
 62
     7
370
    25
100
AcDbLine
 10
6657.5514203907
 20
4968.5301164752
 30
0.0
 11
6754.8443136095
 21
4968.5301164752
 31
0.0
  0
LINE
  5
242
330
1F
100
AcDbEntity
  8
0
  6
Continuous
 62
     7
370
    25
100
AcDbLine
 10
6657.5514203907
 20
4968.5301164752
 30
0.0
 11
6657.5514203907
 21
4970.5301164752
 31
0.0
  0
ARC
  5
243
330
1F
100
AcDbEntity
  8
0
  6
Continuous
 62
     7
370
    25
100
AcDbCircle
 10
6755.5514203907
 20
5117.5101164752
 30
0.0
 40
2.000000000004547
100
AcDbArc
 50
0.0000000001
 51
89.9999999999
  0
ARC
  5
244
330
1F
100
AcDbEntity
  8
0
  6
Continuous
 62
     7
370
    25
100
AcDbCircle
 10
6755.5514203907
 20
5117.5101164752
 30
0.0
 40
1.0
100
AcDbArc
 50
0.0
 51
90.0000000001
  0
LINE
  5
245
330
1F
100
AcDbEntity
  8
0
  6
Continuous
 62
     7
370
    25
100
AcDbLine
 10
6755.5514203907
 20
5119.5101164752
 30
0.0
 11
6755.5514203907
 21
5118.5101164752
 31
0.0
  0
ARC
  5
246
330
1F
100
AcDbEntity
  8
0
  6
Continuous
 62
     7
370
    25
100
AcDbCircle
 10
6755.5514203907
 20
4970.5301164752
 30
0.0
 40
2.000000000001819
100
AcDbArc
 50
270.0
 51
359.9999999999
  0
LINE
  5
247
330
1F
100
AcDbEntity
  8
0
  6
Continuous
 62
     7
370
    25
100
AcDbLine
 10
6755.5514203907
 20
4968.5301164752
 30
0.0
 11
6755.5514203907
 21
4969.5301164752
 31
0.0
  0
ARC
  5
248
330
1F
100
AcDbEntity
  8
0
  6
Continuous
 62
     7
370
    25
100
AcDbCircle
 10
6755.5514203907
 20
4970.5301164752
 30
0.0
 40
1.000000000003638
100
AcDbArc
 50
270.0000000001
 51
359.9999999998
  0
LINE
  5
249
330
1F
100
AcDbEntity
  8
0
  6
Continuous
 62
     7
370
    25
100
AcDbLine
 10
6655.5514203907
 20
5118.5201164752
 30
0.0
 11
6655.5514203907
 21
5117.5101164752
 31
0.0
  0
LINE
  5
24A
330
1F
100
AcDbEntity
  8
0
  6
Continuous
 62
     7
370
    25
100
AcDbLine
 10
6655.5514203907
 20
5118.5201164752
 30
0.0
 11
6656.5514203907
 21
5118.5201164752
 31
0.0
  0
LINE
  5
24B
330
1F
100
AcDbEntity
  8
0
  6
Continuous
 62
     7
370
    25
100
AcDbLine
 10
6656.5514203907
 20
5118.5201164752
 30
0.0
 11
6656.5514203907
 21
5117.5101164752
 31
0.0
  0
ARC
  5
24C
330
1F
100
AcDbEntity
  8
0
  6
Continuous
 62
     7
370
    25
100
AcDbCircle
 10
6657.5514203907
 20
5118.5201164752
 30
0.0
 40
2.0
100
AcDbArc
 50
90.0
 51
180.0
  0
LINE
  5
24D
330
1F
100
AcDbEntity
  8
0
  6
Continuous
 62
     7
370
    25
100
AcDbLine
 10
6657.5514203907
 20
5119.5201164752
 30
0.0
 11
6657.5514203907
 21
5120.5201164752
 31
0.0
  0
ARC
  5
24E
330
1F
100
AcDbEntity
  8
0
  6
Continuous
 62
     7
370
    25
100
AcDbCircle
 10
6657.5514203907
 20
5118.5201164752
 30
0.0
 40
1.0
100
AcDbArc
 50
90.0
 51
180.0
  0
LINE
  5
24F
330
1F
100
AcDbEntity
  8
0
  6
Continuous
 62
     7
370
    25
100
AcDbLine
 10
6657.5514203907
 20
5120.5201164752
 30
0.0
 11
6755.5514203907
 21
5120.5201164752
 31
0.0
  0
LINE
  5
250
330
1F
100
AcDbEntity
  8
0
  6
Continuous
 62
     7
370
    25
100
AcDbLine
 10
6755.5514203907
 20
5120.5201164752
 30
0.0
 11
6755.5514203907
 21
5119.5201164752
 31
0.0
  0
LINE
  5
251
330
1F
100
AcDbEntity
  8
0
  6
Continuous
 62
     7
370
    25
100
AcDbLine
 10
6657.5514203907
 20
5119.5201164752
 30
0.0
 11
6755.5514203907
 21
5119.5201164752
 31
0.0
  0
LINE
  5
252
330
1F
100
AcDbEntity
  8
0
  6
Continuous
 62
     7
370
    25
100
AcDbLine
 10
6755.5514203907
 20
4968.5201164752
 30
0.0
 11
6657.5514203907
 21
4968.5201164752
 31
0.0
  0
LINE
  5
253
330
1F
100
AcDbEntity
  8
0
  6
Continuous
 62
     7
370
    25
100
AcDbLine
 10
6755.5514203907
 20
4967.5201164752
 30
0.0
 11
6755.5514203907
 21
4968.5201164752
 31
0.0
  0
LINE
  5
254
330
1F
100
AcDbEntity
  8
0
  6
Continuous
 62
     7
370
    25
100
AcDbLine
 10
6755.5514203907
 20
4967.5201164752
 30
0.0
 11
6657.5514203907
 21
4967.5201164752
 31
0.0
  0
LINE
  5
255
330
1F
100
AcDbEntity
  8
0
  6
Continuous
 62
     7
370
    25
100
AcDbLine
 10
6657.5514203907
 20
4968.5201164752
 30
0.0
 11
6657.5514203907
 21
4967.5201164752
 31
0.0
  0
LINE
  5
256
330
1F
100
AcDbEntity
  8
0
  6
Continuous
 62
     7
370
    25
100
AcDbLine
 10
6655.5514203907
 20
4969.5201164752
 30
0.0
 11
6656.5514203907
 21
4969.5201164752
 31
0.0
  0
LINE
  5
257
330
1F
100
AcDbEntity
  8
0
  6
Continuous
 62
     7
370
    25
100
AcDbLine
 10
6655.5514203907
 20
4970.5301164752
 30
0.0
 11
6655.5514203907
 21
4969.5201164752
 31
0.0
  0
LINE
  5
258
330
1F
100
AcDbEntity
  8
0
  6
Continuous
 62
     7
370
    25
100
AcDbLine
 10
6656.5514203907
 20
4970.5301164752
 30
0.0
 11
6656.5514203907
 21
4969.5201164752
 31
0.0
  0
ARC
  5
259
330
1F
100
AcDbEntity
  8
0
  6
Continuous
 62
     7
370
    25
100
AcDbCircle
 10
6657.5514203907
 20
4969.5201164752
 30
0.0
 40
1.0
100
AcDbArc
 50
180.0
 51
270.0
  0
ARC
  5
25A
330
1F
100
AcDbEntity
  8
0
  6
Continuous
 62
     7
370
    25
100
AcDbCircle
 10
6657.5514203907
 20
4969.5201164752
 30
0.0
 40
2.0
100
AcDbArc
 50
180.0
 51
270.0
  0
LINE
  5
25B
330
1F
100
AcDbEntity
  8
0
  6
Continuous
 62
     7
370
    25
100
AcDbLine
 10
6755.5514203907
 20
5118.5101164752
 30
0.0
 11
6755.3154026748
 21
5118.5101164752
 31
0.0
  0
LINE
  5
25C
330
1F
100
AcDbEntity
  8
0
  6
Continuous
 62
     7
370
    25
100
AcDbLine
 10
6755.5514203907
 20
5119.5101164752
 30
0.0
 11
6754.8443136095
 21
5119.5101164752
 31
0.0
  0
LINE
  5
25D
330
1F
100
AcDbEntity
  8
0
  6
Continuous
 62
     7
370
    25
100
AcDbLine
 10
6754.8443136095
 20
4968.5301164752
 30
0.0
 11
6755.5514203907
 21
4968.5301164752
 31
0.0
  0
LINE
  5
25E
330
1F
100
AcDbEntity
  8
0
  6
Continuous
 62
     7
370
    25
100
AcDbLine
 10
6755.3118585812
 20
4969.5301164752
 30
0.0
 11
6755.5514203907
 21
4969.5301164752
 31
0.0
  0
LINE
  5
25F
330
1F
100
AcDbEntity
  8
0
  6
Continuous
 62
     7
370
    25
100
AcDbLine
 10
6698.3514203907
 20
5122.2201164752
 30
0.0
 11
6686.7514203907
 21
5122.2201164752
 31
0.0
  0
LINE
  5
260
330
1F
100
AcDbEntity
  8
0
  6
Continuous
 62
     7
370
    25
100
AcDbLine
 10
6693.4561724878
 20
5119.5101164752
 30
0.0
 11
6693.4561724878
 21
5119.5201164752
 31
0.0
  0
LINE
  5
261
330
1F
100
AcDbEntity
  8
0
  6
Continuous
 62
     7
370
    25
100
AcDbLine
 10
6693.5343962445
 20
5119.5201164752
 30
0.0
 11
6693.5343962445
 21
5119.5101164752
 31
0.0
  0
LINE
  5
262
330
1F
100
AcDbEntity
  8
0
  6
Continuous
 62
     7
370
    25
100
AcDbLine
 10
6690.9818969753
 20
5119.5101164752
 30
0.0
 11
6690.9818969753
 21
5119.5201164752
 31
0.0
  0
LINE
  5
263
330
1F
100
AcDbEntity
  8
0
  6
Continuous
 62
     7
370
    25
100
AcDbLine
 10
6691.0670628026
 20
5119.5201164752
 30
0.0
 11
6691.0670628026
 21
5119.5101164752
 31
0.0
  0
LINE
  5
264
330
1F
100
AcDbEntity
  8
0
  6
Continuous
 62
     7
370
    25
100
AcDbLine
 10
6690.0045580732
 20
5119.5101164752
 30
0.0
 11
6690.0045580732
 21
5119.5201164752
 31
0.0
  0
LINE
  5
265
330
1F
100
AcDbEntity
  8
0
  6
Continuous
 62
     7
370
    25
100
AcDbLine
 10
6695.6874072199
 20
5119.5201164752
 30
0.0
 11
6695.6874072199
 21
5119.5101164752
 31
0.0
  0
LINE
  5
266
330
1F
100
AcDbEntity
  8
0
  6
Continuous
 62
     7
370
    25
100
AcDbLine
 10
6695.0982827081
 20
5119.5101164752
 30
0.0
 11
6695.0982827081
 21
5119.5201164752
 31
0.0
  0
LINE
  5
267
330
1F
100
AcDbEntity
  8
0
  6
Continuous
 62
     7
370
    25
100
AcDbLine
 10
6692.3380069504
 20
5119.5101164752
 30
0.0
 11
6692.3380069504
 21
5119.5201164752
 31
0.0
  0
LINE
  5
268
330
1F
100
AcDbEntity
  8
0
  6
Continuous
 62
     7
370
    25
100
AcDbLine
 10
6694.7559297926
 20
5119.5101164752
 30
0.0
 11
6694.7559297926
 21
5119.5201164752
 31
0.0
  0
LINE
  5
269
330
1F
100
AcDbEntity
  8
0
  6
Continuous
 62
     7
370
    25
100
AcDbLine
 10
6695.6104093005
 20
5119.5101164752
 30
0.0
 11
6695.6104093005
 21
5119.5201164752
 31
0.0
  0
LINE
  5
26A
330
1F
100
AcDbEntity
  8
0
  6
Continuous
 62
     7
370
    25
100
AcDbLine
 10
6695.1752806275
 20
5119.5201164752
 30
0.0
 11
6695.1752806275
 21
5119.5101164752
 31
0.0
  0
LINE
  5
26B
330
1F
100
AcDbEntity
  8
0
  6
Continuous
 62
     7
370
    25
100
AcDbLine
 10
6690.432076816
 20
5119.5201164752
 30
0.0
 11
6690.432076816
 21
5119.5101164752
 31
0.0
  0
LINE
  5
26C
330
1F
100
AcDbEntity
  8
0
  6
Continuous
 62
     7
370
    25
100
AcDbLine
 10
6692.8430575876
 20
5119.5201164752
 30
0.0
 11
6692.8430575876
 21
5119.5101164752
 31
0.0
  0
LINE
  5
26D
330
1F
100
AcDbEntity
  8
0
  6
Continuous
 62
     7
370
    25
100
AcDbLine
 10
6690.3469109887
 20
5119.5101164752
 30
0.0
 11
6690.3469109887
 21
5119.5201164752
 31
0.0
  0
LINE
  5
26E
330
1F
100
AcDbEntity
  8
0
  6
Continuous
 62
     7
370
    25
100
AcDbLine
 10
6692.7648338309
 20
5119.5101164752
 30
0.0
 11
6692.7648338309
 21
5119.5201164752
 31
0.0
  0
LINE
  5
26F
330
1F
100
AcDbEntity
  8
0
  6
Continuous
 62
     7
370
    25
100
AcDbLine
 10
6685.7719203907
 20
4948.5201164752
 30
0.0
 11
6661.3309203907
 21
4948.5201164752
 31
0.0
  0
LINE
  5
270
330
1F
100
AcDbEntity
  8
0
  6
Continuous
 62
     7
370
    25
100
AcDbLine
 10
6660.3309203907
 20
4949.5201164752
 30
0.0
 11
6686.7719203907
 21
4949.5201164752
 31
0.0
  0
LINE
  5
271
330
1F
100
AcDbEntity
  8
0
  6
Continuous
 62
     7
370
    25
100
AcDbLine
 10
6660.3309203907
 20
4957.5198263639
 30
0.0
 11
6686.7719203907
 21
4957.5198263639
 31
0.0
  0
LINE
  5
272
330
1F
100
AcDbEntity
  8
0
  6
Continuous
 62
     7
370
    25
100
AcDbLine
 10
6680.1616703907
 20
4954.5204065866
 30
0.0
 11
6660.3309203907
 21
4954.5204065866
 31
0.0
  0
LINE
  5
273
330
1F
100
AcDbEntity
  8
0
  6
Continuous
 62
     7
370
    25
100
AcDbLine
 10
6686.7719203907
 20
4954.5204065866
 30
0.0
 11
6680.1616703907
 21
4954.5204065866
 31
0.0
  0
LWPOLYLINE
  5
274
330
1F
100
AcDbEntity
  8
0
  6
Continuous
 62
     7
370
    25
100
AcDbPolyline
 90
        3
 70
   128
 43
0.0
 10
6671.9477176032
 20
4966.5201164752
 10
6669.6955968176
 20
4967.3626241448
 10
6669.0618130557
 20
4967.5201164752
  0
LINE
  5
275
330
1F
100
AcDbEntity
  8
0
  6
Continuous
 62
     7
370
    25
100
AcDbLine
 10
6671.9477176032
 20
4958.0974667444
 30
0.0
 11
6671.9477176032
 21
4966.5201164752
 31
0.0
  0
LWPOLYLINE
  5
276
330
1F
100
AcDbEntity
  8
0
  6
Continuous
 62
     7
370
    25
100
AcDbPolyline
 90
        3
 70
   128
 43
0.0
 10
6669.0618130557
 20
4957.5201164752
 10
6669.3844987863
 20
4957.563746964
 10
6671.9477176032
 20
4958.0974667444
  0
LINE
  5
277
330
1F
100
AcDbEntity
  8
0
  6
Continuous
 62
     7
370
    25
100
AcDbLine
 10
6661.6551231781
 20
4958.0974667444
 30
0.0
 11
6664.5410277257
 21
4957.5201164752
 31
0.0
  0
LINE
  5
278
330
1F
100
AcDbEntity
  8
0
  6
Continuous
 62
     7
370
    25
100
AcDbLine
 10
6661.6551231781
 20
4966.5201164752
 30
0.0
 11
6661.6551231781
 21
4958.0974667444
 31
0.0
  0
LWPOLYLINE
  5
279
330
1F
100
AcDbEntity
  8
0
  6
Continuous
 62
     7
370
    25
100
AcDbPolyline
 90
        3
 70
   128
 43
0.0
 10
6664.5410277257
 20
4967.5201164752
 10
6663.0842523589
 20
4967.1042025418
 10
6661.6551231781
 20
4966.5201164752
  0
LINE
  5
27A
330
1F
100
AcDbEntity
  8
0
  6
Continuous
 62
     7
370
    25
100
AcDbLine
 10
6669.0618130557
 20
4957.5201164752
 30
0.0
 11
6664.5410277257
 21
4957.5201164752
 31
0.0
  0
LWPOLYLINE
  5
27B
330
1F
100
AcDbEntity
  8
0
  6
Continuous
 62
     7
370
    25
100
AcDbPolyline
 90
        3
 70
   128
 43
0.0
 10
6675.1551231781
 20
4958.0974667444
 10
6675.9238787251
 20
4957.9042200121
 10
6678.0410277257
 20
4957.5201164752
  0
LINE
  5
27C
330
1F
100
AcDbEntity
  8
0
  6
Continuous
 62
     7
370
    25
100
AcDbLine
 10
6671.9477176032
 20
4958.0974667444
 30
0.0
 11
6675.1551231781
 21
4958.0974667444
 31
0.0
  0
LINE
  5
27D
330
1F
100
AcDbEntity
  8
0
  6
Continuous
 62
     7
370
    25
100
AcDbLine
 10
6669.0618130557
 20
4957.5201164752
 30
0.0
 11
6678.0410277257
 21
4957.5201164752
 31
0.0
  0
LWPOLYLINE
  5
27E
330
1F
100
AcDbEntity
  8
0
  6
Continuous
 62
     7
370
    25
100
AcDbPolyline
 90
        3
 70
   128
 43
0.0
 10
6678.0410277257
 20
4967.5201164752
 10
6677.0274509596
 20
4967.2507786004
 10
6675.1551231781
 20
4966.5201164752
  0
LINE
  5
27F
330
1F
100
AcDbEntity
  8
0
  6
Continuous
 62
     7
370
    25
100
AcDbLine
 10
6671.9477176032
 20
4966.5201164752
 30
0.0
 11
6675.1551231781
 21
4966.5201164752
 31
0.0
  0
LINE
  5
280
330
1F
100
AcDbEntity
  8
0
  6
Continuous
 62
     7
370
    25
100
AcDbLine
 10
6675.1551231781
 20
4966.5201164752
 30
0.0
 11
6675.1551231781
 21
4958.0974667444
 31
0.0
  0
LWPOLYLINE
  5
281
330
1F
100
AcDbEntity
  8
0
  6
Continuous
 62
     7
370
    25
100
AcDbPolyline
 90
        3
 70
   128
 43
0.0
 10
6685.4477176032
 20
4966.5201164752
 10
6684.0324127047
 20
4967.0993576789
 10
6682.5618130557
 20
4967.5201164752
  0
LINE
  5
282
330
1F
100
AcDbEntity
  8
0
  6
Continuous
 62
     7
370
    25
100
AcDbLine
 10
6685.4477176032
 20
4958.0974667444
 30
0.0
 11
6685.4477176032
 21
4966.5201164752
 31
0.0
  0
LWPOLYLINE
  5
283
330
1F
100
AcDbEntity
  8
0
  6
Continuous
 62
     7
370
    25
100
AcDbPolyline
 90
        3
 70
   128
 43
0.0
 10
6682.5618130557
 20
4957.5201164752
 10
6683.8431668321
 20
4957.7255724266
 10
6685.4477176032
 20
4958.0974667444
  0
LINE
  5
284
330
1F
100
AcDbEntity
  8
0
  6
Continuous
 62
     7
370
    25
100
AcDbLine
 10
6682.5618130557
 20
4957.5201164752
 30
0.0
 11
6678.0410277257
 21
4957.5201164752
 31
0.0
  0
LINE
  5
285
330
1F
100
AcDbEntity
  8
0
  6
Continuous
 62
     7
370
    25
100
AcDbLine
 10
6660.0514203907
 20
4957.5201164752
 30
0.0
 11
6660.0514203907
 21
4958.0974667444
 31
0.0
  0
LINE
  5
286
330
1F
100
AcDbEntity
  8
0
  6
Continuous
 62
     7
370
    25
100
AcDbLine
 10
6660.0514203907
 20
4958.0974667444
 30
0.0
 11
6661.6551231781
 21
4958.0974667444
 31
0.0
  0
LINE
  5
287
330
1F
100
AcDbEntity
  8
0
  6
Continuous
 62
     7
370
    25
100
AcDbLine
 10
6660.0514203907
 20
4957.5201164752
 30
0.0
 11
6664.5410277257
 21
4957.5201164752
 31
0.0
  0
LINE
  5
288
330
1F
100
AcDbEntity
  8
0
  6
Continuous
 62
     7
370
    25
100
AcDbLine
 10
6660.0514203907
 20
4966.5201164752
 30
0.0
 11
6661.6551231781
 21
4966.5201164752
 31
0.0
  0
LINE
  5
289
330
1F
100
AcDbEntity
  8
0
  6
Continuous
 62
     7
370
    25
100
AcDbLine
 10
6660.0514203907
 20
4966.5201164752
 30
0.0
 11
6660.0514203907
 21
4967.5201164752
 31
0.0
  0
LINE
  5
28A
330
1F
100
AcDbEntity
  8
0
  6
Continuous
 62
     7
370
    25
100
AcDbLine
 10
6687.0514203907
 20
4967.5201164752
 30
0.0
 11
6687.0514203907
 21
4966.5201164752
 31
0.0
  0
LINE
  5
28B
330
1F
100
AcDbEntity
  8
0
  6
Continuous
 62
     7
370
    25
100
AcDbLine
 10
6685.4477176032
 20
4966.5201164752
 30
0.0
 11
6687.0514203907
 21
4966.5201164752
 31
0.0
  0
LINE
  5
28C
330
1F
100
AcDbEntity
  8
0
  6
Continuous
 62
     7
370
    25
100
AcDbLine
 10
6685.4477176032
 20
4958.0974667444
 30
0.0
 11
6687.0514203907
 21
4958.0974667444
 31
0.0
  0
LINE
  5
28D
330
1F
100
AcDbEntity
  8
0
  6
Continuous
 62
     7
370
    25
100
AcDbLine
 10
6687.0514203907
 20
4958.0974667444
 30
0.0
 11
6687.0514203907
 21
4957.5201164752
 31
0.0
  0
LINE
  5
28E
330
1F
100
AcDbEntity
  8
0
  6
Continuous
 62
     7
370
    25
100
AcDbLine
 10
6682.5618130557
 20
4957.5201164752
 30
0.0
 11
6687.0514203907
 21
4957.5201164752
 31
0.0
  0
LINE
  5
28F
330
1F
100
AcDbEntity
  8
0
  6
Continuous
 62
     7
370
    25
100
AcDbLine
 10
6660.0514203907
 20
4958.0974667444
 30
0.0
 11
6660.0514203907
 21
4966.5201164752
 31
0.0
  0
LINE
  5
290
330
1F
100
AcDbEntity
  8
0
  6
Continuous
 62
     7
370
    25
100
AcDbLine
 10
6687.0514203907
 20
4966.5201164752
 30
0.0
 11
6687.0514203907
 21
4958.0974667444
 31
0.0
  0
ARC
  5
291
330
1F
100
AcDbEntity
  8
0
  6
Continuous
 62
     7
370
    25
100
AcDbCircle
 10
6760.1330996086
 20
5104.6754517054
 30
0.0
 40
2.44624787733671
100
AcDbArc
 50
351.9384350193
 51
8.0615649807
  0
LWPOLYLINE
  5
292
330
1F
100
AcDbEntity
  8
0
  6
Continuous
 62
     7
370
    25
100
AcDbPolyline
 90
        6
 70
   128
 43
0.0
 10
6762.5719876316
 20
5103.7187412141
 10
6762.5737249866
 20
5103.7374171646
 10
6762.574168771
 20
5103.7539148795
 10
6762.5684778707
 20
5103.7147801864
 10
6762.5572923168
 20
5103.6245066335
 10
6762.5551735518
 20
5103.6068033186
  0
ARC
  5
293
330
1F
100
AcDbEntity
  8
0
  6
Continuous
 62
     7
370
    25
100
AcDbCircle
 10
6758.7811167463
 20
5104.4871123316
 30
0.0
 40
3.793009045750523
100
AcDbArc
 50
354.2699690678
 51
2.1333560499
  0
ARC
  5
294
330
1F
100
AcDbEntity
  8
0
  6
Continuous
 62
     7
370
    25
100
AcDbCircle
 10
6759.3011055041
 20
5107.0827198648
 30
0.0
 40
3.279510518063779
100
AcDbArc
 50
3.6185810174
 51
7.1415737616
  0
ARC
  5
295
330
1F
100
AcDbEntity
  8
0
  6
Continuous
 62
     7
370
    25
100
AcDbCircle
 10
6760.1551805864
 20
5106.6172667779
 30
0.0
 40
2.420518468199052
100
AcDbArc
 50
352.5331452388
 51
7.4668547612
  0
LINE
  5
296
330
1F
100
AcDbEntity
  8
0
  6
Continuous
 62
     7
370
    25
100
AcDbLine
 10
6762.6376962845
 20
5105.9426870137
 30
0.0
 11
6762.6376962845
 21
5106.2701164752
 31
0.0
  0
LINE
  5
297
330
1F
100
AcDbEntity
  8
0
  6
Continuous
 62
     7
370
    25
100
AcDbLine
 10
6762.6376962845
 20
5104.7701164752
 30
0.0
 11
6762.6376962845
 21
5105.9426870137
 31
0.0
  0
ARC
  5
298
330
1F
100
AcDbEntity
  8
0
  6
Continuous
 62
     7
370
    25
100
AcDbCircle
 10
6759.1649157245
 20
4980.9351977947
 30
0.0
 40
3.413214373369703
100
AcDbArc
 50
353.3510535544
 51
357.1160489428
  0
ARC
  5
299
330
1F
100
AcDbEntity
  8
0
  6
Continuous
 62
     7
370
    25
100
AcDbCircle
 10
6758.3331467778
 20
4983.6069398889
 30
0.0
 40
4.240801177162902
100
AcDbArc
 50
0.0408183002
 51
5.3933312586
  0
LWPOLYLINE
  5
29A
330
1F
100
AcDbEntity
  8
0
  6
Continuous
 62
     7
370
    25
100
AcDbPolyline
 90
        6
 70
   128
 43
0.0
 10
6762.5551735518
 20
4984.4020283997
 10
6762.5671413295
 20
4984.311943969
 10
6762.5737249866
 20
4984.2735013304
 10
6762.574168771
 20
4984.2911121925
 10
6762.5684778707
 20
4984.3623200918
 10
6762.5680589393
 20
4984.3666961415
  0
ARC
  5
29B
330
1F
100
AcDbEntity
  8
0
  6
Continuous
 62
     7
370
    25
100
AcDbCircle
 10
6759.5699110392
 20
4983.2681289206
 30
0.0
 40
3.005888158950925
100
AcDbArc
 50
353.2841087873
 51
6.7158912127
  0
ARC
  5
29C
330
1F
100
AcDbEntity
  8
0
  6
Continuous
 62
     7
370
    25
100
AcDbCircle
 10
6760.8713815972
 20
4981.33711287
 30
0.0
 40
1.710735235829663
100
AcDbArc
 50
349.8177649228
 51
10.1822350772
  0
LINE
  5
29D
330
1F
100
AcDbEntity
  8
0
  6
Continuous
 62
     7
370
    25
100
AcDbLine
 10
6762.6376962845
 20
4982.0644792947
 30
0.0
 11
6762.6376962845
 21
4983.2701164752
 31
0.0
  0
LINE
  5
29E
330
1F
100
AcDbEntity
  8
0
  6
Continuous
 62
     7
370
    25
100
AcDbLine
 10
6762.6376962845
 20
4981.7701164752
 30
0.0
 11
6762.6376962845
 21
4982.0644792947
 31
0.0
  0
ARC
  5
29F
330
1F
100
AcDbEntity
  8
0
  6
Continuous
 62
     7
370
    25
100
AcDbCircle
 10
6762.1746823185
 20
5107.2210394789
 30
0.0
 40
0.4019454518440839
100
AcDbArc
 50
349.9608252276
 51
11.1875169285
  0
LWPOLYLINE
  5
2A0
330
1F
100
AcDbEntity
  8
0
  6
Continuous
 62
     7
370
    25
100
AcDbPolyline
 90
        7
 70
   128
 43
0.0
 10
6762.561577337
 20
5106.7852962956
 10
6762.5671413295
 20
5106.7843814577
 10
6762.5737249866
 20
5106.8379692794
 10
6762.574168771
 20
5106.940758033
 10
6762.5684778707
 20
5107.0808649624
 10
6762.5572923168
 20
5107.2429255909
 10
6762.5551735518
 20
5107.2684599711
  0
LWPOLYLINE
  5
2A1
330
1F
100
AcDbEntity
  8
0
  6
Continuous
 62
     7
370
    25
100
AcDbPolyline
 90
        6
 70
   128
 43
0.0
 10
6762.5695002742
 20
5103.7498069464
 10
6762.5737249866
 20
5103.8209717145
 10
6762.574168771
 20
5103.8838666392
 10
6762.5684778707
 20
5103.8921745276
 10
6762.5572923168
 20
5103.8452380315
 10
6762.5551735518
 20
5103.833470747
  0
LINE
  5
2A2
330
1F
100
AcDbEntity
  8
0
  6
Continuous
 62
     7
370
    25
100
AcDbLine
 10
6757.5514203907
 20
5124.0201164752
 30
0.0
 11
6757.5514203907
 21
4984.0201164752
 31
0.0
  0
LINE
  5
2A3
330
1F
100
AcDbEntity
  8
0
  6
Continuous
 62
     7
370
    25
100
AcDbLine
 10
6757.5514203907
 20
5124.0201164752
 30
0.0
 11
6759.5514203907
 21
5124.0201164752
 31
0.0
  0
LINE
  5
2A4
330
1F
100
AcDbEntity
  8
0
  6
Continuous
 62
     7
370
    25
100
AcDbLine
 10
6757.5514203907
 20
4984.0201164752
 30
0.0
 11
6759.5514203907
 21
4984.0201164752
 31
0.0
  0
LWPOLYLINE
  5
2A5
330
1F
100
AcDbEntity
  8
0
  6
Continuous
 62
     7
370
    25
100
AcDbPolyline
 90
       24
 70
   128
 43
0.0
 10
6793.1957037026
 20
5007.4797277529
 10
6793.4366274557
 20
5007.6287312108
 10
6794.1501401505
 20
5008.0700154653
 10
6795.3088218941
 20
5008.7866222098
 10
6796.868145197
 20
5009.7510126491
 10
6798.096626832
 20
5010.5107770265
 10
6799.4582876371
 20
5011.3529208213
 10
6800.9359272125
 20
5012.2668027215
 10
6801.8508697147
 20
5012.8326567778
 10
6802.7886032048
 20
5013.4126126418
 10
6803.7403130675
 20
5014.0012099025
 10
6804.7293005688
 20
5014.6128760141
 10
6805.7342032598
 20
5015.2343794496
 10
6806.7411612997
 20
5015.8571545204
 10
6807.7280547466
 20
5016.4675250967
 10
6808.679764337
 20
5017.0561221246
 10
6809.6175112611
 20
5017.6360862251
 10
6810.5324793071
 20
5018.2019561776
 10
6812.7002203805
 20
5019.5426330997
 10
6814.6002613226
 20
5020.71774625
 10
6816.1595846255
 20
5021.6821366893
 10
6817.3182663691
 20
5022.3987434339
 10
6818.0317790639
 20
5022.8400276883
 10
6818.272702817
 20
5022.9890311462
  0
LINE
  5
2A6
330
1F
100
AcDbEntity
  8
0
  6
Continuous
 62
     7
370
    25
100
AcDbLine
 10
6818.272702817
 20
5020.5356679524
 30
0.0
 11
6794.8739029649
 21
5007.0263645591
 31
0.0
  0
LINE
  5
2A7
330
1F
100
AcDbEntity
  8
0
  6
Continuous
 62
     7
370
    25
100
AcDbLine
 10
6762.5514203907
 20
4964.0201164752
 30
0.0
 11
6762.5514203907
 21
4960.5201164752
 31
0.0
  0
LINE
  5
2A8
330
1F
100
AcDbEntity
  8
0
  6
Continuous
 62
     7
370
    25
100
AcDbLine
 10
6762.5514203907
 20
4960.5201164752
 30
0.0
 11
6761.0514203907
 21
4959.0201164752
 31
0.0
  0
LINE
  5
2A9
330
1F
100
AcDbEntity
  8
0
  6
Continuous
 62
     7
370
    25
100
AcDbLine
 10
6761.0514203907
 20
4959.0201164752
 30
0.0
 11
6761.0514203907
 21
4964.0201164752
 31
0.0
  0
LINE
  5
2AA
330
1F
100
AcDbEntity
  8
0
  6
Continuous
 62
     7
370
    25
100
AcDbLine
 10
6762.5514203907
 20
4964.0201164752
 30
0.0
 11
6761.0514203907
 21
4964.0201164752
 31
0.0
  0
LINE
  5
2AB
330
1F
100
AcDbEntity
  8
0
  6
Continuous
 62
     7
370
    25
100
AcDbLine
 10
6759.5514203907
 20
4959.0201164752
 30
0.0
 11
6759.5514203907
 21
4964.0201164752
 31
0.0
  0
LINE
  5
2AC
330
1F
100
AcDbEntity
  8
0
  6
Continuous
 62
     7
370
    25
100
AcDbLine
 10
6759.5514203907
 20
4964.0201164752
 30
0.0
 11
6761.0514203907
 21
4964.0201164752
 31
0.0
  0
LINE
  5
2AD
330
1F
100
AcDbEntity
  8
0
  6
Continuous
 62
     7
370
    25
100
AcDbLine
 10
6761.0514203907
 20
4959.0201164752
 30
0.0
 11
6759.5514203907
 21
4959.0201164752
 31
0.0
  0
LINE
  5
2AE
330
1F
100
AcDbEntity
  8
0
  6
Continuous
 62
     7
370
    25
100
AcDbLine
 10
6759.5514203907
 20
5124.0201164752
 30
0.0
 11
6759.5514203907
 21
4964.0201164752
 31
0.0
  0
LINE
  5
2AF
330
1F
100
AcDbEntity
  8
0
  6
Continuous
 62
     7
370
    25
100
AcDbLine
 10
6761.0514203907
 20
5124.0201164752
 30
0.0
 11
6759.5514203907
 21
5124.0201164752
 31
0.0
  0
LINE
  5
2B0
330
1F
100
AcDbEntity
  8
0
  6
Continuous
 62
     7
370
    25
100
AcDbLine
 10
6761.0514203907
 20
4964.0201164752
 30
0.0
 11
6761.0514203907
 21
5124.0201164752
 31
0.0
  0
LINE
  5
2B1
330
1F
100
AcDbEntity
  8
0
  6
Continuous
 62
     7
370
    25
100
AcDbLine
 10
6762.5514203907
 20
5127.5201164752
 30
0.0
 11
6762.5514203907
 21
5124.0201164752
 31
0.0
  0
LINE
  5
2B2
330
1F
100
AcDbEntity
  8
0
  6
Continuous
 62
     7
370
    25
100
AcDbLine
 10
6762.5514203907
 20
5124.0201164752
 30
0.0
 11
6761.0514203907
 21
5124.0201164752
 31
0.0
  0
LINE
  5
2B3
330
1F
100
AcDbEntity
  8
0
  6
Continuous
 62
     7
370
    25
100
AcDbLine
 10
6761.0514203907
 20
5124.0201164752
 30
0.0
 11
6761.0514203907
 21
5129.0201164752
 31
0.0
  0
LINE
  5
2B4
330
1F
100
AcDbEntity
  8
0
  6
Continuous
 62
     7
370
    25
100
AcDbLine
 10
6762.5514203907
 20
5127.5201164752
 30
0.0
 11
6761.0514203907
 21
5129.0201164752
 31
0.0
  0
LINE
  5
2B5
330
1F
100
AcDbEntity
  8
0
  6
Continuous
 62
     7
370
    25
100
AcDbLine
 10
6759.5514203907
 20
5129.0201164752
 30
0.0
 11
6761.0514203907
 21
5129.0201164752
 31
0.0
  0
LINE
  5
2B6
330
1F
100
AcDbEntity
  8
0
  6
Continuous
 62
     7
370
    25
100
AcDbLine
 10
6759.5514203907
 20
5124.0201164752
 30
0.0
 11
6759.5514203907
 21
5129.0201164752
 31
0.0
  0
LINE
  5
2B7
330
1F
100
AcDbEntity
  8
0
  6
Continuous
 62
     7
370
    25
100
AcDbLine
 10
6762.5514203907
 20
5124.0201164752
 30
0.0
 11
6762.5514203907
 21
4964.0201164752
 31
0.0
  0
LINE
  5
2B8
330
1F
100
AcDbEntity
  8
0
  6
Continuous
 62
     8
370
    25
100
AcDbLine
 10
6699.1514203907
 20
5121.4201164752
 30
0.0
 11
6685.9514203907
 21
5121.4201164752
 31
0.0
  0
LINE
  5
2B9
330
1F
100
AcDbEntity
  8
0
  6
Continuous
 62
     8
370
    25
100
AcDbLine
 10
6762.5551735518
 20
5103.6068033186
 30
0.0
 11
6762.5514203907
 21
5103.6068033186
 31
0.0
  0
LINE
  5
2BA
330
1F
100
AcDbEntity
  8
0
  6
Continuous
 62
     8
370
    25
100
AcDbLine
 10
6762.5514203907
 20
5107.4904334635
 30
0.0
 11
6762.5551735518
 21
5107.4904334635
 31
0.0
  0
LINE
  5
2BB
330
1F
100
AcDbEntity
  8
0
  6
Continuous
 62
     8
370
    25
100
AcDbLine
 10
6762.5551735518
 20
5104.1084134415
 30
0.0
 11
6762.5514203907
 21
5104.1084134415
 31
0.0
  0
LINE
  5
2BC
330
1F
100
AcDbEntity
  8
0
  6
Continuous
 62
     8
370
    25
100
AcDbLine
 10
6762.5514203907
 20
4984.4020283997
 30
0.0
 11
6762.5551735518
 21
4984.4020283997
 31
0.0
  0
LINE
  5
2BD
330
1F
100
AcDbEntity
  8
0
  6
Continuous
 62
     8
370
    25
100
AcDbLine
 10
6762.5551735518
 20
4980.5399962987
 30
0.0
 11
6762.5514203907
 21
4980.5399962987
 31
0.0
  0
LINE
  5
2BE
330
1F
100
AcDbEntity
  8
0
  6
Continuous
 62
     8
370
    25
100
AcDbLine
 10
6762.5514203907
 20
4984.0055431295
 30
0.0
 11
6762.5551735518
 21
4984.0055431295
 31
0.0
  0
LINE
  5
2BF
330
1F
100
AcDbEntity
  8
0
  6
Continuous
 62
     8
370
    25
100
AcDbLine
 10
6762.5551735518
 20
5103.833470747
 30
0.0
 11
6762.5514203907
 21
5103.833470747
 31
0.0
  0
LINE
  5
2C0
330
1F
100
AcDbEntity
  8
0
  6
Continuous
 62
     7
370
    25
100
AcDbLine
 10
6482.8481140244
 20
4727.9842761043
 30
0.0
 11
6484.3481140244
 21
4726.4842761043
 31
0.0
  0
LINE
  5
2C1
330
1F
100
AcDbEntity
  8
0
  6
Continuous
 62
     7
370
    25
100
AcDbLine
 10
6509.3481140244
 20
4726.4842761043
 30
0.0
 11
6510.8481140244
 21
4727.9842761043
 31
0.0
  0
LINE
  5
2C2
330
1F
100
AcDbEntity
  8
0
  6
Continuous
 62
     7
370
    25
100
AcDbLine
 10
6482.8481140244
 20
4728.4842761043
 30
0.0
 11
6482.8481140244
 21
4727.9842761043
 31
0.0
  0
LINE
  5
2C3
330
1F
100
AcDbEntity
  8
0
  6
Continuous
 62
     7
370
    25
100
AcDbLine
 10
6510.8481140244
 20
4727.9842761043
 30
0.0
 11
6510.8481140244
 21
4728.4842761043
 31
0.0
  0
LWPOLYLINE
  5
2C4
330
1F
100
AcDbEntity
  8
0
  6
Continuous
 62
     7
370
    25
100
AcDbPolyline
 90
        3
 70
   128
 43
0.0
 10
6485.6549107502
 20
4734.4763353925
 10
6486.060225246
 20
4734.2422011033
 10
6486.4600142502
 20
4734.0111935146
  0
LWPOLYLINE
  5
2C5
330
1F
100
AcDbEntity
  8
0
  6
Continuous
 62
     7
370
    25
100
AcDbPolyline
 90
        3
 70
   128
 43
0.0
 10
6486.4673519326
 20
4733.8365985913
 10
6486.0621212961
 20
4733.6024648576
 10
6485.85753847
 20
4733.4842761043
  0
LWPOLYLINE
  5
2C6
330
1F
100
AcDbEntity
  8
0
  6
Continuous
 62
     7
370
    25
100
AcDbPolyline
 90
        3
 70
   128
 43
0.0
 10
6486.4673519326
 20
4735.3365985913
 10
6486.0624620502
 20
4735.1026507124
 10
6485.654911439
 20
4734.8672172257
  0
LINE
  5
2C7
330
1F
100
AcDbEntity
  8
0
  6
Continuous
 62
     7
370
    25
100
AcDbLine
 10
6485.6481140244
 20
4734.8592128462
 30
0.0
 11
6485.6481140244
 21
4734.4842128508
 31
0.0
  0
LWPOLYLINE
  5
2C8
330
1F
100
AcDbEntity
  8
0
  6
Continuous
 62
     7
370
    25
100
AcDbPolyline
 90
        3
 70
   128
 43
0.0
 10
6486.4600128445
 20
4734.0155269784
 10
6486.4600430797
 20
4733.9223224527
 10
6486.4600142335
 20
4733.8323590232
  0
LWPOLYLINE
  5
2C9
330
1F
100
AcDbEntity
  8
0
  6
Continuous
 62
     7
370
    25
100
AcDbPolyline
 90
        3
 70
   128
 43
0.0
 10
6486.4600308907
 20
4735.4842761043
 10
6486.4600665617
 20
4735.4225044557
 10
6486.4600153078
 20
4735.3323594441
  0
LINE
  5
2CA
330
1F
100
AcDbEntity
  8
0
  6
Continuous
 62
     7
370
    25
100
AcDbLine
 10
6382.8481140244
 20
4727.9842761043
 30
0.0
 11
6384.3481140244
 21
4726.4842761043
 31
0.0
  0
LINE
  5
2CB
330
1F
100
AcDbEntity
  8
0
  6
Continuous
 62
     7
370
    25
100
AcDbLine
 10
6409.3481140244
 20
4726.4842761043
 30
0.0
 11
6410.8481140244
 21
4727.9842761043
 31
0.0
  0
LINE
  5
2CC
330
1F
100
AcDbEntity
  8
0
  6
Continuous
 62
     7
370
    25
100
AcDbLine
 10
6382.8481140244
 20
4728.4842761043
 30
0.0
 11
6382.8481140244
 21
4727.9842761043
 31
0.0
  0
LINE
  5
2CD
330
1F
100
AcDbEntity
  8
0
  6
Continuous
 62
     7
370
    25
100
AcDbLine
 10
6410.8481140244
 20
4727.9842761043
 30
0.0
 11
6410.8481140244
 21
4728.4842761043
 31
0.0
  0
LWPOLYLINE
  5
2CE
330
1F
100
AcDbEntity
  8
0
  6
Continuous
 62
     7
370
    25
100
AcDbPolyline
 90
        3
 70
   128
 43
0.0
 10
6407.6223095152
 20
4733.4842761043
 10
6407.6357030942
 20
4733.4920148011
 10
6408.0413158471
 20
4733.7263345389
  0
LWPOLYLINE
  5
2CF
330
1F
100
AcDbEntity
  8
0
  6
Continuous
 62
     7
370
    25
100
AcDbPolyline
 90
        3
 70
   128
 43
0.0
 10
6407.2288748752
 20
4734.7569528918
 10
6407.6360013018
 20
4734.9922001592
 10
6408.0413158471
 20
4735.2263345389
  0
LWPOLYLINE
  5
2D0
330
1F
100
AcDbEntity
  8
0
  6
Continuous
 62
     7
370
    25
100
AcDbPolyline
 90
        3
 70
   128
 43
0.0
 10
6408.0413137882
 20
4734.117218885
 10
6407.6341037476
 20
4734.3524665134
 10
6407.2362138064
 20
4734.5823590557
  0
LINE
  5
2D1
330
1F
100
AcDbEntity
  8
0
  6
Continuous
 62
     7
370
    25
100
AcDbLine
 10
6408.0481140244
 20
4735.2341234157
 30
0.0
 11
6408.0481140244
 21
4735.4842761043
 31
0.0
  0
LINE
  5
2D2
330
1F
100
AcDbEntity
  8
0
  6
Continuous
 62
     7
370
    25
100
AcDbLine
 10
6408.0481140244
 20
4733.7341234157
 30
0.0
 11
6408.0481140244
 21
4734.1091234111
 31
0.0
  0
LWPOLYLINE
  5
2D3
330
1F
100
AcDbEntity
  8
0
  6
Continuous
 62
     7
370
    25
100
AcDbPolyline
 90
        3
 70
   128
 43
0.0
 10
6407.2362152037
 20
4734.5780287169
 10
6407.2361847761
 20
4734.6723241937
 10
6407.2362137884
 20
4734.7611934892
  0
LINE
  5
2D4
330
1F
100
AcDbEntity
  8
0
  6
Continuous
 62
     7
370
    25
100
AcDbLine
 10
6383.9715818313
 20
4728.4711897463
 30
0.0
 11
6383.9715818313
 21
4728.4842761043
 31
0.0
  0
LINE
  5
2D5
330
1F
100
AcDbEntity
  8
0
  6
Continuous
 62
     7
370
    25
100
AcDbLine
 10
6386.8946805465
 20
4728.4842761043
 30
0.0
 11
6386.8946805465
 21
4728.466990837
 31
0.0
  0
LINE
  5
2D6
330
1F
100
AcDbEntity
  8
0
  6
Continuous
 62
     7
370
    25
100
AcDbLine
 10
6384.5981140244
 20
4728.4842761043
 30
0.0
 11
6384.5981140244
 21
4728.3980002104
 31
0.0
  0
LINE
  5
2D7
330
1F
100
AcDbEntity
  8
0
  6
Continuous
 62
     7
370
    25
100
AcDbLine
 10
6386.0981140244
 20
4728.3980002104
 30
0.0
 11
6386.0981140244
 21
4728.4842761043
 31
0.0
  0
ARC
  5
2D8
330
1F
100
AcDbEntity
  8
0
  6
Continuous
 62
     7
370
    25
100
AcDbCircle
 10
6385.3481140244
 20
4748.8842761043
 30
0.0
 40
20.50000000000031
100
AcDbArc
 50
267.9033450422
 51
272.0966549578
  0
LINE
  5
2D9
330
1F
100
AcDbEntity
  8
0
  6
Continuous
 62
     7
370
    25
100
AcDbLine
 10
6386.7246462174
 20
4728.4842761043
 30
0.0
 11
6386.7246462174
 21
4728.4711897463
 31
0.0
  0
LINE
  5
2DA
330
1F
100
AcDbEntity
  8
0
  6
Continuous
 62
     7
370
    25
100
AcDbLine
 10
6507.5981140244
 20
4728.4842761043
 30
0.0
 11
6507.5981140244
 21
4728.3980002104
 31
0.0
  0
LINE
  5
2DB
330
1F
100
AcDbEntity
  8
0
  6
Continuous
 62
     7
370
    25
100
AcDbLine
 10
6509.0981140244
 20
4728.3980002104
 30
0.0
 11
6509.0981140244
 21
4728.4633819069
 31
0.0
  0
ARC
  5
2DC
330
1F
100
AcDbEntity
  8
0
  6
Continuous
 62
     7
370
    25
100
AcDbCircle
 10
6508.3481140244
 20
4748.8842761043
 30
0.0
 40
20.50000000000031
100
AcDbArc
 50
267.9033450422
 51
272.0966549578
  0
LINE
  5
2DD
330
1F
100
AcDbEntity
  8
0
  6
Continuous
 62
     7
370
    25
100
AcDbLine
 10
6510.0897543538
 20
4728.4842761043
 30
0.0
 11
6510.0897543538
 21
4728.4619322641
 31
0.0
  0
LINE
  5
2DE
330
1F
100
AcDbEntity
  8
0
  6
Continuous
 62
     7
370
    25
100
AcDbLine
 10
6506.606473695
 20
4728.4619322641
 30
0.0
 11
6506.606473695
 21
4728.4842761043
 31
0.0
  0
LINE
  5
2DF
330
1F
100
AcDbEntity
  8
0
  6
Continuous
 62
     7
370
    25
100
AcDbLine
 10
6432.8481140244
 20
4728.4842761043
 30
0.0
 11
6432.8481140244
 21
4685.3014932351
 31
0.0
  0
LINE
  5
2E0
330
1F
100
AcDbEntity
  8
0
  6
Continuous
 62
     7
370
    25
100
AcDbLine
 10
6460.8481140244
 20
4685.3014932351
 30
0.0
 11
6460.8481140244
 21
4728.4842761043
 31
0.0
  0
LINE
  5
2E1
330
1F
100
AcDbEntity
  8
0
  6
Continuous
 62
     7
370
    25
100
AcDbLine
 10
6509.3481140244
 20
4726.4842761043
 30
0.0
 11
6484.3481140244
 21
4726.4842761043
 31
0.0
  0
LINE
  5
2E2
330
1F
100
AcDbEntity
  8
0
  6
Continuous
 62
     7
370
    25
100
AcDbLine
 10
6482.8481140244
 20
4727.9842761043
 30
0.0
 11
6510.8481140244
 21
4727.9842761043
 31
0.0
  0
LWPOLYLINE
  5
2E3
330
1F
100
AcDbEntity
  8
0
  6
Continuous
 62
     7
370
    25
100
AcDbPolyline
 90
        6
 70
   128
 43
0.0
 10
6486.4709811688
 20
4734.0154661316
 10
6486.460383292
 20
4734.0174408579
 10
6486.837688055
 20
4734.0794086334
 10
6487.9208586896
 20
4734.1444447753
 10
6489.5962946553
 20
4734.2059018877
 10
6490.8481140244
 20
4734.2416162869
  0
LWPOLYLINE
  5
2E4
330
1F
100
AcDbEntity
  8
0
  6
Continuous
 62
     7
370
    25
100
AcDbPolyline
 90
        6
 70
   128
 43
0.0
 10
6485.6599585924
 20
4734.4842128508
 10
6485.648513425
 20
4734.4861908602
 10
6486.0553070508
 20
4734.5481586357
 10
6487.2231346353
 20
4734.6131947776
 10
6489.0295170039
 20
4734.67465189
 10
6490.8481140244
 20
4734.7227752901
  0
ARC
  5
2E5
330
1F
100
AcDbEntity
  8
0
  6
Continuous
 62
     7
370
    25
100
AcDbCircle
 10
6493.5088372853
 20
4586.7551232062
 30
0.0
 40
146.8667556594102
100
AcDbArc
 50
91.038060336
 51
92.4804093994
  0
ARC
  5
2E6
330
1F
100
AcDbEntity
  8
0
  6
Continuous
 62
     7
370
    25
100
AcDbCircle
 10
6490.7643230375
 20
4679.0837024504
 30
0.0
 40
56.01413550605032
100
AcDbArc
 50
89.9142917827
 51
95.1973472206
  0
ARC
  5
2E7
330
1F
100
AcDbEntity
  8
0
  6
Continuous
 62
     7
370
    25
100
AcDbCircle
 10
6490.8775763474
 20
4689.9044694396
 30
0.0
 40
44.14965667776789
100
AcDbArc
 50
90.0382351079
 51
95.6880349162
  0
ARC
  5
2E8
330
1F
100
AcDbEntity
  8
0
  6
Continuous
 62
     7
370
    25
100
AcDbCircle
 10
6488.6813397715
 20
4719.311555952
 30
0.0
 40
16.17272746330177
100
AcDbArc
 50
90.054479835
 51
97.7447221929
  0
LINE
  5
2E9
330
1F
100
AcDbEntity
  8
0
  6
Continuous
 62
     7
370
    25
100
AcDbLine
 10
6409.3481140244
 20
4726.4842761043
 30
0.0
 11
6384.3481140244
 21
4726.4842761043
 31
0.0
  0
LINE
  5
2EA
330
1F
100
AcDbEntity
  8
0
  6
Continuous
 62
     7
370
    25
100
AcDbLine
 10
6382.8481140244
 20
4727.9842761043
 30
0.0
 11
6410.8481140244
 21
4727.9842761043
 31
0.0
  0
ARC
  5
2EB
330
1F
100
AcDbEntity
  8
0
  6
Continuous
 62
     7
370
    25
100
AcDbCircle
 10
6403.0600836899
 20
4773.3061912572
 30
0.0
 40
38.76748320827033
100
AcDbArc
 50
269.6867212743
 51
276.0780941026
  0
ARC
  5
2EC
330
1F
100
AcDbEntity
  8
0
  6
Continuous
 62
     7
370
    25
100
AcDbCircle
 10
6403.2660982621
 20
4780.4823786469
 30
0.0
 40
46.9888336755626
100
AcDbArc
 50
269.4903246857
 51
275.8003489754
  0
ARC
  5
2ED
330
1F
100
AcDbEntity
  8
0
  6
Continuous
 62
     7
370
    25
100
AcDbCircle
 10
6403.2660982621
 20
4781.9823786469
 30
0.0
 40
46.98883367557988
100
AcDbArc
 50
269.4903246857
 51
275.8003489754
  0
ARC
  5
2EE
330
1F
100
AcDbEntity
  8
0
  6
Continuous
 62
     7
370
    25
100
AcDbCircle
 10
6403.2660984806
 20
4780.857373177
 30
0.0
 40
46.988828212622
100
AcDbArc
 50
269.4903243601
 51
275.8003493412
  0
LINE
  5
2EF
330
1F
100
AcDbEntity
  8
0
  6
Continuous
 62
     7
370
    25
100
AcDbLine
 10
6408.0445078194
 20
4734.115049348
 30
0.0
 11
6408.0277157122
 21
4734.1173380914
 31
0.0
  0
LWPOLYLINE
  5
2F0
330
1F
100
AcDbEntity
  8
0
  6
Continuous
 62
     7
370
    25
100
AcDbPolyline
 90
        3
 70
   128
 43
0.0
 10
6402.8481140244
 20
4735.3704040707
 10
6404.9333410639
 20
4735.426581155
 10
6406.5399573674
 20
4735.4842761043
  0
ARC
  5
2F1
330
1F
100
AcDbEntity
  8
0
  6
Continuous
 62
     7
370
    25
100
AcDbCircle
 10
6403.1162991355
 20
4771.2841001243
 30
0.0
 40
36.93328628032296
100
AcDbArc
 50
269.5839522669
 51
276.3566527361
  0
LINE
  5
2F2
330
1F
100
AcDbEntity
  8
0
  6
Continuous
 62
     7
370
    25
100
AcDbLine
 10
6517.8481140244
 20
4735.4842761043
 30
0.0
 11
6517.8481140244
 21
4833.4842761043
 31
0.0
  0
LINE
  5
2F3
330
1F
100
AcDbEntity
  8
0
  6
Continuous
 62
     7
370
    25
100
AcDbLine
 10
6375.8481140244
 20
4735.4842761043
 30
0.0
 11
6517.8481140244
 21
4735.4842761043
 31
0.0
  0
LINE
  5
2F4
330
1F
100
AcDbEntity
  8
0
  6
Continuous
 62
     7
370
    25
100
AcDbLine
 10
6375.8481140244
 20
4833.4842761043
 30
0.0
 11
6517.8481140244
 21
4833.4842761043
 31
0.0
  0
CIRCLE
  5
2F5
330
1F
100
AcDbEntity
  8
0
  6
Continuous
 62
     7
370
    25
100
AcDbCircle
 10
6472.8481140244
 20
4798.4842761043
 30
0.0
 40
14.0
  0
LINE
  5
2F6
330
1F
100
AcDbEntity
  8
0
  6
Continuous
 62
     7
370
    25
100
AcDbLine
 10
6375.8481140244
 20
4833.4842761043
 30
0.0
 11
6375.8481140244
 21
4735.4842761043
 31
0.0
  0
LINE
  5
2F7
330
1F
100
AcDbEntity
  8
0
  6
Continuous
 62
     7
370
    25
100
AcDbLine
 10
6517.8481140244
 20
4835.4842761043
 30
0.0
 11
6517.8481140244
 21
4833.4842761043
 31
0.0
  0
LINE
  5
2F8
330
1F
100
AcDbEntity
  8
0
  6
Continuous
 62
     7
370
    25
100
AcDbLine
 10
6517.8481140244
 20
4835.4842761043
 30
0.0
 11
6375.8481140244
 21
4835.4842761043
 31
0.0
  0
LINE
  5
2F9
330
1F
100
AcDbEntity
  8
0
  6
Continuous
 62
     7
370
    25
100
AcDbLine
 10
6375.8481140244
 20
4833.4842761043
 30
0.0
 11
6375.8481140244
 21
4835.4842761043
 31
0.0
  0
ARC
  5
2FA
330
1F
100
AcDbEntity
  8
0
  6
Continuous
 62
     7
370
    25
100
AcDbCircle
 10
6517.3200337773
 20
4731.5157658753
 30
0.0
 40
4.705344107778629
100
AcDbArc
 50
57.501433654
 51
83.556125077
  0
LINE
  5
2FB
330
1F
100
AcDbEntity
  8
0
  6
Continuous
 62
     7
370
    25
100
AcDbLine
 10
6519.8481140244
 20
4833.4842761043
 30
0.0
 11
6519.8481140244
 21
4735.4842761043
 31
0.0
  0
LINE
  5
2FC
330
1F
100
AcDbEntity
  8
0
  6
Continuous
 62
     7
370
    25
100
AcDbLine
 10
6517.8481140244
 20
4833.4842761043
 30
0.0
 11
6519.8481140244
 21
4833.4842761043
 31
0.0
  0
ARC
  5
2FD
330
1F
100
AcDbEntity
  8
0
  6
Continuous
 62
     7
370
    25
100
AcDbCircle
 10
6375.8814579981
 20
4732.9150913704
 30
0.0
 40
3.276461187384077
100
AcDbArc
 50
90.5830992148
 51
128.3593420542
  0
LINE
  5
2FE
330
1F
100
AcDbEntity
  8
0
  6
Continuous
 62
     7
370
    25
100
AcDbLine
 10
6373.8481140244
 20
4735.4842761043
 30
0.0
 11
6373.8481140244
 21
4833.4842761043
 31
0.0
  0
LINE
  5
2FF
330
1F
100
AcDbEntity
  8
0
  6
Continuous
 62
     7
370
    25
100
AcDbLine
 10
6373.8481140244
 20
4833.4842761043
 30
0.0
 11
6375.8481140244
 21
4833.4842761043
 31
0.0
  0
ARC
  5
300
330
1F
100
AcDbEntity
  8
0
  6
Continuous
 62
     7
370
    25
100
AcDbCircle
 10
6371.8796037955
 20
4736.0123563513
 30
0.0
 40
4.70534410775381
100
AcDbArc
 50
327.5014336539
 51
353.5561250771
  0
LINE
  5
301
330
1F
100
AcDbEntity
  8
0
  6
Continuous
 62
     7
370
    25
100
AcDbLine
 10
6402.8481140244
 20
4735.4842761043
 30
0.0
 11
6402.8481140244
 21
4733.4842761043
 31
0.0
  0
LINE
  5
302
330
1F
100
AcDbEntity
  8
0
  6
Continuous
 62
     7
370
    25
100
AcDbLine
 10
6373.8481140244
 20
4735.4842761043
 30
0.0
 11
6374.8481140244
 21
4735.4842761043
 31
0.0
  0
LWPOLYLINE
  5
303
330
1F
100
AcDbEntity
  8
0
  6
Continuous
 62
     7
370
    25
100
AcDbPolyline
 90
        6
 70
   128
 43
0.0
 10
6375.8481140244
 20
4736.1913828855
 10
6375.4861555991
 20
4736.0246589188
 10
6375.1732828752
 20
4735.8579351356
 10
6374.9519923411
 20
4735.6912796145
 10
6374.852127924
 20
4735.5246240633
 10
6374.8481140244
 20
4735.4842761043
  0
LINE
  5
304
330
1F
100
AcDbEntity
  8
0
  6
Continuous
 62
     7
370
    25
100
AcDbLine
 10
6375.8481140244
 20
4734.4842761043
 30
0.0
 11
6375.8481140244
 21
4733.4842761043
 31
0.0
  0
ARC
  5
305
330
1F
100
AcDbEntity
  8
0
  6
Continuous
 62
     7
370
    25
100
AcDbCircle
 10
6374.6524549127
 20
4736.0797347701
 30
0.0
 40
1.993762539953596
100
AcDbArc
 50
306.8484045659
 51
342.6228160685
  0
LINE
  5
306
330
1F
100
AcDbEntity
  8
0
  6
Continuous
 62
     7
370
    25
100
AcDbLine
 10
6519.8481140244
 20
4735.4842761043
 30
0.0
 11
6518.8481140244
 21
4735.4842761043
 31
0.0
  0
ARC
  5
307
330
1F
100
AcDbEntity
  8
0
  6
Continuous
 62
     7
370
    25
100
AcDbCircle
 10
6517.2526553585
 20
4734.2886169926
 30
0.0
 40
1.993762539952686
100
AcDbArc
 50
36.848404566
 51
72.6228160686
  0
ARC
  5
308
330
1F
100
AcDbEntity
  8
0
  6
Continuous
 62
     7
370
    25
100
AcDbCircle
 10
6520.4172987583
 20
4735.517620078
 30
0.0
 40
3.276461187368367
100
AcDbArc
 50
180.5830992147
 51
218.3593420542
  0
LINE
  5
309
330
1F
100
AcDbEntity
  8
0
  6
Continuous
 62
     7
370
    25
100
AcDbLine
 10
6490.8481140244
 20
4733.4842761043
 30
0.0
 11
6490.8481140244
 21
4735.4842761043
 31
0.0
  0
LINE
  5
30A
330
1F
100
AcDbEntity
  8
0
  6
Continuous
 62
     7
370
    25
100
AcDbLine
 10
6517.8481140244
 20
4734.4842761043
 30
0.0
 11
6517.8481140244
 21
4733.4842761043
 31
0.0
  0
LWPOLYLINE
  5
30B
330
1F
100
AcDbEntity
  8
0
  6
Continuous
 62
     7
370
    25
100
AcDbPolyline
 90
        6
 70
   128
 43
0.0
 10
6517.1410072432
 20
4735.4842761043
 10
6517.3077312099
 20
4735.122317679
 10
6517.4744549931
 20
4734.8094449551
 10
6517.6411105142
 20
4734.588154421
 10
6517.8077660653
 20
4734.4882900039
 10
6517.8481140244
 20
4734.4842761043
  0
ARC
  5
30C
330
1F
100
AcDbEntity
  8
0
  6
Continuous
 62
     7
370
    25
100
AcDbCircle
 10
6517.8481140244
 20
4833.4842761043
 30
0.0
 40
2.000000000000909
100
AcDbArc
 50
0.0
 51
90.0
  0
ARC
  5
30D
330
1F
100
AcDbEntity
  8
0
  6
Continuous
 62
     7
370
    25
100
AcDbCircle
 10
6517.8481140244
 20
4833.4842761043
 30
0.0
 40
1.0
100
AcDbArc
 50
0.0
 51
90.0
  0
ARC
  5
30E
330
1F
100
AcDbEntity
  8
0
  6
Continuous
 62
     7
370
    25
100
AcDbCircle
 10
6375.8481140244
 20
4833.4842761043
 30
0.0
 40
1.000000000000909
100
AcDbArc
 50
90.0
 51
180.0
  0
ARC
  5
30F
330
1F
100
AcDbEntity
  8
0
  6
Continuous
 62
     7
370
    25
100
AcDbCircle
 10
6375.8481140244
 20
4833.4842761043
 30
0.0
 40
2.000000000000909
100
AcDbArc
 50
90.0
 51
180.0
  0
ARC
  5
310
330
1F
100
AcDbEntity
  8
0
  6
Continuous
 62
     7
370
    25
100
AcDbCircle
 10
6517.8481140244
 20
4735.4842761043
 30
0.0
 40
2.000000000000909
100
AcDbArc
 50
270.0
 51
0.0
  0
ARC
  5
311
330
1F
100
AcDbEntity
  8
0
  6
Continuous
 62
     7
370
    25
100
AcDbCircle
 10
6517.8481140244
 20
4735.4842761043
 30
0.0
 40
1.000000000000909
100
AcDbArc
 50
270.0
 51
0.0
  0
ARC
  5
312
330
1F
100
AcDbEntity
  8
0
  6
Continuous
 62
     7
370
    25
100
AcDbCircle
 10
6375.8481140244
 20
4735.4842761043
 30
0.0
 40
2.000000000000909
100
AcDbArc
 50
180.0
 51
270.0
  0
ARC
  5
313
330
1F
100
AcDbEntity
  8
0
  6
Continuous
 62
     7
370
    25
100
AcDbCircle
 10
6375.8481140244
 20
4735.4842761043
 30
0.0
 40
1.000000000000909
100
AcDbArc
 50
180.0
 51
270.0
  0
CIRCLE
  5
314
330
1F
100
AcDbEntity
  8
0
  6
Continuous
 62
     7
370
    25
100
AcDbCircle
 10
6393.8481140244
 20
4798.4842761043
 30
0.0
 40
3.999999999999945
  0
CIRCLE
  5
315
330
1F
100
AcDbEntity
  8
0
  6
Continuous
 62
     7
370
    25
100
AcDbCircle
 10
6393.8481140244
 20
4798.4842761043
 30
0.0
 40
5.799999999999866
  0
CIRCLE
  5
316
330
1F
100
AcDbEntity
  8
0
  6
Continuous
 62
     7
370
    25
100
AcDbCircle
 10
6393.8481140244
 20
4798.4842761043
 30
0.0
 40
6.600000000000287
  0
ARC
  5
317
330
1F
100
AcDbEntity
  8
0
  6
Continuous
 62
     7
370
    25
100
AcDbCircle
 10
6491.8481140244
 20
4817.4842761043
 30
0.0
 40
13.74999999999975
100
AcDbArc
 50
220.9424989069
 51
239.6010870298
  0
LINE
  5
318
330
1F
100
AcDbEntity
  8
0
  6
Continuous
 62
     7
370
    25
100
AcDbLine
 10
6481.4618093869
 20
4808.4738834393
 30
0.0
 11
6480.4369097609
 21
4810.2490616641
 31
0.0
  0
ARC
  5
319
330
1F
100
AcDbEntity
  8
0
  6
Continuous
 62
     7
370
    25
100
AcDbCircle
 10
6491.8481140244
 20
4817.4842761043
 30
0.0
 40
14.7499999999998
100
AcDbArc
 50
233.7581420553
 51
245.2730706272
  0
LINE
  5
31A
330
1F
100
AcDbEntity
  8
0
  6
Continuous
 62
     7
370
    25
100
AcDbLine
 10
6483.1279871543
 20
4805.5879788917
 30
0.0
 11
6481.4618093869
 21
4808.4738834393
 31
0.0
  0
ARC
  5
31B
330
1F
100
AcDbEntity
  8
0
  6
Continuous
 62
     7
370
    25
100
AcDbCircle
 10
6383.7297904143
 20
4731.0561871197
 30
0.0
 40
2.593236023203754
100
AcDbArc
 50
263.3262359773
 51
271.3053591725
  0
LWPOLYLINE
  5
31C
330
1F
100
AcDbEntity
  8
0
  6
Continuous
 62
     7
370
    25
100
AcDbPolyline
 90
        7
 70
   128
 43
0.0
 10
6386.9375099865
 20
4728.4805229431
 10
6386.89629639
 20
4728.4685551654
 10
6386.9110698422
 20
4728.4619715084
 10
6386.9800131243
 20
4728.4615277239
 10
6387.0949691861
 20
4728.4672186242
 10
6387.2432628972
 20
4728.4784041781
 10
6387.267813017
 20
4728.4805229431
  0
ARC
  5
31D
330
1F
100
AcDbEntity
  8
0
  6
Continuous
 62
     7
370
    25
100
AcDbCircle
 10
6385.4938866147
 20
4731.8520319252
 30
0.0
 40
3.392819177515468
100
AcDbArc
 50
263.5749195973
 51
276.4250804027
  0
LWPOLYLINE
  5
31E
330
1F
100
AcDbEntity
  8
0
  6
Continuous
 62
     7
370
    25
100
AcDbPolyline
 90
        7
 70
   128
 43
0.0
 10
6383.5248208558
 20
4728.4805229431
 10
6383.6859899418
 20
4728.4685551654
 10
6383.8233440616
 20
4728.4619715084
 10
6383.920862224
 20
4728.4615277239
 10
6383.9680350091
 20
4728.4672186242
 10
6383.95997034
 20
4728.4784041781
 10
6383.9538574188
 20
4728.4805229431
  0
LINE
  5
31F
330
1F
100
AcDbEntity
  8
0
  6
Continuous
 62
     7
370
    25
100
AcDbLine
 10
6384.7284898318
 20
4728.3980002104
 30
0.0
 11
6386.0981140244
 21
4728.3980002104
 31
0.0
  0
LINE
  5
320
330
1F
100
AcDbEntity
  8
0
  6
Continuous
 62
     7
370
    25
100
AcDbLine
 10
6384.5981140244
 20
4728.3980002104
 30
0.0
 11
6384.7284898318
 21
4728.3980002104
 31
0.0
  0
ARC
  5
321
330
1F
100
AcDbEntity
  8
0
  6
Continuous
 62
     7
370
    25
100
AcDbCircle
 10
6509.4998558214
 20
4732.0975446437
 30
0.0
 40
3.63649598212567
100
AcDbArc
 50
268.5114474655
 51
275.9322684898
  0
LWPOLYLINE
  5
322
330
1F
100
AcDbEntity
  8
0
  6
Continuous
 62
     7
370
    25
100
AcDbPolyline
 90
        7
 70
   128
 43
0.0
 10
6510.2084955321
 20
4728.4805229431
 10
6510.1230681054
 20
4728.4685551654
 10
6510.0899783806
 20
4728.4619715084
 10
6510.1130110934
 20
4728.4615277239
 10
6510.1891053052
 20
4728.4672186242
 10
6510.3097698514
 20
4728.4784041781
 10
6510.3313059775
 20
4728.4805229431
  0
ARC
  5
323
330
1F
100
AcDbEntity
  8
0
  6
Continuous
 62
     7
370
    25
100
AcDbCircle
 10
6509.0370268941
 20
4731.5379193102
 30
0.0
 40
3.078066015720463
100
AcDbArc
 50
263.3563225345
 51
276.6436774655
  0
ARC
  5
324
330
1F
100
AcDbEntity
  8
0
  6
Continuous
 62
     7
370
    25
100
AcDbCircle
 10
6507.1152401636
 20
4730.0393711867
 30
0.0
 40
1.586461995977858
100
AcDbArc
 50
259.2942409171
 51
280.7057590828
  0
ARC
  5
325
330
1F
100
AcDbEntity
  8
0
  6
Continuous
 62
     7
370
    25
100
AcDbCircle
 10
6506.7305784027
 20
4731.6377688455
 30
0.0
 40
3.178349609582614
100
AcDbArc
 50
263.3937231462
 51
267.7214209515
  0
LWPOLYLINE
  5
326
330
1F
100
AcDbEntity
  8
0
  6
Continuous
 62
     7
370
    25
100
AcDbPolyline
 90
        3
 70
   128
 43
0.0
 10
6507.5981140244
 20
4728.4633819069
 10
6507.4858096277
 20
4728.4672186242
 10
6507.4057932795
 20
4728.4728114012
  0
LINE
  5
327
330
1F
100
AcDbEntity
  8
0
  6
Continuous
 62
     7
370
    25
100
AcDbLine
 10
6507.5981140244
 20
4728.3980002104
 30
0.0
 11
6509.0981140244
 21
4728.3980002104
 31
0.0
  0
LINE
  5
328
330
1F
100
AcDbEntity
  8
0
  6
Continuous
 62
     7
370
    25
100
AcDbLine
 10
6516.8481140244
 20
4733.4842761043
 30
0.0
 11
6376.8481140244
 21
4733.4842761043
 31
0.0
  0
LINE
  5
329
330
1F
100
AcDbEntity
  8
0
  6
Continuous
 62
     7
370
    25
100
AcDbLine
 10
6376.8481140244
 20
4733.4842761043
 30
0.0
 11
6376.8481140244
 21
4731.4842761043
 31
0.0
  0
LINE
  5
32A
330
1F
100
AcDbEntity
  8
0
  6
Continuous
 62
     7
370
    25
100
AcDbLine
 10
6516.8481140244
 20
4733.4842761043
 30
0.0
 11
6516.8481140244
 21
4731.4842761043
 31
0.0
  0
LINE
  5
32B
330
1F
100
AcDbEntity
  8
0
  6
Continuous
 62
     7
370
    25
100
AcDbLine
 10
6525.8481140244
 20
4733.4842761043
 30
0.0
 11
6516.8481140244
 21
4733.4842761043
 31
0.0
  0
LINE
  5
32C
330
1F
100
AcDbEntity
  8
0
  6
Continuous
 62
     7
370
    25
100
AcDbLine
 10
6525.8481140244
 20
4731.4842761043
 30
0.0
 11
6525.8481140244
 21
4733.4842761043
 31
0.0
  0
LINE
  5
32D
330
1F
100
AcDbEntity
  8
0
  6
Continuous
 62
     7
370
    25
100
AcDbLine
 10
6367.8481140244
 20
4733.4842761043
 30
0.0
 11
6367.8481140244
 21
4731.4842761043
 31
0.0
  0
LINE
  5
32E
330
1F
100
AcDbEntity
  8
0
  6
Continuous
 62
     7
370
    25
100
AcDbLine
 10
6376.8481140244
 20
4733.4842761043
 30
0.0
 11
6367.8481140244
 21
4733.4842761043
 31
0.0
  0
LWPOLYLINE
  5
32F
330
1F
100
AcDbEntity
  8
0
  6
Continuous
 62
     7
370
    25
100
AcDbPolyline
 90
       25
 70
   128
 43
0.0
 10
6432.8481140244
 20
4685.3014932351
 10
6432.8933344093
 20
4684.2945351952
 10
6433.026256933
 20
4683.3076417484
 10
6433.2399143928
 20
4682.355932158
 10
6433.5364844426
 20
4681.4181852338
 10
6433.9138005692
 20
4680.5032171879
 10
6435.2075394521
 20
4678.3354761144
 10
6436.9486190878
 20
4676.4354351723
 10
6439.0701307621
 20
4674.8761118694
 10
6441.4905459713
 20
4673.7174301258
 10
6444.1168495161
 20
4673.0039174311
 10
6446.8481140244
 20
4672.7629936779
 10
6449.5793785326
 20
4673.0039174311
 10
6452.2056820775
 20
4673.7174301258
 10
6454.6260972866
 20
4674.8761118694
 10
6456.747608961
 20
4676.4354351723
 10
6457.9510926567
 20
4677.6639168061
 10
6458.9681650057
 20
4679.0255776069
 10
6459.7824274795
 20
4680.5032171879
 10
6460.1597342929
 20
4681.4181596941
 10
6460.4563031347
 20
4682.3558931882
 10
6460.6699641615
 20
4683.307603054
 10
6460.8030783799
 20
4684.2965905455
 10
6460.8481140244
 20
4685.3014932351
 10
6460.8481140244
 20
4685.3014932351
  0
LINE
  5
330
330
1F
100
AcDbEntity
  8
0
  6
Continuous
 62
     7
370
    25
100
AcDbLine
 10
6526.8481140244
 20
4731.4842761043
 30
0.0
 11
6366.8481140244
 21
4731.4842761043
 31
0.0
  0
LINE
  5
331
330
1F
100
AcDbEntity
  8
0
  6
Continuous
 62
     7
370
    25
100
AcDbLine
 10
6526.8481140244
 20
4729.9842761043
 30
0.0
 11
6526.8481140244
 21
4731.4842761043
 31
0.0
  0
LINE
  5
332
330
1F
100
AcDbEntity
  8
0
  6
Continuous
 62
     7
370
    25
100
AcDbLine
 10
6366.8481140244
 20
4729.9842761043
 30
0.0
 11
6526.8481140244
 21
4729.9842761043
 31
0.0
  0
LINE
  5
333
330
1F
100
AcDbEntity
  8
0
  6
Continuous
 62
     7
370
    25
100
AcDbLine
 10
6366.8481140244
 20
4731.4842761043
 30
0.0
 11
6366.8481140244
 21
4729.9842761043
 31
0.0
  0
LINE
  5
334
330
1F
100
AcDbEntity
  8
0
  6
Continuous
 62
     7
370
    25
100
AcDbLine
 10
6526.8481140244
 20
4728.4842761043
 30
0.0
 11
6366.8481140244
 21
4728.4842761043
 31
0.0
  0
LINE
  5
335
330
1F
100
AcDbEntity
  8
0
  6
Continuous
 62
     7
370
    25
100
AcDbLine
 10
6366.8481140244
 20
4728.4842761043
 30
0.0
 11
6366.8481140244
 21
4729.9842761043
 31
0.0
  0
LINE
  5
336
330
1F
100
AcDbEntity
  8
0
  6
Continuous
 62
     7
370
    25
100
AcDbLine
 10
6526.8481140244
 20
4729.9842761043
 30
0.0
 11
6526.8481140244
 21
4728.4842761043
 31
0.0
  0
LINE
  5
337
330
1F
100
AcDbEntity
  8
0
  6
Continuous
 62
     7
370
    25
100
AcDbLine
 10
6526.8481140244
 20
4731.4842761043
 30
0.0
 11
6531.8481140244
 21
4731.4842761043
 31
0.0
  0
LINE
  5
338
330
1F
100
AcDbEntity
  8
0
  6
Continuous
 62
     7
370
    25
100
AcDbLine
 10
6531.8481140244
 20
4731.4842761043
 30
0.0
 11
6531.8481140244
 21
4729.9842761043
 31
0.0
  0
LINE
  5
339
330
1F
100
AcDbEntity
  8
0
  6
Continuous
 62
     7
370
    25
100
AcDbLine
 10
6526.8481140244
 20
4729.9842761043
 30
0.0
 11
6531.8481140244
 21
4729.9842761043
 31
0.0
  0
LINE
  5
33A
330
1F
100
AcDbEntity
  8
0
  6
Continuous
 62
     7
370
    25
100
AcDbLine
 10
6531.8481140244
 20
4729.9842761043
 30
0.0
 11
6530.3481140244
 21
4728.4842761043
 31
0.0
  0
LINE
  5
33B
330
1F
100
AcDbEntity
  8
0
  6
Continuous
 62
     7
370
    25
100
AcDbLine
 10
6530.3481140244
 20
4728.4842761043
 30
0.0
 11
6526.8481140244
 21
4728.4842761043
 31
0.0
  0
LINE
  5
33C
330
1F
100
AcDbEntity
  8
0
  6
Continuous
 62
     7
370
    25
100
AcDbLine
 10
6366.8481140244
 20
4728.4842761043
 30
0.0
 11
6363.3481140244
 21
4728.4842761043
 31
0.0
  0
LINE
  5
33D
330
1F
100
AcDbEntity
  8
0
  6
Continuous
 62
     7
370
    25
100
AcDbLine
 10
6363.3481140244
 20
4728.4842761043
 30
0.0
 11
6361.8481140244
 21
4729.9842761043
 31
0.0
  0
LINE
  5
33E
330
1F
100
AcDbEntity
  8
0
  6
Continuous
 62
     7
370
    25
100
AcDbLine
 10
6361.8481140244
 20
4729.9842761043
 30
0.0
 11
6366.8481140244
 21
4729.9842761043
 31
0.0
  0
LINE
  5
33F
330
1F
100
AcDbEntity
  8
0
  6
Continuous
 62
     7
370
    25
100
AcDbLine
 10
6361.8481140244
 20
4729.9842761043
 30
0.0
 11
6361.8481140244
 21
4731.4842761043
 31
0.0
  0
LINE
  5
340
330
1F
100
AcDbEntity
  8
0
  6
Continuous
 62
     7
370
    25
100
AcDbLine
 10
6361.8481140244
 20
4731.4842761043
 30
0.0
 11
6366.8481140244
 21
4731.4842761043
 31
0.0
  0
LINE
  5
341
330
1F
100
AcDbEntity
  8
0
  6
Continuous
 62
     8
370
    25
100
AcDbLine
 10
6383.9538574188
 20
4728.4805229431
 30
0.0
 11
6383.9538574188
 21
4728.4842761043
 31
0.0
  0
LINE
  5
342
330
1F
100
AcDbEntity
  8
0
  6
Continuous
 62
     8
370
    25
100
AcDbLine
 10
6386.9375099865
 20
4728.4842761043
 30
0.0
 11
6386.9375099865
 21
4728.4805229431
 31
0.0
  0
LINE
  5
343
330
1F
100
AcDbEntity
  8
0
  6
Continuous
 62
     8
370
    25
100
AcDbLine
 10
6383.4284150318
 20
4728.4805229431
 30
0.0
 11
6383.4284150318
 21
4728.4842761043
 31
0.0
  0
LINE
  5
344
330
1F
100
AcDbEntity
  8
0
  6
Continuous
 62
     8
370
    25
100
AcDbLine
 10
6510.2084955321
 20
4728.4842761043
 30
0.0
 11
6510.2084955321
 21
4728.4805229431
 31
0.0
  0
LINE
  5
345
330
1F
100
AcDbEntity
  8
0
  6
Continuous
 62
     8
370
    25
100
AcDbLine
 10
6506.3649220712
 20
4728.4805229431
 30
0.0
 11
6506.3649220712
 21
4728.4842761043
 31
0.0
  0
LINE
  5
346
330
1F
100
AcDbEntity
  8
0
  6
Continuous
 62
     8
370
    25
100
AcDbLine
 10
6509.8756976034
 20
4728.4842761043
 30
0.0
 11
6509.8756976034
 21
4728.4805229431
 31
0.0
  0
ENDSEC
  0
SECTION
  2
OBJECTS
  0
DICTIONARY
  5
C
330
0
100
AcDbDictionary
281
     1
  3
ACAD_GROUP
350
D
  3
ACAD_LAYOUT
350
1A
  3
ACAD_MLINESTYLE
350
17
  3
ACAD_PLOTSETTINGS
350
19
  3
ACAD_PLOTSTYLENAME
350
E
  3
ACAD_SCALELIST
350
47
  3
DWGPROPS
350
347
  0
DICTIONARY
  5
D
102
{ACAD_REACTORS
330
C
102
}
330
C
100
AcDbDictionary
281
     1
  0
DICTIONARY
  5
1A
102
{ACAD_REACTORS
330
C
102
}
330
C
100
AcDbDictionary
281
     1
  3
Layout1
350
1E
  3
Layout2
350
26
  3
Model
350
22
  0
DICTIONARY
  5
17
102
{ACAD_REACTORS
330
C
102
}
330
C
100
AcDbDictionary
281
     1
  3
Standard
350
18
  0
DICTIONARY
  5
19
102
{ACAD_REACTORS
330
C
102
}
330
C
100
AcDbDictionary
281
     1
  0
ACDBDICTIONARYWDFLT
  5
E
102
{ACAD_REACTORS
330
C
102
}
330
C
100
AcDbDictionary
281
     1
  3
Normal
350
F
100
AcDbDictionaryWithDefault
340
F
  0
DICTIONARY
  5
47
102
{ACAD_REACTORS
330
C
102
}
330
C
100
AcDbDictionary
281
     1
  3
A0
350
48
  3
A1
350
49
  3
A2
350
4A
  3
A3
350
4B
  3
A4
350
4C
  3
A5
350
4D
  3
A6
350
4E
  3
A7
350
4F
  3
A8
350
50
  3
A9
350
51
  3
B0
350
52
  3
B1
350
53
  3
B2
350
54
  3
B3
350
55
  3
B4
350
56
  3
B5
350
57
  3
B6
350
58
  3
B7
350
59
  3
B8
350
5A
  3
B9
350
5B
  3
C0
350
5C
  3
C1
350
5D
  3
C2
350
5E
  3
C3
350
5F
  3
C4
350
60
  3
C5
350
61
  3
C6
350
62
  3
C7
350
63
  3
C8
350
64
  3
C9
350
65
  3
D0
350
66
  3
D1
350
67
  3
D2
350
68
  0
XRECORD
  5
347
102
{ACAD_REACTORS
330
C
102
}
330
C
100
AcDbXrecord
280
     1
  1
DWGPROPS COOKIE
  2

  3

  4

  6

  7

  8
radek.stransky
  9

300
=
301
=
302
=
303
=
304
=
305
=
306
=
307
=
308
=
309
=
 40
0.0
 41
2459345.260440903
 42
2459345.260441158
  1

 90
        0
  0
LAYOUT
  5
1E
102
{ACAD_REACTORS
330
1A
102
}
330
1A
100
AcDbPlotSettings
  1

  2
none_device
  4

  6

 40
0.0
 41
0.0
 42
0.0
 43
0.0
 44
0.0
 45
0.0
 46
0.0
 47
0.0
 48
0.0
 49
0.0
140
0.0
141
0.0
142
1.0
143
1.0
 70
   688
 72
     1
 73
     0
 74
     5
  7

 75
    16
147
1.0
148
0.0
149
0.0
100
AcDbLayout
  1
Layout1
 70
     1
 71
     1
 10
0.0
 20
0.0
 11
420.0
 21
297.0
 12
0.0
 22
0.0
 32
0.0
 14
1.0000000000E+20
 24
1.0000000000E+20
 34
1.0000000000E+20
 15
-1.0000000000E+20
 25
-1.0000000000E+20
 35
-1.0000000000E+20
146
0.0
 13
0.0
 23
0.0
 33
0.0
 16
1.0
 26
0.0
 36
0.0
 17
0.0
 27
1.0
 37
0.0
 76
     0
330
1B
  0
LAYOUT
  5
26
102
{ACAD_REACTORS
330
1A
102
}
330
1A
100
AcDbPlotSettings
  1

  2
none_device
  4

  6

 40
0.0
 41
0.0
 42
0.0
 43
0.0
 44
0.0
 45
0.0
 46
0.0
 47
0.0
 48
0.0
 49
0.0
140
0.0
141
0.0
142
1.0
143
1.0
 70
   688
 72
     1
 73
     0
 74
     5
  7

 75
    16
147
1.0
148
0.0
149
0.0
100
AcDbLayout
  1
Layout2
 70
     1
 71
     2
 10
0.0
 20
0.0
 11
0.0
 21
0.0
 12
0.0
 22
0.0
 32
0.0
 14
0.0
 24
0.0
 34
0.0
 15
0.0
 25
0.0
 35
0.0
146
0.0
 13
0.0
 23
0.0
 33
0.0
 16
1.0
 26
0.0
 36
0.0
 17
0.0
 27
1.0
 37
0.0
 76
     0
330
23
  0
LAYOUT
  5
22
102
{ACAD_REACTORS
330
1A
102
}
330
1A
100
AcDbPlotSettings
  1

  2
none_device
  4
Letter_(8.50_x_11.00_Inches)
  6

 40
6.35
 41
6.35
 42
6.35000508
 43
6.35000508
 44
215.9
 45
279.4
 46
0.0
 47
0.0
 48
0.0
 49
0.0
140
0.0
141
0.0
142
1.0
143
1.0
 70
  1712
 72
     1
 73
     0
 74
     0
  7

 75
     0
147
1.0
148
0.0
149
0.0
100
AcDbLayout
  1
Model
 70
     1
 71
     0
 10
0.0
 20
0.0
 11
20000.0
 21
10000.0
 12
0.0
 22
0.0
 32
0.0
 14
0.0
 24
0.0
 34
0.0
 15
20000.0
 25
10000.0
 35
0.0
146
0.0
 13
0.0
 23
0.0
 33
0.0
 16
1.0
 26
0.0
 36
0.0
 17
0.0
 27
1.0
 37
0.0
 76
     0
330
1F
331
29
  0
MLINESTYLE
  5
18
102
{ACAD_REACTORS
330
17
102
}
330
17
100
AcDbMlineStyle
  2
Standard
 70
     0
  3

 62
   256
 51
90.0
 52
90.0
 71
     2
 49
0.5
 62
   256
  6
BYLAYER
 49
-0.5
 62
   256
  6
BYLAYER
  0
ACDBPLACEHOLDER
  5
F
102
{ACAD_REACTORS
330
E
102
}
330
E
  0
SCALE
  5
48
102
{ACAD_REACTORS
330
47
102
}
330
47
100
AcDbScale
 70
     0
300
1:1
140
1.0
141
1.0
290
     1
  0
SCALE
  5
49
102
{ACAD_REACTORS
330
47
102
}
330
47
100
AcDbScale
 70
     0
300
1:2
140
1.0
141
2.0
290
     0
  0
SCALE
  5
4A
102
{ACAD_REACTORS
330
47
102
}
330
47
100
AcDbScale
 70
     0
300
1:4
140
1.0
141
4.0
290
     0
  0
SCALE
  5
4B
102
{ACAD_REACTORS
330
47
102
}
330
47
100
AcDbScale
 70
     0
300
1:5
140
1.0
141
5.0
290
     0
  0
SCALE
  5
4C
102
{ACAD_REACTORS
330
47
102
}
330
47
100
AcDbScale
 70
     0
300
1:8
140
1.0
141
8.0
290
     0
  0
SCALE
  5
4D
102
{ACAD_REACTORS
330
47
102
}
330
47
100
AcDbScale
 70
     0
300
1:10
140
1.0
141
10.0
290
     0
  0
SCALE
  5
4E
102
{ACAD_REACTORS
330
47
102
}
330
47
100
AcDbScale
 70
     0
300
1:16
140
1.0
141
16.0
290
     0
  0
SCALE
  5
4F
102
{ACAD_REACTORS
330
47
102
}
330
47
100
AcDbScale
 70
     0
300
1:20
140
1.0
141
20.0
290
     0
  0
SCALE
  5
50
102
{ACAD_REACTORS
330
47
102
}
330
47
100
AcDbScale
 70
     0
300
1:30
140
1.0
141
30.0
290
     0
  0
SCALE
  5
51
102
{ACAD_REACTORS
330
47
102
}
330
47
100
AcDbScale
 70
     0
300
1:40
140
1.0
141
40.0
290
     0
  0
SCALE
  5
52
102
{ACAD_REACTORS
330
47
102
}
330
47
100
AcDbScale
 70
     0
300
1:50
140
1.0
141
50.0
290
     0
  0
SCALE
  5
53
102
{ACAD_REACTORS
330
47
102
}
330
47
100
AcDbScale
 70
     0
300
1:100
140
1.0
141
100.0
290
     0
  0
SCALE
  5
54
102
{ACAD_REACTORS
330
47
102
}
330
47
100
AcDbScale
 70
     0
300
2:1
140
2.0
141
1.0
290
     0
  0
SCALE
  5
55
102
{ACAD_REACTORS
330
47
102
}
330
47
100
AcDbScale
 70
     0
300
4:1
140
4.0
141
1.0
290
     0
  0
SCALE
  5
56
102
{ACAD_REACTORS
330
47
102
}
330
47
100
AcDbScale
 70
     0
300
8:1
140
8.0
141
1.0
290
     0
  0
SCALE
  5
57
102
{ACAD_REACTORS
330
47
102
}
330
47
100
AcDbScale
 70
     0
300
10:1
140
10.0
141
1.0
290
     0
  0
SCALE
  5
58
102
{ACAD_REACTORS
330
47
102
}
330
47
100
AcDbScale
 70
     0
300
100:1
140
100.0
141
1.0
290
     0
  0
SCALE
  5
59
102
{ACAD_REACTORS
330
47
102
}
330
47
100
AcDbScale
 70
     0
300
1/128" = 1'-0"
140
0.0078125
141
12.0
290
     0
  0
SCALE
  5
5A
102
{ACAD_REACTORS
330
47
102
}
330
47
100
AcDbScale
 70
     0
300
1/64" = 1'-0"
140
0.015625
141
12.0
290
     0
  0
SCALE
  5
5B
102
{ACAD_REACTORS
330
47
102
}
330
47
100
AcDbScale
 70
     0
300
1/32" = 1'-0"
140
0.03125
141
12.0
290
     0
  0
SCALE
  5
5C
102
{ACAD_REACTORS
330
47
102
}
330
47
100
AcDbScale
 70
     0
300
1/16" = 1'-0"
140
0.0625
141
12.0
290
     0
  0
SCALE
  5
5D
102
{ACAD_REACTORS
330
47
102
}
330
47
100
AcDbScale
 70
     0
300
3/32" = 1'-0"
140
0.09375
141
12.0
290
     0
  0
SCALE
  5
5E
102
{ACAD_REACTORS
330
47
102
}
330
47
100
AcDbScale
 70
     0
300
1/8" = 1'-0"
140
0.125
141
12.0
290
     0
  0
SCALE
  5
5F
102
{ACAD_REACTORS
330
47
102
}
330
47
100
AcDbScale
 70
     0
300
3/16" = 1'-0"
140
0.1875
141
12.0
290
     0
  0
SCALE
  5
60
102
{ACAD_REACTORS
330
47
102
}
330
47
100
AcDbScale
 70
     0
300
1/4" = 1'-0"
140
0.25
141
12.0
290
     0
  0
SCALE
  5
61
102
{ACAD_REACTORS
330
47
102
}
330
47
100
AcDbScale
 70
     0
300
3/8" = 1'-0"
140
0.375
141
12.0
290
     0
  0
SCALE
  5
62
102
{ACAD_REACTORS
330
47
102
}
330
47
100
AcDbScale
 70
     0
300
1/2" = 1'-0"
140
0.5
141
12.0
290
     0
  0
SCALE
  5
63
102
{ACAD_REACTORS
330
47
102
}
330
47
100
AcDbScale
 70
     0
300
3/4" = 1'-0"
140
0.75
141
12.0
290
     0
  0
SCALE
  5
64
102
{ACAD_REACTORS
330
47
102
}
330
47
100
AcDbScale
 70
     0
300
1" = 1'-0"
140
1.0
141
12.0
290
     0
  0
SCALE
  5
65
102
{ACAD_REACTORS
330
47
102
}
330
47
100
AcDbScale
 70
     0
300
1-1/2" = 1'-0"
140
1.5
141
12.0
290
     0
  0
SCALE
  5
66
102
{ACAD_REACTORS
330
47
102
}
330
47
100
AcDbScale
 70
     0
300
3" = 1'-0"
140
3.0
141
12.0
290
     0
  0
SCALE
  5
67
102
{ACAD_REACTORS
330
47
102
}
330
47
100
AcDbScale
 70
     0
300
6" = 1'-0"
140
6.0
141
12.0
290
     0
  0
SCALE
  5
68
102
{ACAD_REACTORS
330
47
102
}
330
47
100
AcDbScale
 70
     0
300
1'-0" = 1'-0"
140
12.0
141
12.0
290
     0
  0
ENDSEC
  0
EOF
