  0
SECTION
  2
HEADER
  9
$ACADVER
  1
AC1015
  9
$ACADMAINTVER
 70
     6
  9
$DWGCODEPAGE
  3
ANSI_1250
  9
$INSBASE
 10
0.0
 20
0.0
 30
0.0
  9
$EXTMIN
 10
0.0
 20
0.0
 30
0.0
  9
$EXTMAX
 10
20000.0
 20
10000.0
 30
0.0
  9
$LIMMIN
 10
0.0
 20
0.0
  9
$LIMMAX
 10
20000.0
 20
10000.0
  9
$ORTHOMODE
 70
     0
  9
$REGENMODE
 70
     1
  9
$FILLMODE
 70
     1
  9
$QTEXTMODE
 70
     0
  9
$MIRRTEXT
 70
     1
  9
$LTSCALE
 40
1.0
  9
$ATTMODE
 70
     1
  9
$TEXTSIZE
 40
2.0
  9
$TRACEWID
 40
1.0
  9
$TEXTSTYLE
  7
Standard
  9
$CLAYER
  8
0
  9
$CELTYPE
  6
ByLayer
  9
$CECOLOR
 62
   256
  9
$CELTSCALE
 40
1.0
  9
$DISPSILH
 70
     0
  9
$DIMSCALE
 40
1.0
  9
$DIMASZ
 40
2.0
  9
$DIMEXO
 40
1.0
  9
$DIMDLI
 40
3.75
  9
$DIMRND
 40
0.0
  9
$DIMDLE
 40
0.0
  9
$DIMEXE
 40
1.0
  9
$DIMTP
 40
0.0
  9
$DIMTM
 40
0.0
  9
$DIMTXT
 40
2.0
  9
$DIMCEN
 40
2.5
  9
$DIMTSZ
 40
0.0
  9
$DIMTOL
 70
     0
  9
$DIMLIM
 70
     0
  9
$DIMTIH
 70
     1
  9
$DIMTOH
 70
     1
  9
$DIMSE1
 70
     0
  9
$DIMSE2
 70
     0
  9
$DIMTAD
 70
     1
  9
$DIMZIN
 70
     0
  9
$DIMBLK
  1

  9
$DIMASO
 70
     1
  9
$DIMSHO
 70
     1
  9
$DIMPOST
  1

  9
$DIMAPOST
  1

  9
$DIMALT
 70
     0
  9
$DIMALTD
 70
     3
  9
$DIMALTF
 40
0.0393700787
  9
$DIMLFAC
 40
1.0
  9
$DIMTOFL
 70
     1
  9
$DIMTVP
 40
0.0
  9
$DIMTIX
 70
     0
  9
$DIMSOXD
 70
     0
  9
$DIMSAH
 70
     0
  9
$DIMBLK1
  1

  9
$DIMBLK2
  1

  9
$DIMSTYLE
  2
ISO-25
  9
$DIMCLRD
 70
     0
  9
$DIMCLRE
 70
     0
  9
$DIMCLRT
 70
     0
  9
$DIMTFAC
 40
1.0
  9
$DIMGAP
 40
1.524
  9
$DIMJUST
 70
     0
  9
$DIMSD1
 70
     0
  9
$DIMSD2
 70
     0
  9
$DIMTOLJ
 70
     0
  9
$DIMTZIN
 70
     0
  9
$DIMALTZ
 70
     0
  9
$DIMALTTZ
 70
     0
  9
$DIMUPT
 70
     0
  9
$DIMDEC
 70
     2
  9
$DIMTDEC
 70
     0
  9
$DIMALTU
 70
     2
  9
$DIMALTTD
 70
     3
  9
$DIMTXSTY
  7
Standard
  9
$DIMAUNIT
 70
     0
  9
$DIMADEC
 70
     2
  9
$DIMALTRND
 40
0.0
  9
$DIMAZIN
 70
     0
  9
$DIMDSEP
 70
    44
  9
$DIMATFIT
 70
     3
  9
$DIMFRAC
 70
     0
  9
$DIMLDRBLK
  1

  9
$DIMLUNIT
 70
     2
  9
$DIMLWD
 70
    -2
  9
$DIMLWE
 70
    -2
  9
$DIMTMOVE
 70
     0
  9
$LUNITS
 70
     2
  9
$LUPREC
 70
     3
  9
$SKETCHINC
 40
1.0
  9
$FILLETRAD
 40
10.0
  9
$AUNITS
 70
     0
  9
$AUPREC
 70
     2
  9
$MENU
  1
.
  9
$ELEVATION
 40
0.0
  9
$PELEVATION
 40
0.0
  9
$THICKNESS
 40
0.0
  9
$LIMCHECK
 70
     0
  9
$CHAMFERA
 40
0.0
  9
$CHAMFERB
 40
0.0
  9
$CHAMFERC
 40
0.0
  9
$CHAMFERD
 40
0.0
  9
$SKPOLY
 70
     0
  9
$TDCREATE
 40
2459345.519230764
  9
$TDUCREATE
 40
2459345.43589743
  9
$TDUPDATE
 40
2459345.519230984
  9
$TDUUPDATE
 40
2459345.435897651
  9
$TDINDWG
 40
0.0000000116
  9
$TDUSRTIMER
 40
0.0000000116
  9
$USRTIMER
 70
     1
  9
$ANGBASE
 50
0.0
  9
$ANGDIR
 70
     0
  9
$PDMODE
 70
     0
  9
$PDSIZE
 40
-1.0
  9
$PLINEWID
 40
0.0
  9
$SPLFRAME
 70
     0
  9
$SPLINETYPE
 70
     6
  9
$SPLINESEGS
 70
     8
  9
$HANDSEED
  5
19F
  9
$SURFTAB1
 70
     6
  9
$SURFTAB2
 70
     6
  9
$SURFTYPE
 70
     6
  9
$SURFU
 70
     6
  9
$SURFV
 70
     6
  9
$UCSBASE
  2

  9
$UCSNAME
  2

  9
$UCSORG
 10
0.0
 20
0.0
 30
0.0
  9
$UCSXDIR
 10
1.0
 20
0.0
 30
0.0
  9
$UCSYDIR
 10
0.0
 20
1.0
 30
0.0
  9
$UCSORTHOREF
  2

  9
$UCSORTHOVIEW
 70
     0
  9
$UCSORGTOP
 10
0.0
 20
0.0
 30
0.0
  9
$UCSORGBOTTOM
 10
0.0
 20
0.0
 30
0.0
  9
$UCSORGLEFT
 10
0.0
 20
0.0
 30
0.0
  9
$UCSORGRIGHT
 10
0.0
 20
0.0
 30
0.0
  9
$UCSORGFRONT
 10
0.0
 20
0.0
 30
0.0
  9
$UCSORGBACK
 10
0.0
 20
0.0
 30
0.0
  9
$PUCSBASE
  2

  9
$PUCSNAME
  2

  9
$PUCSORG
 10
0.0
 20
0.0
 30
0.0
  9
$PUCSXDIR
 10
1.0
 20
0.0
 30
0.0
  9
$PUCSYDIR
 10
0.0
 20
1.0
 30
0.0
  9
$PUCSORTHOREF
  2

  9
$PUCSORTHOVIEW
 70
     0
  9
$PUCSORGTOP
 10
0.0
 20
0.0
 30
0.0
  9
$PUCSORGBOTTOM
 10
0.0
 20
0.0
 30
0.0
  9
$PUCSORGLEFT
 10
0.0
 20
0.0
 30
0.0
  9
$PUCSORGRIGHT
 10
0.0
 20
0.0
 30
0.0
  9
$PUCSORGFRONT
 10
0.0
 20
0.0
 30
0.0
  9
$PUCSORGBACK
 10
0.0
 20
0.0
 30
0.0
  9
$USERI1
 70
     0
  9
$USERI2
 70
     0
  9
$USERI3
 70
     0
  9
$USERI4
 70
     0
  9
$USERI5
 70
     0
  9
$USERR1
 40
0.0
  9
$USERR2
 40
0.0
  9
$USERR3
 40
0.0
  9
$USERR4
 40
0.0
  9
$USERR5
 40
0.0
  9
$WORLDVIEW
 70
     1
  9
$SHADEDGE
 70
     3
  9
$SHADEDIF
 70
    70
  9
$TILEMODE
 70
     1
  9
$MAXACTVP
 70
    64
  9
$PINSBASE
 10
0.0
 20
0.0
 30
0.0
  9
$PLIMCHECK
 70
     0
  9
$PEXTMIN
 10
1.0000000000E+20
 20
1.0000000000E+20
 30
1.0000000000E+20
  9
$PEXTMAX
 10
-1.0000000000E+20
 20
-1.0000000000E+20
 30
-1.0000000000E+20
  9
$PLIMMIN
 10
0.0
 20
0.0
  9
$PLIMMAX
 10
420.0
 20
297.0
  9
$UNITMODE
 70
     0
  9
$VISRETAIN
 70
     1
  9
$PLINEGEN
 70
     0
  9
$PSLTSCALE
 70
     1
  9
$TREEDEPTH
 70
  3020
  9
$CMLSTYLE
  2
Standard
  9
$CMLJUST
 70
     0
  9
$CMLSCALE
 40
20.0
  9
$PROXYGRAPHICS
 70
     1
  9
$MEASUREMENT
 70
     1
  9
$CELWEIGHT
370
    -1
  9
$ENDCAPS
280
     0
  9
$JOINSTYLE
280
     0
  9
$LWDISPLAY
290
     1
  9
$INSUNITS
 70
     4
  9
$HYPERLINKBASE
  1

  9
$STYLESHEET
  1

  9
$XEDIT
290
     1
  9
$CEPSNTYPE
380
     0
  9
$PSTYLEMODE
290
     1
  9
$FINGERPRINTGUID
  2
{8ef39153-5d51-468e-a69c-f6e98901f0f9}
  9
$VERSIONGUID
  2
{FAEB1C32-E019-11D5-929B-00C0DF256EC4}
  9
$EXTNAMES
290
     1
  9
$PSVPSCALE
 40
0.0
  9
$OLESTARTUP
290
     0
  0
ENDSEC
  0
SECTION
  2
CLASSES
  0
CLASS
  1
ACDBDICTIONARYWDFLT
  2
AcDbDictionaryWithDefault
  3
ObjectDBX Classes
 90
        0
280
     0
281
     0
  0
CLASS
  1
VISUALSTYLE
  2
AcDbVisualStyle
  3
ObjectDBX Classes
 90
     4095
280
     0
281
     0
  0
CLASS
  1
MATERIAL
  2
AcDbMaterial
  3
ObjectDBX Classes
 90
     1153
280
     0
281
     0
  0
CLASS
  1
SCALE
  2
AcDbScale
  3
ObjectDBX Classes
 90
     1153
280
     0
281
     0
  0
CLASS
  1
TABLESTYLE
  2
AcDbTableStyle
  3
ObjectDBX Classes
 90
     4095
280
     0
281
     0
  0
CLASS
  1
MLEADERSTYLE
  2
AcDbMLeaderStyle
  3
ACDB_MLEADERSTYLE_CLASS
 90
     4095
280
     0
281
     0
  0
CLASS
  1
SUN
  2
AcDbSun
  3
SCENEOE
 90
     1153
280
     0
281
     0
  0
CLASS
  1
ACDBPLACEHOLDER
  2
AcDbPlaceHolder
  3
ObjectDBX Classes
 90
        0
280
     0
281
     0
  0
CLASS
  1
LAYOUT
  2
AcDbLayout
  3
ObjectDBX Classes
 90
        0
280
     0
281
     0
  0
ENDSEC
  0
SECTION
  2
TABLES
  0
TABLE
  2
VPORT
  5
8
330
0
100
AcDbSymbolTable
 70
     1
  0
VPORT
  5
29
330
8
100
AcDbSymbolTableRecord
100
AcDbViewportTableRecord
  2
*Active
 70
     0
 10
0.0
 20
0.0
 11
1.0
 21
1.0
 12
10000.0
 22
5000.0
 13
0.0
 23
0.0
 14
10.0
 24
10.0
 15
10.0
 25
10.0
 16
0.0
 26
0.0
 36
1.0
 17
0.0
 27
0.0
 37
0.0
 40
10000.0
 41
2.0
 42
50.0
 43
0.0
 44
0.0
 50
0.0
 51
0.0
 71
     0
 72
  2000
 73
     1
 74
     3
 75
     0
 76
     0
 77
     0
 78
     0
281
     0
 65
     1
110
0.0
120
0.0
130
0.0
111
1.0
121
0.0
131
0.0
112
0.0
122
1.0
132
0.0
 79
     0
146
0.0
  0
ENDTAB
  0
TABLE
  2
LTYPE
  5
5
330
0
100
AcDbSymbolTable
 70
     6
  0
LTYPE
  5
14
330
5
100
AcDbSymbolTableRecord
100
AcDbLinetypeTableRecord
  2
ByBlock
 70
     0
  3

 72
    65
 73
     0
 40
0.0
  0
LTYPE
  5
15
330
5
100
AcDbSymbolTableRecord
100
AcDbLinetypeTableRecord
  2
ByLayer
 70
     0
  3

 72
    65
 73
     0
 40
0.0
  0
LTYPE
  5
16
330
5
100
AcDbSymbolTableRecord
100
AcDbLinetypeTableRecord
  2
Continuous
 70
     0
  3
Solid line
 72
    65
 73
     0
 40
0.0
  0
LTYPE
  5
6E
330
5
100
AcDbSymbolTableRecord
100
AcDbLinetypeTableRecord
  2
HIDDEN
 70
     0
  3
Hidden __ __ __ __ __ __ __ __ __ __ __ __ __ __
 72
    65
 73
     2
 40
1.905
 49
1.27
 74
     0
 49
-0.635
 74
     0
  0
LTYPE
  5
6F
330
5
100
AcDbSymbolTableRecord
100
AcDbLinetypeTableRecord
  2
PHANTOM
 70
     0
  3
Phantom ______  __  __  ______  __  __  ______
 72
    65
 73
     6
 40
12.7
 49
6.35
 74
     0
 49
-1.27
 74
     0
 49
1.27
 74
     0
 49
-1.27
 74
     0
 49
1.27
 74
     0
 49
-1.27
 74
     0
  0
LTYPE
  5
70
330
5
100
AcDbSymbolTableRecord
100
AcDbLinetypeTableRecord
  2
CENTER
 70
     0
  3
Center ____ _ ____ _ ____ _ ____ _ ____ _ ____
 72
    65
 73
     4
 40
10.16
 49
6.35
 74
     0
 49
-1.27
 74
     0
 49
1.27
 74
     0
 49
-1.27
 74
     0
  0
LTYPE
  5
71
330
5
100
AcDbSymbolTableRecord
100
AcDbLinetypeTableRecord
  2
CENTERX2
 70
     0
  3
Center (2x) ________  __  ________  __  _____
 72
    65
 73
     4
 40
20.32
 49
12.7
 74
     0
 49
-2.54
 74
     0
 49
2.54
 74
     0
 49
-2.54
 74
     0
  0
LTYPE
  5
72
330
5
100
AcDbSymbolTableRecord
100
AcDbLinetypeTableRecord
  2
DOT2
 70
     0
  3
Dot (.5x) ........................................
 72
    65
 73
     2
 40
0.635
 49
0.0
 74
     0
 49
-0.635
 74
     0
  0
ENDTAB
  0
TABLE
  2
LAYER
  5
2
330
0
100
AcDbSymbolTable
 70
    13
  0
LAYER
  5
10
330
2
100
AcDbSymbolTableRecord
100
AcDbLayerTableRecord
  2
0
 70
     0
 62
     7
  6
Continuous
370
    -3
390
F
  0
LAYER
  5
73
330
2
100
AcDbSymbolTableRecord
100
AcDbLayerTableRecord
  2
FORMAT
 70
     0
 62
     7
  6
Continuous
370
    -3
390
F
  0
LAYER
  5
74
330
2
100
AcDbSymbolTableRecord
100
AcDbLayerTableRecord
  2
OSA
 70
     0
 62
     7
  6
CENTER
370
    -3
390
F
  0
LAYER
  5
75
330
2
100
AcDbSymbolTableRecord
100
AcDbLayerTableRecord
  2
0_35
 70
     0
 62
     7
  6
Continuous
370
    35
390
F
  0
LAYER
  5
76
330
2
100
AcDbSymbolTableRecord
100
AcDbLayerTableRecord
  2
0_5
 70
     0
 62
     7
  6
Continuous
370
    50
390
F
  0
LAYER
  5
77
330
2
100
AcDbSymbolTableRecord
100
AcDbLayerTableRecord
  2
0_25
 70
     0
 62
     7
  6
Continuous
370
    25
390
F
  0
LAYER
  5
78
330
2
100
AcDbSymbolTableRecord
100
AcDbLayerTableRecord
  2
0_18
 70
     0
 62
     7
  6
Continuous
370
    -3
390
F
  0
LAYER
  5
79
330
2
100
AcDbSymbolTableRecord
100
AcDbLayerTableRecord
  2
SLD-0
 70
     0
 62
   179
  6
Continuous
370
    -3
390
F
  0
LAYER
  5
7A
330
2
100
AcDbSymbolTableRecord
100
AcDbLayerTableRecord
  2
KOTY
 70
     0
 62
     7
  6
Continuous
370
    -3
390
F
  0
LAYER
  5
7B
330
2
100
AcDbSymbolTableRecord
100
AcDbLayerTableRecord
  2
SILNA
 70
     0
 62
   179
  6
Continuous
370
    -3
390
F
  0
LAYER
  5
7C
330
2
100
AcDbSymbolTableRecord
100
AcDbLayerTableRecord
  2
0_18_1
 70
     0
 62
   179
  6
Continuous
370
    -3
390
F
  0
LAYER
  5
7D
330
2
100
AcDbSymbolTableRecord
100
AcDbLayerTableRecord
  2
0_35_1
 70
     0
 62
   179
  6
Continuous
370
    35
390
F
  0
LAYER
  5
7E
330
2
100
AcDbSymbolTableRecord
100
AcDbLayerTableRecord
  2
0_5_1
 70
     0
 62
   179
  6
Continuous
370
    50
390
F
  0
ENDTAB
  0
TABLE
  2
STYLE
  5
3
330
0
100
AcDbSymbolTable
 70
     1
  0
STYLE
  5
11
330
3
100
AcDbSymbolTableRecord
100
AcDbTextStyleTableRecord
  2
Standard
 70
     0
 40
0.0
 41
1.0
 50
0.0
 71
     0
 42
2.0
  3
txt
  4

  0
ENDTAB
  0
TABLE
  2
VIEW
  5
6
330
0
100
AcDbSymbolTable
 70
     0
  0
ENDTAB
  0
TABLE
  2
UCS
  5
7
330
0
100
AcDbSymbolTable
 70
     0
  0
ENDTAB
  0
TABLE
  2
APPID
  5
9
330
0
100
AcDbSymbolTable
 70
     1
  0
APPID
  5
12
330
9
100
AcDbSymbolTableRecord
100
AcDbRegAppTableRecord
  2
ACAD
 70
     0
  0
ENDTAB
  0
TABLE
  2
DIMSTYLE
  5
A
330
0
100
AcDbSymbolTable
 70
     1
100
AcDbDimStyleTable
  0
DIMSTYLE
105
27
330
A
100
AcDbSymbolTableRecord
100
AcDbDimStyleTableRecord
  2
ISO-25
 70
     0
 41
2.5
 42
0.625
 43
3.75
 44
1.25
 73
     0
 74
     0
 77
     1
 78
     8
140
2.5
141
2.5
143
0.0393700787
147
0.625
171
     3
172
     1
178
     0
271
     2
272
     2
274
     3
278
    44
283
     0
284
     8
340
11
  0
ENDTAB
  0
TABLE
  2
BLOCK_RECORD
  5
1
330
0
100
AcDbSymbolTable
 70
     1
  0
BLOCK_RECORD
  5
1F
330
1
100
AcDbSymbolTableRecord
100
AcDbBlockTableRecord
  2
*Model_Space
340
22
  0
BLOCK_RECORD
  5
1B
330
1
100
AcDbSymbolTableRecord
100
AcDbBlockTableRecord
  2
*Paper_Space
340
1E
  0
BLOCK_RECORD
  5
23
330
1
100
AcDbSymbolTableRecord
100
AcDbBlockTableRecord
  2
*Paper_Space0
340
26
  0
ENDTAB
  0
ENDSEC
  0
SECTION
  2
BLOCKS
  0
BLOCK
  5
20
330
1F
100
AcDbEntity
  8
0
100
AcDbBlockBegin
  2
*Model_Space
 70
     0
 10
0.0
 20
0.0
 30
0.0
  3
*Model_Space
  1

  0
ENDBLK
  5
21
330
1F
100
AcDbEntity
  8
0
100
AcDbBlockEnd
  0
BLOCK
  5
1C
330
1B
100
AcDbEntity
 67
     1
  8
0
100
AcDbBlockBegin
  2
*Paper_Space
 70
     0
 10
0.0
 20
0.0
 30
0.0
  3
*Paper_Space
  1

  0
ENDBLK
  5
1D
330
1B
100
AcDbEntity
 67
     1
  8
0
100
AcDbBlockEnd
  0
BLOCK
  5
24
330
23
100
AcDbEntity
  8
0
100
AcDbBlockBegin
  2
*Paper_Space0
 70
     0
 10
0.0
 20
0.0
 30
0.0
  3
*Paper_Space0
  1

  0
ENDBLK
  5
25
330
23
100
AcDbEntity
  8
0
100
AcDbBlockEnd
  0
ENDSEC
  0
SECTION
  2
ENTITIES
  0
LINE
  5
7F
330
1F
100
AcDbEntity
  8
0
  6
Continuous
 62
     7
370
    25
100
AcDbLine
 10
6413.0942470768
 20
5143.7737643727
 30
0.0
 11
6411.5942470768
 21
5145.2737643727
 31
0.0
  0
LINE
  5
80
330
1F
100
AcDbEntity
  8
0
  6
Continuous
 62
     7
370
    25
100
AcDbLine
 10
6386.5942470768
 20
5145.2737643727
 30
0.0
 11
6385.0942470768
 21
5143.7737643727
 31
0.0
  0
LINE
  5
81
330
1F
100
AcDbEntity
  8
0
  6
Continuous
 62
     7
370
    25
100
AcDbLine
 10
6413.0942470768
 20
5143.2737643727
 30
0.0
 11
6413.0942470768
 21
5143.7737643727
 31
0.0
  0
LINE
  5
82
330
1F
100
AcDbEntity
  8
0
  6
Continuous
 62
     7
370
    25
100
AcDbLine
 10
6385.0942470768
 20
5143.7737643727
 30
0.0
 11
6385.0942470768
 21
5143.2737643727
 31
0.0
  0
LINE
  5
83
330
1F
100
AcDbEntity
  8
0
  6
Continuous
 62
     7
370
    25
100
AcDbLine
 10
6389.8442470768
 20
5081.6849296078
 30
0.0
 11
6389.8442470768
 21
5081.3313762172
 31
0.0
  0
LINE
  5
84
330
1F
100
AcDbEntity
  8
0
  6
Continuous
 62
     7
370
    25
100
AcDbLine
 10
6408.3442470768
 20
5081.3313762172
 30
0.0
 11
6408.3442470768
 21
5081.6849296078
 31
0.0
  0
LINE
  5
85
330
1F
100
AcDbEntity
  8
0
  6
Continuous
 62
     7
370
    25
100
AcDbLine
 10
6406.5942470768
 20
5081.3313762172
 30
0.0
 11
6406.5942470768
 21
5082.0384829984
 31
0.0
  0
LINE
  5
86
330
1F
100
AcDbEntity
  8
0
  6
Continuous
 62
     7
370
    25
100
AcDbLine
 10
6391.5942470768
 20
5082.0384829984
 30
0.0
 11
6391.5942470768
 21
5081.3313762172
 31
0.0
  0
LINE
  5
87
330
1F
100
AcDbEntity
  8
0
  6
Continuous
 62
     7
370
    25
100
AcDbLine
 10
6374.1942470768
 20
5140.5737643727
 30
0.0
 11
6374.4942470768
 21
5140.2737643727
 31
0.0
  0
LINE
  5
88
330
1F
100
AcDbEntity
  8
0
  6
Continuous
 62
     7
370
    25
100
AcDbLine
 10
6423.6942470768
 20
5140.2737643727
 30
0.0
 11
6423.9942470768
 21
5140.5737643727
 31
0.0
  0
LINE
  5
89
330
1F
100
AcDbEntity
  8
0
  6
Continuous
 62
     7
370
    25
100
AcDbLine
 10
6423.9942470768
 20
5142.2737643727
 30
0.0
 11
6422.9942470768
 21
5143.2737643727
 31
0.0
  0
LINE
  5
8A
330
1F
100
AcDbEntity
  8
0
  6
Continuous
 62
     7
370
    25
100
AcDbLine
 10
6375.1942470768
 20
5143.2737643727
 30
0.0
 11
6374.1942470768
 21
5142.2737643727
 31
0.0
  0
LINE
  5
8B
330
1F
100
AcDbEntity
  8
0
  6
Continuous
 62
     7
370
    25
100
AcDbLine
 10
6374.1942470768
 20
5142.2737643727
 30
0.0
 11
6374.1942470768
 21
5140.5737643727
 31
0.0
  0
LINE
  5
8C
330
1F
100
AcDbEntity
  8
0
  6
Continuous
 62
     7
370
    25
100
AcDbLine
 10
6423.9942470768
 20
5140.5737643727
 30
0.0
 11
6423.9942470768
 21
5142.2737643727
 31
0.0
  0
LINE
  5
8D
330
1F
100
AcDbEntity
  8
0
  6
Continuous
 62
     7
370
    25
100
AcDbLine
 10
6436.9978369152
 20
5041.8737643727
 30
0.0
 11
6437.4978369152
 21
5042.3737643727
 31
0.0
  0
LINE
  5
8E
330
1F
100
AcDbEntity
  8
0
  6
Continuous
 62
     7
370
    25
100
AcDbLine
 10
6437.4978369152
 20
5057.1737643727
 30
0.0
 11
6436.9978369152
 21
5057.6737643727
 31
0.0
  0
LINE
  5
8F
330
1F
100
AcDbEntity
  8
0
  6
Continuous
 62
     7
370
    25
100
AcDbLine
 10
6430.5032175841
 20
5057.6737643727
 30
0.0
 11
6423.7798842004
 21
5057.6737643727
 31
0.0
  0
LINE
  5
90
330
1F
100
AcDbEntity
  8
0
  6
Continuous
 62
     7
370
    25
100
AcDbLine
 10
6436.9978369152
 20
5057.6737643727
 30
0.0
 11
6434.4924562464
 21
5057.6737643727
 31
0.0
  0
LINE
  5
91
330
1F
100
AcDbEntity
  8
0
  6
Continuous
 62
     7
370
    25
100
AcDbLine
 10
6423.7798612499
 20
5041.8737643727
 30
0.0
 11
6436.9978369152
 21
5041.8737643727
 31
0.0
  0
LINE
  5
92
330
1F
100
AcDbEntity
  8
0
  6
Continuous
 62
     7
370
    25
100
AcDbLine
 10
6434.4978369152
 20
5057.6737643727
 30
0.0
 11
6434.4978369152
 21
5073.1697345982
 31
0.0
  0
LINE
  5
93
330
1F
100
AcDbEntity
  8
0
  6
Continuous
 62
     7
370
    25
100
AcDbLine
 10
6430.4978369152
 20
5073.1697345982
 30
0.0
 11
6430.4978369152
 21
5057.6737643727
 31
0.0
  0
ARC
  5
94
330
1F
100
AcDbEntity
  8
0
  6
Continuous
 62
     7
370
    25
100
AcDbCircle
 10
6432.4978369152
 20
5070.1369236431
 30
0.0
 40
3.633333333332681
100
AcDbArc
 50
56.6164821083
 51
123.3835178917
  0
LINE
  5
95
330
1F
100
AcDbEntity
  8
0
  6
Continuous
 62
     7
370
    25
100
AcDbLine
 10
6423.8442470768
 20
5140.0737643727
 30
0.0
 11
6423.6442470768
 21
5140.2737643727
 31
0.0
  0
LINE
  5
96
330
1F
100
AcDbEntity
  8
0
  6
Continuous
 62
     7
370
    25
100
AcDbLine
 10
6374.5442470768
 20
5140.2737643727
 30
0.0
 11
6374.3442470768
 21
5140.0737643727
 31
0.0
  0
LINE
  5
97
330
1F
100
AcDbEntity
  8
0
  6
Continuous
 62
     7
370
    25
100
AcDbLine
 10
6374.3442470768
 20
4991.4737643727
 30
0.0
 11
6374.5442470768
 21
4991.2737643727
 31
0.0
  0
LINE
  5
98
330
1F
100
AcDbEntity
  8
0
  6
Continuous
 62
     7
370
    25
100
AcDbLine
 10
6423.6442470768
 20
4991.2737643727
 30
0.0
 11
6423.8442470768
 21
4991.4737643727
 31
0.0
  0
LINE
  5
99
330
1F
100
AcDbEntity
  8
0
  6
Continuous
 62
     7
370
    25
100
AcDbLine
 10
6374.3442470768
 20
5140.0737643727
 30
0.0
 11
6374.3442470768
 21
4991.4737643727
 31
0.0
  0
LINE
  5
9A
330
1F
100
AcDbEntity
  8
0
  6
Continuous
 62
     7
370
    25
100
AcDbLine
 10
6423.8442470768
 20
5057.8737643727
 30
0.0
 11
6423.8442470768
 21
5140.0737643727
 31
0.0
  0
LINE
  5
9B
330
1F
100
AcDbEntity
  8
0
  6
Continuous
 62
     7
370
    25
100
AcDbLine
 10
6423.8442470768
 20
4991.4737643727
 30
0.0
 11
6423.8442470768
 21
5041.6771159041
 31
0.0
  0
LINE
  5
9C
330
1F
100
AcDbEntity
  8
0
  6
Continuous
 62
     7
370
    25
100
AcDbLine
 10
6429.0942470768
 20
4989.3340913063
 30
0.0
 11
6428.6112841636
 21
4990.17060761
 31
0.0
  0
LINE
  5
9D
330
1F
100
AcDbEntity
  8
0
  6
Continuous
 62
     7
370
    25
100
AcDbLine
 10
6369.5772099899
 20
4990.17060761
 30
0.0
 11
6369.0942470768
 21
4989.3340913063
 31
0.0
  0
LINE
  5
9E
330
1F
100
AcDbEntity
  8
0
  6
Continuous
 62
     7
370
    25
100
AcDbLine
 10
6429.0942470768
 20
4987.2737643727
 30
0.0
 11
6429.0942470768
 21
4989.3340913063
 31
0.0
  0
LINE
  5
9F
330
1F
100
AcDbEntity
  8
0
  6
Continuous
 62
     7
370
    25
100
AcDbLine
 10
6369.0942470768
 20
4989.3340913063
 30
0.0
 11
6369.0942470768
 21
4987.2737643727
 31
0.0
  0
LINE
  5
A0
330
1F
100
AcDbEntity
  8
0
  6
Continuous
 62
     7
370
    25
100
AcDbLine
 10
6428.6112841636
 20
4990.17060761
 30
0.0
 11
6424.4942470768
 21
4991.2737643727
 31
0.0
  0
LINE
  5
A1
330
1F
100
AcDbEntity
  8
0
  6
Continuous
 62
     7
370
    25
100
AcDbLine
 10
6373.6942470768
 20
4991.2737643727
 30
0.0
 11
6369.5772099899
 21
4990.17060761
 31
0.0
  0
LINE
  5
A2
330
1F
100
AcDbEntity
  8
0
  6
Continuous
 62
     7
370
    25
100
AcDbLine
 10
6386.5942470768
 20
5145.2737643727
 30
0.0
 11
6411.5942470768
 21
5145.2737643727
 31
0.0
  0
LINE
  5
A3
330
1F
100
AcDbEntity
  8
0
  6
Continuous
 62
     7
370
    25
100
AcDbLine
 10
6413.0942470768
 20
5143.7737643727
 30
0.0
 11
6385.0942470768
 21
5143.7737643727
 31
0.0
  0
ARC
  5
A4
330
1F
100
AcDbEntity
  8
0
  6
Continuous
 62
     7
370
    25
100
AcDbCircle
 10
6394.5616145266
 20
5081.6795787413
 30
0.0
 40
4.717370484581973
100
AcDbArc
 50
161.7820021849
 51
179.9350099516
  0
LWPOLYLINE
  5
A5
330
1F
100
AcDbEntity
  8
0
  6
Continuous
 62
     7
370
    25
100
AcDbPolyline
 90
        3
 70
   128
 43
0.0
 10
6408.1077866969
 20
5083.1543858875
 10
6408.2825902092
 20
5082.4388694199
 10
6408.3442470768
 20
5081.6849296078
  0
ARC
  5
A6
330
1F
100
AcDbEntity
  8
0
  6
Continuous
 62
     7
370
    25
100
AcDbCircle
 10
6399.0870069088
 20
5087.5964899307
 30
0.0
 40
12.8065558929451
100
AcDbArc
 50
255.8536949078
 51
272.9335791868
  0
ARC
  5
A7
330
1F
100
AcDbEntity
  8
0
  6
Continuous
 62
     7
370
    25
100
AcDbCircle
 10
6399.1550141989
 20
5086.5418090563
 30
0.0
 40
12.45578059462295
100
AcDbArc
 50
273.2728416264
 51
286.8978847609
  0
LINE
  5
A8
330
1F
100
AcDbEntity
  8
0
  6
Continuous
 62
     7
370
    25
100
AcDbLine
 10
6402.775496956
 20
5075.3309220958
 30
0.0
 11
6402.775496956
 21
5074.6238153146
 31
0.0
  0
ARC
  5
A9
330
1F
100
AcDbEntity
  8
0
  6
Continuous
 62
     7
370
    25
100
AcDbCircle
 10
6399.891792423
 20
5084.978447652
 30
0.0
 40
10.06928503869865
100
AcDbArc
 50
286.6417277582
 51
305.3861985819
  0
ARC
  5
AA
330
1F
100
AcDbEntity
  8
0
  6
Continuous
 62
     7
370
    25
100
AcDbCircle
 10
6401.9895979707
 20
5081.4881625772
 30
0.0
 40
6.576558404947907
100
AcDbArc
 50
309.3327489519
 51
330.2215658006
  0
LINE
  5
AB
330
1F
100
AcDbEntity
  8
0
  6
Continuous
 62
     7
370
    25
100
AcDbLine
 10
6407.6977379511
 20
5078.9290393574
 30
0.0
 11
6407.6977379511
 21
5078.2219325763
 31
0.0
  0
ARC
  5
AC
330
1F
100
AcDbEntity
  8
0
  6
Continuous
 62
     7
370
    25
100
AcDbCircle
 10
6403.5028702878
 20
5081.3411029158
 30
0.0
 40
4.838901251518693
100
AcDbArc
 50
330.1009477629
 51
6.3605162398
  0
LINE
  5
AD
330
1F
100
AcDbEntity
  8
0
  6
Continuous
 62
     7
370
    25
100
AcDbLine
 10
6408.311985677
 20
5081.8771761335
 30
0.0
 11
6408.311985677
 21
5081.1700693523
 31
0.0
  0
ARC
  5
AE
330
1F
100
AcDbEntity
  8
0
  6
Continuous
 62
     7
370
    25
100
AcDbCircle
 10
6403.2785794702
 20
5080.5383317478
 30
0.0
 40
5.072895666576538
100
AcDbArc
 50
7.1537274672
 51
32.0099799122
  0
LINE
  5
AF
330
1F
100
AcDbEntity
  8
0
  6
Continuous
 62
     7
370
    25
100
AcDbLine
 10
6407.5801706757
 20
5083.9344129701
 30
0.0
 11
6407.5801706757
 21
5083.2273061889
 31
0.0
  0
ARC
  5
B0
330
1F
100
AcDbEntity
  8
0
  6
Continuous
 62
     7
370
    25
100
AcDbCircle
 10
6401.7853423459
 20
5080.2893964347
 30
0.0
 40
6.84588788362995
100
AcDbArc
 50
32.170385328
 51
52.8521803245
  0
LINE
  5
B1
330
1F
100
AcDbEntity
  8
0
  6
Continuous
 62
     7
370
    25
100
AcDbLine
 10
6405.066372632
 20
5086.253789497
 30
0.0
 11
6405.066372632
 21
5085.6190775581
 31
0.0
  0
ARC
  5
B2
330
1F
100
AcDbEntity
  8
0
  6
Continuous
 62
     7
370
    25
100
AcDbCircle
 10
6399.705111775
 20
5076.5296249339
 30
0.0
 40
10.55278479759884
100
AcDbArc
 50
59.4664851877
 51
74.6889829521
  0
LINE
  5
B3
330
1F
100
AcDbEntity
  8
0
  6
Continuous
 62
     7
370
    25
100
AcDbLine
 10
6402.4916644453
 20
5087.2389059002
 30
0.0
 11
6402.4916644453
 21
5086.7078561751
 31
0.0
  0
LINE
  5
B4
330
1F
100
AcDbEntity
  8
0
  6
Continuous
 62
     7
370
    25
100
AcDbLine
 10
6398.3223694328
 20
5087.6404464857
 30
0.0
 11
6398.3223694328
 21
5087.1421949075
 31
0.0
  0
ARC
  5
B5
330
1F
100
AcDbEntity
  8
0
  6
Continuous
 62
     7
370
    25
100
AcDbCircle
 10
6399.0334799546
 20
5074.7067298158
 30
0.0
 40
12.45578059462775
100
AcDbArc
 50
93.2728416264
 51
106.8978847609
  0
LINE
  5
B6
330
1F
100
AcDbEntity
  8
0
  6
Continuous
 62
     7
370
    25
100
AcDbLine
 10
6395.4129971975
 20
5087.1625289601
 30
0.0
 11
6395.4129971975
 21
5086.6247235575
 31
0.0
  0
LINE
  5
B7
330
1F
100
AcDbEntity
  8
0
  6
Continuous
 62
     7
370
    25
100
AcDbLine
 10
6392.030521689
 20
5085.5543066954
 30
0.0
 11
6392.2691018749
 21
5085.7461181674
 31
0.0
  0
LINE
  5
B8
330
1F
100
AcDbEntity
  8
0
  6
Continuous
 62
     7
370
    25
100
AcDbLine
 10
6392.030521689
 20
5085.5543066954
 30
0.0
 11
6392.030521689
 21
5084.8471999142
 31
0.0
  0
ARC
  5
B9
330
1F
100
AcDbEntity
  8
0
  6
Continuous
 62
     7
370
    25
100
AcDbCircle
 10
6396.1988961828
 20
5079.7603762949
 30
0.0
 40
6.576558405014596
100
AcDbArc
 50
129.332748952
 51
150.2215658005
  0
LINE
  5
BA
330
1F
100
AcDbEntity
  8
0
  6
Continuous
 62
     7
370
    25
100
AcDbLine
 10
6390.4907562025
 20
5083.733713077
 30
0.0
 11
6390.4907562025
 21
5083.0266062959
 31
0.0
  0
ARC
  5
BB
330
1F
100
AcDbEntity
  8
0
  6
Continuous
 62
     7
370
    25
100
AcDbCircle
 10
6394.6856238658
 20
5081.3216495187
 30
0.0
 40
4.838901251565222
100
AcDbArc
 50
150.1009477631
 51
186.3605162396
  0
LINE
  5
BC
330
1F
100
AcDbEntity
  8
0
  6
Continuous
 62
     7
370
    25
100
AcDbLine
 10
6389.8765084765
 20
5080.785576301
 30
0.0
 11
6389.8765084765
 21
5080.0784695198
 31
0.0
  0
ARC
  5
BD
330
1F
100
AcDbEntity
  8
0
  6
Continuous
 62
     7
370
    25
100
AcDbCircle
 10
6394.9099146833
 20
5080.7102071243
 30
0.0
 40
5.072895666579132
100
AcDbArc
 50
187.1537274672
 51
212.0099799122
  0
ARC
  5
BE
330
1F
100
AcDbEntity
  8
0
  6
Continuous
 62
     7
370
    25
100
AcDbCircle
 10
6396.9233182296
 20
5082.8958842802
 30
0.0
 40
7.581142738984562
100
AcDbArc
 50
219.2415880111
 51
239.9072309031
  0
LINE
  5
BF
330
1F
100
AcDbEntity
  8
0
  6
Continuous
 62
     7
370
    25
100
AcDbLine
 10
6393.1221215216
 20
5076.3365680952
 30
0.0
 11
6393.1221215216
 21
5075.629461314
 31
0.0
  0
ARC
  5
C0
330
1F
100
AcDbEntity
  8
0
  6
Continuous
 62
     7
370
    25
100
AcDbCircle
 10
6398.4833823784
 20
5084.718913938
 30
0.0
 40
10.55278479734579
100
AcDbArc
 50
239.4664851875
 51
254.6889829522
  0
ARC
  5
C1
330
1F
100
AcDbEntity
  8
0
  6
Continuous
 62
     7
370
    25
100
AcDbCircle
 10
6395.2597393687
 20
5081.3309274927
 30
0.0
 40
4.402448805885749
100
AcDbArc
 50
142.9569775314
 51
198.8527904363
  0
ARC
  5
C2
330
1F
100
AcDbEntity
  8
0
  6
Continuous
 62
     7
370
    25
100
AcDbCircle
 10
6398.0363529522
 20
5078.7702417056
 30
0.0
 40
8.212440967243362
100
AcDbArc
 50
108.4597587099
 51
132.7121045963
  0
ARC
  5
C3
330
1F
100
AcDbEntity
  8
0
  6
Continuous
 62
     7
370
    25
100
AcDbCircle
 10
6399.1011458089
 20
5075.788021661
 30
0.0
 40
11.37782640136955
100
AcDbArc
 50
74.0309381368
 51
93.3006161592
  0
LWPOLYLINE
  5
C4
330
1F
100
AcDbEntity
  8
0
  6
Continuous
 62
     7
370
    25
100
AcDbPolyline
 90
       29
 70
   128
 43
0.0
 10
6404.9284349928
 20
5085.4559823415
 10
6405.2137034956
 20
5085.2438404751
 10
6405.9242024866
 20
5084.603547446
 10
6406.5017641644
 20
5083.8995653259
 10
6406.9351469482
 20
5083.1455963261
 10
6407.2159155348
 20
5082.3563155955
 10
6407.3386050831
 20
5081.5470855858
 10
6407.3008275807
 20
5080.7336570386
 10
6407.1033183235
 20
5079.9318624153
 10
6406.7499216048
 20
5079.1573077362
 10
6406.2475158896
 20
5078.4250688271
 10
6405.6058799336
 20
5077.7493978856
 10
6404.837502451
 20
5077.1434460778
 10
6403.9573390354
 20
5076.6190075664
 10
6402.9825210664
 20
5076.1862899507
 10
6401.9320222671
 20
5075.8537155866
 10
6400.8262894017
 20
5075.627757656
 10
6399.6868443026
 20
5075.5128141729
 10
6398.5358649725
 20
5075.5111223815
 10
6397.3957539149
 20
5075.6227152105
 10
6396.2887020948
 20
5075.8454206326
 10
6395.2362570164
 20
5076.1749039399
 10
6394.2589033262
 20
5076.6047521147
 10
6393.3756641019
 20
5077.1265986512
 10
6392.6037305905
 20
5077.7302864001
 10
6391.9581275996
 20
5078.4040652662
 10
6391.4514210572
 20
5079.1348209102
 10
6391.0934734296
 20
5079.9083300046
 10
6391.0934734296
 20
5079.9083300046
  0
LINE
  5
C5
330
1F
100
AcDbEntity
  8
0
  6
Continuous
 62
     7
370
    25
100
AcDbLine
 10
6407.2625278969
 20
5079.1130786219
 30
0.0
 11
6407.6977379511
 21
5078.9290393574
 31
0.0
  0
ARC
  5
C6
330
1F
100
AcDbEntity
  8
0
  6
Continuous
 62
     7
370
    25
100
AcDbCircle
 10
6401.8299166852
 20
5082.1462804038
 30
0.0
 40
6.222023595864322
100
AcDbArc
 50
308.7303444163
 51
330.8239703363
  0
LINE
  5
C7
330
1F
100
AcDbEntity
  8
0
  6
Continuous
 62
     7
370
    25
100
AcDbLine
 10
6402.775496956
 20
5075.3309220958
 30
0.0
 11
6402.65179624
 21
5075.6786625348
 31
0.0
  0
ARC
  5
C8
330
1F
100
AcDbEntity
  8
0
  6
Continuous
 62
     7
370
    25
100
AcDbCircle
 10
6399.1510162642
 20
5086.9236529329
 30
0.0
 40
11.77732013197772
100
AcDbArc
 50
272.8783648797
 51
287.2923615076
  0
ARC
  5
C9
330
1F
100
AcDbEntity
  8
0
  6
Continuous
 62
     7
370
    25
100
AcDbCircle
 10
6398.5180228004
 20
5085.2001972797
 30
0.0
 40
9.978874698168038
100
AcDbArc
 50
239.0259192753
 51
255.1295488645
  0
LINE
  5
CA
330
1F
100
AcDbEntity
  8
0
  6
Continuous
 62
     7
370
    25
100
AcDbLine
 10
6393.3823923454
 20
5076.6443080757
 30
0.0
 11
6393.1221215216
 21
5076.3365680952
 31
0.0
  0
ARC
  5
CB
330
1F
100
AcDbEntity
  8
0
  6
Continuous
 62
     7
370
    25
100
AcDbCircle
 10
6395.1399102888
 20
5081.4116599721
 30
0.0
 40
4.80192534573294
100
AcDbArc
 50
186.4402066723
 51
212.7235007072
  0
LINE
  5
CC
330
1F
100
AcDbEntity
  8
0
  6
Continuous
 62
     7
370
    25
100
AcDbLine
 10
6389.8765084765
 20
5080.785576301
 30
0.0
 11
6390.3682877215
 21
5080.8730459161
 31
0.0
  0
LINE
  5
CD
330
1F
100
AcDbEntity
  8
0
  6
Continuous
 62
     7
370
    25
100
AcDbLine
 10
6392.4657317432
 20
5085.370267431
 30
0.0
 11
6392.030521689
 21
5085.5543066954
 31
0.0
  0
LINE
  5
CE
330
1F
100
AcDbEntity
  8
0
  6
Continuous
 62
     7
370
    25
100
AcDbLine
 10
6398.3953055222
 20
5087.6442678899
 30
0.0
 11
6398.4460701489
 21
5087.5015612497
 31
0.0
  0
LINE
  5
CF
330
1F
100
AcDbEntity
  8
0
  6
Continuous
 62
     7
370
    25
100
AcDbLine
 10
6402.2313936215
 20
5087.1072229758
 30
0.0
 11
6402.3688881816
 21
5087.269794303
 31
0.0
  0
LINE
  5
D0
330
1F
100
AcDbEntity
  8
0
  6
Continuous
 62
     7
370
    25
100
AcDbLine
 10
6407.5801706757
 20
5083.9344129701
 30
0.0
 11
6407.0883914307
 21
5083.8469433549
 31
0.0
  0
LINE
  5
D1
330
1F
100
AcDbEntity
  8
0
  6
Continuous
 62
     7
370
    25
100
AcDbLine
 10
6398.3223694328
 20
5087.1421949075
 30
0.0
 11
6398.4460701489
 21
5086.7944544685
 31
0.0
  0
ARC
  5
D2
330
1F
100
AcDbEntity
  8
0
  6
Continuous
 62
     7
370
    25
100
AcDbCircle
 10
6399.0374778893
 20
5075.0319927203
 30
0.0
 40
11.7773201320997
100
AcDbArc
 50
92.8783648798
 51
107.2923615075
  0
LINE
  5
D3
330
1F
100
AcDbEntity
  8
0
  6
Continuous
 62
     7
370
    25
100
AcDbLine
 10
6395.4129971975
 20
5086.6247235575
 30
0.0
 11
6395.5366979136
 21
5086.2769831185
 31
0.0
  0
LINE
  5
D4
330
1F
100
AcDbEntity
  8
0
  6
Continuous
 62
     7
370
    25
100
AcDbLine
 10
6398.4460701489
 20
5087.5015612497
 30
0.0
 11
6398.4460701489
 21
5086.7944544685
 31
0.0
  0
LINE
  5
D5
330
1F
100
AcDbEntity
  8
0
  6
Continuous
 62
     7
370
    25
100
AcDbLine
 10
6404.8061018082
 20
5085.3113375776
 30
0.0
 11
6405.066372632
 21
5085.6190775581
 31
0.0
  0
ARC
  5
D6
330
1F
100
AcDbEntity
  8
0
  6
Continuous
 62
     7
370
    25
100
AcDbCircle
 10
6399.6704713531
 20
5076.7554483736
 30
0.0
 40
9.9788746981975
100
AcDbArc
 50
59.0259192753
 51
75.1295488644
  0
LINE
  5
D7
330
1F
100
AcDbEntity
  8
0
  6
Continuous
 62
     7
370
    25
100
AcDbLine
 10
6402.2313936215
 20
5086.4001161946
 30
0.0
 11
6402.4916644453
 21
5086.7078561751
 31
0.0
  0
LWPOLYLINE
  5
D8
330
1F
100
AcDbEntity
  8
0
  6
Continuous
 62
     7
370
    25
100
AcDbPolyline
 90
        3
 70
   128
 43
0.0
 10
6391.0934734296
 20
5080.6154367858
 10
6390.8912517603
 20
5081.4166438561
 10
6390.8594125308
 20
5081.6849296078
  0
ARC
  5
D9
330
1F
100
AcDbEntity
  8
0
  6
Continuous
 62
     7
370
    25
100
AcDbCircle
 10
6401.7442684675
 20
5082.553445525
 30
0.0
 40
5.651942840941294
100
AcDbArc
 50
296.7995207133
 51
351.1605173314
  0
ARC
  5
DA
330
1F
100
AcDbEntity
  8
0
  6
Continuous
 62
     7
370
    25
100
AcDbCircle
 10
6396.7286317518
 20
5082.8811148418
 30
0.0
 40
6.073574431116278
100
AcDbArc
 50
201.9031417048
 51
242.1993176888
  0
LINE
  5
DB
330
1F
100
AcDbEntity
  8
0
  6
Continuous
 62
     7
370
    25
100
AcDbLine
 10
6402.2313936215
 20
5087.1072229758
 30
0.0
 11
6402.2313936215
 21
5086.4001161946
 31
0.0
  0
LINE
  5
DC
330
1F
100
AcDbEntity
  8
0
  6
Continuous
 62
     7
370
    25
100
AcDbLine
 10
6389.8747026195
 20
5082.2152596937
 30
0.0
 11
6389.8536950303
 21
5082.4500412422
 31
0.0
  0
LINE
  5
DD
330
1F
100
AcDbEntity
  8
0
  6
Continuous
 62
     7
370
    25
100
AcDbLine
 10
6408.3347991233
 20
5082.4500412422
 30
0.0
 11
6408.3137915341
 21
5082.2152596937
 31
0.0
  0
LWPOLYLINE
  5
DE
330
1F
100
AcDbEntity
  8
0
  6
Continuous
 62
     7
370
    25
100
AcDbPolyline
 90
       44
 70
   128
 43
0.0
 10
6391.8208164884
 20
5080.0376978421
 10
6391.6319439641
 20
5080.8003243107
 10
6391.602117475
 20
5081.5742692287
 10
6391.7319727208
 20
5082.3430373038
 10
6392.0187420626
 20
5083.0902435793
 10
6392.4563135096
 20
5083.7999626506
 10
6393.0353609861
 20
5084.4570680879
 10
6393.7435431005
 20
5085.0475548296
 10
6394.5657661805
 20
5085.5588376761
 10
6395.4845059687
 20
5085.9800195211
 10
6396.4801811216
 20
5086.3021236048
 10
6397.5315705519
 20
5086.5182848379
 10
6398.6162657193
 20
5086.623896119
 10
6399.7111482295
 20
5086.6167065271
 10
6400.7928825626
 20
5086.4968692957
 10
6401.8384134295
 20
5086.2669385473
 10
6402.8254571548
 20
5085.9318148569
 10
6403.7329766152
 20
5085.4986408038
 10
6404.5416296091
 20
5084.9766487411
 10
6405.2341811018
 20
5084.3769640233
 10
6405.7958705605
 20
5083.712367889
 10
6406.2147265498
 20
5082.997025051
 10
6406.4818218813
 20
5082.2461817999
 10
6406.5914638817
 20
5081.475841056
 10
6406.5413157223
 20
5080.7024212949
 10
6406.3324462239
 20
5079.9424066161
 10
6405.9693070773
 20
5079.2119954128
 10
6405.4596379629
 20
5078.5267551318
 10
6404.8143015931
 20
5077.90129048
 10
6404.0470521921
 20
5077.3489321505
 10
6403.1742423489
 20
5076.8814527022
 10
6402.21447449
 20
5076.5088156479
 10
6401.1882044009
 20
5076.2389630994
 10
6400.1173052469
 20
5076.0776464954
 10
6399.0246013842
 20
5076.0283040191
 10
6397.9333818985
 20
5076.0919873198
 10
6396.8669042386
 20
5076.2673390984
 10
6395.8478985243
 20
5076.5506220364
 10
6394.8980830933
 20
5076.9357984495
 10
6394.0377016124
 20
5077.4146589715
 10
6393.2850916192
 20
5077.9769975214
 10
6392.6562936889
 20
5078.6108288296
 10
6392.1647095579
 20
5079.3026438821
 10
6391.8208164884
 20
5080.0376978421
  0
ARC
  5
DF
330
1F
100
AcDbEntity
  8
0
  6
Continuous
 62
     7
370
    25
100
AcDbCircle
 10
6396.4474967896
 20
5081.720680332
 30
0.0
 40
4.863643830474246
100
AcDbArc
 50
121.6426399652
 51
176.253481016
  0
ARC
  5
E0
330
1F
100
AcDbEntity
  8
0
  6
Continuous
 62
     7
370
    25
100
AcDbCircle
 10
6402.1070273113
 20
5081.8811604035
 30
0.0
 40
4.489976795272384
100
AcDbArc
 50
2.00797611
 51
51.745657273
  0
LINE
  5
E1
330
1F
100
AcDbEntity
  8
0
  6
Continuous
 62
     7
370
    25
100
AcDbLine
 10
6392.4657317432
 20
5085.370267431
 30
0.0
 11
6392.4657317432
 21
5084.6631606498
 31
0.0
  0
LINE
  5
E2
330
1F
100
AcDbEntity
  8
0
  6
Continuous
 62
     7
370
    25
100
AcDbLine
 10
6392.4657317432
 20
5084.6631606498
 30
0.0
 11
6392.030521689
 21
5084.8471999142
 31
0.0
  0
ARC
  5
E3
330
1F
100
AcDbEntity
  8
0
  6
Continuous
 62
     7
370
    25
100
AcDbCircle
 10
6396.3585774683
 20
5079.8093652495
 30
0.0
 40
6.222023595870112
100
AcDbArc
 50
128.7303444163
 51
150.8239703362
  0
LINE
  5
E4
330
1F
100
AcDbEntity
  8
0
  6
Continuous
 62
     7
370
    25
100
AcDbLine
 10
6390.9259662566
 20
5082.8425670314
 30
0.0
 11
6390.4907562025
 21
5083.0266062959
 31
0.0
  0
LINE
  5
E5
330
1F
100
AcDbEntity
  8
0
  6
Continuous
 62
     7
370
    25
100
AcDbLine
 10
6407.5801706757
 20
5083.2273061889
 30
0.0
 11
6407.0883914307
 21
5083.1398365738
 31
0.0
  0
LINE
  5
E6
330
1F
100
AcDbEntity
  8
0
  6
Continuous
 62
     7
370
    25
100
AcDbLine
 10
6408.311985677
 20
5081.1700693523
 30
0.0
 11
6407.8202064321
 21
5081.0825997372
 31
0.0
  0
ARC
  5
E7
330
1F
100
AcDbEntity
  8
0
  6
Continuous
 62
     7
370
    25
100
AcDbCircle
 10
6403.0485838647
 20
5080.5439856812
 30
0.0
 40
4.801925345761379
100
AcDbArc
 50
6.4402066724
 51
32.7235007071
  0
LINE
  5
E8
330
1F
100
AcDbEntity
  8
0
  6
Continuous
 62
     7
370
    25
100
AcDbLine
 10
6407.0883914307
 20
5083.8469433549
 30
0.0
 11
6407.0883914307
 21
5083.1398365738
 31
0.0
  0
LINE
  5
E9
330
1F
100
AcDbEntity
  8
0
  6
Continuous
 62
     7
370
    25
100
AcDbLine
 10
6389.8765084765
 20
5080.0784695198
 30
0.0
 11
6390.3682877215
 21
5080.165939135
 31
0.0
  0
ARC
  5
EA
330
1F
100
AcDbEntity
  8
0
  6
Continuous
 62
     7
370
    25
100
AcDbCircle
 10
6395.1399102888
 20
5080.7045531909
 30
0.0
 40
4.801925345737459
100
AcDbArc
 50
186.4402066722
 51
212.7235007071
  0
LINE
  5
EB
330
1F
100
AcDbEntity
  8
0
  6
Continuous
 62
     7
370
    25
100
AcDbLine
 10
6390.6083234779
 20
5078.0212326832
 30
0.0
 11
6391.1001027228
 21
5078.1087022984
 31
0.0
  0
LINE
  5
EC
330
1F
100
AcDbEntity
  8
0
  6
Continuous
 62
     7
370
    25
100
AcDbLine
 10
6390.3682877215
 20
5080.8730459161
 30
0.0
 11
6390.3682877215
 21
5080.165939135
 31
0.0
  0
LINE
  5
ED
330
1F
100
AcDbEntity
  8
0
  6
Continuous
 62
     7
370
    25
100
AcDbLine
 10
6391.1001027228
 20
5078.8158090795
 30
0.0
 11
6391.1001027228
 21
5078.1087022984
 31
0.0
  0
LINE
  5
EE
330
1F
100
AcDbEntity
  8
0
  6
Continuous
 62
     7
370
    25
100
AcDbLine
 10
6407.2625278969
 20
5079.1130786219
 30
0.0
 11
6407.2625278969
 21
5078.4059718407
 31
0.0
  0
LINE
  5
EF
330
1F
100
AcDbEntity
  8
0
  6
Continuous
 62
     7
370
    25
100
AcDbLine
 10
6407.2625278969
 20
5078.4059718407
 30
0.0
 11
6407.6977379511
 21
5078.2219325763
 31
0.0
  0
ARC
  5
F0
330
1F
100
AcDbEntity
  8
0
  6
Continuous
 62
     7
370
    25
100
AcDbCircle
 10
6401.8299166852
 20
5081.4391736226
 30
0.0
 40
6.222023595863741
100
AcDbArc
 50
308.7303444163
 51
330.8239703363
  0
LINE
  5
F1
330
1F
100
AcDbEntity
  8
0
  6
Continuous
 62
     7
370
    25
100
AcDbLine
 10
6405.7227624103
 20
5076.5853782223
 30
0.0
 11
6406.1579724645
 21
5076.4013389579
 31
0.0
  0
LINE
  5
F2
330
1F
100
AcDbEntity
  8
0
  6
Continuous
 62
     7
370
    25
100
AcDbLine
 10
6405.7227624103
 20
5077.2924850035
 30
0.0
 11
6405.7227624103
 21
5076.5853782223
 31
0.0
  0
LINE
  5
F3
330
1F
100
AcDbEntity
  8
0
  6
Continuous
 62
     7
370
    25
100
AcDbLine
 10
6393.3823923454
 20
5076.6443080757
 30
0.0
 11
6393.3823923454
 21
5075.9372012945
 31
0.0
  0
LINE
  5
F4
330
1F
100
AcDbEntity
  8
0
  6
Continuous
 62
     7
370
    25
100
AcDbLine
 10
6395.957100532
 20
5075.5555294587
 30
0.0
 11
6395.957100532
 21
5074.8484226775
 31
0.0
  0
ARC
  5
F5
330
1F
100
AcDbEntity
  8
0
  6
Continuous
 62
     7
370
    25
100
AcDbCircle
 10
6398.5180228004
 20
5084.4930904984
 30
0.0
 40
9.97887469814179
100
AcDbArc
 50
239.0259192753
 51
255.1295488645
  0
LINE
  5
F6
330
1F
100
AcDbEntity
  8
0
  6
Continuous
 62
     7
370
    25
100
AcDbLine
 10
6393.3823923454
 20
5075.9372012945
 30
0.0
 11
6393.1221215216
 21
5075.629461314
 31
0.0
  0
LINE
  5
F7
330
1F
100
AcDbEntity
  8
0
  6
Continuous
 62
     7
370
    25
100
AcDbLine
 10
6395.957100532
 20
5074.8484226775
 30
0.0
 11
6395.6968297082
 21
5074.540682697
 31
0.0
  0
LINE
  5
F8
330
1F
100
AcDbEntity
  8
0
  6
Continuous
 62
     7
370
    25
100
AcDbLine
 10
6402.65179624
 20
5075.6786625348
 30
0.0
 11
6402.65179624
 21
5074.9715557536
 31
0.0
  0
ARC
  5
F9
330
1F
100
AcDbEntity
  8
0
  6
Continuous
 62
     7
370
    25
100
AcDbCircle
 10
6399.1510162643
 20
5086.2165461516
 30
0.0
 40
11.77732013193052
100
AcDbArc
 50
272.8783648796
 51
287.2923615076
  0
LINE
  5
FA
330
1F
100
AcDbEntity
  8
0
  6
Continuous
 62
     7
370
    25
100
AcDbLine
 10
6399.7424240046
 20
5075.1611911848
 30
0.0
 11
6399.7424240046
 21
5074.4540844036
 31
0.0
  0
LINE
  5
FB
330
1F
100
AcDbEntity
  8
0
  6
Continuous
 62
     7
370
    25
100
AcDbLine
 10
6402.775496956
 20
5074.6238153146
 30
0.0
 11
6402.65179624
 21
5074.9715557536
 31
0.0
  0
LINE
  5
FC
330
1F
100
AcDbEntity
  8
0
  6
Continuous
 62
     7
370
    25
100
AcDbLine
 10
6399.8661247207
 20
5074.1063439646
 30
0.0
 11
6399.7424240046
 21
5074.4540844036
 31
0.0
  0
LINE
  5
FD
330
1F
100
AcDbEntity
  8
0
  6
Continuous
 62
     7
370
    25
100
AcDbLine
 10
6374.1942470768
 20
5140.5737643727
 30
0.0
 11
6423.9942470768
 21
5140.5737643727
 31
0.0
  0
LINE
  5
FE
330
1F
100
AcDbEntity
  8
0
  6
Continuous
 62
     7
370
    25
100
AcDbLine
 10
6374.4942470768
 20
5140.2737643727
 30
0.0
 11
6423.6942470768
 21
5140.2737643727
 31
0.0
  0
LINE
  5
FF
330
1F
100
AcDbEntity
  8
0
  6
Continuous
 62
     7
370
    25
100
AcDbLine
 10
6375.1942470768
 20
5143.2737643727
 30
0.0
 11
6422.9942470768
 21
5143.2737643727
 31
0.0
  0
LINE
  5
100
330
1F
100
AcDbEntity
  8
0
  6
Continuous
 62
     7
370
    25
100
AcDbLine
 10
6374.1942470768
 20
5142.2737643727
 30
0.0
 11
6423.9942470768
 21
5142.2737643727
 31
0.0
  0
LINE
  5
101
330
1F
100
AcDbEntity
  8
0
  6
Continuous
 62
     7
370
    25
100
AcDbLine
 10
6437.4978369152
 20
5057.1737643727
 30
0.0
 11
6437.4978369152
 21
5042.3737643727
 31
0.0
  0
LINE
  5
102
330
1F
100
AcDbEntity
  8
0
  6
Continuous
 62
     7
370
    25
100
AcDbLine
 10
6436.9978369152
 20
5057.6737643727
 30
0.0
 11
6436.9978369152
 21
5041.8737643727
 31
0.0
  0
ARC
  5
103
330
1F
100
AcDbEntity
  8
0
  6
Continuous
 62
     7
370
    25
100
AcDbCircle
 10
6432.8956840754
 20
5062.9256434807
 30
0.0
 40
5.487876046219212
100
AcDbArc
 50
265.8426580178
 51
286.6097752361
  0
ARC
  5
104
330
1F
100
AcDbEntity
  8
0
  6
Continuous
 62
     7
370
    25
100
AcDbCircle
 10
6427.8851687273
 20
5024.3937310528
 30
0.0
 40
33.37872937408961
100
AcDbArc
 50
82.0567704196
 51
85.4591260946
  0
ARC
  5
105
330
1F
100
AcDbEntity
  8
0
  6
Continuous
 62
     7
370
    25
100
AcDbCircle
 10
6432.4978369152
 20
5032.114812516
 30
0.0
 40
41.1036084446732
100
AcDbArc
 50
87.2110277278
 51
92.7889722722
  0
ARC
  5
106
330
1F
100
AcDbEntity
  8
0
  6
Continuous
 62
     7
370
    25
100
AcDbCircle
 10
6399.0942470768
 20
5084.7737643727
 30
0.0
 40
13.9500000000004
100
AcDbArc
 50
160.0925511025
 51
19.9074488975
  0
LINE
  5
107
330
1F
100
AcDbEntity
  8
0
  6
Continuous
 62
     7
370
    25
100
AcDbLine
 10
6387.4907993133
 20
5090.5237643727
 30
0.0
 11
6385.9778451311
 21
5089.5237643727
 31
0.0
  0
LINE
  5
108
330
1F
100
AcDbEntity
  8
0
  6
Continuous
 62
     7
370
    25
100
AcDbLine
 10
6387.4907993133
 20
5090.5237643727
 30
0.0
 11
6410.6976948402
 21
5090.5237643727
 31
0.0
  0
LINE
  5
109
330
1F
100
AcDbEntity
  8
0
  6
Continuous
 62
     7
370
    25
100
AcDbLine
 10
6412.2106490224
 20
5089.5237643727
 30
0.0
 11
6410.6976948402
 21
5090.5237643727
 31
0.0
  0
LWPOLYLINE
  5
10A
330
1F
100
AcDbEntity
  8
0
  6
Continuous
 62
     7
370
    25
100
AcDbPolyline
 90
       51
 70
   128
 43
0.0
 10
6399.0942470768
 20
5073.586895072
 10
6400.3416073176
 20
5073.6423868708
 10
6401.5692959422
 20
5073.8079871284
 10
6402.7579515678
 20
5074.0810842299
 10
6403.8888283849
 20
5074.4573712708
 10
6404.9440917906
 20
5074.9309139797
 10
6405.9070996507
 20
5075.4942443052
 10
6406.7626647559
 20
5076.1384781915
 10
6407.4972943334
 20
5076.8534556855
 10
6408.0994028359
 20
5077.6279011648
 10
6408.5594946527
 20
5078.4496011618
 10
6408.870313861
 20
5079.3055969765
 10
6409.0269586561
 20
5080.1823890436
 10
6409.0269586561
 20
5081.0661498285
 10
6408.870313861
 20
5081.9429418956
 10
6408.5594946527
 20
5082.7989377103
 10
6408.0994028359
 20
5083.6206377073
 10
6407.4972943334
 20
5084.3950831866
 10
6406.7626647559
 20
5085.1100606806
 10
6405.9070996507
 20
5085.7542945669
 10
6404.9440917906
 20
5086.3176248924
 10
6403.8888283849
 20
5086.7911676013
 10
6402.7579515678
 20
5087.1674546422
 10
6401.5692959422
 20
5087.4405517437
 10
6400.3416073176
 20
5087.6061520013
 10
6399.0942470768
 20
5087.6616438001
 10
6397.846886836
 20
5087.6061520013
 10
6396.6191982113
 20
5087.4405517437
 10
6395.4305425858
 20
5087.1674546422
 10
6394.2996657686
 20
5086.7911676013
 10
6393.2444023629
 20
5086.3176248924
 10
6392.2813945028
 20
5085.7542945669
 10
6391.4258293976
 20
5085.1100606806
 10
6390.6911998201
 20
5084.3950831866
 10
6390.0890913176
 20
5083.6206377073
 10
6389.6289995008
 20
5082.7989377103
 10
6389.3181802926
 20
5081.9429418956
 10
6389.1615354974
 20
5081.0661498285
 10
6389.1615354974
 20
5080.1823890436
 10
6389.3181802926
 20
5079.3055969765
 10
6389.6289995008
 20
5078.4496011618
 10
6390.0890913176
 20
5077.6279011648
 10
6390.6911998201
 20
5076.8534556855
 10
6391.4258293976
 20
5076.1384781915
 10
6392.2813945028
 20
5075.4942443052
 10
6393.2444023629
 20
5074.9309139797
 10
6394.2996657686
 20
5074.4573712708
 10
6395.4305425858
 20
5074.0810842299
 10
6396.6191982113
 20
5073.8079871284
 10
6397.846886836
 20
5073.6423868708
 10
6399.0942470768
 20
5073.586895072
  0
ARC
  5
10B
330
1F
100
AcDbEntity
  8
0
  6
Continuous
 62
     7
370
    25
100
AcDbCircle
 10
6399.0942470768
 20
5084.7737643727
 30
0.0
 40
12.95000000000022
100
AcDbArc
 50
26.3603643512
 51
153.6396356488
  0
ARC
  5
10C
330
1F
100
AcDbEntity
  8
0
  6
Continuous
 62
     7
370
    25
100
AcDbCircle
 10
6399.0942470768
 20
5084.7737643727
 30
0.0
 40
13.9500000000004
100
AcDbArc
 50
19.9074488975
 51
160.0925511025
  0
LINE
  5
10D
330
1F
100
AcDbEntity
  8
0
  6
Continuous
 62
     7
370
    25
100
AcDbLine
 10
6399.0942470768
 20
5074.7022501436
 30
0.0
 11
6399.7424240046
 21
5074.7181133437
 31
0.0
  0
ARC
  5
10E
330
1F
100
AcDbEntity
  8
0
  6
Continuous
 62
     7
370
    25
100
AcDbCircle
 10
6399.8882515291
 20
5085.0625329399
 30
0.0
 40
10.24317182756731
100
AcDbArc
 50
286.3718589692
 51
304.7223386636
  0
ARC
  5
10F
330
1F
100
AcDbEntity
  8
0
  6
Continuous
 62
     7
370
    25
100
AcDbCircle
 10
6403.3742967453
 20
5081.3498874732
 30
0.0
 40
5.072008471640637
100
AcDbArc
 50
328.474995944
 51
44.7873213882
  0
ARC
  5
110
330
1F
100
AcDbEntity
  8
0
  6
Continuous
 62
     7
370
    25
100
AcDbCircle
 10
6394.8277536405
 20
5081.3291777155
 30
0.0
 40
5.096221842822448
100
AcDbArc
 50
135.1547983241
 51
193.6992728642
  0
ARC
  5
111
330
1F
100
AcDbEntity
  8
0
  6
Continuous
 62
     7
370
    25
100
AcDbCircle
 10
6396.9371385808
 20
5082.9614344906
 30
0.0
 40
7.74485854700245
100
AcDbArc
 50
219.092229772
 51
240.4892365416
  0
ARC
  5
112
330
1F
100
AcDbEntity
  8
0
  6
Continuous
 62
     7
370
    25
100
AcDbCircle
 10
6399.0727368604
 20
5087.592844845
 30
0.0
 40
12.89061264810313
100
AcDbArc
 50
256.0132158832
 51
270.0956079607
  0
LINE
  5
113
330
1F
100
AcDbEntity
  8
0
  6
Continuous
 62
     7
370
    25
100
AcDbLine
 10
6408.3347991233
 20
5081.9804781453
 30
0.0
 11
6408.3855400438
 21
5082.2152596937
 31
0.0
  0
LINE
  5
114
330
1F
100
AcDbEntity
  8
0
  6
Continuous
 62
     7
370
    25
100
AcDbLine
 10
6389.8029541097
 20
5082.2152596937
 30
0.0
 11
6389.8536950303
 21
5081.9804781453
 31
0.0
  0
LINE
  5
115
330
1F
100
AcDbEntity
  8
0
  6
Continuous
 62
     7
370
    25
100
AcDbLine
 10
6399.0942470768
 20
5140.0737643727
 30
0.0
 11
6374.3442470768
 21
5140.0737643727
 31
0.0
  0
LINE
  5
116
330
1F
100
AcDbEntity
  8
0
  6
Continuous
 62
     7
370
    25
100
AcDbLine
 10
6423.8442470768
 20
5140.0737643727
 30
0.0
 11
6399.0942470768
 21
5140.0737643727
 31
0.0
  0
LINE
  5
117
330
1F
100
AcDbEntity
  8
0
  6
Continuous
 62
     7
370
    25
100
AcDbLine
 10
6374.3442470768
 20
4991.4737643727
 30
0.0
 11
6423.8442470768
 21
4991.4737643727
 31
0.0
  0
LWPOLYLINE
  5
118
330
1F
100
AcDbEntity
  8
0
  6
Continuous
 62
     7
370
    25
100
AcDbPolyline
 90
       21
 70
   128
 43
0.0
 10
6423.843156077
 20
5041.6771159041
 10
6423.8442105228
 20
5041.673876066
 10
6423.8049966874
 20
5041.7945008528
 10
6423.7040352328
 20
5042.1128784523
 10
6423.5462344609
 20
5042.6360345492
 10
6423.3497962932
 20
5043.3411002441
 10
6423.128163099
 20
5044.2351165807
 10
6422.9059334329
 20
5045.2967221434
 10
6422.7060359904
 20
5046.5235219662
 10
6422.5636433993
 20
5047.8090598796
 10
6422.4883232878
 20
5049.1990455131
 10
6422.4924736722
 20
5050.4979934879
 10
6422.5701012086
 20
5051.8141631617
 10
6422.70485785
 20
5053.015436948
 10
6422.8891775185
 20
5054.1608151731
 10
6423.1036326274
 20
5055.2049792016
 10
6423.3289917649
 20
5056.12753098
 10
6423.5371864168
 20
5056.880436138
 10
6423.7079183788
 20
5057.4471153334
 10
6423.8082092271
 20
5057.7629711647
 10
6423.8442470768
 20
5057.8737643727
  0
ARC
  5
119
330
1F
100
AcDbEntity
  8
0
  6
Continuous
 62
     7
370
    25
100
AcDbCircle
 10
6398.9117985416
 20
5084.3440965485
 30
0.0
 40
13.5715585998831
100
AcDbArc
 50
209.8047890388
 51
270.7702760051
  0
ARC
  5
11A
330
1F
100
AcDbEntity
  8
0
  6
Continuous
 62
     7
370
    25
100
AcDbCircle
 10
6398.7399400835
 20
5084.8853807811
 30
0.0
 40
13.6553863204931
100
AcDbArc
 50
123.1596933654
 51
201.4365936232
  0
ARC
  5
11B
330
1F
100
AcDbEntity
  8
0
  6
Continuous
 62
     7
370
    25
100
AcDbCircle
 10
6399.1280195142
 20
5084.7543169471
 30
0.0
 40
13.98059336592472
100
AcDbArc
 50
269.8615924261
 51
123.8135384286
  0
LINE
  5
11C
330
1F
100
AcDbEntity
  8
0
  6
Continuous
 62
     7
370
    25
100
AcDbLine
 10
6391.1098873654
 20
5096.2737643727
 30
0.0
 11
6391.1978871559
 21
5096.2737643727
 31
0.0
  0
LINE
  5
11D
330
1F
100
AcDbEntity
  8
0
  6
Continuous
 62
     7
370
    25
100
AcDbLine
 10
6406.9906069976
 20
5096.2737643727
 30
0.0
 11
6407.0786067881
 21
5096.2737643727
 31
0.0
  0
LINE
  5
11E
330
1F
100
AcDbEntity
  8
0
  6
Continuous
 62
     7
370
    25
100
AcDbLine
 10
6429.0942470768
 20
4989.3340913063
 30
0.0
 11
6369.0942470768
 21
4989.3340913063
 31
0.0
  0
LINE
  5
11F
330
1F
100
AcDbEntity
  8
0
  6
Continuous
 62
     7
370
    25
100
AcDbLine
 10
6428.5898576042
 20
4990.17060761
 30
0.0
 11
6428.6112841636
 21
4990.17060761
 31
0.0
  0
LINE
  5
120
330
1F
100
AcDbEntity
  8
0
  6
Continuous
 62
     7
370
    25
100
AcDbLine
 10
6369.5772099899
 20
4990.17060761
 30
0.0
 11
6428.5898576042
 21
4990.17060761
 31
0.0
  0
LINE
  5
121
330
1F
100
AcDbEntity
  8
0
  6
Continuous
 62
     7
370
    25
100
AcDbLine
 10
6429.0942470768
 20
4987.2737643727
 30
0.0
 11
6369.0942470768
 21
4987.2737643727
 31
0.0
  0
LINE
  5
122
330
1F
100
AcDbEntity
  8
0
  6
Continuous
 62
     7
370
    25
100
AcDbLine
 10
6424.4942470768
 20
4991.2737643727
 30
0.0
 11
6373.6942470768
 21
4991.2737643727
 31
0.0
  0
LINE
  5
123
330
1F
100
AcDbEntity
  8
0
  6
Continuous
 62
     7
370
    25
100
AcDbLine
 10
6610.4823701359
 20
5143.7737643727
 30
0.0
 11
6608.9823701359
 21
5145.2737643727
 31
0.0
  0
LINE
  5
124
330
1F
100
AcDbEntity
  8
0
  6
Continuous
 62
     7
370
    25
100
AcDbLine
 10
6583.9823701359
 20
5145.2737643727
 30
0.0
 11
6582.4823701359
 21
5143.7737643727
 31
0.0
  0
LINE
  5
125
330
1F
100
AcDbEntity
  8
0
  6
Continuous
 62
     7
370
    25
100
AcDbLine
 10
6610.4823701359
 20
5143.2737643727
 30
0.0
 11
6610.4823701359
 21
5143.7737643727
 31
0.0
  0
LINE
  5
126
330
1F
100
AcDbEntity
  8
0
  6
Continuous
 62
     7
370
    25
100
AcDbLine
 10
6582.4823701359
 20
5143.7737643727
 30
0.0
 11
6582.4823701359
 21
5143.2737643727
 31
0.0
  0
LINE
  5
127
330
1F
100
AcDbEntity
  8
0
  6
Continuous
 62
     7
370
    25
100
AcDbLine
 10
6571.5823701359
 20
5140.5737643727
 30
0.0
 11
6571.8823701359
 21
5140.2737643727
 31
0.0
  0
LINE
  5
128
330
1F
100
AcDbEntity
  8
0
  6
Continuous
 62
     7
370
    25
100
AcDbLine
 10
6621.0823701359
 20
5140.2737643727
 30
0.0
 11
6621.3823701359
 21
5140.5737643727
 31
0.0
  0
LINE
  5
129
330
1F
100
AcDbEntity
  8
0
  6
Continuous
 62
     7
370
    25
100
AcDbLine
 10
6621.3823701359
 20
5142.2737643727
 30
0.0
 11
6620.3823701359
 21
5143.2737643727
 31
0.0
  0
LINE
  5
12A
330
1F
100
AcDbEntity
  8
0
  6
Continuous
 62
     7
370
    25
100
AcDbLine
 10
6572.5823701359
 20
5143.2737643727
 30
0.0
 11
6571.5823701359
 21
5142.2737643727
 31
0.0
  0
LINE
  5
12B
330
1F
100
AcDbEntity
  8
0
  6
Continuous
 62
     7
370
    25
100
AcDbLine
 10
6571.5823701359
 20
5142.2737643727
 30
0.0
 11
6571.5823701359
 21
5140.5737643727
 31
0.0
  0
LINE
  5
12C
330
1F
100
AcDbEntity
  8
0
  6
Continuous
 62
     7
370
    25
100
AcDbLine
 10
6621.3823701359
 20
5140.5737643727
 30
0.0
 11
6621.3823701359
 21
5142.2737643727
 31
0.0
  0
LINE
  5
12D
330
1F
100
AcDbEntity
  8
0
  6
Continuous
 62
     7
370
    25
100
AcDbLine
 10
6621.204199598
 20
5070.8237643727
 30
0.0
 11
6691.7823701359
 21
5070.8237643727
 31
0.0
  0
LINE
  5
12E
330
1F
100
AcDbEntity
  8
0
  6
Continuous
 62
     7
370
    25
100
AcDbLine
 10
6710.4823701359
 20
5098.7237643727
 30
0.0
 11
6621.2041999051
 21
5098.7237643727
 31
0.0
  0
LINE
  5
12F
330
1F
100
AcDbEntity
  8
0
  6
Continuous
 62
     7
370
    25
100
AcDbLine
 10
6711.4823701359
 20
5097.7237643727
 30
0.0
 11
6710.4823701359
 21
5098.7237643727
 31
0.0
  0
LINE
  5
130
330
1F
100
AcDbEntity
  8
0
  6
Continuous
 62
     7
370
    25
100
AcDbLine
 10
6571.7323701359
 20
4991.4737643727
 30
0.0
 11
6571.9323701359
 21
4991.2737643727
 31
0.0
  0
LINE
  5
131
330
1F
100
AcDbEntity
  8
0
  6
Continuous
 62
     7
370
    25
100
AcDbLine
 10
6621.0323701359
 20
4991.2737643727
 30
0.0
 11
6621.2323701359
 21
4991.4737643727
 31
0.0
  0
LINE
  5
132
330
1F
100
AcDbEntity
  8
0
  6
Continuous
 62
     7
370
    25
100
AcDbLine
 10
6621.2323701359
 20
5140.0737643727
 30
0.0
 11
6621.0323701359
 21
5140.2737643727
 31
0.0
  0
LINE
  5
133
330
1F
100
AcDbEntity
  8
0
  6
Continuous
 62
     7
370
    25
100
AcDbLine
 10
6571.9323701359
 20
5140.2737643727
 30
0.0
 11
6571.7323701359
 21
5140.0737643727
 31
0.0
  0
LINE
  5
134
330
1F
100
AcDbEntity
  8
0
  6
Continuous
 62
     7
370
    25
100
AcDbLine
 10
6571.7323701359
 20
5135.8391050541
 30
0.0
 11
6571.7323701359
 21
4991.4737643727
 31
0.0
  0
LINE
  5
135
330
1F
100
AcDbEntity
  8
0
  6
Continuous
 62
     7
370
    25
100
AcDbLine
 10
6571.7323701359
 20
5140.0737643727
 30
0.0
 11
6571.7323701359
 21
5138.3237643727
 31
0.0
  0
LINE
  5
136
330
1F
100
AcDbEntity
  8
0
  6
Continuous
 62
     7
370
    25
100
AcDbLine
 10
6621.2323701359
 20
5098.7681540494
 30
0.0
 11
6621.2323701359
 21
5140.0737643727
 31
0.0
  0
LINE
  5
137
330
1F
100
AcDbEntity
  8
0
  6
Continuous
 62
     7
370
    25
100
AcDbLine
 10
6621.2323701359
 20
4991.4737643727
 30
0.0
 11
6621.2323701359
 21
5070.7737643727
 31
0.0
  0
LINE
  5
138
330
1F
100
AcDbEntity
  8
0
  6
Continuous
 62
     7
370
    25
100
AcDbLine
 10
6626.4823701359
 20
4989.3340913063
 30
0.0
 11
6625.9994072227
 21
4990.17060761
 31
0.0
  0
LINE
  5
139
330
1F
100
AcDbEntity
  8
0
  6
Continuous
 62
     7
370
    25
100
AcDbLine
 10
6566.965333049
 20
4990.17060761
 30
0.0
 11
6566.4823701359
 21
4989.3340913063
 31
0.0
  0
LINE
  5
13A
330
1F
100
AcDbEntity
  8
0
  6
Continuous
 62
     7
370
    25
100
AcDbLine
 10
6626.4823701359
 20
4987.2737643727
 30
0.0
 11
6626.4823701359
 21
4989.3340913063
 31
0.0
  0
LINE
  5
13B
330
1F
100
AcDbEntity
  8
0
  6
Continuous
 62
     7
370
    25
100
AcDbLine
 10
6566.4823701359
 20
4989.3340913063
 30
0.0
 11
6566.4823701359
 21
4987.2737643727
 31
0.0
  0
LINE
  5
13C
330
1F
100
AcDbEntity
  8
0
  6
Continuous
 62
     7
370
    25
100
AcDbLine
 10
6625.9994072227
 20
4990.17060761
 30
0.0
 11
6621.8823701359
 21
4991.2737643727
 31
0.0
  0
LINE
  5
13D
330
1F
100
AcDbEntity
  8
0
  6
Continuous
 62
     7
370
    25
100
AcDbLine
 10
6571.0823701359
 20
4991.2737643727
 30
0.0
 11
6566.965333049
 21
4990.17060761
 31
0.0
  0
LINE
  5
13E
330
1F
100
AcDbEntity
  8
0
  6
Continuous
 62
     7
370
    25
100
AcDbLine
 10
6583.9823701359
 20
5145.2737643727
 30
0.0
 11
6608.9823701359
 21
5145.2737643727
 31
0.0
  0
LINE
  5
13F
330
1F
100
AcDbEntity
  8
0
  6
Continuous
 62
     7
370
    25
100
AcDbLine
 10
6610.4823701359
 20
5143.7737643727
 30
0.0
 11
6582.4823701359
 21
5143.7737643727
 31
0.0
  0
LINE
  5
140
330
1F
100
AcDbEntity
  8
0
  6
Continuous
 62
     7
370
    25
100
AcDbLine
 10
6571.5823701359
 20
5140.5737643727
 30
0.0
 11
6621.3823701359
 21
5140.5737643727
 31
0.0
  0
LINE
  5
141
330
1F
100
AcDbEntity
  8
0
  6
Continuous
 62
     7
370
    25
100
AcDbLine
 10
6571.8823701359
 20
5140.2737643727
 30
0.0
 11
6621.0823701359
 21
5140.2737643727
 31
0.0
  0
LINE
  5
142
330
1F
100
AcDbEntity
  8
0
  6
Continuous
 62
     7
370
    25
100
AcDbLine
 10
6572.5823701359
 20
5143.2737643727
 30
0.0
 11
6620.3823701359
 21
5143.2737643727
 31
0.0
  0
LINE
  5
143
330
1F
100
AcDbEntity
  8
0
  6
Continuous
 62
     7
370
    25
100
AcDbLine
 10
6571.5823701359
 20
5142.2737643727
 30
0.0
 11
6621.3823701359
 21
5142.2737643727
 31
0.0
  0
LINE
  5
144
330
1F
100
AcDbEntity
  8
0
  6
Continuous
 62
     7
370
    25
100
AcDbLine
 10
6710.4823701359
 20
5089.5237643727
 30
0.0
 11
6710.4823701359
 21
5098.7237643727
 31
0.0
  0
LINE
  5
145
330
1F
100
AcDbEntity
  8
0
  6
Continuous
 62
     7
370
    25
100
AcDbLine
 10
6710.4823701359
 20
5089.5237643727
 30
0.0
 11
6691.7823701359
 21
5070.8237643727
 31
0.0
  0
LINE
  5
146
330
1F
100
AcDbEntity
  8
0
  6
Continuous
 62
     7
370
    25
100
AcDbLine
 10
6711.4823701359
 20
5090.5237643727
 30
0.0
 11
6711.4823701359
 21
5097.7237643727
 31
0.0
  0
LINE
  5
147
330
1F
100
AcDbEntity
  8
0
  6
Continuous
 62
     7
370
    25
100
AcDbLine
 10
6711.4823701359
 20
5090.5237643727
 30
0.0
 11
6710.4823701359
 21
5089.5237643727
 31
0.0
  0
LINE
  5
148
330
1F
100
AcDbEntity
  8
0
  6
Continuous
 62
     7
370
    25
100
AcDbLine
 10
6571.7323701359
 20
4991.4737643727
 30
0.0
 11
6621.2323701359
 21
4991.4737643727
 31
0.0
  0
LINE
  5
149
330
1F
100
AcDbEntity
  8
0
  6
Continuous
 62
     7
370
    25
100
AcDbLine
 10
6621.2323701359
 20
5140.0737643727
 30
0.0
 11
6571.7323701359
 21
5140.0737643727
 31
0.0
  0
LWPOLYLINE
  5
14A
330
1F
100
AcDbEntity
  8
0
  6
Continuous
 62
     7
370
    25
100
AcDbPolyline
 90
       21
 70
   128
 43
0.0
 10
6621.2323701359
 20
5070.7737643727
 10
6621.1406094199
 20
5070.9366308333
 10
6620.8632552376
 20
5071.4371584197
 10
6620.4430924595
 20
5072.2217241294
 10
6619.8950286273
 20
5073.3024925323
 10
6619.2432478236
 20
5074.6992890457
 10
6618.550868482
 20
5076.3799500279
 10
6617.8527283966
 20
5078.4389627033
 10
6617.2755899753
 20
5080.7994101746
 10
6616.9963019757
 20
5082.7100542362
 10
6616.8922713379
 20
5084.7341780617
 10
6616.983421364
 20
5086.7052408696
 10
6617.2622041429
 20
5088.6774807249
 10
6617.6792254515
 20
5090.4960170124
 10
6618.20807295
 20
5092.2198145179
 10
6618.872810941
 20
5093.9807910073
 10
6619.5611213945
 20
5095.5471695753
 10
6620.2407005301
 20
5096.9350045693
 10
6620.7992095982
 20
5097.992924007
 10
6621.1197782472
 20
5098.5737418526
 10
6621.2292116858
 20
5098.7681540494
  0
ARC
  5
14B
330
1F
100
AcDbEntity
  8
0
  6
Continuous
 62
     7
370
    25
100
AcDbCircle
 10
6547.0004980039
 20
5137.0737991548
 30
0.0
 40
24.76343902198905
100
AcDbArc
 50
357.1420728546
 51
2.8933048539
  0
LINE
  5
14C
330
1F
100
AcDbEntity
  8
0
  6
Continuous
 62
     7
370
    25
100
AcDbLine
 10
6626.4823701359
 20
4989.3340913063
 30
0.0
 11
6566.4823701359
 21
4989.3340913063
 31
0.0
  0
LINE
  5
14D
330
1F
100
AcDbEntity
  8
0
  6
Continuous
 62
     7
370
    25
100
AcDbLine
 10
6566.965333049
 20
4990.17060761
 30
0.0
 11
6625.9994072227
 21
4990.17060761
 31
0.0
  0
LINE
  5
14E
330
1F
100
AcDbEntity
  8
0
  6
Continuous
 62
     7
370
    25
100
AcDbLine
 10
6595.339499003
 20
4987.2737643727
 30
0.0
 11
6566.4823701359
 21
4987.2737643727
 31
0.0
  0
LINE
  5
14F
330
1F
100
AcDbEntity
  8
0
  6
Continuous
 62
     7
370
    25
100
AcDbLine
 10
6626.4823701359
 20
4987.2737643727
 30
0.0
 11
6595.339499003
 21
4987.2737643727
 31
0.0
  0
LINE
  5
150
330
1F
100
AcDbEntity
  8
0
  6
Continuous
 62
     7
370
    25
100
AcDbLine
 10
6595.5147392434
 20
4991.2737643727
 30
0.0
 11
6571.0823701359
 21
4991.2737643727
 31
0.0
  0
LINE
  5
151
330
1F
100
AcDbEntity
  8
0
  6
Continuous
 62
     7
370
    25
100
AcDbLine
 10
6621.8823701359
 20
4991.2737643727
 30
0.0
 11
6595.5147392434
 21
4991.2737643727
 31
0.0
  0
LINE
  5
152
330
1F
100
AcDbEntity
  8
0
  6
Continuous
 62
     7
370
    25
100
AcDbLine
 10
6436.9978369152
 20
4823.5585750513
 30
0.0
 11
6437.4978369152
 21
4824.0585750513
 31
0.0
  0
LINE
  5
153
330
1F
100
AcDbEntity
  8
0
  6
Continuous
 62
     7
370
    25
100
AcDbLine
 10
6437.4978369152
 20
4838.8585750513
 30
0.0
 11
6436.9978369152
 21
4839.3585750513
 31
0.0
  0
LINE
  5
154
330
1F
100
AcDbEntity
  8
0
  6
Continuous
 62
     7
370
    25
100
AcDbLine
 10
6436.9978369152
 20
4839.3585750513
 30
0.0
 11
6422.7078025058
 21
4839.3585750513
 31
0.0
  0
LINE
  5
155
330
1F
100
AcDbEntity
  8
0
  6
Continuous
 62
     7
370
    25
100
AcDbLine
 10
6422.7078025058
 20
4823.5585750513
 30
0.0
 11
6436.9978369152
 21
4823.5585750513
 31
0.0
  0
LINE
  5
156
330
1F
100
AcDbEntity
  8
0
  6
Continuous
 62
     7
370
    25
100
AcDbLine
 10
6434.4978369152
 20
4831.605182431
 30
0.0
 11
6434.4978369152
 21
4831.8928298215
 31
0.0
  0
LINE
  5
157
330
1F
100
AcDbEntity
  8
0
  6
Continuous
 62
     7
370
    25
100
AcDbLine
 10
6430.4978369152
 20
4831.8928298215
 30
0.0
 11
6430.4978369152
 21
4831.605182431
 31
0.0
  0
LINE
  5
158
330
1F
100
AcDbEntity
  8
0
  6
Continuous
 62
     7
370
    25
100
AcDbLine
 10
6385.1442470768
 20
4810.8331659645
 30
0.0
 11
6385.1442470768
 21
4722.2085750513
 31
0.0
  0
LINE
  5
159
330
1F
100
AcDbEntity
  8
0
  6
Continuous
 62
     7
370
    25
100
AcDbLine
 10
6413.0442470768
 20
4722.2085750513
 30
0.0
 11
6413.0442470768
 21
4810.8331659645
 31
0.0
  0
ARC
  5
15A
330
1F
100
AcDbEntity
  8
0
  6
Continuous
 62
     7
370
    25
100
AcDbCircle
 10
6398.34233953
 20
4832.5298482347
 30
0.0
 40
0.6676186886570576
100
AcDbArc
 50
180.0
 51
0.0
  0
LINE
  5
15B
330
1F
100
AcDbEntity
  8
0
  6
Continuous
 62
     7
370
    25
100
AcDbLine
 10
6399.0099582187
 20
4835.4708797692
 30
0.0
 11
6399.0099582187
 21
4832.5298482347
 31
0.0
  0
ARC
  5
15C
330
1F
100
AcDbEntity
  8
0
  6
Continuous
 62
     7
370
    25
100
AcDbCircle
 10
6399.250068335
 20
4835.4708797692
 30
0.0
 40
0.2401101162877239
100
AcDbArc
 50
90.0
 51
180.0
  0
LINE
  5
15D
330
1F
100
AcDbEntity
  8
0
  6
Continuous
 62
     7
370
    25
100
AcDbLine
 10
6399.8744815139
 20
4835.7109898855
 30
0.0
 11
6399.250068335
 21
4835.7109898855
 31
0.0
  0
ARC
  5
15E
330
1F
100
AcDbEntity
  8
0
  6
Continuous
 62
     7
370
    25
100
AcDbCircle
 10
6399.8744815139
 20
4835.4708797692
 30
0.0
 40
0.2401101162877239
100
AcDbArc
 50
0.0
 51
90.0
  0
LINE
  5
15F
330
1F
100
AcDbEntity
  8
0
  6
Continuous
 62
     7
370
    25
100
AcDbLine
 10
6400.1145916302
 20
4832.5298482347
 30
0.0
 11
6400.1145916302
 21
4835.4708797692
 31
0.0
  0
ARC
  5
160
330
1F
100
AcDbEntity
  8
0
  6
Continuous
 62
     7
370
    25
100
AcDbCircle
 10
6400.7822103188
 20
4832.5298482347
 30
0.0
 40
0.6676186886570576
100
AcDbArc
 50
180.0
 51
0.0
  0
LINE
  5
161
330
1F
100
AcDbEntity
  8
0
  6
Continuous
 62
     7
370
    25
100
AcDbLine
 10
6401.4498290075
 20
4834.9617255341
 30
0.0
 11
6401.4498290075
 21
4832.5298482347
 31
0.0
  0
ARC
  5
162
330
1F
100
AcDbEntity
  8
0
  6
Continuous
 62
     7
370
    25
100
AcDbCircle
 10
6401.6899391238
 20
4834.9617255341
 30
0.0
 40
0.2401101162877239
100
AcDbArc
 50
90.0
 51
180.0
  0
LINE
  5
163
330
1F
100
AcDbEntity
  8
0
  6
Continuous
 62
     7
370
    25
100
AcDbLine
 10
6402.4370586657
 20
4835.2018356504
 30
0.0
 11
6401.6899391238
 21
4835.2018356504
 31
0.0
  0
ARC
  5
164
330
1F
100
AcDbEntity
  8
0
  6
Continuous
 62
     7
370
    25
100
AcDbCircle
 10
6402.4370586657
 20
4834.9617255341
 30
0.0
 40
0.2401101162886334
100
AcDbArc
 50
0.0
 51
90.0
  0
LINE
  5
165
330
1F
100
AcDbEntity
  8
0
  6
Continuous
 62
     7
370
    25
100
AcDbLine
 10
6402.677168782
 20
4832.5298482347
 30
0.0
 11
6402.677168782
 21
4834.9617255341
 31
0.0
  0
ARC
  5
166
330
1F
100
AcDbEntity
  8
0
  6
Continuous
 62
     7
370
    25
100
AcDbCircle
 10
6403.3447874706
 20
4832.5298482347
 30
0.0
 40
0.6676186886570576
100
AcDbArc
 50
180.0
 51
0.0
  0
LINE
  5
167
330
1F
100
AcDbEntity
  8
0
  6
Continuous
 62
     7
370
    25
100
AcDbLine
 10
6404.0124061593
 20
4834.0453752254
 30
0.0
 11
6404.0124061593
 21
4832.5298482347
 31
0.0
  0
ARC
  5
168
330
1F
100
AcDbEntity
  8
0
  6
Continuous
 62
     7
370
    25
100
AcDbCircle
 10
6404.2525162756
 20
4834.0453752254
 30
0.0
 40
0.2401101162877239
100
AcDbArc
 50
90.0
 51
180.0
  0
LINE
  5
169
330
1F
100
AcDbEntity
  8
0
  6
Continuous
 62
     7
370
    25
100
AcDbLine
 10
6404.9145440001
 20
4834.2854853417
 30
0.0
 11
6404.2525162756
 21
4834.2854853417
 31
0.0
  0
ARC
  5
16A
330
1F
100
AcDbEntity
  8
0
  6
Continuous
 62
     7
370
    25
100
AcDbCircle
 10
6404.9145440001
 20
4834.0453752254
 30
0.0
 40
0.2401101162877239
100
AcDbArc
 50
0.0
 51
90.0
  0
LINE
  5
16B
330
1F
100
AcDbEntity
  8
0
  6
Continuous
 62
     7
370
    25
100
AcDbLine
 10
6405.1546541164
 20
4826.1622129446
 30
0.0
 11
6405.1546541164
 21
4834.0453752254
 31
0.0
  0
ARC
  5
16C
330
1F
100
AcDbEntity
  8
0
  6
Continuous
 62
     7
370
    25
100
AcDbCircle
 10
6401.6286535657
 20
4826.1622129446
 30
0.0
 40
3.526000550637946
100
AcDbArc
 50
270.0
 51
0.0
  0
LINE
  5
16D
330
1F
100
AcDbEntity
  8
0
  6
Continuous
 62
     7
370
    25
100
AcDbLine
 10
6399.2614291588
 20
4822.6362123939
 30
0.0
 11
6401.6286535657
 21
4822.6362123939
 31
0.0
  0
ARC
  5
16E
330
1F
100
AcDbEntity
  8
0
  6
Continuous
 62
     7
370
    25
100
AcDbCircle
 10
6399.2614291588
 20
4827.9291427217
 30
0.0
 40
5.292930327734211
100
AcDbArc
 50
180.0
 51
270.0
  0
LINE
  5
16F
330
1F
100
AcDbEntity
  8
0
  6
Continuous
 62
     7
370
    25
100
AcDbLine
 10
6393.968498831
 20
4832.3752504838
 30
0.0
 11
6393.968498831
 21
4827.9291427217
 31
0.0
  0
ARC
  5
170
330
1F
100
AcDbEntity
  8
0
  6
Continuous
 62
     7
370
    25
100
AcDbCircle
 10
6393.6251847877
 20
4830.874608121
 30
0.0
 40
1.53941288587157
100
AcDbArc
 50
0.0
 51
77.1137478469
  0
LINE
  5
171
330
1F
100
AcDbEntity
  8
0
  6
Continuous
 62
     7
370
    25
100
AcDbLine
 10
6395.1645976736
 20
4828.920187239
 30
0.0
 11
6395.1645976736
 21
4830.874608121
 31
0.0
  0
ARC
  5
172
330
1F
100
AcDbEntity
  8
0
  6
Continuous
 62
     7
370
    25
100
AcDbCircle
 10
6395.8322163622
 20
4828.920187239
 30
0.0
 40
0.6676186886570576
100
AcDbArc
 50
180.0
 51
0.0
  0
LINE
  5
173
330
1F
100
AcDbEntity
  8
0
  6
Continuous
 62
     7
370
    25
100
AcDbLine
 10
6396.4998350509
 20
4840.2006885088
 30
0.0
 11
6396.4998350509
 21
4828.920187239
 31
0.0
  0
ARC
  5
174
330
1F
100
AcDbEntity
  8
0
  6
Continuous
 62
     7
370
    25
100
AcDbCircle
 10
6397.0872779461
 20
4840.2006885088
 30
0.0
 40
0.5874428952447488
100
AcDbArc
 50
0.0
 51
180.0
  0
LINE
  5
175
330
1F
100
AcDbEntity
  8
0
  6
Continuous
 62
     7
370
    25
100
AcDbLine
 10
6397.6747208414
 20
4832.5298482347
 30
0.0
 11
6397.6747208414
 21
4840.2006885088
 31
0.0
  0
CIRCLE
  5
176
330
1F
100
AcDbEntity
  8
0
  6
Continuous
 62
     7
370
    25
100
AcDbCircle
 10
6399.0942470768
 20
4831.4585750513
 30
0.0
 40
12.5
  0
LINE
  5
177
330
1F
100
AcDbEntity
  8
0
  6
Continuous
 62
     7
370
    25
100
AcDbLine
 10
6398.7043208414
 20
4836.6549688643
 30
0.0
 11
6398.7043208414
 21
4840.2006885088
 31
0.0
  0
ARC
  5
178
330
1F
100
AcDbEntity
  8
0
  6
Continuous
 62
     7
370
    25
100
AcDbCircle
 10
6393.6251847877
 20
4830.874608121
 30
0.0
 40
2.569012885871177
100
AcDbArc
 50
44.0944057146
 51
105.4941474424
  0
LINE
  5
179
330
1F
100
AcDbEntity
  8
0
  6
Continuous
 62
     7
370
    25
100
AcDbLine
 10
6392.938898831
 20
4833.3502572871
 30
0.0
 11
6392.938898831
 21
4827.9291427217
 31
0.0
  0
ARC
  5
17A
330
1F
100
AcDbEntity
  8
0
  6
Continuous
 62
     7
370
    25
100
AcDbCircle
 10
6399.2614291588
 20
4827.9291427217
 30
0.0
 40
6.322530327734967
100
AcDbArc
 50
180.0
 51
270.0
  0
LINE
  5
17B
330
1F
100
AcDbEntity
  8
0
  6
Continuous
 62
     7
370
    25
100
AcDbLine
 10
6399.2614291588
 20
4821.6066123939
 30
0.0
 11
6401.6286535657
 21
4821.6066123939
 31
0.0
  0
ARC
  5
17C
330
1F
100
AcDbEntity
  8
0
  6
Continuous
 62
     7
370
    25
100
AcDbCircle
 10
6401.6286535657
 20
4826.1622129446
 30
0.0
 40
4.555600550638701
100
AcDbArc
 50
270.0
 51
0.0
  0
LINE
  5
17D
330
1F
100
AcDbEntity
  8
0
  6
Continuous
 62
     7
370
    25
100
AcDbLine
 10
6406.1842541164
 20
4826.1622129446
 30
0.0
 11
6406.1842541164
 21
4833.9989834728
 31
0.0
  0
ARC
  5
17E
330
1F
100
AcDbEntity
  8
0
  6
Continuous
 62
     7
370
    25
100
AcDbCircle
 10
6404.8306428702
 20
4833.9989834728
 30
0.0
 40
1.353611246208857
100
AcDbArc
 50
0.0
 51
90.0
  0
LINE
  5
17F
330
1F
100
AcDbEntity
  8
0
  6
Continuous
 62
     7
370
    25
100
AcDbLine
 10
6404.8306428702
 20
4835.3525947191
 30
0.0
 11
6404.3364174055
 21
4835.3525947191
 31
0.0
  0
ARC
  5
180
330
1F
100
AcDbEntity
  8
0
  6
Continuous
 62
     7
370
    25
100
AcDbCircle
 10
6404.3364174055
 20
4833.9989834728
 30
0.0
 40
1.353611246208857
100
AcDbArc
 50
90.0
 51
118.7365577358
  0
ARC
  5
181
330
1F
100
AcDbEntity
  8
0
  6
Continuous
 62
     7
370
    25
100
AcDbCircle
 10
6402.3531575357
 20
4834.9475633963
 30
0.0
 40
1.353611246208338
100
AcDbArc
 50
10.1404867648
 51
90.0
  0
LINE
  5
182
330
1F
100
AcDbEntity
  8
0
  6
Continuous
 62
     7
370
    25
100
AcDbLine
 10
6402.3531575357
 20
4836.3011746425
 30
0.0
 11
6401.7738402537
 21
4836.3011746425
 31
0.0
  0
ARC
  5
183
330
1F
100
AcDbEntity
  8
0
  6
Continuous
 62
     7
370
    25
100
AcDbCircle
 10
6401.7738402537
 20
4834.9475633963
 30
0.0
 40
1.353611246208774
100
AcDbArc
 50
90.0
 51
124.7440022271
  0
ARC
  5
184
330
1F
100
AcDbEntity
  8
0
  6
Continuous
 62
     7
370
    25
100
AcDbCircle
 10
6399.790580384
 20
4835.4567176315
 30
0.0
 40
1.353611246207373
100
AcDbArc
 50
26.4592691592
 51
90.0
  0
LINE
  5
185
330
1F
100
AcDbEntity
  8
0
  6
Continuous
 62
     7
370
    25
100
AcDbLine
 10
6399.790580384
 20
4836.8103288777
 30
0.0
 11
6399.3339694649
 21
4836.8103288777
 31
0.0
  0
ARC
  5
186
330
1F
100
AcDbEntity
  8
0
  6
Continuous
 62
     7
370
    25
100
AcDbCircle
 10
6399.3339694649
 20
4835.4567176315
 30
0.0
 40
1.353611246210025
100
AcDbArc
 50
90.0
 51
117.7207121261
  0
LINE
  5
187
330
1F
100
AcDbEntity
  8
0
  6
Continuous
 62
     7
370
    25
100
AcDbLine
 10
6395.4702350509
 20
4840.2006885088
 30
0.0
 11
6395.4702350509
 21
4832.6622369231
 31
0.0
  0
ARC
  5
188
330
1F
100
AcDbEntity
  8
0
  6
Continuous
 62
     7
370
    25
100
AcDbCircle
 10
6397.0872779461
 20
4840.2006885088
 30
0.0
 40
1.617042895244595
100
AcDbArc
 50
0.0
 51
180.0
  0
CIRCLE
  5
189
330
1F
100
AcDbEntity
  8
0
  6
Continuous
 62
     7
370
    25
100
AcDbCircle
 10
6399.0942470768
 20
4831.4585750513
 30
0.0
 40
14.00000000000091
  0
CIRCLE
  5
18A
330
1F
100
AcDbEntity
  8
0
  6
Continuous
 62
     7
370
    25
100
AcDbCircle
 10
6399.0942470768
 20
4831.4585750513
 30
0.0
 40
23.90000000000055
  0
CIRCLE
  5
18B
330
1F
100
AcDbEntity
  8
0
  6
Continuous
 62
     7
370
    25
100
AcDbCircle
 10
6399.0942470768
 20
4831.4585750513
 30
0.0
 40
24.90000000000055
  0
LINE
  5
18C
330
1F
100
AcDbEntity
  8
0
  6
Continuous
 62
     7
370
    25
100
AcDbLine
 10
6437.4978369152
 20
4838.8585750513
 30
0.0
 11
6437.4978369152
 21
4824.0585750513
 31
0.0
  0
LINE
  5
18D
330
1F
100
AcDbEntity
  8
0
  6
Continuous
 62
     7
370
    25
100
AcDbLine
 10
6436.9978369152
 20
4839.3585750513
 30
0.0
 11
6436.9978369152
 21
4823.5585750513
 31
0.0
  0
ARC
  5
18E
330
1F
100
AcDbEntity
  8
0
  6
Continuous
 62
     7
370
    25
100
AcDbCircle
 10
6432.532854224
 20
4831.5429447253
 30
0.0
 40
1.94250951526143
100
AcDbArc
 50
268.9670821859
 51
1.8793020113
  0
ARC
  5
18F
330
1F
100
AcDbEntity
  8
0
  6
Continuous
 62
     7
370
    25
100
AcDbCircle
 10
6432.4878881074
 20
4831.5797135762
 30
0.0
 40
1.978987722395132
100
AcDbArc
 50
179.2229521981
 51
270.288039737
  0
CIRCLE
  5
190
330
1F
100
AcDbEntity
  8
0
  6
Continuous
 62
     7
370
    25
100
AcDbCircle
 10
6432.4976284186
 20
4831.892580389
 30
0.0
 40
1.999855272505056
  0
LINE
  5
191
330
1F
100
AcDbEntity
  8
0
  6
Continuous
 62
     7
370
    25
100
AcDbLine
 10
6385.9778451311
 20
4717.4585750513
 30
0.0
 11
6412.2106490224
 21
4717.4585750513
 31
0.0
  0
ARC
  5
192
330
1F
100
AcDbEntity
  8
0
  6
Continuous
 62
     7
370
    25
100
AcDbCircle
 10
6399.0942470768
 20
4722.2085750513
 30
0.0
 40
13.94999999999955
100
AcDbArc
 50
180.0
 51
199.9074488975
  0
ARC
  5
193
330
1F
100
AcDbEntity
  8
0
  6
Continuous
 62
     7
370
    25
100
AcDbCircle
 10
6399.0942470768
 20
4722.2085750513
 30
0.0
 40
13.95000000000073
100
AcDbArc
 50
340.0925511025
 51
0.0
  0
LINE
  5
194
330
1F
100
AcDbEntity
  8
0
  6
Continuous
 62
     7
370
    25
100
AcDbLine
 10
6387.4907993133
 20
4716.4585750513
 30
0.0
 11
6410.6976948402
 21
4716.4585750513
 31
0.0
  0
LINE
  5
195
330
1F
100
AcDbEntity
  8
0
  6
Continuous
 62
     7
370
    25
100
AcDbLine
 10
6387.4907993133
 20
4716.4585750513
 30
0.0
 11
6385.9778451311
 21
4717.4585750513
 31
0.0
  0
LINE
  5
196
330
1F
100
AcDbEntity
  8
0
  6
Continuous
 62
     7
370
    25
100
AcDbLine
 10
6412.2106490224
 20
4717.4585750513
 30
0.0
 11
6410.6976948402
 21
4716.4585750513
 31
0.0
  0
ARC
  5
197
330
1F
100
AcDbEntity
  8
0
  6
Continuous
 62
     7
370
    25
100
AcDbCircle
 10
6399.0942470768
 20
4831.4585750513
 30
0.0
 40
25.4000000000004
100
AcDbArc
 50
18.1209295307
 51
177.8167486155
  0
ARC
  5
198
330
1F
100
AcDbEntity
  8
0
  6
Continuous
 62
     7
370
    25
100
AcDbCircle
 10
6399.0942470768
 20
4831.4585750513
 30
0.0
 40
25.40000000000061
100
AcDbArc
 50
303.3130106878
 51
341.8790704693
  0
ARC
  5
199
330
1F
100
AcDbEntity
  8
0
  6
Continuous
 62
     7
370
    25
100
AcDbCircle
 10
6399.0942470768
 20
4831.4585750513
 30
0.0
 40
25.39999999999961
100
AcDbArc
 50
177.8167486155
 51
236.6869893122
  0
ARC
  5
19A
330
1F
100
AcDbEntity
  8
0
  6
Continuous
 62
     7
370
    25
100
AcDbCircle
 10
6399.0942470768
 20
4831.4585750513
 30
0.0
 40
29.5170370868557
100
AcDbArc
 50
15.5240025033
 51
241.7962522017
  0
ARC
  5
19B
330
1F
100
AcDbEntity
  8
0
  6
Continuous
 62
     7
370
    25
100
AcDbCircle
 10
6399.0942470768
 20
4831.4585750513
 30
0.0
 40
29.51703708685619
100
AcDbArc
 50
298.2037477983
 51
344.4759974967
  0
ARC
  5
19C
330
1F
100
AcDbEntity
  8
0
  6
Continuous
 62
     7
370
    25
100
AcDbCircle
 10
6399.0942470768
 20
4831.4585750513
 30
0.0
 40
30.00000000000016
100
AcDbArc
 50
297.7102220493
 51
344.7320573143
  0
ARC
  5
19D
330
1F
100
AcDbEntity
  8
0
  6
Continuous
 62
     7
370
    25
100
AcDbCircle
 10
6399.0942470768
 20
4831.4585750513
 30
0.0
 40
30.00000000000055
100
AcDbArc
 50
15.2679426857
 51
242.2897779508
  0
ENDSEC
  0
SECTION
  2
OBJECTS
  0
DICTIONARY
  5
C
330
0
100
AcDbDictionary
281
     1
  3
ACAD_GROUP
350
D
  3
ACAD_LAYOUT
350
1A
  3
ACAD_MLINESTYLE
350
17
  3
ACAD_PLOTSETTINGS
350
19
  3
ACAD_PLOTSTYLENAME
350
E
  3
ACAD_SCALELIST
350
47
  3
DWGPROPS
350
19E
  0
DICTIONARY
  5
D
102
{ACAD_REACTORS
330
C
102
}
330
C
100
AcDbDictionary
281
     1
  0
DICTIONARY
  5
1A
102
{ACAD_REACTORS
330
C
102
}
330
C
100
AcDbDictionary
281
     1
  3
Layout1
350
1E
  3
Layout2
350
26
  3
Model
350
22
  0
DICTIONARY
  5
17
102
{ACAD_REACTORS
330
C
102
}
330
C
100
AcDbDictionary
281
     1
  3
Standard
350
18
  0
DICTIONARY
  5
19
102
{ACAD_REACTORS
330
C
102
}
330
C
100
AcDbDictionary
281
     1
  0
ACDBDICTIONARYWDFLT
  5
E
102
{ACAD_REACTORS
330
C
102
}
330
C
100
AcDbDictionary
281
     1
  3
Normal
350
F
100
AcDbDictionaryWithDefault
340
F
  0
DICTIONARY
  5
47
102
{ACAD_REACTORS
330
C
102
}
330
C
100
AcDbDictionary
281
     1
  3
A0
350
48
  3
A1
350
49
  3
A2
350
4A
  3
A3
350
4B
  3
A4
350
4C
  3
A5
350
4D
  3
A6
350
4E
  3
A7
350
4F
  3
A8
350
50
  3
A9
350
51
  3
B0
350
52
  3
B1
350
53
  3
B2
350
54
  3
B3
350
55
  3
B4
350
56
  3
B5
350
57
  3
B6
350
58
  3
B7
350
59
  3
B8
350
5A
  3
B9
350
5B
  3
C0
350
5C
  3
C1
350
5D
  3
C2
350
5E
  3
C3
350
5F
  3
C4
350
60
  3
C5
350
61
  3
C6
350
62
  3
C7
350
63
  3
C8
350
64
  3
C9
350
65
  3
D0
350
66
  3
D1
350
67
  3
D2
350
68
  0
XRECORD
  5
19E
102
{ACAD_REACTORS
330
C
102
}
330
C
100
AcDbXrecord
280
     1
  1
DWGPROPS COOKIE
  2

  3

  4

  6

  7

  8
radek.stransky
  9

300
=
301
=
302
=
303
=
304
=
305
=
306
=
307
=
308
=
309
=
 40
0.0
 41
2459345.43589743
 42
2459345.435897651
  1

 90
        0
  0
LAYOUT
  5
1E
102
{ACAD_REACTORS
330
1A
102
}
330
1A
100
AcDbPlotSettings
  1

  2
none_device
  4

  6

 40
0.0
 41
0.0
 42
0.0
 43
0.0
 44
0.0
 45
0.0
 46
0.0
 47
0.0
 48
0.0
 49
0.0
140
0.0
141
0.0
142
1.0
143
1.0
 70
   688
 72
     1
 73
     0
 74
     5
  7

 75
    16
147
1.0
148
0.0
149
0.0
100
AcDbLayout
  1
Layout1
 70
     1
 71
     1
 10
0.0
 20
0.0
 11
420.0
 21
297.0
 12
0.0
 22
0.0
 32
0.0
 14
1.0000000000E+20
 24
1.0000000000E+20
 34
1.0000000000E+20
 15
-1.0000000000E+20
 25
-1.0000000000E+20
 35
-1.0000000000E+20
146
0.0
 13
0.0
 23
0.0
 33
0.0
 16
1.0
 26
0.0
 36
0.0
 17
0.0
 27
1.0
 37
0.0
 76
     0
330
1B
  0
LAYOUT
  5
26
102
{ACAD_REACTORS
330
1A
102
}
330
1A
100
AcDbPlotSettings
  1

  2
none_device
  4

  6

 40
0.0
 41
0.0
 42
0.0
 43
0.0
 44
0.0
 45
0.0
 46
0.0
 47
0.0
 48
0.0
 49
0.0
140
0.0
141
0.0
142
1.0
143
1.0
 70
   688
 72
     1
 73
     0
 74
     5
  7

 75
    16
147
1.0
148
0.0
149
0.0
100
AcDbLayout
  1
Layout2
 70
     1
 71
     2
 10
0.0
 20
0.0
 11
0.0
 21
0.0
 12
0.0
 22
0.0
 32
0.0
 14
0.0
 24
0.0
 34
0.0
 15
0.0
 25
0.0
 35
0.0
146
0.0
 13
0.0
 23
0.0
 33
0.0
 16
1.0
 26
0.0
 36
0.0
 17
0.0
 27
1.0
 37
0.0
 76
     0
330
23
  0
LAYOUT
  5
22
102
{ACAD_REACTORS
330
1A
102
}
330
1A
100
AcDbPlotSettings
  1

  2
none_device
  4
Letter_(8.50_x_11.00_Inches)
  6

 40
6.35
 41
6.35
 42
6.35000508
 43
6.35000508
 44
215.9
 45
279.4
 46
0.0
 47
0.0
 48
0.0
 49
0.0
140
0.0
141
0.0
142
1.0
143
1.0
 70
  1712
 72
     1
 73
     0
 74
     0
  7

 75
     0
147
1.0
148
0.0
149
0.0
100
AcDbLayout
  1
Model
 70
     1
 71
     0
 10
0.0
 20
0.0
 11
20000.0
 21
10000.0
 12
0.0
 22
0.0
 32
0.0
 14
0.0
 24
0.0
 34
0.0
 15
20000.0
 25
10000.0
 35
0.0
146
0.0
 13
0.0
 23
0.0
 33
0.0
 16
1.0
 26
0.0
 36
0.0
 17
0.0
 27
1.0
 37
0.0
 76
     0
330
1F
331
29
  0
MLINESTYLE
  5
18
102
{ACAD_REACTORS
330
17
102
}
330
17
100
AcDbMlineStyle
  2
Standard
 70
     0
  3

 62
   256
 51
90.0
 52
90.0
 71
     2
 49
0.5
 62
   256
  6
BYLAYER
 49
-0.5
 62
   256
  6
BYLAYER
  0
ACDBPLACEHOLDER
  5
F
102
{ACAD_REACTORS
330
E
102
}
330
E
  0
SCALE
  5
48
102
{ACAD_REACTORS
330
47
102
}
330
47
100
AcDbScale
 70
     0
300
1:1
140
1.0
141
1.0
290
     1
  0
SCALE
  5
49
102
{ACAD_REACTORS
330
47
102
}
330
47
100
AcDbScale
 70
     0
300
1:2
140
1.0
141
2.0
290
     0
  0
SCALE
  5
4A
102
{ACAD_REACTORS
330
47
102
}
330
47
100
AcDbScale
 70
     0
300
1:4
140
1.0
141
4.0
290
     0
  0
SCALE
  5
4B
102
{ACAD_REACTORS
330
47
102
}
330
47
100
AcDbScale
 70
     0
300
1:5
140
1.0
141
5.0
290
     0
  0
SCALE
  5
4C
102
{ACAD_REACTORS
330
47
102
}
330
47
100
AcDbScale
 70
     0
300
1:8
140
1.0
141
8.0
290
     0
  0
SCALE
  5
4D
102
{ACAD_REACTORS
330
47
102
}
330
47
100
AcDbScale
 70
     0
300
1:10
140
1.0
141
10.0
290
     0
  0
SCALE
  5
4E
102
{ACAD_REACTORS
330
47
102
}
330
47
100
AcDbScale
 70
     0
300
1:16
140
1.0
141
16.0
290
     0
  0
SCALE
  5
4F
102
{ACAD_REACTORS
330
47
102
}
330
47
100
AcDbScale
 70
     0
300
1:20
140
1.0
141
20.0
290
     0
  0
SCALE
  5
50
102
{ACAD_REACTORS
330
47
102
}
330
47
100
AcDbScale
 70
     0
300
1:30
140
1.0
141
30.0
290
     0
  0
SCALE
  5
51
102
{ACAD_REACTORS
330
47
102
}
330
47
100
AcDbScale
 70
     0
300
1:40
140
1.0
141
40.0
290
     0
  0
SCALE
  5
52
102
{ACAD_REACTORS
330
47
102
}
330
47
100
AcDbScale
 70
     0
300
1:50
140
1.0
141
50.0
290
     0
  0
SCALE
  5
53
102
{ACAD_REACTORS
330
47
102
}
330
47
100
AcDbScale
 70
     0
300
1:100
140
1.0
141
100.0
290
     0
  0
SCALE
  5
54
102
{ACAD_REACTORS
330
47
102
}
330
47
100
AcDbScale
 70
     0
300
2:1
140
2.0
141
1.0
290
     0
  0
SCALE
  5
55
102
{ACAD_REACTORS
330
47
102
}
330
47
100
AcDbScale
 70
     0
300
4:1
140
4.0
141
1.0
290
     0
  0
SCALE
  5
56
102
{ACAD_REACTORS
330
47
102
}
330
47
100
AcDbScale
 70
     0
300
8:1
140
8.0
141
1.0
290
     0
  0
SCALE
  5
57
102
{ACAD_REACTORS
330
47
102
}
330
47
100
AcDbScale
 70
     0
300
10:1
140
10.0
141
1.0
290
     0
  0
SCALE
  5
58
102
{ACAD_REACTORS
330
47
102
}
330
47
100
AcDbScale
 70
     0
300
100:1
140
100.0
141
1.0
290
     0
  0
SCALE
  5
59
102
{ACAD_REACTORS
330
47
102
}
330
47
100
AcDbScale
 70
     0
300
1/128" = 1'-0"
140
0.0078125
141
12.0
290
     0
  0
SCALE
  5
5A
102
{ACAD_REACTORS
330
47
102
}
330
47
100
AcDbScale
 70
     0
300
1/64" = 1'-0"
140
0.015625
141
12.0
290
     0
  0
SCALE
  5
5B
102
{ACAD_REACTORS
330
47
102
}
330
47
100
AcDbScale
 70
     0
300
1/32" = 1'-0"
140
0.03125
141
12.0
290
     0
  0
SCALE
  5
5C
102
{ACAD_REACTORS
330
47
102
}
330
47
100
AcDbScale
 70
     0
300
1/16" = 1'-0"
140
0.0625
141
12.0
290
     0
  0
SCALE
  5
5D
102
{ACAD_REACTORS
330
47
102
}
330
47
100
AcDbScale
 70
     0
300
3/32" = 1'-0"
140
0.09375
141
12.0
290
     0
  0
SCALE
  5
5E
102
{ACAD_REACTORS
330
47
102
}
330
47
100
AcDbScale
 70
     0
300
1/8" = 1'-0"
140
0.125
141
12.0
290
     0
  0
SCALE
  5
5F
102
{ACAD_REACTORS
330
47
102
}
330
47
100
AcDbScale
 70
     0
300
3/16" = 1'-0"
140
0.1875
141
12.0
290
     0
  0
SCALE
  5
60
102
{ACAD_REACTORS
330
47
102
}
330
47
100
AcDbScale
 70
     0
300
1/4" = 1'-0"
140
0.25
141
12.0
290
     0
  0
SCALE
  5
61
102
{ACAD_REACTORS
330
47
102
}
330
47
100
AcDbScale
 70
     0
300
3/8" = 1'-0"
140
0.375
141
12.0
290
     0
  0
SCALE
  5
62
102
{ACAD_REACTORS
330
47
102
}
330
47
100
AcDbScale
 70
     0
300
1/2" = 1'-0"
140
0.5
141
12.0
290
     0
  0
SCALE
  5
63
102
{ACAD_REACTORS
330
47
102
}
330
47
100
AcDbScale
 70
     0
300
3/4" = 1'-0"
140
0.75
141
12.0
290
     0
  0
SCALE
  5
64
102
{ACAD_REACTORS
330
47
102
}
330
47
100
AcDbScale
 70
     0
300
1" = 1'-0"
140
1.0
141
12.0
290
     0
  0
SCALE
  5
65
102
{ACAD_REACTORS
330
47
102
}
330
47
100
AcDbScale
 70
     0
300
1-1/2" = 1'-0"
140
1.5
141
12.0
290
     0
  0
SCALE
  5
66
102
{ACAD_REACTORS
330
47
102
}
330
47
100
AcDbScale
 70
     0
300
3" = 1'-0"
140
3.0
141
12.0
290
     0
  0
SCALE
  5
67
102
{ACAD_REACTORS
330
47
102
}
330
47
100
AcDbScale
 70
     0
300
6" = 1'-0"
140
6.0
141
12.0
290
     0
  0
SCALE
  5
68
102
{ACAD_REACTORS
330
47
102
}
330
47
100
AcDbScale
 70
     0
300
1'-0" = 1'-0"
140
12.0
141
12.0
290
     0
  0
ENDSEC
  0
EOF
