  0
SECTION
  2
HEADER
  9
$ACADVER
  1
AC1015
  9
$ACADMAINTVER
 70
     6
  9
$DWGCODEPAGE
  3
ANSI_1250
  9
$INSBASE
 10
0.0
 20
0.0
 30
0.0
  9
$EXTMIN
 10
0.0
 20
0.0
 30
0.0
  9
$EXTMAX
 10
20000.0
 20
10000.0
 30
0.0
  9
$LIMMIN
 10
0.0
 20
0.0
  9
$LIMMAX
 10
20000.0
 20
10000.0
  9
$ORTHOMODE
 70
     0
  9
$REGENMODE
 70
     1
  9
$FILLMODE
 70
     1
  9
$QTEXTMODE
 70
     0
  9
$MIRRTEXT
 70
     1
  9
$LTSCALE
 40
1.0
  9
$ATTMODE
 70
     1
  9
$TEXTSIZE
 40
2.0
  9
$TRACEWID
 40
1.0
  9
$TEXTSTYLE
  7
Standard
  9
$CLAYER
  8
0
  9
$CELTYPE
  6
ByLayer
  9
$CECOLOR
 62
   256
  9
$CELTSCALE
 40
1.0
  9
$DISPSILH
 70
     0
  9
$DIMSCALE
 40
1.0
  9
$DIMASZ
 40
2.0
  9
$DIMEXO
 40
1.0
  9
$DIMDLI
 40
3.75
  9
$DIMRND
 40
0.0
  9
$DIMDLE
 40
0.0
  9
$DIMEXE
 40
1.0
  9
$DIMTP
 40
0.0
  9
$DIMTM
 40
0.0
  9
$DIMTXT
 40
2.0
  9
$DIMCEN
 40
2.5
  9
$DIMTSZ
 40
0.0
  9
$DIMTOL
 70
     0
  9
$DIMLIM
 70
     0
  9
$DIMTIH
 70
     1
  9
$DIMTOH
 70
     1
  9
$DIMSE1
 70
     0
  9
$DIMSE2
 70
     0
  9
$DIMTAD
 70
     1
  9
$DIMZIN
 70
     0
  9
$DIMBLK
  1

  9
$DIMASO
 70
     1
  9
$DIMSHO
 70
     1
  9
$DIMPOST
  1

  9
$DIMAPOST
  1

  9
$DIMALT
 70
     0
  9
$DIMALTD
 70
     3
  9
$DIMALTF
 40
0.0393700787
  9
$DIMLFAC
 40
1.0
  9
$DIMTOFL
 70
     1
  9
$DIMTVP
 40
0.0
  9
$DIMTIX
 70
     0
  9
$DIMSOXD
 70
     0
  9
$DIMSAH
 70
     0
  9
$DIMBLK1
  1

  9
$DIMBLK2
  1

  9
$DIMSTYLE
  2
ISO-25
  9
$DIMCLRD
 70
     0
  9
$DIMCLRE
 70
     0
  9
$DIMCLRT
 70
     0
  9
$DIMTFAC
 40
1.0
  9
$DIMGAP
 40
1.524
  9
$DIMJUST
 70
     0
  9
$DIMSD1
 70
     0
  9
$DIMSD2
 70
     0
  9
$DIMTOLJ
 70
     0
  9
$DIMTZIN
 70
     0
  9
$DIMALTZ
 70
     0
  9
$DIMALTTZ
 70
     0
  9
$DIMUPT
 70
     0
  9
$DIMDEC
 70
     2
  9
$DIMTDEC
 70
     0
  9
$DIMALTU
 70
     2
  9
$DIMALTTD
 70
     3
  9
$DIMTXSTY
  7
Standard
  9
$DIMAUNIT
 70
     0
  9
$DIMADEC
 70
     2
  9
$DIMALTRND
 40
0.0
  9
$DIMAZIN
 70
     0
  9
$DIMDSEP
 70
    44
  9
$DIMATFIT
 70
     3
  9
$DIMFRAC
 70
     0
  9
$DIMLDRBLK
  1

  9
$DIMLUNIT
 70
     2
  9
$DIMLWD
 70
    -2
  9
$DIMLWE
 70
    -2
  9
$DIMTMOVE
 70
     0
  9
$LUNITS
 70
     2
  9
$LUPREC
 70
     3
  9
$SKETCHINC
 40
1.0
  9
$FILLETRAD
 40
10.0
  9
$AUNITS
 70
     0
  9
$AUPREC
 70
     2
  9
$MENU
  1
.
  9
$ELEVATION
 40
0.0
  9
$PELEVATION
 40
0.0
  9
$THICKNESS
 40
0.0
  9
$LIMCHECK
 70
     0
  9
$CHAMFERA
 40
0.0
  9
$CHAMFERB
 40
0.0
  9
$CHAMFERC
 40
0.0
  9
$CHAMFERD
 40
0.0
  9
$SKPOLY
 70
     0
  9
$TDCREATE
 40
2459543.404265405
  9
$TDUCREATE
 40
2459543.362598739
  9
$TDUPDATE
 40
2459543.404265845
  9
$TDUUPDATE
 40
2459543.362599178
  9
$TDINDWG
 40
0.0000000116
  9
$TDUSRTIMER
 40
0.0000000116
  9
$USRTIMER
 70
     1
  9
$ANGBASE
 50
0.0
  9
$ANGDIR
 70
     0
  9
$PDMODE
 70
     0
  9
$PDSIZE
 40
-1.0
  9
$PLINEWID
 40
0.0
  9
$SPLFRAME
 70
     0
  9
$SPLINETYPE
 70
     6
  9
$SPLINESEGS
 70
     8
  9
$HANDSEED
  5
283
  9
$SURFTAB1
 70
     6
  9
$SURFTAB2
 70
     6
  9
$SURFTYPE
 70
     6
  9
$SURFU
 70
     6
  9
$SURFV
 70
     6
  9
$UCSBASE
  2

  9
$UCSNAME
  2

  9
$UCSORG
 10
0.0
 20
0.0
 30
0.0
  9
$UCSXDIR
 10
1.0
 20
0.0
 30
0.0
  9
$UCSYDIR
 10
0.0
 20
1.0
 30
0.0
  9
$UCSORTHOREF
  2

  9
$UCSORTHOVIEW
 70
     0
  9
$UCSORGTOP
 10
0.0
 20
0.0
 30
0.0
  9
$UCSORGBOTTOM
 10
0.0
 20
0.0
 30
0.0
  9
$UCSORGLEFT
 10
0.0
 20
0.0
 30
0.0
  9
$UCSORGRIGHT
 10
0.0
 20
0.0
 30
0.0
  9
$UCSORGFRONT
 10
0.0
 20
0.0
 30
0.0
  9
$UCSORGBACK
 10
0.0
 20
0.0
 30
0.0
  9
$PUCSBASE
  2

  9
$PUCSNAME
  2

  9
$PUCSORG
 10
0.0
 20
0.0
 30
0.0
  9
$PUCSXDIR
 10
1.0
 20
0.0
 30
0.0
  9
$PUCSYDIR
 10
0.0
 20
1.0
 30
0.0
  9
$PUCSORTHOREF
  2

  9
$PUCSORTHOVIEW
 70
     0
  9
$PUCSORGTOP
 10
0.0
 20
0.0
 30
0.0
  9
$PUCSORGBOTTOM
 10
0.0
 20
0.0
 30
0.0
  9
$PUCSORGLEFT
 10
0.0
 20
0.0
 30
0.0
  9
$PUCSORGRIGHT
 10
0.0
 20
0.0
 30
0.0
  9
$PUCSORGFRONT
 10
0.0
 20
0.0
 30
0.0
  9
$PUCSORGBACK
 10
0.0
 20
0.0
 30
0.0
  9
$USERI1
 70
     0
  9
$USERI2
 70
     0
  9
$USERI3
 70
     0
  9
$USERI4
 70
     0
  9
$USERI5
 70
     0
  9
$USERR1
 40
0.0
  9
$USERR2
 40
0.0
  9
$USERR3
 40
0.0
  9
$USERR4
 40
0.0
  9
$USERR5
 40
0.0
  9
$WORLDVIEW
 70
     1
  9
$SHADEDGE
 70
     3
  9
$SHADEDIF
 70
    70
  9
$TILEMODE
 70
     1
  9
$MAXACTVP
 70
    64
  9
$PINSBASE
 10
0.0
 20
0.0
 30
0.0
  9
$PLIMCHECK
 70
     0
  9
$PEXTMIN
 10
1.0000000000E+20
 20
1.0000000000E+20
 30
1.0000000000E+20
  9
$PEXTMAX
 10
-1.0000000000E+20
 20
-1.0000000000E+20
 30
-1.0000000000E+20
  9
$PLIMMIN
 10
0.0
 20
0.0
  9
$PLIMMAX
 10
420.0
 20
297.0
  9
$UNITMODE
 70
     0
  9
$VISRETAIN
 70
     1
  9
$PLINEGEN
 70
     0
  9
$PSLTSCALE
 70
     1
  9
$TREEDEPTH
 70
  3020
  9
$CMLSTYLE
  2
Standard
  9
$CMLJUST
 70
     0
  9
$CMLSCALE
 40
20.0
  9
$PROXYGRAPHICS
 70
     1
  9
$MEASUREMENT
 70
     1
  9
$CELWEIGHT
370
    -1
  9
$ENDCAPS
280
     0
  9
$JOINSTYLE
280
     0
  9
$LWDISPLAY
290
     1
  9
$INSUNITS
 70
     4
  9
$HYPERLINKBASE
  1

  9
$STYLESHEET
  1

  9
$XEDIT
290
     1
  9
$CEPSNTYPE
380
     0
  9
$PSTYLEMODE
290
     1
  9
$FINGERPRINTGUID
  2
{b3805ebe-fefa-4264-89c4-2ffc0a840cde}
  9
$VERSIONGUID
  2
{FAEB1C32-E019-11D5-929B-00C0DF256EC4}
  9
$EXTNAMES
290
     1
  9
$PSVPSCALE
 40
0.0
  9
$OLESTARTUP
290
     0
  0
ENDSEC
  0
SECTION
  2
CLASSES
  0
CLASS
  1
ACDBDICTIONARYWDFLT
  2
AcDbDictionaryWithDefault
  3
ObjectDBX Classes
 90
        0
280
     0
281
     0
  0
CLASS
  1
VISUALSTYLE
  2
AcDbVisualStyle
  3
ObjectDBX Classes
 90
     4095
280
     0
281
     0
  0
CLASS
  1
MATERIAL
  2
AcDbMaterial
  3
ObjectDBX Classes
 90
     1153
280
     0
281
     0
  0
CLASS
  1
SCALE
  2
AcDbScale
  3
ObjectDBX Classes
 90
     1153
280
     0
281
     0
  0
CLASS
  1
TABLESTYLE
  2
AcDbTableStyle
  3
ObjectDBX Classes
 90
     4095
280
     0
281
     0
  0
CLASS
  1
MLEADERSTYLE
  2
AcDbMLeaderStyle
  3
ACDB_MLEADERSTYLE_CLASS
 90
     4095
280
     0
281
     0
  0
CLASS
  1
SUN
  2
AcDbSun
  3
SCENEOE
 90
     1153
280
     0
281
     0
  0
CLASS
  1
ACDBPLACEHOLDER
  2
AcDbPlaceHolder
  3
ObjectDBX Classes
 90
        0
280
     0
281
     0
  0
CLASS
  1
LAYOUT
  2
AcDbLayout
  3
ObjectDBX Classes
 90
        0
280
     0
281
     0
  0
ENDSEC
  0
SECTION
  2
TABLES
  0
TABLE
  2
VPORT
  5
8
330
0
100
AcDbSymbolTable
 70
     1
  0
VPORT
  5
29
330
8
100
AcDbSymbolTableRecord
100
AcDbViewportTableRecord
  2
*Active
 70
     0
 10
0.0
 20
0.0
 11
1.0
 21
1.0
 12
10000.0
 22
5000.0
 13
0.0
 23
0.0
 14
10.0
 24
10.0
 15
10.0
 25
10.0
 16
0.0
 26
0.0
 36
1.0
 17
0.0
 27
0.0
 37
0.0
 40
10000.0
 41
2.0
 42
50.0
 43
0.0
 44
0.0
 50
0.0
 51
0.0
 71
     0
 72
  2000
 73
     1
 74
     3
 75
     0
 76
     0
 77
     0
 78
     0
281
     0
 65
     1
110
0.0
120
0.0
130
0.0
111
1.0
121
0.0
131
0.0
112
0.0
122
1.0
132
0.0
 79
     0
146
0.0
  0
ENDTAB
  0
TABLE
  2
LTYPE
  5
5
330
0
100
AcDbSymbolTable
 70
     6
  0
LTYPE
  5
14
330
5
100
AcDbSymbolTableRecord
100
AcDbLinetypeTableRecord
  2
ByBlock
 70
     0
  3

 72
    65
 73
     0
 40
0.0
  0
LTYPE
  5
15
330
5
100
AcDbSymbolTableRecord
100
AcDbLinetypeTableRecord
  2
ByLayer
 70
     0
  3

 72
    65
 73
     0
 40
0.0
  0
LTYPE
  5
16
330
5
100
AcDbSymbolTableRecord
100
AcDbLinetypeTableRecord
  2
Continuous
 70
     0
  3
Solid line
 72
    65
 73
     0
 40
0.0
  0
LTYPE
  5
6E
330
5
100
AcDbSymbolTableRecord
100
AcDbLinetypeTableRecord
  2
HIDDEN
 70
     0
  3
Hidden __ __ __ __ __ __ __ __ __ __ __ __ __ __
 72
    65
 73
     2
 40
1.905
 49
1.27
 74
     0
 49
-0.635
 74
     0
  0
LTYPE
  5
6F
330
5
100
AcDbSymbolTableRecord
100
AcDbLinetypeTableRecord
  2
PHANTOM
 70
     0
  3
Phantom ______  __  __  ______  __  __  ______
 72
    65
 73
     6
 40
12.7
 49
6.35
 74
     0
 49
-1.27
 74
     0
 49
1.27
 74
     0
 49
-1.27
 74
     0
 49
1.27
 74
     0
 49
-1.27
 74
     0
  0
LTYPE
  5
70
330
5
100
AcDbSymbolTableRecord
100
AcDbLinetypeTableRecord
  2
CENTER
 70
     0
  3
Center ____ _ ____ _ ____ _ ____ _ ____ _ ____
 72
    65
 73
     4
 40
10.16
 49
6.35
 74
     0
 49
-1.27
 74
     0
 49
1.27
 74
     0
 49
-1.27
 74
     0
  0
LTYPE
  5
71
330
5
100
AcDbSymbolTableRecord
100
AcDbLinetypeTableRecord
  2
CENTERX2
 70
     0
  3
Center (2x) ________  __  ________  __  _____
 72
    65
 73
     4
 40
20.32
 49
12.7
 74
     0
 49
-2.54
 74
     0
 49
2.54
 74
     0
 49
-2.54
 74
     0
  0
LTYPE
  5
72
330
5
100
AcDbSymbolTableRecord
100
AcDbLinetypeTableRecord
  2
DOT2
 70
     0
  3
Dot (.5x) ........................................
 72
    65
 73
     2
 40
0.635
 49
0.0
 74
     0
 49
-0.635
 74
     0
  0
ENDTAB
  0
TABLE
  2
LAYER
  5
2
330
0
100
AcDbSymbolTable
 70
    13
  0
LAYER
  5
10
330
2
100
AcDbSymbolTableRecord
100
AcDbLayerTableRecord
  2
0
 70
     0
 62
     7
  6
Continuous
370
    -3
390
F
  0
LAYER
  5
73
330
2
100
AcDbSymbolTableRecord
100
AcDbLayerTableRecord
  2
FORMAT
 70
     0
 62
     7
  6
Continuous
370
    -3
390
F
  0
LAYER
  5
74
330
2
100
AcDbSymbolTableRecord
100
AcDbLayerTableRecord
  2
OSA
 70
     0
 62
     7
  6
CENTER
370
    -3
390
F
  0
LAYER
  5
75
330
2
100
AcDbSymbolTableRecord
100
AcDbLayerTableRecord
  2
0_35
 70
     0
 62
     7
  6
Continuous
370
    35
390
F
  0
LAYER
  5
76
330
2
100
AcDbSymbolTableRecord
100
AcDbLayerTableRecord
  2
0_5
 70
     0
 62
     7
  6
Continuous
370
    50
390
F
  0
LAYER
  5
77
330
2
100
AcDbSymbolTableRecord
100
AcDbLayerTableRecord
  2
0_25
 70
     0
 62
     7
  6
Continuous
370
    25
390
F
  0
LAYER
  5
78
330
2
100
AcDbSymbolTableRecord
100
AcDbLayerTableRecord
  2
0_18
 70
     0
 62
     7
  6
Continuous
370
    -3
390
F
  0
LAYER
  5
79
330
2
100
AcDbSymbolTableRecord
100
AcDbLayerTableRecord
  2
SLD-0
 70
     0
 62
   179
  6
Continuous
370
    -3
390
F
  0
LAYER
  5
7A
330
2
100
AcDbSymbolTableRecord
100
AcDbLayerTableRecord
  2
KOTY
 70
     0
 62
     7
  6
Continuous
370
    -3
390
F
  0
LAYER
  5
7B
330
2
100
AcDbSymbolTableRecord
100
AcDbLayerTableRecord
  2
SILNA
 70
     0
 62
   179
  6
Continuous
370
    -3
390
F
  0
LAYER
  5
7C
330
2
100
AcDbSymbolTableRecord
100
AcDbLayerTableRecord
  2
0_18_1
 70
     0
 62
   179
  6
Continuous
370
    -3
390
F
  0
LAYER
  5
7D
330
2
100
AcDbSymbolTableRecord
100
AcDbLayerTableRecord
  2
0_35_1
 70
     0
 62
   179
  6
Continuous
370
    35
390
F
  0
LAYER
  5
7E
330
2
100
AcDbSymbolTableRecord
100
AcDbLayerTableRecord
  2
0_5_1
 70
     0
 62
   179
  6
Continuous
370
    50
390
F
  0
ENDTAB
  0
TABLE
  2
STYLE
  5
3
330
0
100
AcDbSymbolTable
 70
     1
  0
STYLE
  5
11
330
3
100
AcDbSymbolTableRecord
100
AcDbTextStyleTableRecord
  2
Standard
 70
     0
 40
0.0
 41
1.0
 50
0.0
 71
     0
 42
2.0
  3
txt
  4

  0
ENDTAB
  0
TABLE
  2
VIEW
  5
6
330
0
100
AcDbSymbolTable
 70
     0
  0
ENDTAB
  0
TABLE
  2
UCS
  5
7
330
0
100
AcDbSymbolTable
 70
     0
  0
ENDTAB
  0
TABLE
  2
APPID
  5
9
330
0
100
AcDbSymbolTable
 70
     1
  0
APPID
  5
12
330
9
100
AcDbSymbolTableRecord
100
AcDbRegAppTableRecord
  2
ACAD
 70
     0
  0
ENDTAB
  0
TABLE
  2
DIMSTYLE
  5
A
330
0
100
AcDbSymbolTable
 70
     1
100
AcDbDimStyleTable
  0
DIMSTYLE
105
27
330
A
100
AcDbSymbolTableRecord
100
AcDbDimStyleTableRecord
  2
ISO-25
 70
     0
 41
2.5
 42
0.625
 43
3.75
 44
1.25
 73
     0
 74
     0
 77
     1
 78
     8
140
2.5
141
2.5
143
0.0393700787
147
0.625
171
     3
172
     1
178
     0
271
     2
272
     2
274
     3
278
    44
283
     0
284
     8
340
11
  0
ENDTAB
  0
TABLE
  2
BLOCK_RECORD
  5
1
330
0
100
AcDbSymbolTable
 70
     1
  0
BLOCK_RECORD
  5
1F
330
1
100
AcDbSymbolTableRecord
100
AcDbBlockTableRecord
  2
*Model_Space
340
22
  0
BLOCK_RECORD
  5
1B
330
1
100
AcDbSymbolTableRecord
100
AcDbBlockTableRecord
  2
*Paper_Space
340
1E
  0
BLOCK_RECORD
  5
23
330
1
100
AcDbSymbolTableRecord
100
AcDbBlockTableRecord
  2
*Paper_Space0
340
26
  0
ENDTAB
  0
ENDSEC
  0
SECTION
  2
BLOCKS
  0
BLOCK
  5
20
330
1F
100
AcDbEntity
  8
0
100
AcDbBlockBegin
  2
*Model_Space
 70
     0
 10
0.0
 20
0.0
 30
0.0
  3
*Model_Space
  1

  0
ENDBLK
  5
21
330
1F
100
AcDbEntity
  8
0
100
AcDbBlockEnd
  0
BLOCK
  5
1C
330
1B
100
AcDbEntity
 67
     1
  8
0
100
AcDbBlockBegin
  2
*Paper_Space
 70
     0
 10
0.0
 20
0.0
 30
0.0
  3
*Paper_Space
  1

  0
ENDBLK
  5
1D
330
1B
100
AcDbEntity
 67
     1
  8
0
100
AcDbBlockEnd
  0
BLOCK
  5
24
330
23
100
AcDbEntity
  8
0
100
AcDbBlockBegin
  2
*Paper_Space0
 70
     0
 10
0.0
 20
0.0
 30
0.0
  3
*Paper_Space0
  1

  0
ENDBLK
  5
25
330
23
100
AcDbEntity
  8
0
100
AcDbBlockEnd
  0
ENDSEC
  0
SECTION
  2
ENTITIES
  0
LINE
  5
7F
330
1F
100
AcDbEntity
  8
0
  6
Continuous
 62
     7
370
    25
100
AcDbLine
 10
6406.9933756964
 20
5292.6213135493
 30
0.0
 11
6402.0290334082
 21
5333.8111874021
 31
0.0
  0
LINE
  5
80
330
1F
100
AcDbEntity
  8
0
  6
Continuous
 62
     7
370
    25
100
AcDbLine
 10
6371.2115401674
 20
5322.0783344688
 30
0.0
 11
6374.7617995142
 21
5292.6213135493
 31
0.0
  0
LINE
  5
81
330
1F
100
AcDbEntity
  8
0
  6
Continuous
 62
     7
370
    25
100
AcDbLine
 10
6284.5711342028
 20
5292.6213135485
 30
0.0
 11
6284.5711342028
 21
5292.6275635485
 31
0.0
  0
LINE
  5
82
330
1F
100
AcDbEntity
  8
0
  6
Continuous
 62
     7
370
    25
100
AcDbLine
 10
6287.6153206939
 20
5292.6213135485
 30
0.0
 11
6287.6153206939
 21
5292.6275635485
 31
0.0
  0
LINE
  5
83
330
1F
100
AcDbEntity
  8
0
  6
Continuous
 62
     7
370
    25
100
AcDbLine
 10
6285.0558365568
 20
5292.6275635485
 30
0.0
 11
6285.0558365568
 21
5292.6213135485
 31
0.0
  0
LINE
  5
84
330
1F
100
AcDbEntity
  8
0
  6
Continuous
 62
     7
370
    25
100
AcDbLine
 10
6284.6152949166
 20
5292.6213135485
 30
0.0
 11
6284.6152949166
 21
5292.6275635485
 31
0.0
  0
LINE
  5
85
330
1F
100
AcDbEntity
  8
0
  6
Continuous
 62
     7
370
    25
100
AcDbLine
 10
6285.8173916718
 20
5292.6213135485
 30
0.0
 11
6285.8173916718
 21
5292.6275635485
 31
0.0
  0
LINE
  5
86
330
1F
100
AcDbEntity
  8
0
  6
Continuous
 62
     7
370
    25
100
AcDbLine
 10
6449.0187553361
 20
5324.6213135485
 30
0.0
 11
6403.1366279485
 21
5324.6213135485
 31
0.0
  0
LINE
  5
87
330
1F
100
AcDbEntity
  8
0
  6
Continuous
 62
     7
370
    25
100
AcDbLine
 10
6371.9334572635
 20
5324.6213135485
 30
0.0
 11
6101.0187553361
 21
5324.6213135485
 31
0.0
  0
ELLIPSE
  5
88
330
1F
100
AcDbEntity
  8
0
  6
Continuous
 62
     7
370
    25
100
AcDbEllipse
 10
6386.6202867878
 20
5327.9447609355
 30
0.0
 11
15.24710649354619
 21
6.478018520056139
 31
0.0
210
0.0
220
0.0
230
1.0
 40
0.3622926534
 41
1.4916719159073
 42
6.203651679425899
  0
LINE
  5
89
330
1F
100
AcDbEntity
  8
0
  6
Continuous
 62
     7
370
    25
100
AcDbLine
 10
6385.4858510251
 20
5333.9634276419
 30
0.0
 11
6402.0056589703
 21
5333.9634276419
 31
0.0
  0
LWPOLYLINE
  5
8A
330
1F
100
AcDbEntity
  8
0
  6
Continuous
 62
     7
370
    25
100
AcDbPolyline
 90
       17
 70
   128
 43
0.0
 10
6388.122254703
 20
5329.2134276419
 10
6387.7708455361
 20
5329.2705179925
 10
6387.6081131676
 20
5329.433097556
 10
6387.6588321255
 20
5329.6764150676
 10
6387.9152809082
 20
5329.9634276419
 10
6388.3384175133
 20
5330.2504402162
 10
6388.8638232283
 20
5330.4937577278
 10
6389.4115097961
 20
5330.6563372913
 10
6389.8980969014
 20
5330.7134276419
 10
6390.2495060683
 20
5330.6563372913
 10
6390.4122384368
 20
5330.4937577278
 10
6390.3615194789
 20
5330.2504402162
 10
6390.1050706962
 20
5329.9634276419
 10
6389.6819340911
 20
5329.6764150676
 10
6389.1565283761
 20
5329.433097556
 10
6388.6088418083
 20
5329.2705179925
 10
6388.122254703
 20
5329.2134276419
  0
LWPOLYLINE
  5
8B
330
1F
100
AcDbEntity
  8
0
  6
Continuous
 62
     7
370
    25
100
AcDbPolyline
 90
       22
 70
   128
 43
0.0
 10
6394.1196853075
 20
5329.9634276419
 10
6393.1538885647
 20
5329.8745732535
 10
6392.0635186042
 20
5329.6159051906
 10
6390.9454595819
 20
5329.2104072456
 10
6389.8990559486
 20
5328.6941096907
 10
6389.0172852592
 20
5328.1128878291
 10
6388.3784967089
 20
5327.518385774
 10
6388.0394494638
 20
5326.9634276419
 10
6388.0302693594
 20
5326.4973238983
 10
6388.3517720883
 20
5326.1614899061
 10
6388.9753907222
 20
5325.9857659895
 10
6389.8457140088
 20
5325.9857659895
 10
6390.8854099046
 20
5326.1614899061
 10
6392.0020968667
 20
5326.4973238983
 10
6393.096552358
 20
5326.9634276419
 10
6394.0715292052
 20
5327.518385774
 10
6394.8403964368
 20
5328.1128878291
 10
6395.3348368252
 20
5328.6941096907
 10
6395.5109171719
 20
5329.2104072456
 10
6395.3529919655
 20
5329.6159051906
 10
6394.8750935537
 20
5329.8745732535
 10
6394.1196853075
 20
5329.9634276419
  0
LWPOLYLINE
  5
8C
330
1F
100
AcDbEntity
  8
0
  6
Continuous
 62
     7
370
    25
100
AcDbPolyline
 90
       22
 70
   128
 43
0.0
 10
6383.9211147743
 20
5329.9634276419
 10
6382.9553180315
 20
5329.8745732535
 10
6381.8649480709
 20
5329.6159051906
 10
6380.7468890487
 20
5329.2104072456
 10
6379.7004854154
 20
5328.6941096907
 10
6378.818714726
 20
5328.1128878291
 10
6378.1799261757
 20
5327.518385774
 10
6377.8408789305
 20
5326.9634276419
 10
6377.8316988262
 20
5326.4973238983
 10
6378.1532015551
 20
5326.1614899061
 10
6378.776820189
 20
5325.9857659895
 10
6379.6471434756
 20
5325.9857659895
 10
6380.6868393714
 20
5326.1614899061
 10
6381.8035263335
 20
5326.4973238983
 10
6382.8979818248
 20
5326.9634276419
 10
6383.872958672
 20
5327.518385774
 10
6384.6418259036
 20
5328.1128878291
 10
6385.1362662919
 20
5328.6941096907
 10
6385.3123466387
 20
5329.2104072456
 10
6385.1544214323
 20
5329.6159051906
 10
6384.6765230205
 20
5329.8745732535
 10
6383.9211147743
 20
5329.9634276419
  0
LWPOLYLINE
  5
8D
330
1F
100
AcDbEntity
  8
0
  6
Continuous
 62
     7
370
    25
100
AcDbPolyline
 90
       17
 70
   128
 43
0.0
 10
6381.6108333092
 20
5323.7134276419
 10
6380.7998548005
 20
5323.6182770576
 10
6379.8870438542
 20
5323.3473111184
 10
6379.0113676625
 20
5322.9417819324
 10
6378.3061399873
 20
5322.4634276419
 10
6377.8787253495
 20
5321.9850733515
 10
6377.794193753
 20
5321.5795441654
 10
6378.0654143671
 20
5321.3085782263
 10
6378.6510963121
 20
5321.2134276419
 10
6379.4620748209
 20
5321.3085782263
 10
6380.3748857671
 20
5321.5795441654
 10
6381.2505619589
 20
5321.9850733515
 10
6381.955789634
 20
5322.4634276419
 10
6382.3832042718
 20
5322.9417819324
 10
6382.4677358683
 20
5323.3473111184
 10
6382.1965152542
 20
5323.6182770576
 10
6381.6108333092
 20
5323.7134276419
  0
LWPOLYLINE
  5
8E
330
1F
100
AcDbEntity
  8
0
  6
Continuous
 62
     7
370
    25
100
AcDbPolyline
 90
       22
 70
   128
 43
0.0
 10
6379.1855355792
 20
5325.9634276409
 10
6380.151332322
 20
5326.0522820294
 10
6381.2417022825
 20
5326.3109500925
 10
6382.3597613046
 20
5326.7164480376
 10
6383.4061649378
 20
5327.2327455928
 10
6384.2879356272
 20
5327.8139674547
 10
6384.9267241773
 20
5328.4084695101
 10
6385.2657714224
 20
5328.9634276424
 10
6385.2749515266
 20
5329.4295313863
 10
6384.9534487976
 20
5329.7653653786
 10
6384.3298301637
 20
5329.9410892954
 10
6383.4595068772
 20
5329.9410892954
 10
6382.4198109814
 20
5329.7653653786
 10
6381.3031240193
 20
5329.4295313863
 10
6380.2086685281
 20
5328.9634276424
 10
6379.233691681
 20
5328.4084695101
 10
6378.4648244495
 20
5327.8139674547
 10
6377.9703840613
 20
5327.2327455928
 10
6377.7943037147
 20
5326.7164480376
 10
6377.9522289211
 20
5326.3109500925
 10
6378.430127333
 20
5326.0522820294
 10
6379.1855355792
 20
5325.9634276409
  0
LWPOLYLINE
  5
8F
330
1F
100
AcDbEntity
  8
0
  6
Continuous
 62
     7
370
    25
100
AcDbPolyline
 90
       22
 70
   128
 43
0.0
 10
6389.3841061124
 20
5325.9634276409
 10
6390.3499028552
 20
5326.0522820294
 10
6391.4402728157
 20
5326.3109500925
 10
6392.5583318379
 20
5326.7164480376
 10
6393.6047354711
 20
5327.2327455928
 10
6394.4865061604
 20
5327.8139674547
 10
6395.1252947106
 20
5328.4084695101
 10
6395.4643419556
 20
5328.9634276424
 10
6395.4735220599
 20
5329.4295313863
 10
6395.1520193309
 20
5329.7653653786
 10
6394.5284006969
 20
5329.9410892954
 10
6393.6580774104
 20
5329.9410892954
 10
6392.6183815146
 20
5329.7653653786
 10
6391.5016945526
 20
5329.4295313863
 10
6390.4072390613
 20
5328.9634276424
 10
6389.4322622142
 20
5328.4084695101
 10
6388.6633949827
 20
5327.8139674547
 10
6388.1689545945
 20
5327.2327455928
 10
6387.9928742479
 20
5326.7164480376
 10
6388.1507994543
 20
5326.3109500925
 10
6388.6286978662
 20
5326.0522820294
 10
6389.3841061124
 20
5325.9634276409
  0
LWPOLYLINE
  5
90
330
1F
100
AcDbEntity
  8
0
  6
Continuous
 62
     7
370
    25
100
AcDbPolyline
 90
       17
 70
   128
 43
0.0
 10
6389.8980969014
 20
5330.7134276418
 10
6390.2495060684
 20
5330.6563372912
 10
6390.4122384368
 20
5330.4937577277
 10
6390.3615194789
 20
5330.2504402161
 10
6390.1050706962
 20
5329.9634276419
 10
6389.6819340911
 20
5329.6764150677
 10
6389.156528376
 20
5329.4330975561
 10
6388.6088418083
 20
5329.2705179927
 10
6388.122254703
 20
5329.213427642
 10
6387.770845536
 20
5329.2705179927
 10
6387.6081131676
 20
5329.4330975561
 10
6387.6588321255
 20
5329.6764150677
 10
6387.9152809082
 20
5329.9634276419
 10
6388.3384175133
 20
5330.2504402161
 10
6388.8638232284
 20
5330.4937577277
 10
6389.4115097961
 20
5330.6563372912
 10
6389.8980969014
 20
5330.7134276418
  0
LINE
  5
91
330
1F
100
AcDbEntity
  8
0
  6
Continuous
 62
     7
370
    25
100
AcDbLine
 10
6099.0187553361
 20
5092.6213135485
 30
0.0
 11
6449.0187553361
 21
5092.6213135485
 31
0.0
  0
LINE
  5
92
330
1F
100
AcDbEntity
  8
0
  6
Continuous
 62
     7
370
    25
100
AcDbLine
 10
6099.0187553361
 20
5092.6213135485
 30
0.0
 11
6099.0187553361
 21
5292.1213135485
 31
0.0
  0
LINE
  5
93
330
1F
100
AcDbEntity
  8
0
  6
Continuous
 62
     7
370
    25
100
AcDbLine
 10
6449.0187553361
 20
5292.1213135485
 30
0.0
 11
6099.0187553361
 21
5292.1213135485
 31
0.0
  0
LINE
  5
94
330
1F
100
AcDbEntity
  8
0
  6
Continuous
 62
     7
370
    25
100
AcDbLine
 10
6449.0187553361
 20
5092.6213135485
 30
0.0
 11
6449.0187553361
 21
5292.1213135485
 31
0.0
  0
ARC
  5
95
330
1F
100
AcDbEntity
  8
0
  6
Continuous
 62
     7
370
    25
100
AcDbCircle
 10
6099.5187553361
 20
5292.1213135485
 30
0.0
 40
0.5
100
AcDbArc
 50
90.0
 51
180.0
  0
LINE
  5
96
330
1F
100
AcDbEntity
  8
0
  6
Continuous
 62
     7
370
    25
100
AcDbLine
 10
6099.5187553361
 20
5292.6213135485
 30
0.0
 11
6448.5187553361
 21
5292.6213135485
 31
0.0
  0
ARC
  5
97
330
1F
100
AcDbEntity
  8
0
  6
Continuous
 62
     7
370
    25
100
AcDbCircle
 10
6448.5187553361
 20
5292.1213135485
 30
0.0
 40
0.5
100
AcDbArc
 50
0.0
 51
90.0
  0
LINE
  5
98
330
1F
100
AcDbEntity
  8
0
  6
Continuous
 62
     7
370
    25
100
AcDbLine
 10
6101.0187553361
 20
5293.6213135485
 30
0.0
 11
6101.0187553361
 21
5292.6213135485
 31
0.0
  0
LINE
  5
99
330
1F
100
AcDbEntity
  8
0
  6
Continuous
 62
     7
370
    25
100
AcDbLine
 10
6447.0187553361
 20
5292.6213135485
 30
0.0
 11
6447.0187553361
 21
5293.6213135485
 31
0.0
  0
LINE
  5
9A
330
1F
100
AcDbEntity
  8
0
  6
Continuous
 62
     7
370
    25
100
AcDbLine
 10
6449.0187553361
 20
5323.5713135485
 30
0.0
 11
6449.0187553361
 21
5293.6213135485
 31
0.0
  0
LINE
  5
9B
330
1F
100
AcDbEntity
  8
0
  6
Continuous
 62
     7
370
    25
100
AcDbLine
 10
6449.0187553361
 20
5293.6213135485
 30
0.0
 11
6447.0187553361
 21
5293.6213135485
 31
0.0
  0
LINE
  5
9C
330
1F
100
AcDbEntity
  8
0
  6
Continuous
 62
     7
370
    25
100
AcDbLine
 10
6101.0187553361
 20
5293.6213135485
 30
0.0
 11
6101.0187553361
 21
5323.5713135485
 31
0.0
  0
LINE
  5
9D
330
1F
100
AcDbEntity
  8
0
  6
Continuous
 62
     7
370
    25
100
AcDbLine
 10
6101.0187553361
 20
5323.5713135485
 30
0.0
 11
6101.0187553361
 21
5324.6213135485
 31
0.0
  0
LINE
  5
9E
330
1F
100
AcDbEntity
  8
0
  6
Continuous
 62
     7
370
    25
100
AcDbLine
 10
6449.0187553361
 20
5324.6213135485
 30
0.0
 11
6449.0187553361
 21
5323.5713135485
 31
0.0
  0
LINE
  5
9F
330
1F
100
AcDbEntity
  8
0
  6
Continuous
 62
     8
370
    25
100
AcDbLine
 10
6447.0187553361
 20
5293.6213135485
 30
0.0
 11
6406.8728523294
 21
5293.6213135485
 31
0.0
  0
LINE
  5
A0
330
1F
100
AcDbEntity
  8
0
  6
Continuous
 62
     8
370
    25
100
AcDbLine
 10
6374.6412761471
 20
5293.6213135485
 30
0.0
 11
6101.0187553361
 21
5293.6213135485
 31
0.0
  0
LINE
  5
A1
330
1F
100
AcDbEntity
  8
0
  6
Continuous
 62
     8
370
    25
100
AcDbLine
 10
6449.0187553361
 20
5323.5713135485
 30
0.0
 11
6403.2631774839
 21
5323.5713135485
 31
0.0
  0
LINE
  5
A2
330
1F
100
AcDbEntity
  8
0
  6
Continuous
 62
     8
370
    25
100
AcDbLine
 10
6371.4225430248
 20
5323.5713135485
 30
0.0
 11
6101.0187553361
 21
5323.5713135485
 31
0.0
  0
LINE
  5
A3
330
1F
100
AcDbEntity
  8
0
  6
Continuous
 62
     7
370
    25
100
AcDbLine
 10
6727.5337380256
 20
5292.6213135493
 30
0.0
 11
6731.2745884965
 21
5321.6863188504
 31
0.0
  0
LINE
  5
A4
330
1F
100
AcDbEntity
  8
0
  6
Continuous
 62
     7
370
    25
100
AcDbLine
 10
6700.4439151621
 20
5332.8223916475
 30
0.0
 11
6695.2697815132
 21
5292.6213135493
 31
0.0
  0
ARC
  5
A5
330
1F
100
AcDbEntity
  8
0
  6
Continuous
 62
     7
370
    25
100
AcDbCircle
 10
7008.6213408958
 20
5292.1213135485
 30
0.0
 40
0.5
100
AcDbArc
 50
0.0
 51
90.0
  0
LINE
  5
A6
330
1F
100
AcDbEntity
  8
0
  6
Continuous
 62
     7
370
    25
100
AcDbLine
 10
7009.1213408958
 20
5092.6213135485
 30
0.0
 11
7009.1213408958
 21
5292.1213135485
 31
0.0
  0
LINE
  5
A7
330
1F
100
AcDbEntity
  8
0
  6
Continuous
 62
     7
370
    25
100
AcDbLine
 10
6668.3107537581
 20
5292.6213135485
 30
0.0
 11
6668.3107537581
 21
5292.6275635485
 31
0.0
  0
LINE
  5
A8
330
1F
100
AcDbEntity
  8
0
  6
Continuous
 62
     7
370
    25
100
AcDbLine
 10
6668.2254359971
 20
5292.6213135485
 30
0.0
 11
6668.2254359971
 21
5292.6275635485
 31
0.0
  0
LINE
  5
A9
330
1F
100
AcDbEntity
  8
0
  6
Continuous
 62
     7
370
    25
100
AcDbLine
 10
6700.6041066603
 20
5333.9634276419
 30
0.0
 11
6716.0736077668
 21
5333.9634276419
 31
0.0
  0
ELLIPSE
  5
AA
330
1F
100
AcDbEntity
  8
0
  6
Continuous
 62
     7
370
    25
100
AcDbEllipse
 10
6715.9481114187
 20
5327.9447609355
 30
0.0
 11
15.17219895793005
 21
-6.811322610094977
 31
0.0
210
0.0
220
0.0
230
1.0
 40
0.3366205128
 41
3.283808824222432
 42
7.995788587741052
  0
LWPOLYLINE
  5
AB
330
1F
100
AcDbEntity
  8
0
  6
Continuous
 62
     7
370
    25
100
AcDbPolyline
 90
       17
 70
   128
 43
0.0
 10
6714.3441669005
 20
5329.2134276419
 10
6713.8796301496
 20
5329.2705179925
 10
6713.3414590193
 20
5329.433097556
 10
6712.8115851857
 20
5329.6764150676
 10
6712.3706771366
 20
5329.9634276419
 10
6712.0858591257
 20
5330.2504402162
 10
6712.0004921132
 20
5330.4937577278
 10
6712.1275724529
 20
5330.6563372913
 10
6712.4477533151
 20
5330.7134276419
 10
6712.9122900661
 20
5330.6563372913
 10
6713.4504611963
 20
5330.4937577278
 10
6713.98033503
 20
5330.2504402162
 10
6714.4212430791
 20
5329.9634276419
 10
6714.70606109
 20
5329.6764150676
 10
6714.7914281025
 20
5329.433097556
 10
6714.6643477627
 20
5329.2705179925
 10
6714.3441669005
 20
5329.2134276419
  0
LWPOLYLINE
  5
AC
330
1F
100
AcDbEntity
  8
0
  6
Continuous
 62
     7
370
    25
100
AcDbPolyline
 90
       22
 70
   128
 43
0.0
 10
6718.1806139736
 20
5329.9634276419
 10
6717.4870638571
 20
5329.8745732535
 10
6717.0798116045
 20
5329.6159051906
 10
6716.9950433657
 20
5329.2104072456
 10
6717.2402911706
 20
5328.6941096907
 10
6717.7937636755
 20
5328.1128878291
 10
6718.6062824195
 20
5327.518385774
 10
6719.6056515465
 20
5326.9634276419
 10
6720.703072724
 20
5326.4973238983
 10
6721.8010352642
 20
5326.1614899061
 10
6722.8019803773
 20
5325.9857659895
 10
6723.6169696973
 20
5325.9857659895
 10
6724.1735878467
 20
5326.1614899061
 10
6724.4223768601
 20
5326.4973238983
 10
6724.341230742
 20
5326.9634276419
 10
6723.9373596811
 20
5327.518385774
 10
6723.2466493934
 20
5328.1128878291
 10
6722.3304725191
 20
5328.6941096907
 10
6721.2702353942
 20
5329.2104072456
 10
6720.1601447399
 20
5329.6159051906
 10
6719.0988369825
 20
5329.8745732535
 10
6718.1806139736
 20
5329.9634276419
  0
LWPOLYLINE
  5
AD
330
1F
100
AcDbEntity
  8
0
  6
Continuous
 62
     7
370
    25
100
AcDbPolyline
 90
       22
 70
   128
 43
0.0
 10
6708.6304546332
 20
5329.9634276419
 10
6707.9369045168
 20
5329.8745732535
 10
6707.5296522642
 20
5329.6159051906
 10
6707.4448840253
 20
5329.2104072456
 10
6707.6901318302
 20
5328.6941096907
 10
6708.2436043351
 20
5328.1128878291
 10
6709.0561230792
 20
5327.518385774
 10
6710.0554922062
 20
5326.9634276419
 10
6711.1529133836
 20
5326.4973238983
 10
6712.2508759239
 20
5326.1614899061
 10
6713.251821037
 20
5325.9857659895
 10
6714.066810357
 20
5325.9857659895
 10
6714.6234285063
 20
5326.1614899061
 10
6714.8722175198
 20
5326.4973238983
 10
6714.7910714017
 20
5326.9634276419
 10
6714.3872003407
 20
5327.518385774
 10
6713.696490053
 20
5328.1128878291
 10
6712.7803131788
 20
5328.6941096907
 10
6711.7200760538
 20
5329.2104072456
 10
6710.6099853996
 20
5329.6159051906
 10
6709.5486776421
 20
5329.8745732535
 10
6708.6304546332
 20
5329.9634276419
  0
LWPOLYLINE
  5
AE
330
1F
100
AcDbEntity
  8
0
  6
Continuous
 62
     7
370
    25
100
AcDbPolyline
 90
       17
 70
   128
 43
0.0
 10
6721.2976833801
 20
5323.7134276419
 10
6720.7640486097
 20
5323.6182770576
 10
6720.5522480435
 20
5323.3473111184
 10
6720.6945263976
 20
5322.9417819324
 10
6721.1692230825
 20
5322.4634276419
 10
6721.904069831
 20
5321.9850733515
 10
6722.787192887
 20
5321.5795441654
 10
6723.6841447709
 20
5321.3085782263
 10
6724.458372689
 20
5321.2134276419
 10
6724.9920074594
 20
5321.3085782263
 10
6725.2038080257
 20
5321.5795441654
 10
6725.0615296715
 20
5321.9850733515
 10
6724.5868329866
 20
5322.4634276419
 10
6723.8519862382
 20
5322.9417819324
 10
6722.9688631821
 20
5323.3473111184
 10
6722.0719112983
 20
5323.6182770576
 10
6721.2976833801
 20
5323.7134276419
  0
ELLIPSE
  5
AF
330
1F
100
AcDbEntity
  8
0
  6
Continuous
 62
     7
370
    25
100
AcDbEllipse
 10
6720.4090886503
 20
5362.6048811124
 30
0.0
 11
18.09415868023189
 21
40.30467960303758
 31
0.0
210
0.0
220
0.0
230
1.0
 40
0.2269976956
 41
2.457546376385497
 42
2.498206052392098
  0
LWPOLYLINE
  5
B0
330
1F
100
AcDbEntity
  8
0
  6
Continuous
 62
     7
370
    25
100
AcDbPolyline
 90
       22
 70
   128
 43
0.0
 10
6713.6875575271
 20
5325.9634276409
 10
6714.3811076435
 20
5326.0522820294
 10
6714.7883598962
 20
5326.3109500925
 10
6714.8731281351
 20
5326.7164480376
 10
6714.6278803303
 20
5327.2327455928
 10
6714.0744078255
 20
5327.8139674547
 10
6713.2618890816
 20
5328.4084695101
 10
6712.2625199547
 20
5328.9634276424
 10
6711.1650987774
 20
5329.4295313863
 10
6710.0671362372
 20
5329.7653653786
 10
6709.0661911242
 20
5329.9410892954
 10
6708.2512018041
 20
5329.9410892954
 10
6707.6945836547
 20
5329.7653653786
 10
6707.4457946412
 20
5329.4295313863
 10
6707.5269407593
 20
5328.9634276424
 10
6707.9308118201
 20
5328.4084695101
 10
6708.6215221077
 20
5327.8139674547
 10
6709.5376989818
 20
5327.2327455928
 10
6710.5979361066
 20
5326.7164480376
 10
6711.7080267608
 20
5326.3109500925
 10
6712.7693345182
 20
5326.0522820294
 10
6713.6875575271
 20
5325.9634276409
  0
LWPOLYLINE
  5
B1
330
1F
100
AcDbEntity
  8
0
  6
Continuous
 62
     7
370
    25
100
AcDbPolyline
 90
       22
 70
   128
 43
0.0
 10
6723.2377168674
 20
5325.9634276409
 10
6723.9312669839
 20
5326.0522820294
 10
6724.3385192365
 20
5326.3109500925
 10
6724.4232874755
 20
5326.7164480376
 10
6724.1780396707
 20
5327.2327455928
 10
6723.6245671659
 20
5327.8139674547
 10
6722.812048422
 20
5328.4084695101
 10
6721.8126792951
 20
5328.9634276424
 10
6720.7152581178
 20
5329.4295313863
 10
6719.6172955776
 20
5329.7653653786
 10
6718.6163504645
 20
5329.9410892954
 10
6717.8013611445
 20
5329.9410892954
 10
6717.2447429951
 20
5329.7653653786
 10
6716.9959539816
 20
5329.4295313863
 10
6717.0771000996
 20
5328.9634276424
 10
6717.4809711605
 20
5328.4084695101
 10
6718.171681448
 20
5327.8139674547
 10
6719.0878583221
 20
5327.2327455928
 10
6720.1480954469
 20
5326.7164480376
 10
6721.2581861011
 20
5326.3109500925
 10
6722.3194938585
 20
5326.0522820294
 10
6723.2377168674
 20
5325.9634276409
  0
LWPOLYLINE
  5
B2
330
1F
100
AcDbEntity
  8
0
  6
Continuous
 62
     7
370
    25
100
AcDbPolyline
 90
       17
 70
   128
 43
0.0
 10
6712.4477533151
 20
5330.7134276418
 10
6712.912290066
 20
5330.6563372912
 10
6713.4504611963
 20
5330.4937577277
 10
6713.9803350299
 20
5330.2504402161
 10
6714.4212430791
 20
5329.9634276419
 10
6714.70606109
 20
5329.6764150677
 10
6714.7914281025
 20
5329.4330975561
 10
6714.6643477628
 20
5329.2705179927
 10
6714.3441669006
 20
5329.213427642
 10
6713.8796301496
 20
5329.2705179927
 10
6713.3414590193
 20
5329.4330975561
 10
6712.8115851857
 20
5329.6764150677
 10
6712.3706771366
 20
5329.9634276419
 10
6712.0858591256
 20
5330.2504402161
 10
6712.0004921131
 20
5330.4937577277
 10
6712.1275724529
 20
5330.6563372912
 10
6712.4477533151
 20
5330.7134276418
  0
LINE
  5
B3
330
1F
100
AcDbEntity
  8
0
  6
Continuous
 62
     7
370
    25
100
AcDbLine
 10
6648.1213408958
 20
5092.6213135485
 30
0.0
 11
6834.1213408958
 21
5092.6213135485
 31
0.0
  0
LINE
  5
B4
330
1F
100
AcDbEntity
  8
0
  6
Continuous
 62
     7
370
    25
100
AcDbLine
 10
6648.1213408958
 20
5292.1213135485
 30
0.0
 11
6649.1213408958
 21
5292.1213135485
 31
0.0
  0
LINE
  5
B5
330
1F
100
AcDbEntity
  8
0
  6
Continuous
 62
     7
370
    25
100
AcDbLine
 10
6834.1213408958
 20
5292.1213135485
 30
0.0
 11
6649.1213408958
 21
5292.1213135485
 31
0.0
  0
LINE
  5
B6
330
1F
100
AcDbEntity
  8
0
  6
Continuous
 62
     7
370
    25
100
AcDbLine
 10
6834.1213408958
 20
5092.6213135485
 30
0.0
 11
6834.1213408958
 21
5292.1213135485
 31
0.0
  0
LINE
  5
B7
330
1F
100
AcDbEntity
  8
0
  6
Continuous
 62
     7
370
    25
100
AcDbLine
 10
6648.1213408958
 20
5092.6213135485
 30
0.0
 11
6648.1213408958
 21
5292.1213135485
 31
0.0
  0
LINE
  5
B8
330
1F
100
AcDbEntity
  8
0
  6
Continuous
 62
     7
370
    25
100
AcDbLine
 10
6649.1213408958
 20
5292.6213135485
 30
0.0
 11
6834.1213408958
 21
5292.6213135485
 31
0.0
  0
LINE
  5
B9
330
1F
100
AcDbEntity
  8
0
  6
Continuous
 62
     7
370
    25
100
AcDbLine
 10
6834.1213408958
 20
5292.1213135485
 30
0.0
 11
6834.1213408958
 21
5292.6213135485
 31
0.0
  0
LINE
  5
BA
330
1F
100
AcDbEntity
  8
0
  6
Continuous
 62
     7
370
    25
100
AcDbLine
 10
6649.1213408958
 20
5292.1213135485
 30
0.0
 11
6649.1213408958
 21
5292.6213135485
 31
0.0
  0
LINE
  5
BB
330
1F
100
AcDbEntity
  8
0
  6
Continuous
 62
     7
370
    25
100
AcDbLine
 10
6834.1213408958
 20
5292.6213135485
 30
0.0
 11
7008.6213408958
 21
5292.6213135485
 31
0.0
  0
LINE
  5
BC
330
1F
100
AcDbEntity
  8
0
  6
Continuous
 62
     7
370
    25
100
AcDbLine
 10
6834.1213408958
 20
5092.6213135485
 30
0.0
 11
7009.1213408958
 21
5092.6213135485
 31
0.0
  0
LINE
  5
BD
330
1F
100
AcDbEntity
  8
0
  6
Continuous
 62
     7
370
    25
100
AcDbLine
 10
6650.1213408958
 20
5293.6213135485
 30
0.0
 11
6650.1213408958
 21
5323.5713135485
 31
0.0
  0
ARC
  5
BE
330
1F
100
AcDbEntity
  8
0
  6
Continuous
 62
     7
370
    25
100
AcDbCircle
 10
6651.1213408958
 20
5293.6213135485
 30
0.0
 40
1.0
100
AcDbArc
 50
180.0
 51
270.0
  0
LINE
  5
BF
330
1F
100
AcDbEntity
  8
0
  6
Continuous
 62
     7
370
    25
100
AcDbLine
 10
6649.1213408958
 20
5293.6213135485
 30
0.0
 11
6649.1213408958
 21
5323.5713135485
 31
0.0
  0
LINE
  5
C0
330
1F
100
AcDbEntity
  8
0
  6
Continuous
 62
     7
370
    25
100
AcDbLine
 10
6649.1213408958
 20
5323.5713135485
 30
0.0
 11
6650.1213408958
 21
5323.5713135485
 31
0.0
  0
ARC
  5
C1
330
1F
100
AcDbEntity
  8
0
  6
Continuous
 62
     7
370
    25
100
AcDbCircle
 10
6651.1213408958
 20
5293.6213135485
 30
0.0
 40
1.999999999999376
100
AcDbArc
 50
180.0
 51
210.0
  0
LINE
  5
C2
330
1F
100
AcDbEntity
  8
0
  6
Continuous
 62
     7
370
    25
100
AcDbLine
 10
6649.0213408958
 20
5318.6213135485
 30
0.0
 11
6648.0213408958
 21
5318.6213135485
 31
0.0
  0
LINE
  5
C3
330
1F
100
AcDbEntity
  8
0
  6
Continuous
 62
     7
370
    25
100
AcDbLine
 10
6649.0213408958
 20
5323.5713135485
 30
0.0
 11
6648.0213408958
 21
5323.5713135485
 31
0.0
  0
LINE
  5
C4
330
1F
100
AcDbEntity
  8
0
  6
Continuous
 62
     7
370
    25
100
AcDbLine
 10
6649.0213408958
 20
5323.5713135485
 30
0.0
 11
6649.0213408958
 21
5318.6213135485
 31
0.0
  0
LINE
  5
C5
330
1F
100
AcDbEntity
  8
0
  6
Continuous
 62
     7
370
    25
100
AcDbLine
 10
6648.0213408958
 20
5323.5713135485
 30
0.0
 11
6648.0213408958
 21
5318.6213135485
 31
0.0
  0
ARC
  5
C6
330
1F
100
AcDbEntity
  8
0
  6
Continuous
 62
     7
370
    25
100
AcDbCircle
 10
6649.0713408958
 20
5323.5713135485
 30
0.0
 40
0.0500000000001819
100
AcDbArc
 50
0.0
 51
180.0
  0
ARC
  5
C7
330
1F
100
AcDbEntity
  8
0
  6
Continuous
 62
     7
370
    25
100
AcDbCircle
 10
6649.0713408958
 20
5323.5713135485
 30
0.0
 40
1.050000000000182
100
AcDbArc
 50
0.0
 51
180.0
  0
LINE
  5
C8
330
1F
100
AcDbEntity
  8
0
  6
Continuous
 62
     8
370
    25
100
AcDbLine
 10
7009.1213408958
 20
5292.1213135485
 30
0.0
 11
6834.1213408958
 21
5292.1213135485
 31
0.0
  0
LINE
  5
C9
330
1F
100
AcDbEntity
  8
0
  6
Continuous
 62
     7
370
    25
100
AcDbLine
 10
6379.198708736
 20
4844.4150488685
 30
0.0
 11
6374.9414079185
 21
4839.8686972192
 31
0.0
  0
LINE
  5
CA
330
1F
100
AcDbEntity
  8
0
  6
Continuous
 62
     7
370
    25
100
AcDbLine
 10
6398.2991656571
 20
4817.9959938329
 30
0.0
 11
6402.5564664746
 21
4822.5423454822
 31
0.0
  0
LINE
  5
CB
330
1F
100
AcDbEntity
  8
0
  6
Continuous
 62
     7
370
    25
100
AcDbLine
 10
6273.2687553361
 20
4690.4350343879
 30
0.0
 11
6270.8613309324
 21
4690.6677879071
 31
0.0
  0
ARC
  5
CC
330
1F
100
AcDbEntity
  8
0
  6
Continuous
 62
     7
370
    25
100
AcDbCircle
 10
6274.0187553361
 20
4710.759116049
 30
0.0
 40
20.33791521682985
100
AcDbArc
 50
215.8951621556
 51
233.7596427172
  0
ARC
  5
CD
330
1F
100
AcDbEntity
  8
0
  6
Continuous
 62
     7
370
    25
100
AcDbCircle
 10
6274.0187553361
 20
4710.759116049
 30
0.0
 40
20.33791521682971
100
AcDbArc
 50
172.2306639657
 51
188.8577278671
  0
ARC
  5
CE
330
1F
100
AcDbEntity
  8
0
  6
Continuous
 62
     7
370
    25
100
AcDbCircle
 10
6274.0187553361
 20
4710.759116049
 30
0.0
 40
20.33791521682985
100
AcDbArc
 50
125.987713697
 51
143.7572225704
  0
ARC
  5
CF
330
1F
100
AcDbEntity
  8
0
  6
Continuous
 62
     7
370
    25
100
AcDbCircle
 10
6274.0187553361
 20
4710.759116049
 30
0.0
 40
20.33791521683038
100
AcDbArc
 50
81.1289618678
 51
98.809477101
  0
ARC
  5
D0
330
1F
100
AcDbEntity
  8
0
  6
Continuous
 62
     7
370
    25
100
AcDbCircle
 10
6274.0187553361
 20
4710.759116049
 30
0.0
 40
20.33791521683008
100
AcDbArc
 50
35.9524344728
 51
53.7209560145
  0
ARC
  5
D1
330
1F
100
AcDbEntity
  8
0
  6
Continuous
 62
     7
370
    25
100
AcDbCircle
 10
6274.0187553361
 20
4710.759116049
 30
0.0
 40
20.33791521683005
100
AcDbArc
 50
350.9919128664
 51
8.757217923
  0
ARC
  5
D2
330
1F
100
AcDbEntity
  8
0
  6
Continuous
 62
     7
370
    25
100
AcDbCircle
 10
6274.0187553361
 20
4710.759116049
 30
0.0
 40
20.3379152168298
100
AcDbArc
 50
306.1234926487
 51
323.9014904753
  0
LINE
  5
D3
330
1F
100
AcDbEntity
  8
0
  6
Continuous
 62
     7
370
    25
100
AcDbLine
 10
6277.040305999
 20
4690.6469051571
 30
0.0
 11
6274.7687553361
 21
4690.4350343879
 31
0.0
  0
LINE
  5
D4
330
1F
100
AcDbEntity
  8
0
  6
Continuous
 62
     7
370
    25
100
AcDbLine
 10
6273.2687553361
 20
4697.1563290093
 30
0.0
 11
6273.2687553361
 21
4689.3845534944
 31
0.0
  0
LINE
  5
D5
330
1F
100
AcDbEntity
  8
0
  6
Continuous
 62
     7
370
    25
100
AcDbLine
 10
6274.7687553361
 20
4689.3868690328
 30
0.0
 11
6274.7687553361
 21
4697.1386455436
 31
0.0
  0
CIRCLE
  5
D6
330
1F
100
AcDbEntity
  8
0
  6
Continuous
 62
     7
370
    25
100
AcDbCircle
 10
6274.0187553361
 20
4710.759116049
 30
0.0
 40
2.5
  0
ELLIPSE
  5
D7
330
1F
100
AcDbEntity
  8
0
  6
Continuous
 62
     7
370
    25
100
AcDbEllipse
 10
6382.4429323991
 20
4824.4713682944
 30
0.0
 11
15.98787660106336
 21
17.07337871352775
 31
0.0
210
0.0
220
0.0
230
1.0
 40
0.6840402867
 41
5.497582535349082
 42
7.068788079010077
  0
ELLIPSE
  5
D8
330
1F
100
AcDbEntity
  8
0
  6
Continuous
 62
     7
370
    25
100
AcDbEllipse
 10
6386.6202867878
 20
4828.932345526
 30
0.0
 11
11.6788788693093
 21
-10.93635169313802
 31
0.0
210
0.0
220
0.0
230
1.0
 40
0.9216049851
 41
2.356399098625388
 42
7.068378862143901
  0
ELLIPSE
  5
D9
330
1F
100
AcDbEntity
  8
0
  6
Continuous
 62
     7
370
    25
100
AcDbEllipse
 10
6390.8775876053
 20
4833.4786971754
 30
0.0
 11
11.10506254615484
 21
11.85904440088689
 31
0.0
210
0.0
220
0.0
230
1.0
 40
0.984807753
 41
4.712388980384773
 42
6.283185307179586
  0
ELLIPSE
  5
DA
330
1F
100
AcDbEntity
  8
0
  6
Continuous
 62
     7
370
    25
100
AcDbEllipse
 10
6390.8775876053
 20
4833.4786971754
 30
0.0
 11
11.10506254615484
 21
11.85904440088689
 31
0.0
210
0.0
220
0.0
230
1.0
 40
0.984807753
 41
0.0
 42
1.570796326794846
  0
LINE
  5
DB
330
1F
100
AcDbEntity
  8
0
  6
Continuous
 62
     7
370
    25
100
AcDbLine
 10
6385.4858510251
 20
4844.2763502845
 30
0.0
 11
6402.0056589703
 21
4828.806849178
 31
0.0
  0
LWPOLYLINE
  5
DC
330
1F
100
AcDbEntity
  8
0
  6
Continuous
 62
     7
370
    25
100
AcDbPolyline
 90
       17
 70
   128
 43
0.0
 10
6388.122254703
 20
4830.5362900443
 10
6387.7708455361
 20
4831.0008267952
 10
6387.6081131676
 20
4831.5389979255
 10
6387.6588321255
 20
4832.0688717591
 10
6387.9152809082
 20
4832.5097798082
 10
6388.3384175133
 20
4832.7945978191
 10
6388.8638232283
 20
4832.8799648316
 10
6389.4115097961
 20
4832.7528844919
 10
6389.8980969014
 20
4832.4327036296
 10
6390.2495060683
 20
4831.9681668787
 10
6390.4122384368
 20
4831.4299957484
 10
6390.3615194789
 20
4830.9001219148
 10
6390.1050706962
 20
4830.4592138657
 10
6389.6819340911
 20
4830.1743958548
 10
6389.1565283761
 20
4830.0890288423
 10
6388.6088418083
 20
4830.216109182
 10
6388.122254703
 20
4830.5362900443
  0
LWPOLYLINE
  5
DD
330
1F
100
AcDbEntity
  8
0
  6
Continuous
 62
     7
370
    25
100
AcDbPolyline
 90
       22
 70
   128
 43
0.0
 10
6394.1196853075
 20
4826.6998429712
 10
6393.1538885647
 20
4827.3933930877
 10
6392.0635186042
 20
4827.8006453402
 10
6390.9454595819
 20
4827.8854135791
 10
6389.8990559486
 20
4827.6401657742
 10
6389.0172852592
 20
4827.0866932693
 10
6388.3784967089
 20
4826.2741745253
 10
6388.0394494638
 20
4825.2748053983
 10
6388.0302693594
 20
4824.1773842208
 10
6388.3517720883
 20
4823.0794216805
 10
6388.9753907222
 20
4822.0784765675
 10
6389.8457140088
 20
4821.2634872474
 10
6390.8854099046
 20
4820.7068690981
 10
6392.0020968667
 20
4820.4580800846
 10
6393.096552358
 20
4820.5392262028
 10
6394.0715292052
 20
4820.9430972637
 10
6394.8403964368
 20
4821.6338075514
 10
6395.3348368252
 20
4822.5499844257
 10
6395.5109171719
 20
4823.6102215506
 10
6395.3529919655
 20
4824.7203122049
 10
6394.8750935537
 20
4825.7816199623
 10
6394.1196853075
 20
4826.6998429712
  0
LWPOLYLINE
  5
DE
330
1F
100
AcDbEntity
  8
0
  6
Continuous
 62
     7
370
    25
100
AcDbPolyline
 90
       22
 70
   128
 43
0.0
 10
6383.9211147743
 20
4836.2500023116
 10
6382.9553180315
 20
4836.943552428
 10
6381.8649480709
 20
4837.3508046806
 10
6380.7468890487
 20
4837.4355729195
 10
6379.7004854154
 20
4837.1903251146
 10
6378.818714726
 20
4836.6368526096
 10
6378.1799261757
 20
4835.8243338656
 10
6377.8408789305
 20
4834.8249647386
 10
6377.8316988262
 20
4833.7275435612
 10
6378.1532015551
 20
4832.6295810209
 10
6378.776820189
 20
4831.6286359078
 10
6379.6471434756
 20
4830.8136465878
 10
6380.6868393714
 20
4830.2570284384
 10
6381.8035263335
 20
4830.008239425
 10
6382.8979818248
 20
4830.0893855431
 10
6383.872958672
 20
4830.4932566041
 10
6384.6418259036
 20
4831.1839668918
 10
6385.1362662919
 20
4832.100143766
 10
6385.3123466387
 20
4833.1603808909
 10
6385.1544214323
 20
4834.2704715452
 10
6384.6765230205
 20
4835.3317793027
 10
6383.9211147743
 20
4836.2500023116
  0
LWPOLYLINE
  5
DF
330
1F
100
AcDbEntity
  8
0
  6
Continuous
 62
     7
370
    25
100
AcDbPolyline
 90
       17
 70
   128
 43
0.0
 10
6381.6108333092
 20
4823.5827735647
 10
6380.7998548005
 20
4824.1164083351
 10
6379.8870438542
 20
4824.3282089013
 10
6379.0113676625
 20
4824.1859305471
 10
6378.3061399873
 20
4823.7112338623
 10
6377.8787253495
 20
4822.9763871138
 10
6377.794193753
 20
4822.0932640577
 10
6378.0654143671
 20
4821.1963121739
 10
6378.6510963121
 20
4820.4220842557
 10
6379.4620748209
 20
4819.8884494853
 10
6380.3748857671
 20
4819.6766489191
 10
6381.2505619589
 20
4819.8189272733
 10
6381.955789634
 20
4820.2936239581
 10
6382.3832042718
 20
4821.0284707066
 10
6382.4677358683
 20
4821.9115937627
 10
6382.1965152542
 20
4822.8085456465
 10
6381.6108333092
 20
4823.5827735647
  0
LWPOLYLINE
  5
E0
330
1F
100
AcDbEntity
  8
0
  6
Continuous
 62
     7
370
    25
100
AcDbPolyline
 90
       22
 70
   128
 43
0.0
 10
6379.1855355792
 20
4831.1928994177
 10
6380.151332322
 20
4830.4993493012
 10
6381.2417022825
 20
4830.0920970486
 10
6382.3597613046
 20
4830.0073288097
 10
6383.4061649378
 20
4830.2525766145
 10
6384.2879356272
 20
4830.8060491193
 10
6384.9267241773
 20
4831.6185678631
 10
6385.2657714224
 20
4832.61793699
 10
6385.2749515266
 20
4833.7153581674
 10
6384.9534487976
 20
4834.8133207076
 10
6384.3298301637
 20
4835.8142658206
 10
6383.4595068772
 20
4836.6292551406
 10
6382.4198109814
 20
4837.18587329
 10
6381.3031240193
 20
4837.4346623035
 10
6380.2086685281
 20
4837.3535161855
 10
6379.233691681
 20
4836.9496451247
 10
6378.4648244495
 20
4836.2589348371
 10
6377.9703840613
 20
4835.342757963
 10
6377.7943037147
 20
4834.2825208382
 10
6377.9522289211
 20
4833.172430184
 10
6378.430127333
 20
4832.1111224266
 10
6379.1855355792
 20
4831.1928994177
  0
LWPOLYLINE
  5
E1
330
1F
100
AcDbEntity
  8
0
  6
Continuous
 62
     7
370
    25
100
AcDbPolyline
 90
       22
 70
   128
 43
0.0
 10
6389.3841061124
 20
4821.6427400774
 10
6390.3499028552
 20
4820.9491899609
 10
6391.4402728157
 20
4820.5419377083
 10
6392.5583318379
 20
4820.4571694693
 10
6393.6047354711
 20
4820.7024172741
 10
6394.4865061604
 20
4821.2558897789
 10
6395.1252947106
 20
4822.0684085228
 10
6395.4643419556
 20
4823.0677776497
 10
6395.4735220599
 20
4824.165198827
 10
6395.1520193309
 20
4825.2631613672
 10
6394.5284006969
 20
4826.2641064803
 10
6393.6580774104
 20
4827.0790958003
 10
6392.6183815146
 20
4827.6357139497
 10
6391.5016945526
 20
4827.8845029632
 10
6390.4072390613
 20
4827.8033568452
 10
6389.4322622142
 20
4827.3994857843
 10
6388.6633949827
 20
4826.7087754968
 10
6388.1689545945
 20
4825.7925986226
 10
6387.9928742479
 20
4824.7323614978
 10
6388.1507994543
 20
4823.6222708436
 10
6388.6286978662
 20
4822.5609630862
 10
6389.3841061124
 20
4821.6427400774
  0
LWPOLYLINE
  5
E2
330
1F
100
AcDbEntity
  8
0
  6
Continuous
 62
     7
370
    25
100
AcDbPolyline
 90
       17
 70
   128
 43
0.0
 10
6389.8980969014
 20
4832.4327036297
 10
6390.2495060684
 20
4831.9681668788
 10
6390.4122384368
 20
4831.4299957485
 10
6390.3615194789
 20
4830.9001219148
 10
6390.1050706962
 20
4830.4592138657
 10
6389.6819340911
 20
4830.1743958548
 10
6389.156528376
 20
4830.0890288423
 10
6388.6088418083
 20
4830.216109182
 10
6388.122254703
 20
4830.5362900442
 10
6387.770845536
 20
4831.0008267951
 10
6387.6081131676
 20
4831.5389979254
 10
6387.6588321255
 20
4832.0688717591
 10
6387.9152809082
 20
4832.5097798082
 10
6388.3384175133
 20
4832.7945978191
 10
6388.8638232284
 20
4832.8799648317
 10
6389.4115097961
 20
4832.7528844919
 10
6389.8980969014
 20
4832.4327036297
  0
LINE
  5
E3
330
1F
100
AcDbEntity
  8
0
  6
Continuous
 62
     7
370
    25
100
AcDbLine
 10
6449.0187553361
 20
4896.859116049
 30
0.0
 11
6101.0187553361
 21
4896.859116049
 31
0.0
  0
LINE
  5
E4
330
1F
100
AcDbEntity
  8
0
  6
Continuous
 62
     7
370
    25
100
AcDbLine
 10
6449.0187553361
 20
4894.759116049
 30
0.0
 11
6101.0187553361
 21
4894.759116049
 31
0.0
  0
LINE
  5
E5
330
1F
100
AcDbEntity
  8
0
  6
Continuous
 62
     7
370
    25
100
AcDbLine
 10
6449.0187553361
 20
4896.859116049
 30
0.0
 11
6449.0187553361
 21
4894.759116049
 31
0.0
  0
LINE
  5
E6
330
1F
100
AcDbEntity
  8
0
  6
Continuous
 62
     7
370
    25
100
AcDbLine
 10
6101.0187553361
 20
4894.759116049
 30
0.0
 11
6101.0187553361
 21
4896.859116049
 31
0.0
  0
LINE
  5
E7
330
1F
100
AcDbEntity
  8
0
  6
Continuous
 62
     7
370
    25
100
AcDbLine
 10
6447.0187553361
 20
4893.759116049
 30
0.0
 11
6447.0187553361
 21
4894.759116049
 31
0.0
  0
LINE
  5
E8
330
1F
100
AcDbEntity
  8
0
  6
Continuous
 62
     7
370
    25
100
AcDbLine
 10
6101.0187553361
 20
4893.759116049
 30
0.0
 11
6447.0187553361
 21
4893.759116049
 31
0.0
  0
LINE
  5
E9
330
1F
100
AcDbEntity
  8
0
  6
Continuous
 62
     7
370
    25
100
AcDbLine
 10
6101.0187553361
 20
4894.759116049
 30
0.0
 11
6101.0187553361
 21
4893.759116049
 31
0.0
  0
ARC
  5
EA
330
1F
100
AcDbEntity
  8
0
  6
Continuous
 62
     7
370
    25
100
AcDbCircle
 10
6265.8098562883
 20
4882.1569310866
 30
0.0
 40
1.393258010561176
100
AcDbArc
 50
357.0076979382
 51
91.0595859788
  0
LINE
  5
EB
330
1F
100
AcDbEntity
  8
0
  6
Continuous
 62
     7
370
    25
100
AcDbLine
 10
6265.7840918687
 20
4883.5499508563
 30
0.0
 11
6265.7099878648
 21
4883.5436463315
 31
0.0
  0
LINE
  5
EC
330
1F
100
AcDbEntity
  8
0
  6
Continuous
 62
     7
370
    25
100
AcDbLine
 10
6265.7099878648
 20
4883.5436463315
 30
0.0
 11
6265.6623938706
 21
4883.5436463315
 31
0.0
  0
ARC
  5
ED
330
1F
100
AcDbEntity
  8
0
  6
Continuous
 62
     7
370
    25
100
AcDbCircle
 10
6265.7651778224
 20
4882.0318909378
 30
0.0
 40
1.515245495386306
100
AcDbArc
 50
93.8895428609
 51
181.6254812535
  0
LINE
  5
EE
330
1F
100
AcDbEntity
  8
0
  6
Continuous
 62
     7
370
    25
100
AcDbLine
 10
6264.250542064
 20
4881.9889091896
 30
0.0
 11
6264.2357626043
 21
4880.9147111916
 31
0.0
  0
LINE
  5
EF
330
1F
100
AcDbEntity
  8
0
  6
Continuous
 62
     7
370
    25
100
AcDbLine
 10
6264.2357626043
 20
4880.9147111916
 30
0.0
 11
6263.5393710028
 21
4880.9136776629
 31
0.0
  0
LINE
  5
F0
330
1F
100
AcDbEntity
  8
0
  6
Continuous
 62
     7
370
    25
100
AcDbLine
 10
6263.5393710028
 20
4880.9136776629
 30
0.0
 11
6263.8229712632
 21
4880.0585360613
 31
0.0
  0
LINE
  5
F1
330
1F
100
AcDbEntity
  8
0
  6
Continuous
 62
     7
370
    25
100
AcDbLine
 10
6263.8229712632
 20
4880.0585360613
 30
0.0
 11
6264.1944731349
 21
4880.0532650653
 31
0.0
  0
LINE
  5
F2
330
1F
100
AcDbEntity
  8
0
  6
Continuous
 62
     7
370
    25
100
AcDbLine
 10
6264.1944731349
 20
4880.0532650653
 30
0.0
 11
6264.1987106024
 21
4877.277258799
 31
0.0
  0
LINE
  5
F3
330
1F
100
AcDbEntity
  8
0
  6
Continuous
 62
     7
370
    25
100
AcDbLine
 10
6264.1987106024
 20
4877.277258799
 30
0.0
 11
6265.0178337306
 21
4877.2888859962
 31
0.0
  0
LINE
  5
F4
330
1F
100
AcDbEntity
  8
0
  6
Continuous
 62
     7
370
    25
100
AcDbLine
 10
6265.0178337306
 20
4877.2888859962
 30
0.0
 11
6265.0135962632
 21
4880.0437049253
 31
0.0
  0
LINE
  5
F5
330
1F
100
AcDbEntity
  8
0
  6
Continuous
 62
     7
370
    25
100
AcDbLine
 10
6265.0135962632
 20
4880.0437049253
 30
0.0
 11
6265.7163440659
 21
4880.0500611265
 31
0.0
  0
LINE
  5
F6
330
1F
100
AcDbEntity
  8
0
  6
Continuous
 62
     7
370
    25
100
AcDbLine
 10
6265.7163440659
 20
4880.0500611265
 30
0.0
 11
6266.3640564683
 21
4880.0564173276
 31
0.0
  0
LINE
  5
F7
330
1F
100
AcDbEntity
  8
0
  6
Continuous
 62
     7
370
    25
100
AcDbLine
 10
6266.3640564683
 20
4880.0564173276
 30
0.0
 11
6266.3577002671
 21
4877.2804110613
 31
0.0
  0
LINE
  5
F8
330
1F
100
AcDbEntity
  8
0
  6
Continuous
 62
     7
370
    25
100
AcDbLine
 10
6266.3577002671
 20
4877.2804110613
 30
0.0
 11
6267.1980107326
 21
4877.2920382586
 31
0.0
  0
LINE
  5
F9
330
1F
100
AcDbEntity
  8
0
  6
Continuous
 62
     7
370
    25
100
AcDbLine
 10
6267.1980107326
 20
4877.2920382586
 30
0.0
 11
6267.2012146714
 21
4882.0842005307
 31
0.0
  0
ARC
  5
FA
330
1F
100
AcDbEntity
  8
0
  6
Continuous
 62
     7
370
    25
100
AcDbCircle
 10
6280.0097665353
 20
4882.1537249032
 30
0.0
 40
1.402028238650218
100
AcDbArc
 50
357.3732782631
 51
91.4987318941
  0
LINE
  5
FB
330
1F
100
AcDbEntity
  8
0
  6
Continuous
 62
     7
370
    25
100
AcDbLine
 10
6279.9730967346
 20
4883.5552735137
 30
0.0
 11
6279.8556878804
 21
4883.5552735137
 31
0.0
  0
ARC
  5
FC
330
1F
100
AcDbEntity
  8
0
  6
Continuous
 62
     7
370
    25
100
AcDbCircle
 10
6279.9618040723
 20
4882.0341516431
 30
0.0
 40
1.524818806040351
100
AcDbArc
 50
93.9905911162
 51
181.4593857112
  0
LINE
  5
FD
330
1F
100
AcDbEntity
  8
0
  6
Continuous
 62
     7
370
    25
100
AcDbLine
 10
6278.4374798726
 20
4881.9953170521
 30
0.0
 11
6278.4237339416
 21
4880.920033849
 31
0.0
  0
LINE
  5
FE
330
1F
100
AcDbEntity
  8
0
  6
Continuous
 62
     7
370
    25
100
AcDbLine
 10
6278.4237339416
 20
4880.920033849
 30
0.0
 11
6277.8925002176
 21
4880.920033849
 31
0.0
  0
LINE
  5
FF
330
1F
100
AcDbEntity
  8
0
  6
Continuous
 62
     7
370
    25
100
AcDbLine
 10
6277.8925002176
 20
4880.920033849
 30
0.0
 11
6277.7432586812
 21
4880.9189486439
 31
0.0
  0
LINE
  5
100
330
1F
100
AcDbEntity
  8
0
  6
Continuous
 62
     7
370
    25
100
AcDbLine
 10
6277.7432586812
 20
4880.9189486439
 30
0.0
 11
6277.8935337463
 21
4880.45752978
 31
0.0
  0
LINE
  5
101
330
1F
100
AcDbEntity
  8
0
  6
Continuous
 62
     7
370
    25
100
AcDbLine
 10
6277.8935337463
 20
4880.45752978
 30
0.0
 11
6278.0205544168
 21
4880.0638587188
 31
0.0
  0
LINE
  5
102
330
1F
100
AcDbEntity
  8
0
  6
Continuous
 62
     7
370
    25
100
AcDbLine
 10
6278.0205544168
 20
4880.0638587188
 30
0.0
 11
6278.3877671447
 21
4880.0797233835
 31
0.0
  0
LINE
  5
103
330
1F
100
AcDbEntity
  8
0
  6
Continuous
 62
     7
370
    25
100
AcDbLine
 10
6278.3877671447
 20
4880.0797233835
 30
0.0
 11
6278.3867336161
 21
4877.2941569772
 31
0.0
  0
LINE
  5
104
330
1F
100
AcDbEntity
  8
0
  6
Continuous
 62
     7
370
    25
100
AcDbLine
 10
6278.3867336161
 20
4877.2941569772
 30
0.0
 11
6279.221721409
 21
4877.2952421823
 31
0.0
  0
LINE
  5
105
330
1F
100
AcDbEntity
  8
0
  6
Continuous
 62
     7
370
    25
100
AcDbLine
 10
6279.221721409
 20
4877.2952421823
 30
0.0
 11
6279.2280259338
 21
4880.0596212513
 31
0.0
  0
LINE
  5
106
330
1F
100
AcDbEntity
  8
0
  6
Continuous
 62
     7
370
    25
100
AcDbLine
 10
6279.2280259338
 20
4880.0596212513
 30
0.0
 11
6279.903333551
 21
4880.06065478
 31
0.0
  0
LINE
  5
107
330
1F
100
AcDbEntity
  8
0
  6
Continuous
 62
     7
370
    25
100
AcDbLine
 10
6279.903333551
 20
4880.06065478
 30
0.0
 11
6280.552079482
 21
4880.061739985
 31
0.0
  0
LINE
  5
108
330
1F
100
AcDbEntity
  8
0
  6
Continuous
 62
     7
370
    25
100
AcDbLine
 10
6280.552079482
 20
4880.061739985
 30
0.0
 11
6280.5563169494
 21
4877.297360916
 31
0.0
  0
LINE
  5
109
330
1F
100
AcDbEntity
  8
0
  6
Continuous
 62
     7
370
    25
100
AcDbLine
 10
6280.5563169494
 20
4877.297360916
 30
0.0
 11
6281.4018467346
 21
4877.2983944447
 31
0.0
  0
LINE
  5
10A
330
1F
100
AcDbEntity
  8
0
  6
Continuous
 62
     7
370
    25
100
AcDbLine
 10
6281.4018467346
 20
4877.2983944447
 30
0.0
 11
6281.4103216695
 21
4882.0894715117
 31
0.0
  0
CIRCLE
  5
10B
330
1F
100
AcDbEntity
  8
0
  6
Continuous
 62
     7
370
    25
100
AcDbCircle
 10
6274.0187553361
 20
4708.259116049
 30
0.0
 40
140.2711677207481
  0
LINE
  5
10C
330
1F
100
AcDbEntity
  8
0
  6
Continuous
 62
     7
370
    25
100
AcDbLine
 10
6101.0187553361
 20
4892.759116049
 30
0.0
 11
6101.0187553361
 21
4893.759116049
 31
0.0
  0
LINE
  5
10D
330
1F
100
AcDbEntity
  8
0
  6
Continuous
 62
     7
370
    25
100
AcDbLine
 10
6448.0187553361
 20
4892.759116049
 30
0.0
 11
6448.0187553361
 21
4894.759116049
 31
0.0
  0
ARC
  5
10E
330
1F
100
AcDbEntity
  8
0
  6
Continuous
 62
     7
370
    25
100
AcDbCircle
 10
6274.0187553361
 20
4710.759116049
 30
0.0
 40
174.5
100
AcDbArc
 50
180.0
 51
0.0
  0
LINE
  5
10F
330
1F
100
AcDbEntity
  8
0
  6
Continuous
 62
     7
370
    25
100
AcDbLine
 10
6099.5187553361
 20
4895.759116049
 30
0.0
 11
6099.5187553361
 21
4710.759116049
 31
0.0
  0
LINE
  5
110
330
1F
100
AcDbEntity
  8
0
  6
Continuous
 62
     7
370
    25
100
AcDbLine
 10
6100.0187553361
 20
4895.759116049
 30
0.0
 11
6099.5187553361
 21
4895.759116049
 31
0.0
  0
LINE
  5
111
330
1F
100
AcDbEntity
  8
0
  6
Continuous
 62
     7
370
    25
100
AcDbLine
 10
6274.9312339282
 20
4880.0754858569
 30
0.0
 11
6273.0538291282
 21
4880.0828757569
 31
0.0
  0
LINE
  5
112
330
1F
100
AcDbEntity
  8
0
  6
Continuous
 62
     7
370
    25
100
AcDbLine
 10
6274.6370917282
 20
4880.9623569569
 30
0.0
 11
6274.9312339282
 21
4880.0754858569
 31
0.0
  0
LINE
  5
113
330
1F
100
AcDbEntity
  8
0
  6
Continuous
 62
     7
370
    25
100
AcDbLine
 10
6273.1108798282
 20
4880.9602380569
 30
0.0
 11
6274.6370917282
 21
4880.9623569569
 31
0.0
  0
LINE
  5
114
330
1F
100
AcDbEntity
  8
0
  6
Continuous
 62
     7
370
    25
100
AcDbLine
 10
6273.1088128282
 20
4882.5403482569
 30
0.0
 11
6273.1108798282
 21
4880.9602380569
 31
0.0
  0
LINE
  5
115
330
1F
100
AcDbEntity
  8
0
  6
Continuous
 62
     7
370
    25
100
AcDbLine
 10
6274.6772959282
 20
4882.5424671569
 30
0.0
 11
6273.1088128282
 21
4882.5403482569
 31
0.0
  0
LINE
  5
116
330
1F
100
AcDbEntity
  8
0
  6
Continuous
 62
     7
370
    25
100
AcDbLine
 10
6274.6761589282
 20
4883.4356943569
 30
0.0
 11
6274.6772959282
 21
4882.5424671569
 31
0.0
  0
LINE
  5
117
330
1F
100
AcDbEntity
  8
0
  6
Continuous
 62
     7
370
    25
100
AcDbLine
 10
6272.2621462282
 20
4883.4314568569
 30
0.0
 11
6274.6761589282
 21
4883.4356943569
 31
0.0
  0
LINE
  5
118
330
1F
100
AcDbEntity
  8
0
  6
Continuous
 62
     7
370
    25
100
AcDbLine
 10
6272.2663837282
 20
4880.9433399569
 30
0.0
 11
6272.2621462282
 21
4883.4314568569
 31
0.0
  0
LINE
  5
119
330
1F
100
AcDbEntity
  8
0
  6
Continuous
 62
     7
370
    25
100
AcDbLine
 10
6271.5954169282
 20
4880.9422545569
 30
0.0
 11
6272.2663837282
 21
4880.9433399569
 31
0.0
  0
LINE
  5
11A
330
1F
100
AcDbEntity
  8
0
  6
Continuous
 62
     7
370
    25
100
AcDbLine
 10
6271.5869419282
 20
4883.4304233569
 30
0.0
 11
6271.5954169282
 21
4880.9422545569
 31
0.0
  0
LINE
  5
11B
330
1F
100
AcDbEntity
  8
0
  6
Continuous
 62
     7
370
    25
100
AcDbLine
 10
6271.4006482282
 20
4883.4304233569
 30
0.0
 11
6271.5869419282
 21
4883.4304233569
 31
0.0
  0
LINE
  5
11C
330
1F
100
AcDbEntity
  8
0
  6
Continuous
 62
     7
370
    25
100
AcDbLine
 10
6270.6079834282
 20
4883.4293379569
 30
0.0
 11
6271.4006482282
 21
4883.4304233569
 31
0.0
  0
LINE
  5
11D
330
1F
100
AcDbEntity
  8
0
  6
Continuous
 62
     7
370
    25
100
AcDbLine
 10
6270.6111358282
 20
4881.3285360569
 30
0.0
 11
6270.6079834282
 21
4883.4293379569
 31
0.0
  0
LINE
  5
11E
330
1F
100
AcDbEntity
  8
0
  6
Continuous
 62
     7
370
    25
100
AcDbLine
 10
6267.8795713282
 20
4883.5044756569
 30
0.0
 11
6270.6111358282
 21
4881.3285360569
 31
0.0
  0
LINE
  5
11F
330
1F
100
AcDbEntity
  8
0
  6
Continuous
 62
     7
370
    25
100
AcDbLine
 10
6267.8954875282
 20
4877.2772586569
 30
0.0
 11
6267.8795713282
 21
4883.5044756569
 31
0.0
  0
LINE
  5
120
330
1F
100
AcDbEntity
  8
0
  6
Continuous
 62
     7
370
    25
100
AcDbLine
 10
6268.7717650282
 20
4877.2793775569
 30
0.0
 11
6267.8954875282
 21
4877.2772586569
 31
0.0
  0
LINE
  5
121
330
1F
100
AcDbEntity
  8
0
  6
Continuous
 62
     7
370
    25
100
AcDbLine
 10
6268.7770360282
 20
4881.4534380569
 30
0.0
 11
6268.7717650282
 21
4877.2793775569
 31
0.0
  0
LINE
  5
122
330
1F
100
AcDbEntity
  8
0
  6
Continuous
 62
     7
370
    25
100
AcDbLine
 10
6270.6291193282
 20
4880.0469087569
 30
0.0
 11
6268.7770360282
 21
4881.4534380569
 31
0.0
  0
LINE
  5
123
330
1F
100
AcDbEntity
  8
0
  6
Continuous
 62
     7
370
    25
100
AcDbLine
 10
6270.6333568282
 20
4877.2666650569
 30
0.0
 11
6270.6291193282
 21
4880.0469087569
 31
0.0
  0
LINE
  5
124
330
1F
100
AcDbEntity
  8
0
  6
Continuous
 62
     7
370
    25
100
AcDbLine
 10
6271.4091232282
 20
4877.2772586569
 30
0.0
 11
6270.6333568282
 21
4877.2666650569
 31
0.0
  0
LINE
  5
125
330
1F
100
AcDbEntity
  8
0
  6
Continuous
 62
     7
370
    25
100
AcDbLine
 10
6271.5805858282
 20
4877.2836150569
 30
0.0
 11
6271.4091232282
 21
4877.2772586569
 31
0.0
  0
LINE
  5
126
330
1F
100
AcDbEntity
  8
0
  6
Continuous
 62
     7
370
    25
100
AcDbLine
 10
6271.5604834282
 20
4880.0648922569
 30
0.0
 11
6271.5805858282
 21
4877.2836150569
 31
0.0
  0
LINE
  5
127
330
1F
100
AcDbEntity
  8
0
  6
Continuous
 62
     7
370
    25
100
AcDbLine
 10
6272.2886044282
 20
4880.0659773569
 30
0.0
 11
6271.5604834282
 21
4880.0648922569
 31
0.0
  0
LINE
  5
128
330
1F
100
AcDbEntity
  8
0
  6
Continuous
 62
     7
370
    25
100
AcDbLine
 10
6272.2928419282
 20
4877.3005647569
 30
0.0
 11
6272.2886044282
 21
4880.0659773569
 31
0.0
  0
LINE
  5
129
330
1F
100
AcDbEntity
  8
0
  6
Continuous
 62
     7
370
    25
100
AcDbLine
 10
6274.6433962282
 20
4877.3037171569
 30
0.0
 11
6272.2928419282
 21
4877.3005647569
 31
0.0
  0
LINE
  5
12A
330
1F
100
AcDbEntity
  8
0
  6
Continuous
 62
     7
370
    25
100
AcDbLine
 10
6274.6413292282
 20
4878.2033004569
 30
0.0
 11
6274.6433962282
 21
4877.3037171569
 31
0.0
  0
LINE
  5
12B
330
1F
100
AcDbEntity
  8
0
  6
Continuous
 62
     7
370
    25
100
AcDbLine
 10
6273.0569296282
 20
4878.2001480569
 30
0.0
 11
6274.6413292282
 21
4878.2033004569
 31
0.0
  0
LINE
  5
12C
330
1F
100
AcDbEntity
  8
0
  6
Continuous
 62
     7
370
    25
100
AcDbLine
 10
6273.0538291282
 20
4880.0828757569
 30
0.0
 11
6273.0569296282
 21
4878.2001480569
 31
0.0
  0
LINE
  5
12D
330
1F
100
AcDbEntity
  8
0
  6
Continuous
 62
     7
370
    25
100
AcDbLine
 10
6276.1547251282
 20
4883.4378129569
 30
0.0
 11
6276.1579291282
 21
4878.0720423569
 31
0.0
  0
LINE
  5
12E
330
1F
100
AcDbEntity
  8
0
  6
Continuous
 62
     7
370
    25
100
AcDbLine
 10
6275.2456333282
 20
4883.4314568569
 30
0.0
 11
6276.1547251282
 21
4883.4378129569
 31
0.0
  0
LINE
  5
12F
330
1F
100
AcDbEntity
  8
0
  6
Continuous
 62
     7
370
    25
100
AcDbLine
 10
6275.2655803282
 20
4877.2941570569
 30
0.0
 11
6275.2456333282
 21
4883.4314568569
 31
0.0
  0
LINE
  5
130
330
1F
100
AcDbEntity
  8
0
  6
Continuous
 62
     7
370
    25
100
AcDbLine
 10
6277.8976678282
 20
4877.2931235569
 30
0.0
 11
6275.2655803282
 21
4877.2941570569
 31
0.0
  0
LINE
  5
131
330
1F
100
AcDbEntity
  8
0
  6
Continuous
 62
     7
370
    25
100
AcDbLine
 10
6278.0406049282
 20
4877.2931235569
 30
0.0
 11
6277.8976678282
 21
4877.2931235569
 31
0.0
  0
LINE
  5
132
330
1F
100
AcDbEntity
  8
0
  6
Continuous
 62
     7
370
    25
100
AcDbLine
 10
6278.0448424282
 20
4878.0805173569
 30
0.0
 11
6278.0406049282
 21
4877.2931235569
 31
0.0
  0
LINE
  5
133
330
1F
100
AcDbEntity
  8
0
  6
Continuous
 62
     7
370
    25
100
AcDbLine
 10
6277.8967375282
 20
4878.0794835569
 30
0.0
 11
6278.0448424282
 21
4878.0805173569
 31
0.0
  0
LINE
  5
134
330
1F
100
AcDbEntity
  8
0
  6
Continuous
 62
     7
370
    25
100
AcDbLine
 10
6276.1579291282
 20
4878.0720423569
 30
0.0
 11
6277.8967375282
 21
4878.0794835569
 31
0.0
  0
ARC
  5
135
330
1F
100
AcDbEntity
  8
0
  6
Continuous
 62
     7
370
    25
100
AcDbCircle
 10
6259.5435537262
 20
4878.3603751869
 30
0.0
 40
3.10956731064383
100
AcDbArc
 50
14.9618466758
 51
54.7549362228
  0
LWPOLYLINE
  5
136
330
1F
100
AcDbEntity
  8
0
  6
Continuous
 62
     7
370
    25
100
AcDbPolyline
 90
        7
 70
   128
 43
0.0
 10
6261.7190170933
 20
4878.1990629452
 10
6261.9746960659
 20
4878.2222768014
 10
6262.1736128921
 20
4878.2884509923
 10
6262.3223536207
 20
4878.3937518095
 10
6262.4275043005
 20
4878.5343455447
 10
6262.5205124723
 20
4878.8173636383
 10
6262.5477003615
 20
4879.1631901425
  0
LINE
  5
137
330
1F
100
AcDbEntity
  8
0
  6
Continuous
 62
     7
370
    25
100
AcDbLine
 10
6259.9219691603
 20
4878.1959106828
 30
0.0
 11
6261.7190170933
 21
4878.1990629452
 31
0.0
  0
LINE
  5
138
330
1F
100
AcDbEntity
  8
0
  6
Continuous
 62
     7
370
    25
100
AcDbLine
 10
6259.9230543654
 20
4877.2656315487
 30
0.0
 11
6259.9219691603
 21
4878.1959106828
 31
0.0
  0
LINE
  5
139
330
1F
100
AcDbEntity
  8
0
  6
Continuous
 62
     7
370
    25
100
AcDbLine
 10
6261.800510827
 20
4877.2687838111
 30
0.0
 11
6259.9230543654
 21
4877.2656315487
 31
0.0
  0
ARC
  5
13A
330
1F
100
AcDbEntity
  8
0
  6
Continuous
 62
     7
370
    25
100
AcDbCircle
 10
6261.703339424
 20
4879.0924551099
 30
0.0
 40
1.826258275162766
100
AcDbArc
 50
273.0500295178
 51
347.9874998473
  0
ARC
  5
13B
330
1F
100
AcDbEntity
  8
0
  6
Continuous
 62
     7
370
    25
100
AcDbCircle
 10
6261.3418804885
 20
4879.0776453566
 30
0.0
 40
2.178567792544123
100
AcDbArc
 50
350.3476259222
 51
42.016970567
  0
LWPOLYLINE
  5
13C
330
1F
100
AcDbEntity
  8
0
  6
Continuous
 62
     7
370
    25
100
AcDbPolyline
 90
        3
 70
   128
 43
0.0
 10
6262.0915524937
 20
4881.4809814836
 10
6262.6697144308
 20
4880.8961307012
 10
6262.9604400262
 20
4880.5358712134
  0
ARC
  5
13D
330
1F
100
AcDbEntity
  8
0
  6
Continuous
 62
     7
370
    25
100
AcDbCircle
 10
6263.2254898804
 20
4883.157467838
 30
0.0
 40
2.023961583930296
100
AcDbArc
 50
179.94293404
 51
235.926470141
  0
LWPOLYLINE
  5
13E
330
1F
100
AcDbEntity
  8
0
  6
Continuous
 62
     7
370
    25
100
AcDbPolyline
 90
        6
 70
   128
 43
0.0
 10
6262.2894732293
 20
4884.0389648821
 10
6261.8221627627
 20
4883.9705173688
 10
6261.4541509567
 20
4883.7769204639
 10
6261.3184690308
 20
4883.6171407273
 10
6261.2317709292
 20
4883.4125307028
 10
6261.2015293003
 20
4883.1594836809
  0
LINE
  5
13F
330
1F
100
AcDbEntity
  8
0
  6
Continuous
 62
     7
370
    25
100
AcDbLine
 10
6265.7099879592
 20
4884.0389648821
 30
0.0
 11
6262.2894732293
 21
4884.0389648821
 31
0.0
  0
LINE
  5
140
330
1F
100
AcDbEntity
  8
0
  6
Continuous
 62
     7
370
    25
100
AcDbLine
 10
6271.3996148309
 20
4884.0421171444
 30
0.0
 11
6265.7099879592
 21
4884.0389648821
 31
0.0
  0
LINE
  5
141
330
1F
100
AcDbEntity
  8
0
  6
Continuous
 62
     7
370
    25
100
AcDbLine
 10
6277.8872291701
 20
4884.051625608
 30
0.0
 11
6271.3996148309
 21
4884.0421171444
 31
0.0
  0
LINE
  5
142
330
1F
100
AcDbEntity
  8
0
  6
Continuous
 62
     7
370
    25
100
AcDbLine
 10
6279.8980625034
 20
4884.0495585507
 30
0.0
 11
6277.8872291701
 21
4884.051625608
 31
0.0
  0
LINE
  5
143
330
1F
100
AcDbEntity
  8
0
  6
Continuous
 62
     7
370
    25
100
AcDbLine
 10
6281.705704105
 20
4884.052710813
 30
0.0
 11
6279.8980625034
 21
4884.0495585507
 31
0.0
  0
LINE
  5
144
330
1F
100
AcDbEntity
  8
0
  6
Continuous
 62
     7
370
    25
100
AcDbLine
 10
6281.7045672235
 20
4884.9671252824
 30
0.0
 11
6281.705704105
 21
4884.052710813
 31
0.0
  0
LINE
  5
145
330
1F
100
AcDbEntity
  8
0
  6
Continuous
 62
     7
370
    25
100
AcDbLine
 10
6279.8957887404
 20
4884.9639213436
 30
0.0
 11
6281.7045672235
 21
4884.9671252824
 31
0.0
  0
LINE
  5
146
330
1F
100
AcDbEntity
  8
0
  6
Continuous
 62
     7
370
    25
100
AcDbLine
 10
6277.8860922886
 20
4884.9618026099
 30
0.0
 11
6279.8957887404
 21
4884.9639213436
 31
0.0
  0
LINE
  5
147
330
1F
100
AcDbEntity
  8
0
  6
Continuous
 62
     7
370
    25
100
AcDbLine
 10
6271.3985296258
 20
4884.9512089413
 30
0.0
 11
6277.8860922886
 21
4884.9618026099
 31
0.0
  0
LINE
  5
148
330
1F
100
AcDbEntity
  8
0
  6
Continuous
 62
     7
370
    25
100
AcDbLine
 10
6265.7078692254
 20
4884.9374630103
 30
0.0
 11
6271.3985296258
 21
4884.9512089413
 31
0.0
  0
LINE
  5
149
330
1F
100
AcDbEntity
  8
0
  6
Continuous
 62
     7
370
    25
100
AcDbLine
 10
6262.2249293654
 20
4884.9321920142
 30
0.0
 11
6265.7078692254
 21
4884.9374630103
 31
0.0
  0
ARC
  5
14A
330
1F
100
AcDbEntity
  8
0
  6
Continuous
 62
     7
370
    25
100
AcDbCircle
 10
6262.0863303916
 20
4883.0843769882
 30
0.0
 40
1.853005678857033
100
AcDbArc
 50
85.7104505517
 51
175.7435393215
  0
ARC
  5
14B
330
1F
100
AcDbEntity
  8
0
  6
Continuous
 62
     7
370
    25
100
AcDbCircle
 10
6262.7975027258
 20
4883.0124145235
 30
0.0
 40
2.567627747274896
100
AcDbArc
 50
175.3200006848
 51
235.3597434077
  0
ARC
  5
14C
330
1F
100
AcDbEntity
  8
0
  6
Continuous
 62
     7
370
    25
100
AcDbCircle
 10
6288.9100512743
 20
4885.180765686
 30
0.0
 40
0.701550991475162
100
AcDbArc
 50
0.4761050663
 51
89.2936033128
  0
LINE
  5
14D
330
1F
100
AcDbEntity
  8
0
  6
Continuous
 62
     7
370
    25
100
AcDbLine
 10
6288.9187004409
 20
4885.8822633592
 30
0.0
 11
6288.9137395034
 21
4885.8822633592
 31
0.0
  0
ARC
  5
14E
330
1F
100
AcDbEntity
  8
0
  6
Continuous
 62
     7
370
    25
100
AcDbCircle
 10
6288.9189217732
 20
4885.1918329481
 30
0.0
 40
0.6904498595038567
100
AcDbArc
 50
90.43004567
 51
180.6018970518
  0
ARC
  5
14F
330
1F
100
AcDbEntity
  8
0
  6
Continuous
 62
     7
370
    25
100
AcDbCircle
 10
6288.9130801414
 20
4885.183915378
 30
0.0
 40
0.6845704526060161
100
AcDbArc
 50
179.9443866369
 51
270.2281908815
  0
LINE
  5
150
330
1F
100
AcDbEntity
  8
0
  6
Continuous
 62
     7
370
    25
100
AcDbLine
 10
6288.9158065607
 20
4884.4993503546
 30
0.0
 11
6288.920974204
 21
4884.4993503546
 31
0.0
  0
ARC
  5
151
330
1F
100
AcDbEntity
  8
0
  6
Continuous
 62
     7
370
    25
100
AcDbCircle
 10
6288.9202826547
 20
4885.1906573337
 30
0.0
 40
0.6913073249212734
100
AcDbArc
 50
270.05731584
 51
359.6633293769
  0
ARC
  5
152
330
1F
100
AcDbEntity
  8
0
  6
Continuous
 62
     7
370
    25
100
AcDbCircle
 10
6283.8990926574
 20
4879.4358135713
 30
0.0
 40
3.719185213270761
100
AcDbArc
 50
2.3646229321
 51
51.1199972206
  0
LINE
  5
153
330
1F
100
AcDbEntity
  8
0
  6
Continuous
 62
     7
370
    25
100
AcDbLine
 10
6286.2335932273
 20
4882.3310589391
 30
0.0
 11
6286.2282188783
 21
4882.3256845901
 31
0.0
  0
LWPOLYLINE
  5
154
330
1F
100
AcDbEntity
  8
0
  6
Continuous
 62
     7
370
    25
100
AcDbPolyline
 90
        3
 70
   128
 43
0.0
 10
6286.2282188783
 20
4882.3256845901
 10
6286.1624953861
 20
4882.2535919686
 10
6286.1119469056
 20
4882.1756162307
  0
LINE
  5
155
330
1F
100
AcDbEntity
  8
0
  6
Continuous
 62
     7
370
    25
100
AcDbLine
 10
6286.1119469056
 20
4882.1756162307
 30
0.0
 11
6285.9571243145
 21
4882.3077528681
 31
0.0
  0
LWPOLYLINE
  5
156
330
1F
100
AcDbEntity
  8
0
  6
Continuous
 62
     7
370
    25
100
AcDbPolyline
 90
        3
 70
   128
 43
0.0
 10
6285.9571243145
 20
4882.3077528681
 10
6286.1008581123
 20
4882.4781143458
 10
6286.2278054668
 20
4882.5862371617
  0
LWPOLYLINE
  5
157
330
1F
100
AcDbEntity
  8
0
  6
Continuous
 62
     7
370
    25
100
AcDbPolyline
 90
        3
 70
   128
 43
0.0
 10
6286.2278054668
 20
4882.5862371617
 10
6286.7395229421
 20
4882.7918452669
 10
6287.3051557273
 20
4882.8428623245
  0
LINE
  5
158
330
1F
100
AcDbEntity
  8
0
  6
Continuous
 62
     7
370
    25
100
AcDbLine
 10
6287.3051557273
 20
4882.8428623245
 30
0.0
 11
6287.3195217754
 21
4882.8372812698
 31
0.0
  0
LINE
  5
159
330
1F
100
AcDbEntity
  8
0
  6
Continuous
 62
     7
370
    25
100
AcDbLine
 10
6287.3195217754
 20
4882.8372812698
 30
0.0
 11
6287.3257229473
 21
4882.834077331
 31
0.0
  0
LINE
  5
15A
330
1F
100
AcDbEntity
  8
0
  6
Continuous
 62
     7
370
    25
100
AcDbLine
 10
6287.3257229473
 20
4882.834077331
 30
0.0
 11
6287.3314073549
 21
4882.8459629104
 31
0.0
  0
ARC
  5
15B
330
1F
100
AcDbEntity
  8
0
  6
Continuous
 62
     7
370
    25
100
AcDbCircle
 10
6287.0282504965
 20
4882.9641349441
 30
0.0
 40
0.3253747229143117
100
AcDbArc
 50
338.7039188617
 51
32.9021244079
  0
LWPOLYLINE
  5
15C
330
1F
100
AcDbEntity
  8
0
  6
Continuous
 62
     7
370
    25
100
AcDbPolyline
 90
        3
 70
   128
 43
0.0
 10
6287.3014350241
 20
4883.1408803095
 10
6287.1388534077
 20
4883.5946160009
 10
6286.9703957989
 20
4883.8848142288
  0
LWPOLYLINE
  5
15D
330
1F
100
AcDbEntity
  8
0
  6
Continuous
 62
     7
370
    25
100
AcDbPolyline
 90
        3
 70
   128
 43
0.0
 10
6286.9703957989
 20
4883.8848142288
 10
6287.4525693964
 20
4884.9605783121
 10
6287.5629177715
 20
4885.8693959345
  0
LWPOLYLINE
  5
15E
330
1F
100
AcDbEntity
  8
0
  6
Continuous
 62
     7
370
    25
100
AcDbPolyline
 90
        3
 70
   128
 43
0.0
 10
6287.5629177715
 20
4885.8693959345
 10
6286.7961389732
 20
4885.7353650624
 10
6286.2232579408
 20
4885.543110941
  0
LWPOLYLINE
  5
15F
330
1F
100
AcDbEntity
  8
0
  6
Continuous
 62
     7
370
    25
100
AcDbPolyline
 90
        3
 70
   128
 43
0.0
 10
6286.2232579408
 20
4885.543110941
 10
6286.0489002229
 20
4885.4663011558
 10
6285.9152664043
 20
4885.3991920771
  0
LWPOLYLINE
  5
160
330
1F
100
AcDbEntity
  8
0
  6
Continuous
 62
     7
370
    25
100
AcDbPolyline
 90
        3
 70
   128
 43
0.0
 10
6285.9152664043
 20
4885.3991920771
 10
6285.8664656754
 20
4885.3711673707
 10
6285.8251427064
 20
4885.3456036168
  0
LWPOLYLINE
  5
161
330
1F
100
AcDbEntity
  8
0
  6
Continuous
 62
     7
370
    25
100
AcDbPolyline
 90
        3
 70
   128
 43
0.0
 10
6285.8251427064
 20
4885.3456036168
 10
6285.7187012548
 20
4885.2819432992
 10
6285.6393142559
 20
4885.2282464391
  0
LWPOLYLINE
  5
162
330
1F
100
AcDbEntity
  8
0
  6
Continuous
 62
     7
370
    25
100
AcDbPolyline
 90
        3
 70
   128
 43
0.0
 10
6285.6393142559
 20
4885.2282464391
 10
6285.4525323926
 20
4885.0907504579
 10
6285.3203673158
 20
4884.9725514521
  0
LWPOLYLINE
  5
163
330
1F
100
AcDbEntity
  8
0
  6
Continuous
 62
     7
370
    25
100
AcDbPolyline
 90
        3
 70
   128
 43
0.0
 10
6285.3203673158
 20
4884.9725514521
 10
6285.127591833
 20
4884.9999095937
 10
6284.9371348939
 20
4885.0041774287
  0
LINE
  5
164
330
1F
100
AcDbEntity
  8
0
  6
Continuous
 62
     7
370
    25
100
AcDbLine
 10
6284.9371348939
 20
4885.0041774287
 30
0.0
 11
6284.9050955059
 21
4884.998596374
 31
0.0
  0
ARC
  5
165
330
1F
100
AcDbEntity
  8
0
  6
Continuous
 62
     7
370
    25
100
AcDbCircle
 10
6284.8256307651
 20
4883.1933240988
 30
0.0
 40
1.807020374125582
100
AcDbArc
 50
87.4795729577
 51
101.1904471721
  0
LINE
  5
166
330
1F
100
AcDbEntity
  8
0
  6
Continuous
 62
     7
370
    25
100
AcDbLine
 10
6284.4749408835
 20
4884.9659885452
 30
0.0
 11
6284.4319460918
 21
4884.9978729039
 31
0.0
  0
LWPOLYLINE
  5
167
330
1F
100
AcDbEntity
  8
0
  6
Continuous
 62
     7
370
    25
100
AcDbPolyline
 90
        3
 70
   128
 43
0.0
 10
6284.4319460918
 20
4884.9978729039
 10
6283.8457385658
 20
4885.3642726797
 10
6283.3674115866
 20
4885.5918934931
  0
LWPOLYLINE
  5
168
330
1F
100
AcDbEntity
  8
0
  6
Continuous
 62
     7
370
    25
100
AcDbPolyline
 90
        3
 70
   128
 43
0.0
 10
6283.3674115866
 20
4885.5918934931
 10
6282.8114983099
 20
4885.7723954975
 10
6282.3570339825
 20
4885.8511024775
  0
LINE
  5
169
330
1F
100
AcDbEntity
  8
0
  6
Continuous
 62
     7
370
    25
100
AcDbLine
 10
6282.3570339825
 20
4885.8511024775
 30
0.0
 11
6282.3570339825
 21
4885.8350827835
 31
0.0
  0
LINE
  5
16A
330
1F
100
AcDbEntity
  8
0
  6
Continuous
 62
     7
370
    25
100
AcDbLine
 10
6282.3570339825
 20
4885.8350827835
 30
0.0
 11
6282.3574473939
 21
4885.5585621943
 31
0.0
  0
LWPOLYLINE
  5
16B
330
1F
100
AcDbEntity
  8
0
  6
Continuous
 62
     7
370
    25
100
AcDbPolyline
 90
        3
 70
   128
 43
0.0
 10
6282.3574473939
 20
4885.5585621943
 10
6282.5794025423
 20
4884.5316760718
 10
6282.8915749981
 20
4883.8733937373
  0
LWPOLYLINE
  5
16C
330
1F
100
AcDbEntity
  8
0
  6
Continuous
 62
     7
370
    25
100
AcDbPolyline
 90
        3
 70
   128
 43
0.0
 10
6282.8915749981
 20
4883.8733937373
 10
6282.6892122985
 20
4883.4168537602
 10
6282.594022101
 20
4883.0785585322
  0
LINE
  5
16D
330
1F
100
AcDbEntity
  8
0
  6
Continuous
 62
     7
370
    25
100
AcDbLine
 10
6282.594022101
 20
4883.0785585322
 30
0.0
 11
6282.5654967103
 21
4883.0267270706
 31
0.0
  0
ARC
  5
16E
330
1F
100
AcDbEntity
  8
0
  6
Continuous
 62
     7
370
    25
100
AcDbCircle
 10
6283.2065922935
 20
4882.7705285595
 30
0.0
 40
0.6903920797961655
100
AcDbArc
 50
158.2170621764
 51
164.2128967989
  0
LWPOLYLINE
  5
16F
330
1F
100
AcDbEntity
  8
0
  6
Continuous
 62
     7
370
    25
100
AcDbPolyline
 90
        3
 70
   128
 43
0.0
 10
6282.5422423158
 20
4882.9583591507
 10
6282.5925794405
 20
4882.9522920961
 10
6282.6327794252
 20
4882.9469903356
  0
LINE
  5
170
330
1F
100
AcDbEntity
  8
0
  6
Continuous
 62
     7
370
    25
100
AcDbLine
 10
6282.6327794252
 20
4882.9469903356
 30
0.0
 11
6282.6556204083
 21
4882.9440447789
 31
0.0
  0
LWPOLYLINE
  5
171
330
1F
100
AcDbEntity
  8
0
  6
Continuous
 62
     7
370
    25
100
AcDbPolyline
 90
        3
 70
   128
 43
0.0
 10
6282.6556204083
 20
4882.9440447789
 10
6283.0724321328
 20
4882.8561181413
 10
6283.3717524069
 20
4882.7468991897
  0
ARC
  5
172
330
1F
100
AcDbEntity
  8
0
  6
Continuous
 62
     7
370
    25
100
AcDbCircle
 10
6283.1328055682
 20
4881.9804955848
 30
0.0
 40
0.8027889369726274
100
AcDbArc
 50
338.3190486649
 51
72.6837346183
  0
LWPOLYLINE
  5
173
330
1F
100
AcDbEntity
  8
0
  6
Continuous
 62
     7
370
    25
100
AcDbPolyline
 90
        3
 70
   128
 43
0.0
 10
6283.8788015606
 20
4881.6839149775
 10
6283.6064365933
 20
4881.0874729779
 10
6283.3748529929
 20
4880.6731756383
  0
LWPOLYLINE
  5
174
330
1F
100
AcDbEntity
  8
0
  6
Continuous
 62
     7
370
    25
100
AcDbPolyline
 90
        3
 70
   128
 43
0.0
 10
6283.3748529929
 20
4880.6731756383
 10
6283.1069075594
 20
4880.0338162839
 10
6282.882479946
 20
4879.2521771031
  0
ARC
  5
175
330
1F
100
AcDbEntity
  8
0
  6
Continuous
 62
     7
370
    25
100
AcDbCircle
 10
6285.0102150597
 20
4878.6933132804
 30
0.0
 40
2.1999057903524
100
AcDbArc
 50
165.2832984795
 51
222.18484723
  0
LWPOLYLINE
  5
176
330
1F
100
AcDbEntity
  8
0
  6
Continuous
 62
     7
370
    25
100
AcDbPolyline
 90
        3
 70
   128
 43
0.0
 10
6283.380123989
 20
4877.216022318
 10
6283.9280923839
 20
4876.8080765163
 10
6284.4447618471
 20
4876.6223117874
  0
LWPOLYLINE
  5
177
330
1F
100
AcDbEntity
  8
0
  6
Continuous
 62
     7
370
    25
100
AcDbPolyline
 90
        3
 70
   128
 43
0.0
 10
6284.4447618471
 20
4876.6223117874
 10
6284.7236767071
 20
4876.5791935742
 10
6284.9498472963
 20
4876.5697051793
  0
LINE
  5
178
330
1F
100
AcDbEntity
  8
0
  6
Continuous
 62
     7
370
    25
100
AcDbLine
 10
6284.9498472963
 20
4876.5697051793
 30
0.0
 11
6285.0086550762
 21
4876.5698085322
 31
0.0
  0
LWPOLYLINE
  5
179
330
1F
100
AcDbEntity
  8
0
  6
Continuous
 62
     7
370
    25
100
AcDbPolyline
 90
        3
 70
   128
 43
0.0
 10
6285.0086550762
 20
4876.5698085322
 10
6285.3769980578
 20
4876.6036854978
 10
6285.6523367168
 20
4876.6616892288
  0
LWPOLYLINE
  5
17A
330
1F
100
AcDbEntity
  8
0
  6
Continuous
 62
     7
370
    25
100
AcDbPolyline
 90
        3
 70
   128
 43
0.0
 10
6285.6523367168
 20
4876.6616892288
 10
6285.7584662777
 20
4876.6892949476
 10
6285.8382685202
 20
4876.7146058955
  0
LWPOLYLINE
  5
17B
330
1F
100
AcDbEntity
  8
0
  6
Continuous
 62
     7
370
    25
100
AcDbPolyline
 90
        3
 70
   128
 43
0.0
 10
6285.8382685202
 20
4876.7146058955
 10
6285.8906017277
 20
4876.7327752497
 10
6285.928495571
 20
4876.7468519892
  0
LWPOLYLINE
  5
17C
330
1F
100
AcDbEntity
  8
0
  6
Continuous
 62
     7
370
    25
100
AcDbPolyline
 90
        3
 70
   128
 43
0.0
 10
6285.928495571
 20
4876.7468519892
 10
6286.1050352283
 20
4876.8227238794
 10
6286.2364871075
 20
4876.8854998571
  0
ARC
  5
17D
330
1F
100
AcDbEntity
  8
0
  6
Continuous
 62
     7
370
    25
100
AcDbCircle
 10
6284.9488168432
 20
4879.1993417121
 30
0.0
 40
2.64801035489275
100
AcDbArc
 50
299.0962643318
 51
357.620395613
  0
LWPOLYLINE
  5
17E
330
1F
100
AcDbEntity
  8
0
  6
Continuous
 62
     7
370
    25
100
AcDbPolyline
 90
        3
 70
   128
 43
0.0
 10
6287.5945437481
 20
4879.0893963414
 10
6287.6103057181
 20
4879.2807779
 10
6287.6153176739
 20
4879.4242596227
  0
LINE
  5
17F
330
1F
100
AcDbEntity
  8
0
  6
Continuous
 62
     7
370
    25
100
AcDbLine
 10
6287.6153176739
 20
4879.4242596227
 30
0.0
 11
6287.6151109681
 21
4879.589262471
 31
0.0
  0
LINE
  5
180
330
1F
100
AcDbEntity
  8
0
  6
Continuous
 62
     7
370
    25
100
AcDbLine
 10
6447.0187553361
 20
4892.759116049
 30
0.0
 11
6448.0187553361
 21
4892.759116049
 31
0.0
  0
LINE
  5
181
330
1F
100
AcDbEntity
  8
0
  6
Continuous
 62
     7
370
    25
100
AcDbLine
 10
6100.0187553361
 20
4895.759116049
 30
0.0
 11
6100.0187553361
 21
4892.759116049
 31
0.0
  0
LINE
  5
182
330
1F
100
AcDbEntity
  8
0
  6
Continuous
 62
     7
370
    25
100
AcDbLine
 10
6447.0187553361
 20
4893.759116049
 30
0.0
 11
6447.0187553361
 21
4892.759116049
 31
0.0
  0
LINE
  5
183
330
1F
100
AcDbEntity
  8
0
  6
Continuous
 62
     7
370
    25
100
AcDbLine
 10
6100.0187553361
 20
4892.759116049
 30
0.0
 11
6101.0187553361
 21
4892.759116049
 31
0.0
  0
LINE
  5
184
330
1F
100
AcDbEntity
  8
0
  6
Continuous
 62
     7
370
    25
100
AcDbLine
 10
6099.0187553361
 20
4710.759116049
 30
0.0
 11
6099.5187553361
 21
4710.759116049
 31
0.0
  0
LINE
  5
185
330
1F
100
AcDbEntity
  8
0
  6
Continuous
 62
     7
370
    25
100
AcDbLine
 10
6099.0187553361
 20
4710.759116049
 30
0.0
 11
6099.0187553361
 21
4895.759116049
 31
0.0
  0
LINE
  5
186
330
1F
100
AcDbEntity
  8
0
  6
Continuous
 62
     7
370
    25
100
AcDbLine
 10
6099.0187553361
 20
4895.759116049
 30
0.0
 11
6099.5187553361
 21
4895.759116049
 31
0.0
  0
LINE
  5
187
330
1F
100
AcDbEntity
  8
0
  6
Continuous
 62
     7
370
    25
100
AcDbLine
 10
6449.0187553361
 20
4894.759116049
 30
0.0
 11
6449.0187553361
 21
4710.759116049
 31
0.0
  0
LINE
  5
188
330
1F
100
AcDbEntity
  8
0
  6
Continuous
 62
     7
370
    25
100
AcDbLine
 10
6449.0187553361
 20
4710.759116049
 30
0.0
 11
6448.5187553361
 21
4710.759116049
 31
0.0
  0
LWPOLYLINE
  5
189
330
1F
100
AcDbEntity
  8
0
  6
Continuous
 62
     7
370
    25
100
AcDbPolyline
 90
        3
 70
   128
 43
0.0
 10
6283.7972561504
 20
4882.6409625035
 10
6283.5592250114
 20
4882.7606935792
 10
6283.3715457012
 20
4882.8373846227
  0
LWPOLYLINE
  5
18A
330
1F
100
AcDbEntity
  8
0
  6
Continuous
 62
     7
370
    25
100
AcDbPolyline
 90
        3
 70
   128
 43
0.0
 10
6283.3715457012
 20
4882.8373846227
 10
6283.0065093366
 20
4882.9428556753
 10
6282.7124644838
 20
4882.9798048701
  0
LWPOLYLINE
  5
18B
330
1F
100
AcDbEntity
  8
0
  6
Continuous
 62
     7
370
    25
100
AcDbPolyline
 90
        3
 70
   128
 43
0.0
 10
6282.7124644838
 20
4882.9798048701
 10
6283.0441731644
 20
4883.0124159367
 10
6283.3713389955
 20
4882.9646636754
  0
LWPOLYLINE
  5
18C
330
1F
100
AcDbEntity
  8
0
  6
Continuous
 62
     7
370
    25
100
AcDbPolyline
 90
        3
 70
   128
 43
0.0
 10
6283.3713389955
 20
4882.9646636754
 10
6283.8748468335
 20
4882.8111348571
 10
6284.3079226543
 20
4882.6312990107
  0
LWPOLYLINE
  5
18D
330
1F
100
AcDbEntity
  8
0
  6
Continuous
 62
     7
370
    25
100
AcDbPolyline
 90
        3
 70
   128
 43
0.0
 10
6284.3079226543
 20
4882.6312990107
 10
6284.3831975255
 20
4882.7417644838
 10
6284.4352533835
 20
4882.8174891962
  0
LWPOLYLINE
  5
18E
330
1F
100
AcDbEntity
  8
0
  6
Continuous
 62
     7
370
    25
100
AcDbPolyline
 90
        3
 70
   128
 43
0.0
 10
6284.4352533835
 20
4882.8174891962
 10
6284.7216409367
 20
4883.0928534736
 10
6284.9398220684
 20
4883.1799476923
  0
ARC
  5
18F
330
1F
100
AcDbEntity
  8
0
  6
Continuous
 62
     7
370
    25
100
AcDbCircle
 10
6284.9753177002
 20
4882.3953156584
 30
0.0
 40
0.7854345094379745
100
AcDbArc
 50
31.7747674495
 51
92.5902131604
  0
LWPOLYLINE
  5
190
330
1F
100
AcDbEntity
  8
0
  6
Continuous
 62
     7
370
    25
100
AcDbPolyline
 90
        3
 70
   128
 43
0.0
 10
6285.643034959
 20
4882.8089109085
 10
6285.6905834018
 20
4882.7463099825
 10
6285.7276809551
 20
4882.6972381383
  0
LWPOLYLINE
  5
191
330
1F
100
AcDbEntity
  8
0
  6
Continuous
 62
     7
370
    25
100
AcDbPolyline
 90
        3
 70
   128
 43
0.0
 10
6285.7276809551
 20
4882.6972381383
 10
6285.786347269
 20
4882.7241531226
 10
6285.8291734681
 20
4882.7450905146
  0
LWPOLYLINE
  5
192
330
1F
100
AcDbEntity
  8
0
  6
Continuous
 62
     7
370
    25
100
AcDbPolyline
 90
        3
 70
   128
 43
0.0
 10
6285.8291734681
 20
4882.7450905146
 10
6285.8814121268
 20
4882.7679688833
 10
6285.9192971661
 20
4882.782555928
  0
LWPOLYLINE
  5
193
330
1F
100
AcDbEntity
  8
0
  6
Continuous
 62
     7
370
    25
100
AcDbPolyline
 90
        3
 70
   128
 43
0.0
 10
6285.9192971661
 20
4882.782555928
 10
6286.0918641046
 20
4882.8484230956
 10
6286.2272887025
 20
4882.88942279
  0
LWPOLYLINE
  5
194
330
1F
100
AcDbEntity
  8
0
  6
Continuous
 62
     7
370
    25
100
AcDbPolyline
 90
        3
 70
   128
 43
0.0
 10
6286.2272887025
 20
4882.88942279
 10
6286.7417531877
 20
4882.957850046
 10
6287.1632522442
 20
4882.9123154495
  0
LWPOLYLINE
  5
195
330
1F
100
AcDbEntity
  8
0
  6
Continuous
 62
     7
370
    25
100
AcDbPolyline
 90
        3
 70
   128
 43
0.0
 10
6287.1632522442
 20
4882.9123154495
 10
6286.6157953021
 20
4882.8329851641
 10
6286.2275987611
 20
4882.6981166376
  0
LWPOLYLINE
  5
196
330
1F
100
AcDbEntity
  8
0
  6
Continuous
 62
     7
370
    25
100
AcDbPolyline
 90
        3
 70
   128
 43
0.0
 10
6286.2275987611
 20
4882.6981166376
 10
6286.0532410432
 20
4882.6132651066
 10
6285.9196072247
 20
4882.5431390172
  0
LWPOLYLINE
  5
197
330
1F
100
AcDbEntity
  8
0
  6
Continuous
 62
     7
370
    25
100
AcDbPolyline
 90
        3
 70
   128
 43
0.0
 10
6285.9196072247
 20
4882.5431390172
 10
6285.8708064957
 20
4882.508465378
 10
6285.8294835267
 20
4882.4848480016
  0
LWPOLYLINE
  5
198
330
1F
100
AcDbEntity
  8
0
  6
Continuous
 62
     7
370
    25
100
AcDbPolyline
 90
        3
 70
   128
 43
0.0
 10
6285.8294835267
 20
4882.4848480016
 10
6285.7253523638
 20
4882.4130490278
 10
6285.6436550762
 20
4882.3567938024
  0
ARC
  5
199
330
1F
100
AcDbEntity
  8
0
  6
Continuous
 62
     7
370
    25
100
AcDbCircle
 10
6285.1859350291
 20
4882.884387856
 30
0.0
 40
0.6984719944140525
100
AcDbArc
 50
263.0369031454
 51
310.9436339504
  0
LWPOLYLINE
  5
19A
330
1F
100
AcDbEntity
  8
0
  6
Continuous
 62
     7
370
    25
100
AcDbPolyline
 90
       12
 70
   128
 43
0.0
 10
6285.1012592429
 20
4882.191067484
 10
6285.0908463661
 20
4882.1932563897
 10
6285.0816345121
 20
4882.1994780252
 10
6285.0737007415
 20
4882.2091566324
 10
6285.0671221147
 20
4882.221716453
 10
6285.0583385342
 20
4882.2531767016
 10
6285.0559002544
 20
4882.2892527054
 10
6285.060423759
 20
4882.3253383984
 10
6285.0725255316
 20
4882.356827715
 10
6285.092822056
 20
4882.3791145895
 10
6285.1062360012
 20
4882.3853677153
 10
6285.1219298158
 20
4882.387592956
  0
LINE
  5
19B
330
1F
100
AcDbEntity
  8
0
  6
Continuous
 62
     7
370
    25
100
AcDbLine
 10
6285.1219298158
 20
4882.387592956
 30
0.0
 11
6285.2444029603
 21
4882.3877996617
 31
0.0
  0
ARC
  5
19C
330
1F
100
AcDbEntity
  8
0
  6
Continuous
 62
     7
370
    25
100
AcDbCircle
 10
6285.2460382311
 20
4882.4609064942
 30
0.0
 40
0.0731251192637702
100
AcDbArc
 50
268.7186082642
 51
352.9489459374
  0
ARC
  5
19D
330
1F
100
AcDbEntity
  8
0
  6
Continuous
 62
     7
370
    25
100
AcDbCircle
 10
6285.2453002479
 20
4882.4417444612
 30
0.0
 40
0.0740142808934139
100
AcDbArc
 50
7.909998896
 51
90.8546526485
  0
LINE
  5
19E
330
1F
100
AcDbEntity
  8
0
  6
Continuous
 62
     7
370
    25
100
AcDbLine
 10
6285.2441962546
 20
4882.5157505081
 30
0.0
 11
6284.9408555971
 21
4882.5152337438
 31
0.0
  0
LINE
  5
19F
330
1F
100
AcDbEntity
  8
0
  6
Continuous
 62
     7
370
    25
100
AcDbLine
 10
6284.9408555971
 20
4882.5152337438
 30
0.0
 11
6284.7550271465
 21
4882.5148720087
 31
0.0
  0
ARC
  5
1A0
330
1F
100
AcDbEntity
  8
0
  6
Continuous
 62
     7
370
    25
100
AcDbCircle
 10
6284.7590754117
 20
4882.4346305157
 30
0.0
 40
0.0803435477185083
100
AcDbArc
 50
92.8881817389
 51
168.2817231368
  0
ARC
  5
1A1
330
1F
100
AcDbEntity
  8
0
  6
Continuous
 62
     7
370
    25
100
AcDbCircle
 10
6284.7493183074
 20
4882.4557461587
 30
0.0
 40
0.0690787506197067
100
AcDbArc
 50
183.9827114957
 51
274.9125292078
  0
LINE
  5
1A2
330
1F
100
AcDbEntity
  8
0
  6
Continuous
 62
     7
370
    25
100
AcDbLine
 10
6284.7552338523
 20
4882.3869211624
 30
0.0
 11
6284.8723326478
 21
4882.3871278681
 31
0.0
  0
LWPOLYLINE
  5
1A3
330
1F
100
AcDbEntity
  8
0
  6
Continuous
 62
     7
370
    25
100
AcDbPolyline
 90
       11
 70
   128
 43
0.0
 10
6284.8723326478
 20
4882.3871278681
 10
6284.8853803919
 20
4882.385009576
 10
6284.8966952596
 20
4882.3789697542
 10
6284.9141227327
 20
4882.3573646655
 10
6284.9246078
 20
4882.3267908897
 10
6284.9281431947
 20
4882.2917267146
 10
6284.9247216497
 20
4882.2566504278
 10
6284.914335898
 20
4882.226040317
 10
6284.8969786725
 20
4882.20437467
 10
6284.8856834863
 20
4882.1982954853
 10
6284.8726427064
 20
4882.1961317744
  0
LWPOLYLINE
  5
1A4
330
1F
100
AcDbEntity
  8
0
  6
Continuous
 62
     7
370
    25
100
AcDbPolyline
 90
        3
 70
   128
 43
0.0
 10
6284.8726427064
 20
4882.1961317744
 10
6284.639777213
 20
4882.236047967
 10
6284.4360802064
 20
4882.3123520706
  0
LWPOLYLINE
  5
1A5
330
1F
100
AcDbEntity
  8
0
  6
Continuous
 62
     7
370
    25
100
AcDbPolyline
 90
        3
 70
   128
 43
0.0
 10
6284.4360802064
 20
4882.3123520706
 10
6284.0779689666
 20
4882.4915928988
 10
6283.7972561504
 20
4882.6409625035
  0
LWPOLYLINE
  5
1A6
330
1F
100
AcDbEntity
  8
0
  6
Continuous
 62
     7
370
    25
100
AcDbPolyline
 90
        3
 70
   128
 43
0.0
 10
6286.2323529929
 20
4879.6082793981
 10
6286.057778859
 20
4879.6308375416
 10
6285.9240513978
 20
4879.65561501
  0
LWPOLYLINE
  5
1A7
330
1F
100
AcDbEntity
  8
0
  6
Continuous
 62
     7
370
    25
100
AcDbPolyline
 90
        3
 70
   128
 43
0.0
 10
6285.9240513978
 20
4879.65561501
 10
6285.8734081238
 20
4879.6656401519
 10
6285.8338243471
 20
4879.6768540237
  0
ARC
  5
1A8
330
1F
100
AcDbEntity
  8
0
  6
Continuous
 62
     7
370
    25
100
AcDbCircle
 10
6286.5853127742
 20
4881.6933029967
 30
0.0
 40
2.114687687094116
100
AcDbArc
 50
260.3918670469
 51
295.2374483231
  0
LWPOLYLINE
  5
1A9
330
1F
100
AcDbEntity
  8
0
  6
Continuous
 62
     7
370
    25
100
AcDbPolyline
 90
        3
 70
   128
 43
0.0
 10
6285.8338243471
 20
4879.6768540237
 10
6285.7362637276
 20
4879.7018045959
 10
6285.6631887676
 20
4879.7243963414
  0
LWPOLYLINE
  5
1AA
330
1F
100
AcDbEntity
  8
0
  6
Continuous
 62
     7
370
    25
100
AcDbPolyline
 90
        3
 70
   128
 43
0.0
 10
6285.6631887676
 20
4879.7243963414
 10
6285.6892950861
 20
4880.1139926275
 10
6285.7419436504
 20
4880.3838392939
  0
LWPOLYLINE
  5
1AB
330
1F
100
AcDbEntity
  8
0
  6
Continuous
 62
     7
370
    25
100
AcDbPolyline
 90
        3
 70
   128
 43
0.0
 10
6285.7419436504
 20
4880.3838392939
 10
6285.7926438761
 20
4880.3712376263
 10
6285.8327908184
 20
4880.3576910192
  0
LWPOLYLINE
  5
1AC
330
1F
100
AcDbEntity
  8
0
  6
Continuous
 62
     7
370
    25
100
AcDbPolyline
 90
        3
 70
   128
 43
0.0
 10
6285.8327908184
 20
4880.3576910192
 10
6285.8829420865
 20
4880.345560429
 10
6285.9230178692
 20
4880.3364003291
  0
LWPOLYLINE
  5
1AD
330
1F
100
AcDbEntity
  8
0
  6
Continuous
 62
     7
370
    25
100
AcDbPolyline
 90
        3
 70
   128
 43
0.0
 10
6285.9230178692
 20
4880.3364003291
 10
6286.0919566691
 20
4880.3100001313
 10
6286.2314228171
 20
4880.2997100621
  0
ARC
  5
1AE
330
1F
100
AcDbEntity
  8
0
  6
Continuous
 62
     7
370
    25
100
AcDbCircle
 10
6286.5367239645
 20
4882.3021778727
 30
0.0
 40
2.025607593513075
100
AcDbArc
 50
261.3313011463
 51
294.260815327
  0
LWPOLYLINE
  5
1AF
330
1F
100
AcDbEntity
  8
0
  6
Continuous
 62
     7
370
    25
100
AcDbPolyline
 90
        3
 70
   128
 43
0.0
 10
6287.3690277976
 20
4880.4554628291
 10
6287.4643695286
 20
4880.0383069411
 10
6287.4869534161
 20
4879.7804652705
  0
LWPOLYLINE
  5
1B0
330
1F
100
AcDbEntity
  8
0
  6
Continuous
 62
     7
370
    25
100
AcDbPolyline
 90
        3
 70
   128
 43
0.0
 10
6286.2292524069
 20
4881.6558546748
 10
6286.4751575857
 20
4881.6782745139
 10
6286.6862787741
 20
4881.7095981643
  0
LWPOLYLINE
  5
1B1
330
1F
100
AcDbEntity
  8
0
  6
Continuous
 62
     7
370
    25
100
AcDbPolyline
 90
        3
 70
   128
 43
0.0
 10
6286.6862787741
 20
4881.7095981643
 10
6286.9290838432
 20
4881.4051565028
 10
6287.0434662741
 20
4881.1997068069
  0
LWPOLYLINE
  5
1B2
330
1F
100
AcDbEntity
  8
0
  6
Continuous
 62
     7
370
    25
100
AcDbPolyline
 90
        3
 70
   128
 43
0.0
 10
6287.0434662741
 20
4881.1997068069
 10
6286.5797824876
 20
4881.0660952001
 10
6286.2301825827
 20
4881.0547027379
  0
LWPOLYLINE
  5
1B3
330
1F
100
AcDbEntity
  8
0
  6
Continuous
 62
     7
370
    25
100
AcDbPolyline
 90
        3
 70
   128
 43
0.0
 10
6286.2301825827
 20
4881.0547027379
 10
6286.0534446599
 20
4881.0716414754
 10
6285.9219843405
 20
4881.0915480341
  0
LWPOLYLINE
  5
1B4
330
1F
100
AcDbEntity
  8
0
  6
Continuous
 62
     7
370
    25
100
AcDbPolyline
 90
        3
 70
   128
 43
0.0
 10
6285.9219843405
 20
4881.0915480341
 10
6285.8819261858
 20
4881.097261989
 10
6285.8474669252
 20
4881.1021417028
  0
LWPOLYLINE
  5
1B5
330
1F
100
AcDbEntity
  8
0
  6
Continuous
 62
     7
370
    25
100
AcDbPolyline
 90
        3
 70
   128
 43
0.0
 10
6285.8474669252
 20
4881.1021417028
 10
6285.8846809282
 20
4881.3004952438
 10
6285.9214675762
 20
4881.4532830602
  0
LWPOLYLINE
  5
1B6
330
1F
100
AcDbEntity
  8
0
  6
Continuous
 62
     7
370
    25
100
AcDbPolyline
 90
        3
 70
   128
 43
0.0
 10
6285.9214675762
 20
4881.4532830602
 10
6285.9577562784
 20
4881.5644271829
 10
6285.9899905254
 20
4881.6555446162
  0
LWPOLYLINE
  5
1B7
330
1F
100
AcDbEntity
  8
0
  6
Continuous
 62
     7
370
    25
100
AcDbPolyline
 90
        3
 70
   128
 43
0.0
 10
6285.9899905254
 20
4881.6555446162
 10
6286.1256885041
 20
4881.651707331
 10
6286.2292524069
 20
4881.6558546748
  0
LWPOLYLINE
  5
1B8
330
1F
100
AcDbEntity
  8
0
  6
Continuous
 62
     7
370
    25
100
AcDbPolyline
 90
        3
 70
   128
 43
0.0
 10
6287.5046267559
 20
4885.7732777705
 10
6287.3203274251
 20
4884.7898533763
 10
6286.9224400697
 20
4883.9805706578
  0
LWPOLYLINE
  5
1B9
330
1F
100
AcDbEntity
  8
0
  6
Continuous
 62
     7
370
    25
100
AcDbPolyline
 90
        3
 70
   128
 43
0.0
 10
6285.9164032859
 20
4884.7821754755
 10
6285.8634136074
 20
4884.8057695818
 10
6285.8258661765
 20
4884.8243951207
  0
LINE
  5
1BA
330
1F
100
AcDbEntity
  8
0
  6
Continuous
 62
     7
370
    25
100
AcDbLine
 10
6285.7779104473
 20
4884.8402597854
 30
0.0
 11
6285.8257628236
 21
4884.8829961949
 31
0.0
  0
LWPOLYLINE
  5
1BB
330
1F
100
AcDbEntity
  8
0
  6
Continuous
 62
     7
370
    25
100
AcDbPolyline
 90
        3
 70
   128
 43
0.0
 10
6286.9224400697
 20
4883.9805706578
 10
6286.8689782952
 20
4884.0694254207
 10
6286.8156765606
 20
4884.1398374222
  0
LWPOLYLINE
  5
1BC
330
1F
100
AcDbEntity
  8
0
  6
Continuous
 62
     7
370
    25
100
AcDbPolyline
 90
        3
 70
   128
 43
0.0
 10
6286.8156765606
 20
4884.1398374222
 10
6287.1979093337
 20
4884.9311526205
 10
6287.3192117168
 20
4885.5765455927
  0
LWPOLYLINE
  5
1BD
330
1F
100
AcDbEntity
  8
0
  6
Continuous
 62
     7
370
    25
100
AcDbPolyline
 90
        3
 70
   128
 43
0.0
 10
6287.3192117168
 20
4885.5765455927
 10
6286.6784585772
 20
4885.3293385383
 10
6286.2240847637
 20
4885.0163730667
  0
LWPOLYLINE
  5
1BE
330
1F
100
AcDbEntity
  8
0
  6
Continuous
 62
     7
370
    25
100
AcDbPolyline
 90
        3
 70
   128
 43
0.0
 10
6286.2240847637
 20
4885.0163730667
 10
6286.0667892709
 20
4884.8822045385
 10
6285.9428616192
 20
4884.7660524287
  0
LINE
  5
1BF
330
1F
100
AcDbEntity
  8
0
  6
Continuous
 62
     7
370
    25
100
AcDbLine
 10
6285.9428616192
 20
4884.7660524287
 30
0.0
 11
6285.9164032859
 21
4884.7821754755
 31
0.0
  0
LINE
  5
1C0
330
1F
100
AcDbEntity
  8
0
  6
Continuous
 62
     7
370
    25
100
AcDbLine
 10
6285.8258661765
 20
4884.8243951207
 30
0.0
 11
6285.7779104473
 21
4884.8402597854
 31
0.0
  0
LWPOLYLINE
  5
1C1
330
1F
100
AcDbEntity
  8
0
  6
Continuous
 62
     7
370
    25
100
AcDbPolyline
 90
        3
 70
   128
 43
0.0
 10
6285.8257628236
 20
4884.8829961949
 10
6285.8781141815
 20
4884.9308537968
 10
6285.9160932273
 20
4884.9682106318
  0
LWPOLYLINE
  5
1C2
330
1F
100
AcDbEntity
  8
0
  6
Continuous
 62
     7
370
    25
100
AcDbPolyline
 90
        3
 70
   128
 43
0.0
 10
6285.9160932273
 20
4884.9682106318
 10
6286.0863045936
 20
4885.110506611
 10
6286.2237747051
 20
4885.2184279169
  0
LWPOLYLINE
  5
1C3
330
1F
100
AcDbEntity
  8
0
  6
Continuous
 62
     7
370
    25
100
AcDbPolyline
 90
        3
 70
   128
 43
0.0
 10
6286.2237747051
 20
4885.2184279169
 10
6286.8913928692
 20
4885.6136038355
 10
6287.5046267559
 20
4885.7732777705
  0
LWPOLYLINE
  5
1C4
330
1F
100
AcDbEntity
  8
0
  6
Continuous
 62
     7
370
    25
100
AcDbPolyline
 90
        3
 70
   128
 43
0.0
 10
6283.3708222312
 20
4883.3531154169
 10
6282.9490497014
 20
4883.1613927972
 10
6282.5751085267
 20
4882.9749472854
  0
LWPOLYLINE
  5
1C5
330
1F
100
AcDbEntity
  8
0
  6
Continuous
 62
     7
370
    25
100
AcDbPolyline
 90
        3
 70
   128
 43
0.0
 10
6286.2265652325
 20
4883.4532126663
 10
6286.0575681846
 20
4883.5023654763
 10
6285.9182636374
 20
4883.5378586624
  0
LWPOLYLINE
  5
1C6
330
1F
100
AcDbEntity
  8
0
  6
Continuous
 62
     7
370
    25
100
AcDbPolyline
 90
        3
 70
   128
 43
0.0
 10
6285.9182636374
 20
4883.5378586624
 10
6285.8692892756
 20
4883.546752135
 10
6285.8278298809
 20
4883.5536716507
  0
LWPOLYLINE
  5
1C7
330
1F
100
AcDbEntity
  8
0
  6
Continuous
 62
     7
370
    25
100
AcDbPolyline
 90
        3
 70
   128
 43
0.0
 10
6285.8278298809
 20
4883.5536716507
 10
6285.7254167105
 20
4883.5734481965
 10
6285.6416913718
 20
4883.5851942744
  0
LWPOLYLINE
  5
1C8
330
1F
100
AcDbEntity
  8
0
  6
Continuous
 62
     7
370
    25
100
AcDbPolyline
 90
        3
 70
   128
 43
0.0
 10
6285.6416913718
 20
4883.5851942744
 10
6285.2910212472
 20
4883.6232695887
 10
6284.9978030254
 20
4883.6321681513
  0
LINE
  5
1C9
330
1F
100
AcDbEntity
  8
0
  6
Continuous
 62
     7
370
    25
100
AcDbLine
 10
6284.9978030254
 20
4883.6321681513
 30
0.0
 11
6284.9392019512
 21
4883.6320647985
 31
0.0
  0
LWPOLYLINE
  5
1CA
330
1F
100
AcDbEntity
  8
0
  6
Continuous
 62
     7
370
    25
100
AcDbPolyline
 90
        3
 70
   128
 43
0.0
 10
6284.9392019512
 20
4883.6320647985
 10
6284.6447936733
 20
4883.625516017
 10
6284.4340131491
 20
4883.6098439326
  0
LWPOLYLINE
  5
1CB
330
1F
100
AcDbEntity
  8
0
  6
Continuous
 62
     7
370
    25
100
AcDbPolyline
 90
        3
 70
   128
 43
0.0
 10
6284.4340131491
 20
4883.6098439326
 10
6283.8110952941
 20
4883.5013980174
 10
6283.3708222312
 20
4883.3531154169
  0
LINE
  5
1CC
330
1F
100
AcDbEntity
  8
0
  6
Continuous
 62
     7
370
    25
100
AcDbLine
 10
6282.6550002911
 20
4883.1173158564
 30
0.0
 11
6282.6517963523
 21
4883.1154038284
 31
0.0
  0
LWPOLYLINE
  5
1CD
330
1F
100
AcDbEntity
  8
0
  6
Continuous
 62
     7
370
    25
100
AcDbPolyline
 90
        3
 70
   128
 43
0.0
 10
6284.4334963848
 20
4883.9396429235
 10
6284.6951077859
 20
4883.8294150726
 10
6284.9389952455
 20
4883.7862672724
  0
LINE
  5
1CE
330
1F
100
AcDbEntity
  8
0
  6
Continuous
 62
     7
370
    25
100
AcDbLine
 10
6284.9389952455
 20
4883.7862672724
 30
0.0
 11
6285.0029706687
 21
4883.7809962763
 31
0.0
  0
LWPOLYLINE
  5
1CF
330
1F
100
AcDbEntity
  8
0
  6
Continuous
 62
     7
370
    25
100
AcDbPolyline
 90
        3
 70
   128
 43
0.0
 10
6285.0029706687
 20
4883.7809962763
 10
6285.4292487616
 20
4883.8351936057
 10
6285.6411746075
 20
4883.9360255732
  0
LWPOLYLINE
  5
1D0
330
1F
100
AcDbEntity
  8
0
  6
Continuous
 62
     7
370
    25
100
AcDbPolyline
 90
        3
 70
   128
 43
0.0
 10
6285.6411746075
 20
4883.9360255732
 10
6285.7449665613
 20
4884.0184910653
 10
6285.827003058
 20
4884.0906414586
  0
LINE
  5
1D1
330
1F
100
AcDbEntity
  8
0
  6
Continuous
 62
     7
370
    25
100
AcDbLine
 10
6285.827003058
 20
4884.0906414586
 30
0.0
 11
6285.8532546856
 21
4884.1119321487
 31
0.0
  0
LWPOLYLINE
  5
1D2
330
1F
100
AcDbEntity
  8
0
  6
Continuous
 62
     7
370
    25
100
AcDbPolyline
 90
        3
 70
   128
 43
0.0
 10
6285.8532546856
 20
4884.1119321487
 10
6285.8929402012
 20
4884.09907281
 10
6285.9174368145
 20
4884.0854738154
  0
LWPOLYLINE
  5
1D3
330
1F
100
AcDbEntity
  8
0
  6
Continuous
 62
     7
370
    25
100
AcDbPolyline
 90
        3
 70
   128
 43
0.0
 10
6285.9174368145
 20
4884.0854738154
 10
6286.0958734681
 20
4884.0003816987
 10
6286.2258417624
 20
4883.9368523961
  0
LWPOLYLINE
  5
1D4
330
1F
100
AcDbEntity
  8
0
  6
Continuous
 62
     7
370
    25
100
AcDbPolyline
 90
        3
 70
   128
 43
0.0
 10
6286.2258417624
 20
4883.9368523961
 10
6286.8931581295
 20
4883.5185502075
 10
6287.2982310853
 20
4883.0753029169
  0
ARC
  5
1D5
330
1F
100
AcDbEntity
  8
0
  6
Continuous
 62
     7
370
    25
100
AcDbCircle
 10
6287.0934110001
 20
4882.9663925882
 30
0.0
 40
0.2319757035299587
100
AcDbArc
 50
335.8935750004
 51
28.0012120042
  0
LWPOLYLINE
  5
1D6
330
1F
100
AcDbEntity
  8
0
  6
Continuous
 62
     7
370
    25
100
AcDbPolyline
 90
        3
 70
   128
 43
0.0
 10
6287.3051557273
 20
4882.8716460973
 10
6286.8058628605
 20
4883.2197707648
 10
6286.2265652325
 20
4883.4532126663
  0
LWPOLYLINE
  5
1D7
330
1F
100
AcDbEntity
  8
0
  6
Continuous
 62
     7
370
    25
100
AcDbPolyline
 90
        3
 70
   128
 43
0.0
 10
6282.5751085267
 20
4882.9749472854
 10
6282.6021784841
 20
4883.0443629521
 10
6282.6550002911
 20
4883.1173158564
  0
LWPOLYLINE
  5
1D8
330
1F
100
AcDbEntity
  8
0
  6
Continuous
 62
     7
370
    25
100
AcDbPolyline
 90
        3
 70
   128
 43
0.0
 10
6282.6517963523
 20
4883.1154038284
 10
6283.0599434754
 20
4883.4666343934
 10
6283.370202114
 20
4883.7040500686
  0
LWPOLYLINE
  5
1D9
330
1F
100
AcDbEntity
  8
0
  6
Continuous
 62
     7
370
    25
100
AcDbPolyline
 90
        3
 70
   128
 43
0.0
 10
6283.370202114
 20
4883.7040500686
 10
6283.7880866578
 20
4883.9794433311
 10
6284.1305691387
 20
4884.1680010778
  0
LWPOLYLINE
  5
1DA
330
1F
100
AcDbEntity
  8
0
  6
Continuous
 62
     7
370
    25
100
AcDbPolyline
 90
        3
 70
   128
 43
0.0
 10
6284.1305691387
 20
4884.1680010778
 10
6284.2805739981
 20
4884.0361095934
 10
6284.4334963848
 20
4883.9396429235
  0
ARC
  5
1DB
330
1F
100
AcDbEntity
  8
0
  6
Continuous
 62
     7
370
    25
100
AcDbCircle
 10
6285.6418929856
 20
4883.3192402027
 30
0.0
 40
0.1755720191355575
100
AcDbArc
 50
358.3390946916
 51
90.0320662535
  0
ARC
  5
1DC
330
1F
100
AcDbEntity
  8
0
  6
Continuous
 62
     7
370
    25
100
AcDbCircle
 10
6285.6356784944
 20
4883.3148731497
 30
0.0
 40
0.1817141805600841
100
AcDbArc
 50
272.1245052655
 51
359.7724224804
  0
LINE
  5
1DD
330
1F
100
AcDbEntity
  8
0
  6
Continuous
 62
     7
370
    25
100
AcDbLine
 10
6285.6424148418
 20
4883.133283874
 30
0.0
 11
6285.6367304343
 21
4883.1331805211
 31
0.0
  0
ARC
  5
1DE
330
1F
100
AcDbEntity
  8
0
  6
Continuous
 62
     7
370
    25
100
AcDbCircle
 10
6285.6394159978
 20
4883.3118645987
 30
0.0
 40
0.1787042579875658
100
AcDbArc
 50
179.4324893835
 51
269.1389279077
  0
ARC
  5
1DF
330
1F
100
AcDbEntity
  8
0
  6
Continuous
 62
     7
370
    25
100
AcDbCircle
 10
6285.6386849765
 20
4883.3167359719
 30
0.0
 40
0.177991491791705
100
AcDbArc
 50
90.8288163591
 51
180.9983803911
  0
LINE
  5
1E0
330
1F
100
AcDbEntity
  8
0
  6
Continuous
 62
     7
370
    25
100
AcDbLine
 10
6285.6361103171
 20
4883.4947088414
 30
0.0
 11
6285.6417947247
 21
4883.4948121943
 31
0.0
  0
ARC
  5
1E1
330
1F
100
AcDbEntity
  8
0
  6
Continuous
 62
     7
370
    25
100
AcDbCircle
 10
6284.434372181
 20
4883.3143985757
 30
0.0
 40
0.1809347767452086
100
AcDbArc
 50
180.8146897128
 51
359.3162346048
  0
ARC
  5
1E2
330
1F
100
AcDbEntity
  8
0
  6
Continuous
 62
     7
370
    25
100
AcDbCircle
 10
6284.4350231605
 20
4883.3059690405
 30
0.0
 40
0.1816619057689605
100
AcDbArc
 50
90.2533617305
 51
178.1524237869
  0
ARC
  5
1E3
330
1F
100
AcDbEntity
  8
0
  6
Continuous
 62
     7
370
    25
100
AcDbCircle
 10
6284.4346471249
 20
4883.3069039532
 30
0.0
 40
0.1807257221162231
100
AcDbArc
 50
1.6917384854
 51
90.1354582647
  0
LWPOLYLINE
  5
1E4
330
1F
100
AcDbEntity
  8
0
  6
Continuous
 62
     7
370
    25
100
AcDbPolyline
 90
        3
 70
   128
 43
0.0
 10
6285.3860997377
 20
4876.6931084996
 10
6285.1975223722
 20
4876.6610227301
 10
6285.0032807273
 20
4876.6495969436
  0
LWPOLYLINE
  5
1E5
330
1F
100
AcDbEntity
  8
0
  6
Continuous
 62
     7
370
    25
100
AcDbPolyline
 90
        3
 70
   128
 43
0.0
 10
6285.9199172833
 20
4882.3887298375
 10
6285.8692921596
 20
4882.3254381771
 10
6285.8297935853
 20
4882.271992777
  0
LWPOLYLINE
  5
1E6
330
1F
100
AcDbEntity
  8
0
  6
Continuous
 62
     7
370
    25
100
AcDbPolyline
 90
        3
 70
   128
 43
0.0
 10
6285.8297935853
 20
4882.271992777
 10
6285.7197148272
 20
4882.0901243981
 10
6285.6443785463
 20
4881.9260190628
  0
LWPOLYLINE
  5
1E7
330
1F
100
AcDbEntity
  8
0
  6
Continuous
 62
     7
370
    25
100
AcDbPolyline
 90
        3
 70
   128
 43
0.0
 10
6285.0032807273
 20
4876.6495969436
 10
6284.9617812812
 20
4877.8592151178
 10
6284.9520177064
 20
4878.8033156123
  0
LINE
  5
1E8
330
1F
100
AcDbEntity
  8
0
  6
Continuous
 62
     7
370
    25
100
AcDbLine
 10
6284.9520177064
 20
4878.8033156123
 30
0.0
 11
6284.9466433575
 21
4878.7659535517
 31
0.0
  0
LWPOLYLINE
  5
1E9
330
1F
100
AcDbEntity
  8
0
  6
Continuous
 62
     7
370
    25
100
AcDbPolyline
 90
        3
 70
   128
 43
0.0
 10
6284.9466433575
 20
4878.7659535517
 10
6284.8816307875
 20
4877.6427952115
 10
6284.9128469708
 20
4876.655022969
  0
LWPOLYLINE
  5
1EA
330
1F
100
AcDbEntity
  8
0
  6
Continuous
 62
     7
370
    25
100
AcDbPolyline
 90
        3
 70
   128
 43
0.0
 10
6284.9128469708
 20
4876.655022969
 10
6284.7130879299
 20
4876.6686755087
 10
6284.5402598939
 20
4876.6967258499
  0
LWPOLYLINE
  5
1EB
330
1F
100
AcDbEntity
  8
0
  6
Continuous
 62
     7
370
    25
100
AcDbPolyline
 90
        3
 70
   128
 43
0.0
 10
6284.5402598939
 20
4876.6967258499
 10
6284.5532166985
 20
4879.3949644765
 10
6284.4381472637
 20
4880.8925937698
  0
ARC
  5
1EC
330
1F
100
AcDbEntity
  8
0
  6
Continuous
 62
     7
370
    25
100
AcDbCircle
 10
6282.0433611003
 20
4880.9786930211
 30
0.0
 40
2.396333417824513
100
AcDbArc
 50
357.9409435732
 51
38.8540510633
  0
ARC
  5
1ED
330
1F
100
AcDbEntity
  8
0
  6
Continuous
 62
     7
370
    25
100
AcDbCircle
 10
6283.4687636967
 20
4881.0444615915
 30
0.0
 40
1.50358887605095
100
AcDbArc
 50
49.94849985
 51
72.9550939822
  0
LWPOLYLINE
  5
1EE
330
1F
100
AcDbEntity
  8
0
  6
Continuous
 62
     7
370
    25
100
AcDbPolyline
 90
        3
 70
   128
 43
0.0
 10
6284.4362869122
 20
4882.1954083043
 10
6284.7239411978
 20
4882.0303581849
 10
6284.94168242
 20
4881.9620375361
  0
LINE
  5
1EF
330
1F
100
AcDbEntity
  8
0
  6
Continuous
 62
     7
370
    25
100
AcDbLine
 10
6284.94168242
 20
4881.9620375361
 30
0.0
 11
6284.9791995098
 21
4881.9570249222
 31
0.0
  0
ARC
  5
1F0
330
1F
100
AcDbEntity
  8
0
  6
Continuous
 62
     7
370
    25
100
AcDbCircle
 10
6284.820097121
 20
4883.1992840213
 30
0.0
 40
1.252406179893631
100
AcDbArc
 50
277.2984266618
 51
311.1281656326
  0
LWPOLYLINE
  5
1F1
330
1F
100
AcDbEntity
  8
0
  6
Continuous
 62
     7
370
    25
100
AcDbPolyline
 90
        3
 70
   128
 43
0.0
 10
6285.643861782
 20
4882.2559214065
 10
6285.7498540108
 20
4882.3264087812
 10
6285.8296902325
 20
4882.3783428746
  0
LWPOLYLINE
  5
1F2
330
1F
100
AcDbEntity
  8
0
  6
Continuous
 62
     7
370
    25
100
AcDbPolyline
 90
        3
 70
   128
 43
0.0
 10
6285.8296902325
 20
4882.3783428746
 10
6285.8819288911
 20
4882.4101019366
 10
6285.9198139304
 20
4882.4319313349
  0
LWPOLYLINE
  5
1F3
330
1F
100
AcDbEntity
  8
0
  6
Continuous
 62
     7
370
    25
100
AcDbPolyline
 90
        3
 70
   128
 43
0.0
 10
6285.9198139304
 20
4882.4319313349
 10
6285.9633136264
 20
4882.4517915486
 10
6285.9940212872
 20
4882.4636606643
  0
LWPOLYLINE
  5
1F4
330
1F
100
AcDbEntity
  8
0
  6
Continuous
 62
     7
370
    25
100
AcDbPolyline
 90
        3
 70
   128
 43
0.0
 10
6285.9940212872
 20
4882.4636606643
 10
6285.954283265
 20
4882.4237086802
 10
6285.9199172833
 20
4882.3887298375
  0
ARC
  5
1F5
330
1F
100
AcDbEntity
  8
0
  6
Continuous
 62
     7
370
    25
100
AcDbCircle
 10
6298.0409410834
 20
4878.6913373974
 30
0.0
 40
12.81163253508188
100
AcDbArc
 50
165.3756823683
 51
188.9730509266
  0
LWPOLYLINE
  5
1F6
330
1F
100
AcDbEntity
  8
0
  6
Continuous
 62
     7
370
    25
100
AcDbPolyline
 90
        3
 70
   128
 43
0.0
 10
6285.6394176088
 20
4885.1379677119
 10
6285.7430903811
 20
4885.208714193
 10
6285.8252460593
 20
4885.260750915
  0
LWPOLYLINE
  5
1F7
330
1F
100
AcDbEntity
  8
0
  6
Continuous
 62
     7
370
    25
100
AcDbPolyline
 90
        3
 70
   128
 43
0.0
 10
6285.6398310202
 20
4884.8931764521
 10
6285.513423462
 20
4884.9310748925
 10
6285.4105943666
 20
4884.956996846
  0
LWPOLYLINE
  5
1F8
330
1F
100
AcDbEntity
  8
0
  6
Continuous
 62
     7
370
    25
100
AcDbPolyline
 90
        3
 70
   128
 43
0.0
 10
6285.4105943666
 20
4884.956996846
 10
6285.5388301163
 20
4885.0602000688
 10
6285.6394176088
 20
4885.1379677119
  0
LWPOLYLINE
  5
1F9
330
1F
100
AcDbEntity
  8
0
  6
Continuous
 62
     7
370
    25
100
AcDbPolyline
 90
        3
 70
   128
 43
0.0
 10
6285.8252460593
 20
4885.260750915
 10
6285.8775456515
 20
4885.2905960804
 10
6285.9154731101
 20
4885.3139776403
  0
LWPOLYLINE
  5
1FA
330
1F
100
AcDbEntity
  8
0
  6
Continuous
 62
     7
370
    25
100
AcDbPolyline
 90
        3
 70
   128
 43
0.0
 10
6285.9154731101
 20
4885.3139776403
 10
6286.0897452617
 20
4885.403419745
 10
6286.2234646465
 20
4885.4635292353
  0
LWPOLYLINE
  5
1FB
330
1F
100
AcDbEntity
  8
0
  6
Continuous
 62
     7
370
    25
100
AcDbPolyline
 90
        3
 70
   128
 43
0.0
 10
6286.2234646465
 20
4885.4635292353
 10
6286.4726985747
 20
4885.552677646
 10
6286.6646780254
 20
4885.6021771031
  0
LWPOLYLINE
  5
1FC
330
1F
100
AcDbEntity
  8
0
  6
Continuous
 62
     7
370
    25
100
AcDbPolyline
 90
        3
 70
   128
 43
0.0
 10
6286.6646780254
 20
4885.6021771031
 10
6286.4077307259
 20
4885.4577260398
 10
6286.2235679994
 20
4885.3301523636
  0
LWPOLYLINE
  5
1FD
330
1F
100
AcDbEntity
  8
0
  6
Continuous
 62
     7
370
    25
100
AcDbPolyline
 90
        3
 70
   128
 43
0.0
 10
6286.2235679994
 20
4885.3301523636
 10
6286.0454266604
 20
4885.1941255475
 10
6285.9157831687
 20
4885.0799867548
  0
LWPOLYLINE
  5
1FE
330
1F
100
AcDbEntity
  8
0
  6
Continuous
 62
     7
370
    25
100
AcDbPolyline
 90
        3
 70
   128
 43
0.0
 10
6285.9157831687
 20
4885.0799867548
 10
6285.8651916603
 20
4885.029315468
 10
6285.8256594708
 20
4884.9891912633
  0
LWPOLYLINE
  5
1FF
330
1F
100
AcDbEntity
  8
0
  6
Continuous
 62
     7
370
    25
100
AcDbPolyline
 90
        3
 70
   128
 43
0.0
 10
6285.8256594708
 20
4884.9891912633
 10
6285.7628617146
 20
4884.9208353125
 10
6285.7138316713
 20
4884.8668214716
  0
LWPOLYLINE
  5
200
330
1F
100
AcDbEntity
  8
0
  6
Continuous
 62
     7
370
    25
100
AcDbPolyline
 90
        3
 70
   128
 43
0.0
 10
6285.7138316713
 20
4884.8668214716
 10
6285.6742401489
 20
4884.8815390055
 10
6285.6398310202
 20
4884.8931764521
  0
LWPOLYLINE
  5
201
330
1F
100
AcDbEntity
  8
0
  6
Continuous
 62
     7
370
    25
100
AcDbPolyline
 90
        3
 70
   128
 43
0.0
 10
6283.3674115866
 20
4885.5332407425
 10
6283.9254666126
 20
4885.2563810004
 10
6284.410448696
 20
4884.9445945022
  0
LWPOLYLINE
  5
202
330
1F
100
AcDbEntity
  8
0
  6
Continuous
 62
     7
370
    25
100
AcDbPolyline
 90
        3
 70
   128
 43
0.0
 10
6284.410448696
 20
4884.9445945022
 10
6284.2078988434
 20
4884.8985595356
 10
6284.0655601869
 20
4884.8484246617
  0
LWPOLYLINE
  5
203
330
1F
100
AcDbEntity
  8
0
  6
Continuous
 62
     7
370
    25
100
AcDbPolyline
 90
        3
 70
   128
 43
0.0
 10
6284.0655601869
 20
4884.8484246617
 10
6283.7097551613
 20
4885.2172027903
 10
6283.3676182924
 20
4885.4641493525
  0
LWPOLYLINE
  5
204
330
1F
100
AcDbEntity
  8
0
  6
Continuous
 62
     7
370
    25
100
AcDbPolyline
 90
        3
 70
   128
 43
0.0
 10
6283.3676182924
 20
4885.4641493525
 10
6283.1441528627
 20
4885.5839659944
 10
6282.9583409486
 20
4885.6605714716
  0
LWPOLYLINE
  5
205
330
1F
100
AcDbEntity
  8
0
  6
Continuous
 62
     7
370
    25
100
AcDbPolyline
 90
        3
 70
   128
 43
0.0
 10
6282.9583409486
 20
4885.6605714716
 10
6283.1680244706
 20
4885.6088196794
 10
6283.3674115866
 20
4885.5332407425
  0
LWPOLYLINE
  5
206
330
1F
100
AcDbEntity
  8
0
  6
Continuous
 62
     7
370
    25
100
AcDbPolyline
 90
        3
 70
   128
 43
0.0
 10
6282.9391173158
 20
4883.942691833
 10
6282.52282899
 20
4884.9831751179
 10
6282.4527387351
 20
4885.7499200231
  0
LWPOLYLINE
  5
207
330
1F
100
AcDbEntity
  8
0
  6
Continuous
 62
     7
370
    25
100
AcDbPolyline
 90
        3
 70
   128
 43
0.0
 10
6282.4527387351
 20
4885.7499200231
 10
6282.974886588
 20
4885.6012800565
 10
6283.3678249981
 20
4885.3896319371
  0
LWPOLYLINE
  5
208
330
1F
100
AcDbEntity
  8
0
  6
Continuous
 62
     7
370
    25
100
AcDbPolyline
 90
        3
 70
   128
 43
0.0
 10
6283.3678249981
 20
4885.3896319371
 10
6283.7368080597
 20
4885.1010981434
 10
6284.0124368145
 20
4884.8216562698
  0
LWPOLYLINE
  5
209
330
1F
100
AcDbEntity
  8
0
  6
Continuous
 62
     7
370
    25
100
AcDbPolyline
 90
        3
 70
   128
 43
0.0
 10
6284.0124368145
 20
4884.8216562698
 10
6283.9118778573
 20
4884.7786710825
 10
6283.8369436504
 20
4884.7417128291
  0
LWPOLYLINE
  5
20A
330
1F
100
AcDbEntity
  8
0
  6
Continuous
 62
     7
370
    25
100
AcDbPolyline
 90
        3
 70
   128
 43
0.0
 10
6283.8369436504
 20
4884.7417128291
 10
6283.5765469383
 20
4884.9910391298
 10
6283.3681350567
 20
4885.1663380732
  0
LWPOLYLINE
  5
20B
330
1F
100
AcDbEntity
  8
0
  6
Continuous
 62
     7
370
    25
100
AcDbPolyline
 90
        3
 70
   128
 43
0.0
 10
6283.3681350567
 20
4885.1663380732
 10
6282.9553862473
 20
4885.4354590239
 10
6282.5914382793
 20
4885.6012986038
  0
LINE
  5
20C
330
1F
100
AcDbEntity
  8
0
  6
Continuous
 62
     7
370
    25
100
AcDbLine
 10
6283.0034027976
 20
4884.0331772659
 30
0.0
 11
6282.9391173158
 21
4883.942691833
 31
0.0
  0
LWPOLYLINE
  5
20D
330
1F
100
AcDbEntity
  8
0
  6
Continuous
 62
     7
370
    25
100
AcDbPolyline
 90
        3
 70
   128
 43
0.0
 10
6282.5914382793
 20
4885.6012986038
 10
6282.7220381208
 20
4884.7044681807
 10
6283.0034027976
 20
4884.0331772659
  0
LWPOLYLINE
  5
20E
330
1F
100
AcDbEntity
  8
0
  6
Continuous
 62
     7
370
    25
100
AcDbPolyline
 90
        3
 70
   128
 43
0.0
 10
6282.7222830059
 20
4883.2776161494
 10
6283.0377521568
 20
4883.9532550381
 10
6283.3693752911
 20
4884.3476283564
  0
LWPOLYLINE
  5
20F
330
1F
100
AcDbEntity
  8
0
  6
Continuous
 62
     7
370
    25
100
AcDbPolyline
 90
        3
 70
   128
 43
0.0
 10
6283.3693752911
 20
4884.3476283564
 10
6283.9254758135
 20
4884.7116215813
 10
6284.4321527976
 20
4884.8649094436
  0
LWPOLYLINE
  5
210
330
1F
100
AcDbEntity
  8
0
  6
Continuous
 62
     7
370
    25
100
AcDbPolyline
 90
        3
 70
   128
 43
0.0
 10
6284.4321527976
 20
4884.8649094436
 10
6284.705347313
 20
4884.9049384744
 10
6284.9267996075
 20
4884.9190146682
  0
LINE
  5
211
330
1F
100
AcDbEntity
  8
0
  6
Continuous
 62
     7
370
    25
100
AcDbLine
 10
6284.9267996075
 20
4884.9190146682
 30
0.0
 11
6284.9373415997
 21
4884.9190146682
 31
0.0
  0
LWPOLYLINE
  5
212
330
1F
100
AcDbEntity
  8
0
  6
Continuous
 62
     7
370
    25
100
AcDbPolyline
 90
        3
 70
   128
 43
0.0
 10
6284.9373415997
 20
4884.9190146682
 10
6285.336844309
 20
4884.8941337344
 10
6285.6399343731
 20
4884.8189690953
  0
LWPOLYLINE
  5
213
330
1F
100
AcDbEntity
  8
0
  6
Continuous
 62
     7
370
    25
100
AcDbPolyline
 90
        3
 70
   128
 43
0.0
 10
6285.6399343731
 20
4884.8189690953
 10
6285.7461248675
 20
4884.7824932864
 10
6285.8259695293
 20
4884.7499810582
  0
LWPOLYLINE
  5
214
330
1F
100
AcDbEntity
  8
0
  6
Continuous
 62
     7
370
    25
100
AcDbPolyline
 90
        3
 70
   128
 43
0.0
 10
6285.8259695293
 20
4884.7499810582
 10
6285.8784427543
 20
4884.7281931962
 10
6285.9165066387
 20
4884.7076580602
  0
LWPOLYLINE
  5
215
330
1F
100
AcDbEntity
  8
0
  6
Continuous
 62
     7
370
    25
100
AcDbPolyline
 90
        3
 70
   128
 43
0.0
 10
6285.9165066387
 20
4884.7076580602
 10
6286.0932380792
 20
4884.6185575722
 10
6286.2249115866
 20
4884.538004333
  0
LWPOLYLINE
  5
216
330
1F
100
AcDbEntity
  8
0
  6
Continuous
 62
     7
370
    25
100
AcDbPolyline
 90
        3
 70
   128
 43
0.0
 10
6287.1040310528
 20
4883.4225168655
 10
6286.6933286103
 20
4883.7698516658
 10
6286.2256350567
 20
4884.0381382034
  0
LWPOLYLINE
  5
217
330
1F
100
AcDbEntity
  8
0
  6
Continuous
 62
     7
370
    25
100
AcDbPolyline
 90
        3
 70
   128
 43
0.0
 10
6285.6409679017
 20
4884.0373113805
 10
6285.3176655496
 20
4883.89529877
 10
6285.0028673158
 20
4883.8608880406
  0
LINE
  5
218
330
1F
100
AcDbEntity
  8
0
  6
Continuous
 62
     7
370
    25
100
AcDbLine
 10
6285.0028673158
 20
4883.8608880406
 30
0.0
 11
6284.9388918926
 21
4883.8660556839
 31
0.0
  0
LWPOLYLINE
  5
219
330
1F
100
AcDbEntity
  8
0
  6
Continuous
 62
     7
370
    25
100
AcDbPolyline
 90
        3
 70
   128
 43
0.0
 10
6284.9388918926
 20
4883.8660556839
 10
6284.6399369353
 20
4883.9318353405
 10
6284.4333930319
 20
4884.0353993525
  0
LWPOLYLINE
  5
21A
330
1F
100
AcDbEntity
  8
0
  6
Continuous
 62
     7
370
    25
100
AcDbPolyline
 90
        3
 70
   128
 43
0.0
 10
6284.4333930319
 20
4884.0353993525
 10
6284.2655770576
 20
4884.15836699
 10
6284.1617817038
 20
4884.2580730992
  0
LWPOLYLINE
  5
21B
330
1F
100
AcDbEntity
  8
0
  6
Continuous
 62
     7
370
    25
100
AcDbPolyline
 90
        3
 70
   128
 43
0.0
 10
6286.2249115866
 20
4884.538004333
 10
6286.8324426111
 20
4883.9649980865
 10
6287.1040310528
 20
4883.4225168655
  0
LWPOLYLINE
  5
21C
330
1F
100
AcDbEntity
  8
0
  6
Continuous
 62
     7
370
    25
100
AcDbPolyline
 90
        3
 70
   128
 43
0.0
 10
6285.9172301088
 20
4884.1758558955
 10
6285.877171954
 20
4884.1936474247
 10
6285.8427126934
 20
4884.207481872
  0
LINE
  5
21D
330
1F
100
AcDbEntity
  8
0
  6
Continuous
 62
     7
370
    25
100
AcDbLine
 10
6285.8427126934
 20
4884.207481872
 30
0.0
 11
6285.8267963523
 21
4884.1917205602
 31
0.0
  0
LWPOLYLINE
  5
21E
330
1F
100
AcDbEntity
  8
0
  6
Continuous
 62
     7
370
    25
100
AcDbPolyline
 90
        3
 70
   128
 43
0.0
 10
6285.8267963523
 20
4884.1917205602
 10
6285.7246332131
 20
4884.0991044013
 10
6285.6409679017
 20
4884.0373113805
  0
LWPOLYLINE
  5
21F
330
1F
100
AcDbEntity
  8
0
  6
Continuous
 62
     7
370
    25
100
AcDbPolyline
 90
        3
 70
   128
 43
0.0
 10
6284.1617817038
 20
4884.2580730992
 10
6283.7436507403
 20
4884.0493555776
 10
6283.3700987611
 20
4883.8053358759
  0
LWPOLYLINE
  5
220
330
1F
100
AcDbEntity
  8
0
  6
Continuous
 62
     7
370
    25
100
AcDbPolyline
 90
        3
 70
   128
 43
0.0
 10
6283.3700987611
 20
4883.8053358759
 10
6283.0092563466
 20
4883.5254408934
 10
6282.7222830059
 20
4883.2776161494
  0
LWPOLYLINE
  5
221
330
1F
100
AcDbEntity
  8
0
  6
Continuous
 62
     7
370
    25
100
AcDbPolyline
 90
        3
 70
   128
 43
0.0
 10
6286.2256350567
 20
4884.0381382034
 10
6286.0549482605
 20
4884.1172021592
 10
6285.9172301088
 20
4884.1758558955
  0
LWPOLYLINE
  5
222
330
1F
100
AcDbEntity
  8
0
  6
Continuous
 62
     7
370
    25
100
AcDbPolyline
 90
        3
 70
   128
 43
0.0
 10
6289.0317685671
 20
4885.2440076734
 10
6288.9869472244
 20
4885.2361148351
 10
6288.9413348106
 20
4885.2334140048
  0
LINE
  5
223
330
1F
100
AcDbEntity
  8
0
  6
Continuous
 62
     7
370
    25
100
AcDbLine
 10
6288.9413348106
 20
4885.2334140048
 30
0.0
 11
6288.9306894655
 21
4885.2334140048
 31
0.0
  0
LINE
  5
224
330
1F
100
AcDbEntity
  8
0
  6
Continuous
 62
     7
370
    25
100
AcDbLine
 10
6288.9306894655
 20
4885.2334140048
 30
0.0
 11
6288.7656349408
 21
4885.233207299
 31
0.0
  0
LINE
  5
225
330
1F
100
AcDbEntity
  8
0
  6
Continuous
 62
     7
370
    25
100
AcDbLine
 10
6288.7656349408
 20
4885.233207299
 30
0.0
 11
6288.7653248822
 21
4885.4407398511
 31
0.0
  0
LINE
  5
226
330
1F
100
AcDbEntity
  8
0
  6
Continuous
 62
     7
370
    25
100
AcDbLine
 10
6288.7653248822
 20
4885.4407398511
 30
0.0
 11
6288.930379407
 21
4885.4409465569
 31
0.0
  0
LWPOLYLINE
  5
227
330
1F
100
AcDbEntity
  8
0
  6
Continuous
 62
     7
370
    25
100
AcDbPolyline
 90
        3
 70
   128
 43
0.0
 10
6288.9622120892
 20
4885.4410499097
 10
6289.028650393
 20
4885.431929881
 10
6289.0632911908
 20
4885.4143848707
  0
LINE
  5
228
330
1F
100
AcDbEntity
  8
0
  6
Continuous
 62
     7
370
    25
100
AcDbLine
 10
6289.095227226
 20
4885.3403325432
 30
0.0
 11
6289.0795175905
 21
4885.2814730868
 31
0.0
  0
LINE
  5
229
330
1F
100
AcDbEntity
  8
0
  6
Continuous
 62
     7
370
    25
100
AcDbLine
 10
6289.0795175905
 20
4885.2814730868
 30
0.0
 11
6289.0317685671
 21
4885.2440076734
 31
0.0
  0
LINE
  5
22A
330
1F
100
AcDbEntity
  8
0
  6
Continuous
 62
     7
370
    25
100
AcDbLine
 10
6288.930379407
 20
4885.4409465569
 30
0.0
 11
6288.9622120892
 21
4885.4410499097
 31
0.0
  0
LWPOLYLINE
  5
22B
330
1F
100
AcDbEntity
  8
0
  6
Continuous
 62
     7
370
    25
100
AcDbPolyline
 90
        3
 70
   128
 43
0.0
 10
6289.0632911908
 20
4885.4143848707
 10
6289.0891116402
 20
4885.3769769082
 10
6289.095227226
 20
4885.3403325432
  0
LINE
  5
22C
330
1F
100
AcDbEntity
  8
0
  6
Continuous
 62
     7
370
    25
100
AcDbLine
 10
6284.4498261374
 20
4876.7124871617
 30
0.0
 11
6284.4445551413
 21
4876.7179648636
 31
0.0
  0
LWPOLYLINE
  5
22D
330
1F
100
AcDbEntity
  8
0
  6
Continuous
 62
     7
370
    25
100
AcDbPolyline
 90
        3
 70
   128
 43
0.0
 10
6284.4395942038
 20
4879.9674822789
 10
6284.4600995444
 20
4878.1901558353
 10
6284.4498261374
 20
4876.7124871617
  0
LWPOLYLINE
  5
22E
330
1F
100
AcDbEntity
  8
0
  6
Continuous
 62
     7
370
    25
100
AcDbPolyline
 90
        3
 70
   128
 43
0.0
 10
6284.4445551413
 20
4876.7179648636
 10
6283.7564569176
 20
4877.0573276953
 10
6283.3798139304
 20
4877.3867612503
  0
ARC
  5
22F
330
1F
100
AcDbEntity
  8
0
  6
Continuous
 62
     7
370
    25
100
AcDbCircle
 10
6285.6121105117
 20
4878.8790490491
 30
0.0
 40
2.685157518972069
100
AcDbArc
 50
146.408330412
 51
213.7626838309
  0
LWPOLYLINE
  5
230
330
1F
100
AcDbEntity
  8
0
  6
Continuous
 62
     7
370
    25
100
AcDbPolyline
 90
        3
 70
   128
 43
0.0
 10
6283.3753697572
 20
4880.3646673375
 10
6283.6889527465
 20
4880.9975848219
 10
6283.8369436504
 20
4881.2851279495
  0
LWPOLYLINE
  5
231
330
1F
100
AcDbEntity
  8
0
  6
Continuous
 62
     7
370
    25
100
AcDbPolyline
 90
        3
 70
   128
 43
0.0
 10
6283.8369436504
 20
4881.2851279495
 10
6284.0281563453
 20
4881.7866980916
 10
6284.0588422507
 20
4882.0726251012
  0
LWPOLYLINE
  5
232
330
1F
100
AcDbEntity
  8
0
  6
Continuous
 62
     7
370
    25
100
AcDbPolyline
 90
        3
 70
   128
 43
0.0
 10
6284.0588422507
 20
4882.0726251012
 10
6284.3456808788
 20
4880.9171398503
 10
6284.4395942038
 20
4879.9674822789
  0
ARC
  5
233
330
1F
100
AcDbEntity
  8
0
  6
Continuous
 62
     7
370
    25
100
AcDbCircle
 10
6284.8613266832
 20
4879.2824167726
 30
0.0
 40
2.653144129204965
100
AcDbArc
 50
301.2139727476
 51
352.8209434981
  0
LWPOLYLINE
  5
234
330
1F
100
AcDbEntity
  8
0
  6
Continuous
 62
     7
370
    25
100
AcDbPolyline
 90
        3
 70
   128
 43
0.0
 10
6285.6489260723
 20
4878.9322483108
 10
6285.7550556331
 20
4878.9063615569
 10
6285.8348578757
 20
4878.8895635778
  0
LWPOLYLINE
  5
235
330
1F
100
AcDbEntity
  8
0
  6
Continuous
 62
     7
370
    25
100
AcDbPolyline
 90
        3
 70
   128
 43
0.0
 10
6285.8348578757
 20
4878.8895635778
 10
6285.8873311007
 20
4878.8777257093
 10
6285.9253949851
 20
4878.8686346227
  0
LWPOLYLINE
  5
236
330
1F
100
AcDbEntity
  8
0
  6
Continuous
 62
     7
370
    25
100
AcDbPolyline
 90
        3
 70
   128
 43
0.0
 10
6285.9253949851
 20
4878.8686346227
 10
6286.0998226191
 20
4878.8415514229
 10
6286.2335932273
 20
4878.826828389
  0
LWPOLYLINE
  5
237
330
1F
100
AcDbEntity
  8
0
  6
Continuous
 62
     7
370
    25
100
AcDbPolyline
 90
        3
 70
   128
 43
0.0
 10
6286.2335932273
 20
4878.826828389
 10
6286.8499302598
 20
4878.8387244591
 10
6287.4936713523
 20
4878.9508518265
  0
LWPOLYLINE
  5
238
330
1F
100
AcDbEntity
  8
0
  6
Continuous
 62
     7
370
    25
100
AcDbPolyline
 90
        3
 70
   128
 43
0.0
 10
6286.2362804017
 20
4877.0133473505
 10
6286.0698008907
 20
4876.9277187779
 10
6285.9282888653
 20
4876.8639507848
  0
LWPOLYLINE
  5
239
330
1F
100
AcDbEntity
  8
0
  6
Continuous
 62
     7
370
    25
100
AcDbPolyline
 90
        3
 70
   128
 43
0.0
 10
6285.8381651674
 20
4876.8264336949
 10
6285.73577913
 20
4876.7905662954
 10
6285.652233364
 20
4876.7624065953
  0
LWPOLYLINE
  5
23A
330
1F
100
AcDbEntity
  8
0
  6
Continuous
 62
     7
370
    25
100
AcDbPolyline
 90
        3
 70
   128
 43
0.0
 10
6285.6507864239
 20
4877.6397690628
 10
6285.677467629
 20
4877.4938594375
 10
6285.6986388002
 20
4877.379319844
  0
LWPOLYLINE
  5
23B
330
1F
100
AcDbEntity
  8
0
  6
Continuous
 62
     7
370
    25
100
AcDbPolyline
 90
        3
 70
   128
 43
0.0
 10
6285.6986388002
 20
4877.379319844
 10
6285.6729554976
 20
4877.855513759
 10
6285.6498562481
 20
4878.2195269567
  0
LWPOLYLINE
  5
23C
330
1F
100
AcDbEntity
  8
0
  6
Continuous
 62
     7
370
    25
100
AcDbPolyline
 90
        3
 70
   128
 43
0.0
 10
6285.6498562481
 20
4878.2195269567
 10
6285.6272985213
 20
4878.6136488083
 10
6285.6167833314
 20
4878.9371058955
  0
LINE
  5
23D
330
1F
100
AcDbEntity
  8
0
  6
Continuous
 62
     7
370
    25
100
AcDbLine
 10
6285.6167833314
 20
4878.9371058955
 30
0.0
 11
6285.6489260723
 21
4878.9322483108
 31
0.0
  0
LINE
  5
23E
330
1F
100
AcDbEntity
  8
0
  6
Continuous
 62
     7
370
    25
100
AcDbLine
 10
6285.920123989
 20
4882.2562314651
 30
0.0
 11
6285.9240513978
 21
4882.2617608434
 31
0.0
  0
LWPOLYLINE
  5
23F
330
1F
100
AcDbEntity
  8
0
  6
Continuous
 62
     7
370
    25
100
AcDbPolyline
 90
        3
 70
   128
 43
0.0
 10
6286.0848684551
 20
4882.126161885
 10
6285.9926557263
 20
4881.9216513244
 10
6285.9210541648
 20
4881.7243259475
  0
LWPOLYLINE
  5
240
330
1F
100
AcDbEntity
  8
0
  6
Continuous
 62
     7
370
    25
100
AcDbPolyline
 90
        3
 70
   128
 43
0.0
 10
6285.9282888653
 20
4876.8639507848
 10
6285.8794117379
 20
4876.8427899456
 10
6285.8381651674
 20
4876.8264336949
  0
LWPOLYLINE
  5
241
330
1F
100
AcDbEntity
  8
0
  6
Continuous
 62
     7
370
    25
100
AcDbPolyline
 90
        3
 70
   128
 43
0.0
 10
6285.652233364
 20
4876.7624065953
 10
6285.5435661712
 20
4876.7294912314
 10
6285.4550360984
 20
4876.7034954625
  0
LWPOLYLINE
  5
242
330
1F
100
AcDbEntity
  8
0
  6
Continuous
 62
     7
370
    25
100
AcDbPolyline
 90
        3
 70
   128
 43
0.0
 10
6285.4550360984
 20
4876.7034954625
 10
6285.3699981551
 20
4879.2800258219
 10
6285.5916685853
 20
4881.516379984
  0
LWPOLYLINE
  5
243
330
1F
100
AcDbEntity
  8
0
  6
Continuous
 62
     7
370
    25
100
AcDbPolyline
 90
        3
 70
   128
 43
0.0
 10
6285.5916685853
 20
4881.516379984
 10
6285.6230252822
 20
4881.600914994
 10
6285.6446886049
 20
4881.6604022008
  0
LWPOLYLINE
  5
244
330
1F
100
AcDbEntity
  8
0
  6
Continuous
 62
     7
370
    25
100
AcDbPolyline
 90
        3
 70
   128
 43
0.0
 10
6285.6446886049
 20
4881.6604022008
 10
6285.7463207517
 20
4881.9203915936
 10
6285.8301036439
 20
4882.0964479365
  0
LWPOLYLINE
  5
245
330
1F
100
AcDbEntity
  8
0
  6
Continuous
 62
     7
370
    25
100
AcDbPolyline
 90
        3
 70
   128
 43
0.0
 10
6285.8301036439
 20
4882.0964479365
 10
6285.8800230312
 20
4882.1899024872
 10
6285.920123989
 20
4882.2562314651
  0
LWPOLYLINE
  5
246
330
1F
100
AcDbEntity
  8
0
  6
Continuous
 62
     7
370
    25
100
AcDbPolyline
 90
        3
 70
   128
 43
0.0
 10
6285.9240513978
 20
4882.2617608434
 10
6286.0140508871
 20
4882.1863159047
 10
6286.0848684551
 20
4882.126161885
  0
LWPOLYLINE
  5
247
330
1F
100
AcDbEntity
  8
0
  6
Continuous
 62
     7
370
    25
100
AcDbPolyline
 90
        3
 70
   128
 43
0.0
 10
6285.9210541648
 20
4881.7243259475
 10
6285.8704899747
 20
4881.5485584238
 10
6285.8310338197
 20
4881.3998496292
  0
LWPOLYLINE
  5
248
330
1F
100
AcDbEntity
  8
0
  6
Continuous
 62
     7
370
    25
100
AcDbPolyline
 90
        3
 70
   128
 43
0.0
 10
6285.8310338197
 20
4881.3998496292
 10
6285.7175551922
 20
4880.8702122754
 10
6285.6465489564
 20
4880.405129984
  0
LWPOLYLINE
  5
249
330
1F
100
AcDbEntity
  8
0
  6
Continuous
 62
     7
370
    25
100
AcDbPolyline
 90
        3
 70
   128
 43
0.0
 10
6285.6465489564
 20
4880.405129984
 10
6285.5490477888
 20
4878.8497971658
 10
6285.6507864239
 20
4877.6397690628
  0
LWPOLYLINE
  5
24A
330
1F
100
AcDbEntity
  8
0
  6
Continuous
 62
     7
370
    25
100
AcDbPolyline
 90
        7
 70
   128
 43
0.0
 10
6280.122338271
 20
4882.6990983835
 10
6280.2245000656
 20
4882.693686593
 10
6280.3111696964
 20
4882.6577031688
 10
6280.3836110829
 20
4882.5940434264
 10
6280.4683600281
 20
4882.4529942194
 10
6280.5282049702
 20
4882.2659594471
 10
6280.6038592671
 20
4881.2533985137
  0
LINE
  5
24B
330
1F
100
AcDbEntity
  8
0
  6
Continuous
 62
     7
370
    25
100
AcDbLine
 10
6280.6038592671
 20
4881.2533985137
 30
0.0
 11
6280.6038592671
 21
4880.9401359811
 31
0.0
  0
LINE
  5
24C
330
1F
100
AcDbEntity
  8
0
  6
Continuous
 62
     7
370
    25
100
AcDbLine
 10
6280.6038592671
 20
4880.9401359811
 30
0.0
 11
6279.9021966694
 21
4880.9390507761
 31
0.0
  0
LINE
  5
24D
330
1F
100
AcDbEntity
  8
0
  6
Continuous
 62
     7
370
    25
100
AcDbLine
 10
6279.9021966694
 20
4880.9390507761
 30
0.0
 11
6279.1942295471
 21
4880.9380172474
 31
0.0
  0
LINE
  5
24E
330
1F
100
AcDbEntity
  8
0
  6
Continuous
 62
     7
370
    25
100
AcDbLine
 10
6279.1942295471
 20
4880.9380172474
 30
0.0
 11
6279.1942295471
 21
4881.2406861113
 31
0.0
  0
LWPOLYLINE
  5
24F
330
1F
100
AcDbEntity
  8
0
  6
Continuous
 62
     7
370
    25
100
AcDbPolyline
 90
        6
 70
   128
 43
0.0
 10
6279.1942295471
 20
4881.2406861113
 10
6279.3238857157
 20
4882.250230433
 10
6279.4094941853
 20
4882.4390227086
 10
6279.5222327819
 20
4882.5844921683
 10
6279.6650276834
 20
4882.6776961651
 10
6279.8408050679
 20
4882.7096920521
  0
LINE
  5
250
330
1F
100
AcDbEntity
  8
0
  6
Continuous
 62
     7
370
    25
100
AcDbLine
 10
6279.8408050679
 20
4882.7096920521
 30
0.0
 11
6279.8990960835
 21
4882.7096920521
 31
0.0
  0
LINE
  5
251
330
1F
100
AcDbEntity
  8
0
  6
Continuous
 62
     7
370
    25
100
AcDbLine
 10
6279.8990960835
 20
4882.7096920521
 30
0.0
 11
6280.122338271
 21
4882.6990983835
 31
0.0
  0
LWPOLYLINE
  5
252
330
1F
100
AcDbEntity
  8
0
  6
Continuous
 62
     7
370
    25
100
AcDbPolyline
 90
        7
 70
   128
 43
0.0
 10
6265.9343669338
 20
4882.68850473
 10
6266.036428067
 20
4882.6842950446
 10
6266.1228323178
 20
4882.6492763368
 10
6266.1948985118
 20
4882.5863735285
 10
6266.2789988775
 20
4882.4461348946
 10
6266.3382570095
 20
4882.2596097206
 10
6266.4158879299
 20
4881.2480758563
  0
LINE
  5
253
330
1F
100
AcDbEntity
  8
0
  6
Continuous
 62
     7
370
    25
100
AcDbLine
 10
6266.4106169338
 20
4880.9337797951
 30
0.0
 11
6265.7142253322
 21
4880.93269459
 31
0.0
  0
LINE
  5
254
330
1F
100
AcDbEntity
  8
0
  6
Continuous
 62
     7
370
    25
100
AcDbLine
 10
6265.7142253322
 20
4880.93269459
 30
0.0
 11
6265.0072917385
 21
4880.9316610613
 31
0.0
  0
LINE
  5
255
330
1F
100
AcDbEntity
  8
0
  6
Continuous
 62
     7
370
    25
100
AcDbLine
 10
6265.0072917385
 20
4880.9316610613
 30
0.0
 11
6265.0062065334
 21
4881.2354151304
 31
0.0
  0
LWPOLYLINE
  5
256
330
1F
100
AcDbEntity
  8
0
  6
Continuous
 62
     7
370
    25
100
AcDbPolyline
 90
        6
 70
   128
 43
0.0
 10
6265.0062065334
 20
4881.2354151304
 10
6265.1332207444
 20
4882.2445266619
 10
6265.2212768804
 20
4882.4334302639
 10
6265.3372110385
 20
4882.5790249784
 10
6265.4837017134
 20
4882.6723312178
 10
6265.6634273993
 20
4882.7043693947
  0
LINE
  5
257
330
1F
100
AcDbEntity
  8
0
  6
Continuous
 62
     7
370
    25
100
AcDbLine
 10
6265.6634273993
 20
4882.7043693947
 30
0.0
 11
6265.7121065985
 21
4882.6990983986
 31
0.0
  0
LINE
  5
258
330
1F
100
AcDbEntity
  8
0
  6
Continuous
 62
     7
370
    25
100
AcDbLine
 10
6265.7121065985
 20
4882.6990983986
 30
0.0
 11
6265.9343669338
 21
4882.68850473
 31
0.0
  0
LINE
  5
259
330
1F
100
AcDbEntity
  8
0
  6
Continuous
 62
     7
370
    25
100
AcDbLine
 10
6266.4158879299
 20
4881.2480758563
 30
0.0
 11
6266.4106169338
 21
4880.9337797951
 31
0.0
  0
LWPOLYLINE
  5
25A
330
1F
100
AcDbEntity
  8
0
  6
Continuous
 62
     7
370
    25
100
AcDbPolyline
 90
        3
 70
   128
 43
0.0
 10
6289.1275766726
 20
4885.0582825757
 10
6289.0887253353
 20
4885.10690356
 10
6289.0583302533
 20
4885.1378642815
  0
LWPOLYLINE
  5
25B
330
1F
100
AcDbEntity
  8
0
  6
Continuous
 62
     7
370
    25
100
AcDbPolyline
 90
        3
 70
   128
 43
0.0
 10
6289.0052068809
 20
4885.1646326734
 10
6289.0916347201
 20
4885.1914494973
 10
6289.1383253705
 20
4885.222923689
  0
LINE
  5
25C
330
1F
100
AcDbEntity
  8
0
  6
Continuous
 62
     7
370
    25
100
AcDbLine
 10
6288.6803688275
 20
4885.5149472079
 30
0.0
 11
6288.6814023562
 21
4884.8821692945
 31
0.0
  0
LINE
  5
25D
330
1F
100
AcDbEntity
  8
0
  6
Continuous
 62
     7
370
    25
100
AcDbLine
 10
6288.6814023562
 20
4884.8821692945
 30
0.0
 11
6288.7661517051
 21
4884.8822726473
 31
0.0
  0
LINE
  5
25E
330
1F
100
AcDbEntity
  8
0
  6
Continuous
 62
     7
370
    25
100
AcDbLine
 10
6288.7661517051
 20
4884.8822726473
 30
0.0
 11
6288.7657382937
 21
4885.1587932365
 31
0.0
  0
LINE
  5
25F
330
1F
100
AcDbEntity
  8
0
  6
Continuous
 62
     7
370
    25
100
AcDbLine
 10
6288.7657382937
 20
4885.1587932365
 30
0.0
 11
6288.8615463991
 21
4885.1588965894
 31
0.0
  0
LINE
  5
260
330
1F
100
AcDbEntity
  8
0
  6
Continuous
 62
     7
370
    25
100
AcDbLine
 10
6288.9040244265
 20
4885.1589999423
 30
0.0
 11
6288.9307928184
 21
4885.1483029208
 31
0.0
  0
LINE
  5
261
330
1F
100
AcDbEntity
  8
0
  6
Continuous
 62
     7
370
    25
100
AcDbLine
 10
6288.9414381635
 20
4885.142825219
 30
0.0
 11
6288.9839161908
 21
4885.1005022209
 31
0.0
  0
LWPOLYLINE
  5
262
330
1F
100
AcDbEntity
  8
0
  6
Continuous
 62
     7
370
    25
100
AcDbPolyline
 90
        3
 70
   128
 43
0.0
 10
6288.9839161908
 20
4885.1005022209
 10
6289.0160966943
 20
4885.0606723817
 10
6289.047891614
 20
4885.0153911369
  0
LINE
  5
263
330
1F
100
AcDbEntity
  8
0
  6
Continuous
 62
     7
370
    25
100
AcDbLine
 10
6289.047891614
 20
4885.0153911369
 30
0.0
 11
6289.1332610801
 21
4884.8827894117
 31
0.0
  0
LINE
  5
264
330
1F
100
AcDbEntity
  8
0
  6
Continuous
 62
     7
370
    25
100
AcDbLine
 10
6289.1332610801
 20
4884.8827894117
 30
0.0
 11
6289.2342368288
 21
4884.8828927645
 31
0.0
  0
LINE
  5
265
330
1F
100
AcDbEntity
  8
0
  6
Continuous
 62
     7
370
    25
100
AcDbLine
 10
6289.2342368288
 20
4884.8828927645
 30
0.0
 11
6289.1275766726
 21
4885.0582825757
 31
0.0
  0
LINE
  5
266
330
1F
100
AcDbEntity
  8
0
  6
Continuous
 62
     7
370
    25
100
AcDbLine
 10
6288.8615463991
 20
4885.1588965894
 30
0.0
 11
6288.9040244265
 21
4885.1589999423
 31
0.0
  0
LWPOLYLINE
  5
267
330
1F
100
AcDbEntity
  8
0
  6
Continuous
 62
     7
370
    25
100
AcDbPolyline
 90
        3
 70
   128
 43
0.0
 10
6289.1383253705
 20
4885.222923689
 10
6289.1765557042
 20
4885.2827821426
 10
6289.1857643353
 20
4885.340435896
  0
LWPOLYLINE
  5
268
330
1F
100
AcDbEntity
  8
0
  6
Continuous
 62
     7
370
    25
100
AcDbPolyline
 90
        3
 70
   128
 43
0.0
 10
6289.1857643353
 20
4885.340435896
 10
6289.1767539499
 20
4885.396023677
 10
6289.159306002
 20
4885.4357789136
  0
LWPOLYLINE
  5
269
330
1F
100
AcDbEntity
  8
0
  6
Continuous
 62
     7
370
    25
100
AcDbPolyline
 90
        3
 70
   128
 43
0.0
 10
6289.159306002
 20
4885.4357789136
 10
6289.1214788668
 20
4885.4745056983
 10
6289.0846852338
 20
4885.4943799878
  0
LWPOLYLINE
  5
26A
330
1F
100
AcDbEntity
  8
0
  6
Continuous
 62
     7
370
    25
100
AcDbPolyline
 90
        3
 70
   128
 43
0.0
 10
6289.0846852338
 20
4885.4943799878
 10
6289.0247765424
 20
4885.5101706188
 10
6288.9568377403
 20
4885.5153606194
  0
LINE
  5
26B
330
1F
100
AcDbEntity
  8
0
  6
Continuous
 62
     7
370
    25
100
AcDbLine
 10
6288.9568377403
 20
4885.5153606194
 30
0.0
 11
6288.930379407
 21
4885.5153606194
 31
0.0
  0
LINE
  5
26C
330
1F
100
AcDbEntity
  8
0
  6
Continuous
 62
     7
370
    25
100
AcDbLine
 10
6288.930379407
 20
4885.5153606194
 30
0.0
 11
6288.6803688275
 21
4885.5149472079
 31
0.0
  0
LINE
  5
26D
330
1F
100
AcDbEntity
  8
0
  6
Continuous
 62
     7
370
    25
100
AcDbLine
 10
6288.9307928184
 20
4885.1483029208
 30
0.0
 11
6288.9414381635
 21
4885.142825219
 31
0.0
  0
LINE
  5
26E
330
1F
100
AcDbEntity
  8
0
  6
Continuous
 62
     7
370
    25
100
AcDbLine
 10
6289.0583302533
 20
4885.1378642815
 30
0.0
 11
6289.0052068809
 21
4885.1646326734
 31
0.0
  0
ARC
  5
26F
330
1F
100
AcDbEntity
  8
0
  6
Continuous
 62
     7
370
    25
100
AcDbCircle
 10
6288.9156303814
 20
4885.1860370787
 30
0.0
 40
0.6068167046722491
100
AcDbArc
 50
180.1278336835
 51
270.4850536061
  0
ARC
  5
270
330
1F
100
AcDbEntity
  8
0
  6
Continuous
 62
     7
370
    25
100
AcDbCircle
 10
6288.9208981603
 20
4885.1900102965
 30
0.0
 40
0.6121061543045418
100
AcDbArc
 50
90.186367804
 51
180.4986455646
  0
ARC
  5
271
330
1F
100
AcDbEntity
  8
0
  6
Continuous
 62
     7
370
    25
100
AcDbCircle
 10
6288.9185973763
 20
4885.192459575
 30
0.0
 40
0.6132212960000447
100
AcDbArc
 50
270.2027638078
 51
359.4424045032
  0
ARC
  5
272
330
1F
100
AcDbEntity
  8
0
  6
Continuous
 62
     7
370
    25
100
AcDbCircle
 10
6288.9162304204
 20
4885.1865598155
 30
0.0
 40
0.6155592170276319
100
AcDbArc
 50
359.9936761325
 51
89.7508515851
  0
CIRCLE
  5
273
330
1F
100
AcDbEntity
  8
0
  6
Continuous
 62
     7
370
    25
100
AcDbCircle
 10
6274.0187553361
 20
4708.259116049
 30
0.0
 40
140.0343563421129
  0
ARC
  5
274
330
1F
100
AcDbEntity
  8
0
  6
Continuous
 62
     7
370
    25
100
AcDbCircle
 10
6274.0187553361
 20
4710.759116049
 30
0.0
 40
175.0
100
AcDbArc
 50
180.0
 51
0.0
  0
CIRCLE
  5
275
330
1F
100
AcDbEntity
  8
0
  6
Continuous
 62
     7
370
    25
100
AcDbCircle
 10
6274.0187553361
 20
4710.7591160489
 30
0.0
 40
3.000000000001605
  0
CIRCLE
  5
276
330
1F
100
AcDbEntity
  8
0
  6
Continuous
 62
     7
370
    25
100
AcDbCircle
 10
6256.5187553361
 20
4710.7591160489
 30
0.0
 40
4.000000000001947
  0
CIRCLE
  5
277
330
1F
100
AcDbEntity
  8
0
  6
Continuous
 62
     7
370
    25
100
AcDbCircle
 10
6261.6443866653
 20
4723.1334847197
 30
0.0
 40
4.000000000000789
  0
CIRCLE
  5
278
330
1F
100
AcDbEntity
  8
0
  6
Continuous
 62
     7
370
    25
100
AcDbCircle
 10
6274.0187553361
 20
4728.259116049
 30
0.0
 40
4.000000000000611
  0
CIRCLE
  5
279
330
1F
100
AcDbEntity
  8
0
  6
Continuous
 62
     7
370
    25
100
AcDbCircle
 10
6286.3931240069
 20
4723.1334847197
 30
0.0
 40
3.999999999999774
  0
CIRCLE
  5
27A
330
1F
100
AcDbEntity
  8
0
  6
Continuous
 62
     7
370
    25
100
AcDbCircle
 10
6291.5187553361
 20
4710.759116049
 30
0.0
 40
4.000000000000141
  0
CIRCLE
  5
27B
330
1F
100
AcDbEntity
  8
0
  6
Continuous
 62
     7
370
    25
100
AcDbCircle
 10
6286.3931240069
 20
4698.3847473782
 30
0.0
 40
4.000000000001513
  0
CIRCLE
  5
27C
330
1F
100
AcDbEntity
  8
0
  6
Continuous
 62
     7
370
    25
100
AcDbCircle
 10
6274.0187553361
 20
4693.259116049
 30
0.0
 40
3.999999999999935
  0
CIRCLE
  5
27D
330
1F
100
AcDbEntity
  8
0
  6
Continuous
 62
     7
370
    25
100
AcDbCircle
 10
6261.6443866653
 20
4698.3847473782
 30
0.0
 40
3.999999999999051
  0
LINE
  5
27E
330
1F
100
AcDbEntity
  8
0
  6
Continuous
 62
     7
370
    25
100
AcDbLine
 10
6099.0187553361
 20
4896.759116049
 30
0.0
 11
6099.0187553361
 21
4895.759116049
 31
0.0
  0
LINE
  5
27F
330
1F
100
AcDbEntity
  8
0
  6
Continuous
 62
     7
370
    25
100
AcDbLine
 10
6099.0187553361
 20
4896.759116049
 30
0.0
 11
6101.0187553361
 21
4896.759116049
 31
0.0
  0
LINE
  5
280
330
1F
100
AcDbEntity
  8
0
  6
Continuous
 62
     7
370
    25
100
AcDbLine
 10
6100.0187553361
 20
4895.759116049
 30
0.0
 11
6101.0187553361
 21
4895.759116049
 31
0.0
  0
LINE
  5
281
330
1F
100
AcDbEntity
  8
0
  6
Continuous
 62
     8
370
    25
100
AcDbLine
 10
6448.5187553361
 20
4710.759116049
 30
0.0
 11
6448.5187553361
 21
4894.759116049
 31
0.0
  0
ENDSEC
  0
SECTION
  2
OBJECTS
  0
DICTIONARY
  5
C
330
0
100
AcDbDictionary
281
     1
  3
ACAD_GROUP
350
D
  3
ACAD_LAYOUT
350
1A
  3
ACAD_MLINESTYLE
350
17
  3
ACAD_PLOTSETTINGS
350
19
  3
ACAD_PLOTSTYLENAME
350
E
  3
ACAD_SCALELIST
350
47
  3
DWGPROPS
350
282
  0
DICTIONARY
  5
D
102
{ACAD_REACTORS
330
C
102
}
330
C
100
AcDbDictionary
281
     1
  0
DICTIONARY
  5
1A
102
{ACAD_REACTORS
330
C
102
}
330
C
100
AcDbDictionary
281
     1
  3
Layout1
350
1E
  3
Layout2
350
26
  3
Model
350
22
  0
DICTIONARY
  5
17
102
{ACAD_REACTORS
330
C
102
}
330
C
100
AcDbDictionary
281
     1
  3
Standard
350
18
  0
DICTIONARY
  5
19
102
{ACAD_REACTORS
330
C
102
}
330
C
100
AcDbDictionary
281
     1
  0
ACDBDICTIONARYWDFLT
  5
E
102
{ACAD_REACTORS
330
C
102
}
330
C
100
AcDbDictionary
281
     1
  3
Normal
350
F
100
AcDbDictionaryWithDefault
340
F
  0
DICTIONARY
  5
47
102
{ACAD_REACTORS
330
C
102
}
330
C
100
AcDbDictionary
281
     1
  3
A0
350
48
  3
A1
350
49
  3
A2
350
4A
  3
A3
350
4B
  3
A4
350
4C
  3
A5
350
4D
  3
A6
350
4E
  3
A7
350
4F
  3
A8
350
50
  3
A9
350
51
  3
B0
350
52
  3
B1
350
53
  3
B2
350
54
  3
B3
350
55
  3
B4
350
56
  3
B5
350
57
  3
B6
350
58
  3
B7
350
59
  3
B8
350
5A
  3
B9
350
5B
  3
C0
350
5C
  3
C1
350
5D
  3
C2
350
5E
  3
C3
350
5F
  3
C4
350
60
  3
C5
350
61
  3
C6
350
62
  3
C7
350
63
  3
C8
350
64
  3
C9
350
65
  3
D0
350
66
  3
D1
350
67
  3
D2
350
68
  0
XRECORD
  5
282
102
{ACAD_REACTORS
330
C
102
}
330
C
100
AcDbXrecord
280
     1
  1
DWGPROPS COOKIE
  2

  3

  4

  6

  7

  8
radek.stransky
  9

300
=
301
=
302
=
303
=
304
=
305
=
306
=
307
=
308
=
309
=
 40
0.0
 41
2459543.362598739
 42
2459543.362599178
  1

 90
        0
  0
LAYOUT
  5
1E
102
{ACAD_REACTORS
330
1A
102
}
330
1A
100
AcDbPlotSettings
  1

  2
none_device
  4

  6

 40
0.0
 41
0.0
 42
0.0
 43
0.0
 44
0.0
 45
0.0
 46
0.0
 47
0.0
 48
0.0
 49
0.0
140
0.0
141
0.0
142
1.0
143
1.0
 70
   688
 72
     1
 73
     0
 74
     5
  7

 75
    16
147
1.0
148
0.0
149
0.0
100
AcDbLayout
  1
Layout1
 70
     1
 71
     1
 10
0.0
 20
0.0
 11
420.0
 21
297.0
 12
0.0
 22
0.0
 32
0.0
 14
1.0000000000E+20
 24
1.0000000000E+20
 34
1.0000000000E+20
 15
-1.0000000000E+20
 25
-1.0000000000E+20
 35
-1.0000000000E+20
146
0.0
 13
0.0
 23
0.0
 33
0.0
 16
1.0
 26
0.0
 36
0.0
 17
0.0
 27
1.0
 37
0.0
 76
     0
330
1B
  0
LAYOUT
  5
26
102
{ACAD_REACTORS
330
1A
102
}
330
1A
100
AcDbPlotSettings
  1

  2
none_device
  4

  6

 40
0.0
 41
0.0
 42
0.0
 43
0.0
 44
0.0
 45
0.0
 46
0.0
 47
0.0
 48
0.0
 49
0.0
140
0.0
141
0.0
142
1.0
143
1.0
 70
   688
 72
     1
 73
     0
 74
     5
  7

 75
    16
147
1.0
148
0.0
149
0.0
100
AcDbLayout
  1
Layout2
 70
     1
 71
     2
 10
0.0
 20
0.0
 11
0.0
 21
0.0
 12
0.0
 22
0.0
 32
0.0
 14
0.0
 24
0.0
 34
0.0
 15
0.0
 25
0.0
 35
0.0
146
0.0
 13
0.0
 23
0.0
 33
0.0
 16
1.0
 26
0.0
 36
0.0
 17
0.0
 27
1.0
 37
0.0
 76
     0
330
23
  0
LAYOUT
  5
22
102
{ACAD_REACTORS
330
1A
102
}
330
1A
100
AcDbPlotSettings
  1

  2
none_device
  4
Letter_(8.50_x_11.00_Inches)
  6

 40
6.35
 41
6.35
 42
6.35000508
 43
6.35000508
 44
215.9
 45
279.4
 46
0.0
 47
0.0
 48
0.0
 49
0.0
140
0.0
141
0.0
142
1.0
143
1.0
 70
  1712
 72
     1
 73
     0
 74
     0
  7

 75
     0
147
1.0
148
0.0
149
0.0
100
AcDbLayout
  1
Model
 70
     1
 71
     0
 10
0.0
 20
0.0
 11
20000.0
 21
10000.0
 12
0.0
 22
0.0
 32
0.0
 14
0.0
 24
0.0
 34
0.0
 15
20000.0
 25
10000.0
 35
0.0
146
0.0
 13
0.0
 23
0.0
 33
0.0
 16
1.0
 26
0.0
 36
0.0
 17
0.0
 27
1.0
 37
0.0
 76
     0
330
1F
331
29
  0
MLINESTYLE
  5
18
102
{ACAD_REACTORS
330
17
102
}
330
17
100
AcDbMlineStyle
  2
Standard
 70
     0
  3

 62
   256
 51
90.0
 52
90.0
 71
     2
 49
0.5
 62
   256
  6
BYLAYER
 49
-0.5
 62
   256
  6
BYLAYER
  0
ACDBPLACEHOLDER
  5
F
102
{ACAD_REACTORS
330
E
102
}
330
E
  0
SCALE
  5
48
102
{ACAD_REACTORS
330
47
102
}
330
47
100
AcDbScale
 70
     0
300
1:1
140
1.0
141
1.0
290
     1
  0
SCALE
  5
49
102
{ACAD_REACTORS
330
47
102
}
330
47
100
AcDbScale
 70
     0
300
1:2
140
1.0
141
2.0
290
     0
  0
SCALE
  5
4A
102
{ACAD_REACTORS
330
47
102
}
330
47
100
AcDbScale
 70
     0
300
1:4
140
1.0
141
4.0
290
     0
  0
SCALE
  5
4B
102
{ACAD_REACTORS
330
47
102
}
330
47
100
AcDbScale
 70
     0
300
1:5
140
1.0
141
5.0
290
     0
  0
SCALE
  5
4C
102
{ACAD_REACTORS
330
47
102
}
330
47
100
AcDbScale
 70
     0
300
1:8
140
1.0
141
8.0
290
     0
  0
SCALE
  5
4D
102
{ACAD_REACTORS
330
47
102
}
330
47
100
AcDbScale
 70
     0
300
1:10
140
1.0
141
10.0
290
     0
  0
SCALE
  5
4E
102
{ACAD_REACTORS
330
47
102
}
330
47
100
AcDbScale
 70
     0
300
1:16
140
1.0
141
16.0
290
     0
  0
SCALE
  5
4F
102
{ACAD_REACTORS
330
47
102
}
330
47
100
AcDbScale
 70
     0
300
1:20
140
1.0
141
20.0
290
     0
  0
SCALE
  5
50
102
{ACAD_REACTORS
330
47
102
}
330
47
100
AcDbScale
 70
     0
300
1:30
140
1.0
141
30.0
290
     0
  0
SCALE
  5
51
102
{ACAD_REACTORS
330
47
102
}
330
47
100
AcDbScale
 70
     0
300
1:40
140
1.0
141
40.0
290
     0
  0
SCALE
  5
52
102
{ACAD_REACTORS
330
47
102
}
330
47
100
AcDbScale
 70
     0
300
1:50
140
1.0
141
50.0
290
     0
  0
SCALE
  5
53
102
{ACAD_REACTORS
330
47
102
}
330
47
100
AcDbScale
 70
     0
300
1:100
140
1.0
141
100.0
290
     0
  0
SCALE
  5
54
102
{ACAD_REACTORS
330
47
102
}
330
47
100
AcDbScale
 70
     0
300
2:1
140
2.0
141
1.0
290
     0
  0
SCALE
  5
55
102
{ACAD_REACTORS
330
47
102
}
330
47
100
AcDbScale
 70
     0
300
4:1
140
4.0
141
1.0
290
     0
  0
SCALE
  5
56
102
{ACAD_REACTORS
330
47
102
}
330
47
100
AcDbScale
 70
     0
300
8:1
140
8.0
141
1.0
290
     0
  0
SCALE
  5
57
102
{ACAD_REACTORS
330
47
102
}
330
47
100
AcDbScale
 70
     0
300
10:1
140
10.0
141
1.0
290
     0
  0
SCALE
  5
58
102
{ACAD_REACTORS
330
47
102
}
330
47
100
AcDbScale
 70
     0
300
100:1
140
100.0
141
1.0
290
     0
  0
SCALE
  5
59
102
{ACAD_REACTORS
330
47
102
}
330
47
100
AcDbScale
 70
     0
300
1/128" = 1'-0"
140
0.0078125
141
12.0
290
     0
  0
SCALE
  5
5A
102
{ACAD_REACTORS
330
47
102
}
330
47
100
AcDbScale
 70
     0
300
1/64" = 1'-0"
140
0.015625
141
12.0
290
     0
  0
SCALE
  5
5B
102
{ACAD_REACTORS
330
47
102
}
330
47
100
AcDbScale
 70
     0
300
1/32" = 1'-0"
140
0.03125
141
12.0
290
     0
  0
SCALE
  5
5C
102
{ACAD_REACTORS
330
47
102
}
330
47
100
AcDbScale
 70
     0
300
1/16" = 1'-0"
140
0.0625
141
12.0
290
     0
  0
SCALE
  5
5D
102
{ACAD_REACTORS
330
47
102
}
330
47
100
AcDbScale
 70
     0
300
3/32" = 1'-0"
140
0.09375
141
12.0
290
     0
  0
SCALE
  5
5E
102
{ACAD_REACTORS
330
47
102
}
330
47
100
AcDbScale
 70
     0
300
1/8" = 1'-0"
140
0.125
141
12.0
290
     0
  0
SCALE
  5
5F
102
{ACAD_REACTORS
330
47
102
}
330
47
100
AcDbScale
 70
     0
300
3/16" = 1'-0"
140
0.1875
141
12.0
290
     0
  0
SCALE
  5
60
102
{ACAD_REACTORS
330
47
102
}
330
47
100
AcDbScale
 70
     0
300
1/4" = 1'-0"
140
0.25
141
12.0
290
     0
  0
SCALE
  5
61
102
{ACAD_REACTORS
330
47
102
}
330
47
100
AcDbScale
 70
     0
300
3/8" = 1'-0"
140
0.375
141
12.0
290
     0
  0
SCALE
  5
62
102
{ACAD_REACTORS
330
47
102
}
330
47
100
AcDbScale
 70
     0
300
1/2" = 1'-0"
140
0.5
141
12.0
290
     0
  0
SCALE
  5
63
102
{ACAD_REACTORS
330
47
102
}
330
47
100
AcDbScale
 70
     0
300
3/4" = 1'-0"
140
0.75
141
12.0
290
     0
  0
SCALE
  5
64
102
{ACAD_REACTORS
330
47
102
}
330
47
100
AcDbScale
 70
     0
300
1" = 1'-0"
140
1.0
141
12.0
290
     0
  0
SCALE
  5
65
102
{ACAD_REACTORS
330
47
102
}
330
47
100
AcDbScale
 70
     0
300
1-1/2" = 1'-0"
140
1.5
141
12.0
290
     0
  0
SCALE
  5
66
102
{ACAD_REACTORS
330
47
102
}
330
47
100
AcDbScale
 70
     0
300
3" = 1'-0"
140
3.0
141
12.0
290
     0
  0
SCALE
  5
67
102
{ACAD_REACTORS
330
47
102
}
330
47
100
AcDbScale
 70
     0
300
6" = 1'-0"
140
6.0
141
12.0
290
     0
  0
SCALE
  5
68
102
{ACAD_REACTORS
330
47
102
}
330
47
100
AcDbScale
 70
     0
300
1'-0" = 1'-0"
140
12.0
141
12.0
290
     0
  0
ENDSEC
  0
EOF
