  0
SECTION
  2
HEADER
  9
$ACADVER
  1
AC1015
  9
$ACADMAINTVER
 70
     6
  9
$DWGCODEPAGE
  3
ANSI_1250
  9
$INSBASE
 10
0.0
 20
0.0
 30
0.0
  9
$EXTMIN
 10
0.0
 20
0.0
 30
0.0
  9
$EXTMAX
 10
20000.0
 20
10000.0
 30
0.0
  9
$LIMMIN
 10
0.0
 20
0.0
  9
$LIMMAX
 10
20000.0
 20
10000.0
  9
$ORTHOMODE
 70
     0
  9
$REGENMODE
 70
     1
  9
$FILLMODE
 70
     1
  9
$QTEXTMODE
 70
     0
  9
$MIRRTEXT
 70
     1
  9
$LTSCALE
 40
1.0
  9
$ATTMODE
 70
     1
  9
$TEXTSIZE
 40
2.0
  9
$TRACEWID
 40
1.0
  9
$TEXTSTYLE
  7
Standard
  9
$CLAYER
  8
0
  9
$CELTYPE
  6
ByLayer
  9
$CECOLOR
 62
   256
  9
$CELTSCALE
 40
1.0
  9
$DISPSILH
 70
     0
  9
$DIMSCALE
 40
1.0
  9
$DIMASZ
 40
2.0
  9
$DIMEXO
 40
1.0
  9
$DIMDLI
 40
3.75
  9
$DIMRND
 40
0.0
  9
$DIMDLE
 40
0.0
  9
$DIMEXE
 40
1.0
  9
$DIMTP
 40
0.0
  9
$DIMTM
 40
0.0
  9
$DIMTXT
 40
2.0
  9
$DIMCEN
 40
2.5
  9
$DIMTSZ
 40
0.0
  9
$DIMTOL
 70
     0
  9
$DIMLIM
 70
     0
  9
$DIMTIH
 70
     1
  9
$DIMTOH
 70
     1
  9
$DIMSE1
 70
     0
  9
$DIMSE2
 70
     0
  9
$DIMTAD
 70
     1
  9
$DIMZIN
 70
     0
  9
$DIMBLK
  1

  9
$DIMASO
 70
     1
  9
$DIMSHO
 70
     1
  9
$DIMPOST
  1

  9
$DIMAPOST
  1

  9
$DIMALT
 70
     0
  9
$DIMALTD
 70
     3
  9
$DIMALTF
 40
0.0393700787
  9
$DIMLFAC
 40
1.0
  9
$DIMTOFL
 70
     1
  9
$DIMTVP
 40
0.0
  9
$DIMTIX
 70
     0
  9
$DIMSOXD
 70
     0
  9
$DIMSAH
 70
     0
  9
$DIMBLK1
  1

  9
$DIMBLK2
  1

  9
$DIMSTYLE
  2
ISO-25
  9
$DIMCLRD
 70
     0
  9
$DIMCLRE
 70
     0
  9
$DIMCLRT
 70
     0
  9
$DIMTFAC
 40
1.0
  9
$DIMGAP
 40
1.524
  9
$DIMJUST
 70
     0
  9
$DIMSD1
 70
     0
  9
$DIMSD2
 70
     0
  9
$DIMTOLJ
 70
     0
  9
$DIMTZIN
 70
     0
  9
$DIMALTZ
 70
     0
  9
$DIMALTTZ
 70
     0
  9
$DIMUPT
 70
     0
  9
$DIMDEC
 70
     2
  9
$DIMTDEC
 70
     0
  9
$DIMALTU
 70
     2
  9
$DIMALTTD
 70
     3
  9
$DIMTXSTY
  7
Standard
  9
$DIMAUNIT
 70
     0
  9
$DIMADEC
 70
     2
  9
$DIMALTRND
 40
0.0
  9
$DIMAZIN
 70
     0
  9
$DIMDSEP
 70
    44
  9
$DIMATFIT
 70
     3
  9
$DIMFRAC
 70
     0
  9
$DIMLDRBLK
  1

  9
$DIMLUNIT
 70
     2
  9
$DIMLWD
 70
    -2
  9
$DIMLWE
 70
    -2
  9
$DIMTMOVE
 70
     0
  9
$LUNITS
 70
     2
  9
$LUPREC
 70
     3
  9
$SKETCHINC
 40
1.0
  9
$FILLETRAD
 40
10.0
  9
$AUNITS
 70
     0
  9
$AUPREC
 70
     2
  9
$MENU
  1
.
  9
$ELEVATION
 40
0.0
  9
$PELEVATION
 40
0.0
  9
$THICKNESS
 40
0.0
  9
$LIMCHECK
 70
     0
  9
$CHAMFERA
 40
0.0
  9
$CHAMFERB
 40
0.0
  9
$CHAMFERC
 40
0.0
  9
$CHAMFERD
 40
0.0
  9
$SKPOLY
 70
     0
  9
$TDCREATE
 40
2459815.252759769
  9
$TDUCREATE
 40
2459815.169426435
  9
$TDUPDATE
 40
2459815.252760162
  9
$TDUUPDATE
 40
2459815.169426829
  9
$TDINDWG
 40
0.0000000116
  9
$TDUSRTIMER
 40
0.0000000116
  9
$USRTIMER
 70
     1
  9
$ANGBASE
 50
0.0
  9
$ANGDIR
 70
     0
  9
$PDMODE
 70
     0
  9
$PDSIZE
 40
-1.0
  9
$PLINEWID
 40
0.0
  9
$SPLFRAME
 70
     0
  9
$SPLINETYPE
 70
     6
  9
$SPLINESEGS
 70
     8
  9
$HANDSEED
  5
1C1
  9
$SURFTAB1
 70
     6
  9
$SURFTAB2
 70
     6
  9
$SURFTYPE
 70
     6
  9
$SURFU
 70
     6
  9
$SURFV
 70
     6
  9
$UCSBASE
  2

  9
$UCSNAME
  2

  9
$UCSORG
 10
0.0
 20
0.0
 30
0.0
  9
$UCSXDIR
 10
1.0
 20
0.0
 30
0.0
  9
$UCSYDIR
 10
0.0
 20
1.0
 30
0.0
  9
$UCSORTHOREF
  2

  9
$UCSORTHOVIEW
 70
     0
  9
$UCSORGTOP
 10
0.0
 20
0.0
 30
0.0
  9
$UCSORGBOTTOM
 10
0.0
 20
0.0
 30
0.0
  9
$UCSORGLEFT
 10
0.0
 20
0.0
 30
0.0
  9
$UCSORGRIGHT
 10
0.0
 20
0.0
 30
0.0
  9
$UCSORGFRONT
 10
0.0
 20
0.0
 30
0.0
  9
$UCSORGBACK
 10
0.0
 20
0.0
 30
0.0
  9
$PUCSBASE
  2

  9
$PUCSNAME
  2

  9
$PUCSORG
 10
0.0
 20
0.0
 30
0.0
  9
$PUCSXDIR
 10
1.0
 20
0.0
 30
0.0
  9
$PUCSYDIR
 10
0.0
 20
1.0
 30
0.0
  9
$PUCSORTHOREF
  2

  9
$PUCSORTHOVIEW
 70
     0
  9
$PUCSORGTOP
 10
0.0
 20
0.0
 30
0.0
  9
$PUCSORGBOTTOM
 10
0.0
 20
0.0
 30
0.0
  9
$PUCSORGLEFT
 10
0.0
 20
0.0
 30
0.0
  9
$PUCSORGRIGHT
 10
0.0
 20
0.0
 30
0.0
  9
$PUCSORGFRONT
 10
0.0
 20
0.0
 30
0.0
  9
$PUCSORGBACK
 10
0.0
 20
0.0
 30
0.0
  9
$USERI1
 70
     0
  9
$USERI2
 70
     0
  9
$USERI3
 70
     0
  9
$USERI4
 70
     0
  9
$USERI5
 70
     0
  9
$USERR1
 40
0.0
  9
$USERR2
 40
0.0
  9
$USERR3
 40
0.0
  9
$USERR4
 40
0.0
  9
$USERR5
 40
0.0
  9
$WORLDVIEW
 70
     1
  9
$SHADEDGE
 70
     3
  9
$SHADEDIF
 70
    70
  9
$TILEMODE
 70
     1
  9
$MAXACTVP
 70
    64
  9
$PINSBASE
 10
0.0
 20
0.0
 30
0.0
  9
$PLIMCHECK
 70
     0
  9
$PEXTMIN
 10
1.0000000000E+20
 20
1.0000000000E+20
 30
1.0000000000E+20
  9
$PEXTMAX
 10
-1.0000000000E+20
 20
-1.0000000000E+20
 30
-1.0000000000E+20
  9
$PLIMMIN
 10
0.0
 20
0.0
  9
$PLIMMAX
 10
420.0
 20
297.0
  9
$UNITMODE
 70
     0
  9
$VISRETAIN
 70
     1
  9
$PLINEGEN
 70
     0
  9
$PSLTSCALE
 70
     1
  9
$TREEDEPTH
 70
  3020
  9
$CMLSTYLE
  2
Standard
  9
$CMLJUST
 70
     0
  9
$CMLSCALE
 40
20.0
  9
$PROXYGRAPHICS
 70
     1
  9
$MEASUREMENT
 70
     1
  9
$CELWEIGHT
370
    -1
  9
$ENDCAPS
280
     0
  9
$JOINSTYLE
280
     0
  9
$LWDISPLAY
290
     1
  9
$INSUNITS
 70
     4
  9
$HYPERLINKBASE
  1

  9
$STYLESHEET
  1

  9
$XEDIT
290
     1
  9
$CEPSNTYPE
380
     0
  9
$PSTYLEMODE
290
     1
  9
$FINGERPRINTGUID
  2
{4285420a-1968-470c-b5d9-f67e29897b22}
  9
$VERSIONGUID
  2
{FAEB1C32-E019-11D5-929B-00C0DF256EC4}
  9
$EXTNAMES
290
     1
  9
$PSVPSCALE
 40
0.0
  9
$OLESTARTUP
290
     0
  0
ENDSEC
  0
SECTION
  2
CLASSES
  0
CLASS
  1
ACDBDICTIONARYWDFLT
  2
AcDbDictionaryWithDefault
  3
ObjectDBX Classes
 90
        0
280
     0
281
     0
  0
CLASS
  1
VISUALSTYLE
  2
AcDbVisualStyle
  3
ObjectDBX Classes
 90
     4095
280
     0
281
     0
  0
CLASS
  1
MATERIAL
  2
AcDbMaterial
  3
ObjectDBX Classes
 90
     1153
280
     0
281
     0
  0
CLASS
  1
SCALE
  2
AcDbScale
  3
ObjectDBX Classes
 90
     1153
280
     0
281
     0
  0
CLASS
  1
TABLESTYLE
  2
AcDbTableStyle
  3
ObjectDBX Classes
 90
     4095
280
     0
281
     0
  0
CLASS
  1
MLEADERSTYLE
  2
AcDbMLeaderStyle
  3
ACDB_MLEADERSTYLE_CLASS
 90
     4095
280
     0
281
     0
  0
CLASS
  1
SUN
  2
AcDbSun
  3
SCENEOE
 90
     1153
280
     0
281
     0
  0
CLASS
  1
ACDBPLACEHOLDER
  2
AcDbPlaceHolder
  3
ObjectDBX Classes
 90
        0
280
     0
281
     0
  0
CLASS
  1
LAYOUT
  2
AcDbLayout
  3
ObjectDBX Classes
 90
        0
280
     0
281
     0
  0
ENDSEC
  0
SECTION
  2
TABLES
  0
TABLE
  2
VPORT
  5
8
330
0
100
AcDbSymbolTable
 70
     1
  0
VPORT
  5
29
330
8
100
AcDbSymbolTableRecord
100
AcDbViewportTableRecord
  2
*Active
 70
     0
 10
0.0
 20
0.0
 11
1.0
 21
1.0
 12
10000.0
 22
5000.0
 13
0.0
 23
0.0
 14
10.0
 24
10.0
 15
10.0
 25
10.0
 16
0.0
 26
0.0
 36
1.0
 17
0.0
 27
0.0
 37
0.0
 40
10000.0
 41
2.0
 42
50.0
 43
0.0
 44
0.0
 50
0.0
 51
0.0
 71
     0
 72
  2000
 73
     1
 74
     3
 75
     0
 76
     0
 77
     0
 78
     0
281
     0
 65
     1
110
0.0
120
0.0
130
0.0
111
1.0
121
0.0
131
0.0
112
0.0
122
1.0
132
0.0
 79
     0
146
0.0
  0
ENDTAB
  0
TABLE
  2
LTYPE
  5
5
330
0
100
AcDbSymbolTable
 70
     6
  0
LTYPE
  5
14
330
5
100
AcDbSymbolTableRecord
100
AcDbLinetypeTableRecord
  2
ByBlock
 70
     0
  3

 72
    65
 73
     0
 40
0.0
  0
LTYPE
  5
15
330
5
100
AcDbSymbolTableRecord
100
AcDbLinetypeTableRecord
  2
ByLayer
 70
     0
  3

 72
    65
 73
     0
 40
0.0
  0
LTYPE
  5
16
330
5
100
AcDbSymbolTableRecord
100
AcDbLinetypeTableRecord
  2
Continuous
 70
     0
  3
Solid line
 72
    65
 73
     0
 40
0.0
  0
LTYPE
  5
6E
330
5
100
AcDbSymbolTableRecord
100
AcDbLinetypeTableRecord
  2
HIDDEN
 70
     0
  3
Hidden __ __ __ __ __ __ __ __ __ __ __ __ __ __
 72
    65
 73
     2
 40
1.905
 49
1.27
 74
     0
 49
-0.635
 74
     0
  0
LTYPE
  5
6F
330
5
100
AcDbSymbolTableRecord
100
AcDbLinetypeTableRecord
  2
PHANTOM
 70
     0
  3
Phantom ______  __  __  ______  __  __  ______
 72
    65
 73
     6
 40
12.7
 49
6.35
 74
     0
 49
-1.27
 74
     0
 49
1.27
 74
     0
 49
-1.27
 74
     0
 49
1.27
 74
     0
 49
-1.27
 74
     0
  0
LTYPE
  5
70
330
5
100
AcDbSymbolTableRecord
100
AcDbLinetypeTableRecord
  2
CENTER
 70
     0
  3
Center ____ _ ____ _ ____ _ ____ _ ____ _ ____
 72
    65
 73
     4
 40
10.16
 49
6.35
 74
     0
 49
-1.27
 74
     0
 49
1.27
 74
     0
 49
-1.27
 74
     0
  0
LTYPE
  5
71
330
5
100
AcDbSymbolTableRecord
100
AcDbLinetypeTableRecord
  2
CENTERX2
 70
     0
  3
Center (2x) ________  __  ________  __  _____
 72
    65
 73
     4
 40
20.32
 49
12.7
 74
     0
 49
-2.54
 74
     0
 49
2.54
 74
     0
 49
-2.54
 74
     0
  0
LTYPE
  5
72
330
5
100
AcDbSymbolTableRecord
100
AcDbLinetypeTableRecord
  2
DOT2
 70
     0
  3
Dot (.5x) ........................................
 72
    65
 73
     2
 40
0.635
 49
0.0
 74
     0
 49
-0.635
 74
     0
  0
ENDTAB
  0
TABLE
  2
LAYER
  5
2
330
0
100
AcDbSymbolTable
 70
    13
  0
LAYER
  5
10
330
2
100
AcDbSymbolTableRecord
100
AcDbLayerTableRecord
  2
0
 70
     0
 62
     7
  6
Continuous
370
    -3
390
F
  0
LAYER
  5
73
330
2
100
AcDbSymbolTableRecord
100
AcDbLayerTableRecord
  2
FORMAT
 70
     0
 62
     7
  6
Continuous
370
    -3
390
F
  0
LAYER
  5
74
330
2
100
AcDbSymbolTableRecord
100
AcDbLayerTableRecord
  2
OSA
 70
     0
 62
     7
  6
CENTER
370
    -3
390
F
  0
LAYER
  5
75
330
2
100
AcDbSymbolTableRecord
100
AcDbLayerTableRecord
  2
0_35
 70
     0
 62
     7
  6
Continuous
370
    35
390
F
  0
LAYER
  5
76
330
2
100
AcDbSymbolTableRecord
100
AcDbLayerTableRecord
  2
0_5
 70
     0
 62
     7
  6
Continuous
370
    50
390
F
  0
LAYER
  5
77
330
2
100
AcDbSymbolTableRecord
100
AcDbLayerTableRecord
  2
0_25
 70
     0
 62
     7
  6
Continuous
370
    25
390
F
  0
LAYER
  5
78
330
2
100
AcDbSymbolTableRecord
100
AcDbLayerTableRecord
  2
0_18
 70
     0
 62
     7
  6
Continuous
370
    -3
390
F
  0
LAYER
  5
79
330
2
100
AcDbSymbolTableRecord
100
AcDbLayerTableRecord
  2
SLD-0
 70
     0
 62
   179
  6
Continuous
370
    -3
390
F
  0
LAYER
  5
7A
330
2
100
AcDbSymbolTableRecord
100
AcDbLayerTableRecord
  2
KOTY
 70
     0
 62
     7
  6
Continuous
370
    -3
390
F
  0
LAYER
  5
7B
330
2
100
AcDbSymbolTableRecord
100
AcDbLayerTableRecord
  2
SILNA
 70
     0
 62
   179
  6
Continuous
370
    -3
390
F
  0
LAYER
  5
7C
330
2
100
AcDbSymbolTableRecord
100
AcDbLayerTableRecord
  2
0_18_1
 70
     0
 62
   179
  6
Continuous
370
    -3
390
F
  0
LAYER
  5
7D
330
2
100
AcDbSymbolTableRecord
100
AcDbLayerTableRecord
  2
0_35_1
 70
     0
 62
   179
  6
Continuous
370
    35
390
F
  0
LAYER
  5
7E
330
2
100
AcDbSymbolTableRecord
100
AcDbLayerTableRecord
  2
0_5_1
 70
     0
 62
   179
  6
Continuous
370
    50
390
F
  0
ENDTAB
  0
TABLE
  2
STYLE
  5
3
330
0
100
AcDbSymbolTable
 70
     1
  0
STYLE
  5
11
330
3
100
AcDbSymbolTableRecord
100
AcDbTextStyleTableRecord
  2
Standard
 70
     0
 40
0.0
 41
1.0
 50
0.0
 71
     0
 42
2.0
  3
txt
  4

  0
ENDTAB
  0
TABLE
  2
VIEW
  5
6
330
0
100
AcDbSymbolTable
 70
     0
  0
ENDTAB
  0
TABLE
  2
UCS
  5
7
330
0
100
AcDbSymbolTable
 70
     0
  0
ENDTAB
  0
TABLE
  2
APPID
  5
9
330
0
100
AcDbSymbolTable
 70
     1
  0
APPID
  5
12
330
9
100
AcDbSymbolTableRecord
100
AcDbRegAppTableRecord
  2
ACAD
 70
     0
  0
ENDTAB
  0
TABLE
  2
DIMSTYLE
  5
A
330
0
100
AcDbSymbolTable
 70
     1
100
AcDbDimStyleTable
  0
DIMSTYLE
105
27
330
A
100
AcDbSymbolTableRecord
100
AcDbDimStyleTableRecord
  2
ISO-25
 70
     0
 41
2.5
 42
0.625
 43
3.75
 44
1.25
 73
     0
 74
     0
 77
     1
 78
     8
140
2.5
141
2.5
143
0.0393700787
147
0.625
171
     3
172
     1
178
     0
271
     2
272
     2
274
     3
278
    44
283
     0
284
     8
340
11
  0
ENDTAB
  0
TABLE
  2
BLOCK_RECORD
  5
1
330
0
100
AcDbSymbolTable
 70
     1
  0
BLOCK_RECORD
  5
1F
330
1
100
AcDbSymbolTableRecord
100
AcDbBlockTableRecord
  2
*Model_Space
340
22
  0
BLOCK_RECORD
  5
1B
330
1
100
AcDbSymbolTableRecord
100
AcDbBlockTableRecord
  2
*Paper_Space
340
1E
  0
BLOCK_RECORD
  5
23
330
1
100
AcDbSymbolTableRecord
100
AcDbBlockTableRecord
  2
*Paper_Space0
340
26
  0
ENDTAB
  0
ENDSEC
  0
SECTION
  2
BLOCKS
  0
BLOCK
  5
20
330
1F
100
AcDbEntity
  8
0
100
AcDbBlockBegin
  2
*Model_Space
 70
     0
 10
0.0
 20
0.0
 30
0.0
  3
*Model_Space
  1

  0
ENDBLK
  5
21
330
1F
100
AcDbEntity
  8
0
100
AcDbBlockEnd
  0
BLOCK
  5
1C
330
1B
100
AcDbEntity
 67
     1
  8
0
100
AcDbBlockBegin
  2
*Paper_Space
 70
     0
 10
0.0
 20
0.0
 30
0.0
  3
*Paper_Space
  1

  0
ENDBLK
  5
1D
330
1B
100
AcDbEntity
 67
     1
  8
0
100
AcDbBlockEnd
  0
BLOCK
  5
24
330
23
100
AcDbEntity
  8
0
100
AcDbBlockBegin
  2
*Paper_Space0
 70
     0
 10
0.0
 20
0.0
 30
0.0
  3
*Paper_Space0
  1

  0
ENDBLK
  5
25
330
23
100
AcDbEntity
  8
0
100
AcDbBlockEnd
  0
ENDSEC
  0
SECTION
  2
ENTITIES
  0
ARC
  5
7F
330
1F
100
AcDbEntity
  8
0
  6
Continuous
 62
     7
370
    25
100
AcDbCircle
 10
6105.3148566965
 20
5341.3437604031
 30
0.0
 40
1.000000000000909
100
AcDbArc
 50
90.0
 51
180.0
  0
ARC
  5
80
330
1F
100
AcDbEntity
  8
0
  6
Continuous
 62
     7
370
    25
100
AcDbCircle
 10
6105.3148566965
 20
5324.3437604031
 30
0.0
 40
1.000000000000909
100
AcDbArc
 50
180.0
 51
270.0
  0
LINE
  5
81
330
1F
100
AcDbEntity
  8
0
  6
Continuous
 62
     7
370
    25
100
AcDbLine
 10
6109.3148566965
 20
5342.3437604031
 30
0.0
 11
6105.3148566965
 21
5342.3437604031
 31
0.0
  0
LINE
  5
82
330
1F
100
AcDbEntity
  8
0
  6
Continuous
 62
     7
370
    25
100
AcDbLine
 10
6105.3148566965
 20
5323.3437604031
 30
0.0
 11
6109.3148566965
 21
5323.3437604031
 31
0.0
  0
ARC
  5
83
330
1F
100
AcDbEntity
  8
0
  6
Continuous
 62
     7
370
    25
100
AcDbCircle
 10
6442.7226539757
 20
5324.3437604031
 30
0.0
 40
1.000000000000909
100
AcDbArc
 50
270.0
 51
0.0
  0
ARC
  5
84
330
1F
100
AcDbEntity
  8
0
  6
Continuous
 62
     7
370
    25
100
AcDbCircle
 10
6442.7226539757
 20
5341.3437604031
 30
0.0
 40
1.000000000000909
100
AcDbArc
 50
0.0
 51
90.0
  0
LINE
  5
85
330
1F
100
AcDbEntity
  8
0
  6
Continuous
 62
     7
370
    25
100
AcDbLine
 10
6438.7226539757
 20
5323.3437604031
 30
0.0
 11
6442.7226539757
 21
5323.3437604031
 31
0.0
  0
LINE
  5
86
330
1F
100
AcDbEntity
  8
0
  6
Continuous
 62
     7
370
    25
100
AcDbLine
 10
6442.7226539757
 20
5342.3437604031
 30
0.0
 11
6438.7226539757
 21
5342.3437604031
 31
0.0
  0
LINE
  5
87
330
1F
100
AcDbEntity
  8
0
  6
Continuous
 62
     7
370
    25
100
AcDbLine
 10
6286.5187553361
 20
5403.6844268106
 30
0.0
 11
6286.5187553361
 21
5403.6847761776
 31
0.0
  0
LINE
  5
88
330
1F
100
AcDbEntity
  8
0
  6
Continuous
 62
     7
370
    25
100
AcDbLine
 10
6261.5187553361
 20
5403.6847761774
 30
0.0
 11
6261.5187553361
 21
5403.6844268105
 31
0.0
  0
LINE
  5
89
330
1F
100
AcDbEntity
  8
0
  6
Continuous
 62
     7
370
    25
100
AcDbLine
 10
6104.3148566965
 20
5333.2284292976
 30
0.0
 11
6104.3148566965
 21
5324.3437604031
 31
0.0
  0
LINE
  5
8A
330
1F
100
AcDbEntity
  8
0
  6
Continuous
 62
     7
370
    25
100
AcDbLine
 10
6104.3148566965
 20
5341.3437604031
 30
0.0
 11
6104.3148566965
 21
5333.2284292976
 31
0.0
  0
LINE
  5
8B
330
1F
100
AcDbEntity
  8
0
  6
Continuous
 62
     7
370
    25
100
AcDbLine
 10
6109.3148566965
 20
5333.2736844616
 30
0.0
 11
6109.3148566965
 21
5323.3437604031
 31
0.0
  0
LINE
  5
8C
330
1F
100
AcDbEntity
  8
0
  6
Continuous
 62
     7
370
    25
100
AcDbLine
 10
6109.3148566965
 20
5342.3437604031
 30
0.0
 11
6109.3148566965
 21
5333.2736844616
 31
0.0
  0
LINE
  5
8D
330
1F
100
AcDbEntity
  8
0
  6
Continuous
 62
     7
370
    25
100
AcDbLine
 10
6443.7226539757
 20
5324.3437604031
 30
0.0
 11
6443.7226539757
 21
5341.3437604031
 31
0.0
  0
LINE
  5
8E
330
1F
100
AcDbEntity
  8
0
  6
Continuous
 62
     7
370
    25
100
AcDbLine
 10
6438.7226539757
 20
5323.3437604031
 30
0.0
 11
6438.7226539757
 21
5342.3437604031
 31
0.0
  0
LWPOLYLINE
  5
8F
330
1F
100
AcDbEntity
  8
0
  6
Continuous
 62
     7
370
    25
100
AcDbPolyline
 90
       19
 70
   128
 43
0.0
 10
6115.1463435537
 20
5290.9783124562
 10
6115.7126647676
 20
5284.4453098458
 10
6117.0587270098
 20
5277.9459809292
 10
6119.1662339365
 20
5271.5486030836
 10
6122.0168892042
 20
5265.3214536865
 10
6125.609434113
 20
5259.2892261067
 10
6129.9219479338
 20
5253.4712582192
 10
6134.9052017606
 20
5247.9276790829
 10
6140.5099666874
 20
5242.7186177569
 10
6146.7241433368
 20
5237.8665990893
 10
6153.5174582625
 20
5233.3852792696
 10
6160.8153113911
 20
5229.3198755152
 10
6168.5431026494
 20
5225.7156050437
 10
6176.6793460068
 20
5222.5907271193
 10
6185.1886543696
 20
5219.9512680936
 10
6193.9794538545
 20
5217.8224509268
 10
6202.9601705784
 20
5216.2294985792
 10
6213.9960125946
 20
5215.0330894574
 10
6225.1463549126
 20
5214.6315463969
  0
LINE
  5
90
330
1F
100
AcDbEntity
  8
0
  6
Continuous
 62
     7
370
    25
100
AcDbLine
 10
6109.0187553361
 20
5525.7585301189
 30
0.0
 11
6115.1463435537
 21
5290.9783124562
 31
0.0
  0
LINE
  5
91
330
1F
100
AcDbEntity
  8
0
  6
Continuous
 62
     7
370
    25
100
AcDbLine
 10
6439.0187553361
 20
5525.7585301189
 30
0.0
 11
6109.0187553361
 21
5525.7585301189
 31
0.0
  0
LINE
  5
92
330
1F
100
AcDbEntity
  8
0
  6
Continuous
 62
     7
370
    25
100
AcDbLine
 10
6432.8911671185
 20
5290.9783124562
 30
0.0
 11
6439.0187553361
 21
5525.7585301189
 31
0.0
  0
LWPOLYLINE
  5
93
330
1F
100
AcDbEntity
  8
0
  6
Continuous
 62
     7
370
    25
100
AcDbPolyline
 90
       19
 70
   128
 43
0.0
 10
6322.8911557596
 20
5214.6315463969
 10
6332.1436074461
 20
5214.9115098619
 10
6341.3628196619
 20
5215.7436234029
 10
6350.4518578996
 20
5217.1162217389
 10
6359.3137876519
 20
5219.0176395886
 10
6367.913551544
 20
5221.4474381003
 10
6376.2234572286
 20
5224.390517599
 10
6384.15747126
 20
5227.813185236
 10
6391.6295601926
 20
5231.6817481626
 10
6398.6061849528
 20
5235.9871586822
 10
6405.0690193294
 20
5240.7090395786
 10
6410.9526502431
 20
5245.7954597304
 10
6416.1916646148
 20
5251.1944880159
 10
6420.7583917183
 20
5256.889381303
 10
6424.645424681
 20
5262.8569400353
 10
6427.8153683617
 20
5269.0328581977
 10
6430.2308276189
 20
5275.3528297755
 10
6432.1199940391
 20
5283.1179849073
 10
6432.8911671185
 20
5290.9783124562
  0
LINE
  5
94
330
1F
100
AcDbEntity
  8
0
  6
Continuous
 62
     7
370
    25
100
AcDbLine
 10
6322.8911557596
 20
5214.6315463969
 30
0.0
 11
6225.1463549126
 21
5214.6315463969
 31
0.0
  0
ELLIPSE
  5
95
330
1F
100
AcDbEntity
  8
0
  6
Continuous
 62
     7
370
    25
100
AcDbEllipse
 10
6310.5187553361
 20
5327.8137643306
 30
0.0
 11
3.510649548843503E-10
 21
110.0076868781262
 31
0.0
210
0.0
220
0.0
230
1.0
 40
0.9999301242
 41
4.712388980387894
 42
6.283185307179586
  0
LINE
  5
96
330
1F
100
AcDbEntity
  8
0
  6
Continuous
 62
     7
370
    25
100
AcDbLine
 10
6237.5187553361
 20
5437.8214512087
 30
0.0
 11
6310.5187553361
 21
5437.8214512087
 31
0.0
  0
ELLIPSE
  5
97
330
1F
100
AcDbEntity
  8
0
  6
Continuous
 62
     7
370
    25
100
AcDbEllipse
 10
6237.5187553361
 20
5327.8137643306
 30
0.0
 11
3.519744495861232E-10
 21
110.0076868781262
 31
0.0
210
0.0
220
0.0
230
1.0
 40
0.9999301242
 41
0.0
 42
1.570796326798096
  0
LINE
  5
98
330
1F
100
AcDbEntity
  8
0
  6
Continuous
 62
     7
370
    25
100
AcDbLine
 10
6127.5187553361
 20
5303.5533272293
 30
0.0
 11
6127.5187553361
 21
5327.8137643306
 31
0.0
  0
ELLIPSE
  5
99
330
1F
100
AcDbEntity
  8
0
  6
Continuous
 62
     7
370
    25
100
AcDbEllipse
 10
6237.5187553361
 20
5303.5533272293
 30
0.0
 11
110.0
 21
0.0
 31
0.0
210
0.0
220
0.0
230
1.0
 40
0.7072534177
 41
3.141592653589824
 42
4.712388980384699
  0
LINE
  5
9A
330
1F
100
AcDbEntity
  8
0
  6
Continuous
 62
     7
370
    25
100
AcDbLine
 10
6310.5187553361
 20
5225.7554512791
 30
0.0
 11
6237.5187553361
 21
5225.7554512791
 31
0.0
  0
ELLIPSE
  5
9B
330
1F
100
AcDbEntity
  8
0
  6
Continuous
 62
     7
370
    25
100
AcDbEllipse
 10
6310.5187553361
 20
5303.5533272293
 30
0.0
 11
110.0
 21
0.0
 31
0.0
210
0.0
220
0.0
230
1.0
 40
0.7072534177
 41
4.712388980384699
 42
6.283185307179586
  0
LINE
  5
9C
330
1F
100
AcDbEntity
  8
0
  6
Continuous
 62
     7
370
    25
100
AcDbLine
 10
6420.5187553361
 20
5303.5533272293
 30
0.0
 11
6420.5187553361
 21
5327.8137643306
 31
0.0
  0
LWPOLYLINE
  5
9D
330
1F
100
AcDbEntity
  8
0
  6
Continuous
 62
     7
370
    25
100
AcDbPolyline
 90
       20
 70
   128
 43
0.0
 10
6225.1463549126
 20
5214.6315463969
 10
6224.5656650189
 20
5208.492280437
 10
6222.8440760418
 20
5202.3679048646
 10
6220.394278367
 20
5196.2530334717
 10
6217.6701573899
 20
5190.1417423957
 10
6215.125598506
 20
5184.028107774
 10
6210.9713604879
 20
5172.0081671658
 10
6206.8478762028
 20
5159.9878251767
 10
6192.1211466131
 20
5117.0580323587
 10
6165.8234152029
 20
5040.3976880409
 10
6139.5256837927
 20
4963.7373437231
 10
6136.6329333376
 20
4955.3047058481
 10
6133.7401828824
 20
4946.8720679731
 10
6130.8474324273
 20
4938.4394300982
 10
6127.7852779132
 20
4930.0090031918
 10
6125.4760585001
 20
4924.7148951626
 10
6123.1316226064
 20
4919.4212467596
 10
6121.0469308084
 20
4914.1242083194
 10
6119.5169436824
 20
4908.8199301789
 10
6118.8366218047
 20
4903.5045626748
  0
LWPOLYLINE
  5
9E
330
1F
100
AcDbEntity
  8
0
  6
Continuous
 62
     7
370
    25
100
AcDbPolyline
 90
        8
 70
   128
 43
0.0
 10
6118.8366218047
 20
4903.5045626748
 10
6116.2674334919
 20
4903.9819511706
 10
6114.0139156224
 20
4905.2848526738
 10
6111.6862436641
 20
4907.9211249309
 10
6110.5344287667
 20
4910.150357527
 10
6109.7461215668
 20
4912.537424901
 10
6109.1999666551
 20
4915.5356955835
 10
6109.0187553361
 20
4918.5814852268
  0
LINE
  5
9F
330
1F
100
AcDbEntity
  8
0
  6
Continuous
 62
     7
370
    25
100
AcDbLine
 10
6109.0187553361
 20
4918.5814852268
 30
0.0
 11
6109.0187553361
 21
4918.9107884158
 31
0.0
  0
LWPOLYLINE
  5
A0
330
1F
100
AcDbEntity
  8
0
  6
Continuous
 62
     7
370
    25
100
AcDbPolyline
 90
       19
 70
   128
 43
0.0
 10
6109.0187553361
 20
4918.9107884158
 10
6109.2814440164
 20
4936.0328873958
 10
6109.5447179251
 20
4953.1325479085
 10
6109.8203765329
 20
4969.7573619947
 10
6110.0960351407
 20
4986.3821760808
 10
6110.3716937484
 20
5003.006990167
 10
6110.6473523562
 20
5019.6318042531
 10
6110.9230109639
 20
5036.2566183392
 10
6112.4391333066
 20
5127.693095813
 10
6113.9552556493
 20
5219.1295732868
 10
6114.122029107
 20
5229.1875858089
 10
6114.2888025647
 20
5239.2455983311
 10
6114.4555760224
 20
5249.3036108532
 10
6114.6180780525
 20
5259.5253957953
 10
6114.7136903263
 20
5266.2009582503
 10
6114.8093396758
 20
5272.8750991723
 10
6114.9100094385
 20
5279.3567505329
 10
6115.0206829519
 20
5285.4548443037
 10
6115.1463435537
 20
5290.9783124562
  0
LWPOLYLINE
  5
A1
330
1F
100
AcDbEntity
  8
0
  6
Continuous
 62
     7
370
    25
100
AcDbPolyline
 90
        8
 70
   128
 43
0.0
 10
6439.0187553361
 20
4918.5814852268
 10
6438.7505331787
 20
4914.8591342127
 10
6437.9073941743
 20
4911.2329815586
 10
6437.1276294711
 20
4909.3132228395
 10
6436.0870021875
 20
4907.5243597096
 10
6433.7587912282
 20
4905.0804889562
 10
6431.3899770907
 20
4903.8491362685
 10
6429.2008888675
 20
4903.5045626748
  0
LWPOLYLINE
  5
A2
330
1F
100
AcDbEntity
  8
0
  6
Continuous
 62
     7
370
    25
100
AcDbPolyline
 90
       19
 70
   128
 43
0.0
 10
6429.2008888675
 20
4903.5045626748
 10
6428.56372095
 20
4908.6186173803
 10
6427.1297468712
 20
4913.7222726101
 10
6425.1616317905
 20
4918.8189565251
 10
6422.9220408674
 20
4923.9120972868
 10
6420.6736392613
 20
4929.0051230563
 10
6418.6790921317
 20
4934.1014619948
 10
6410.4312197435
 20
4958.1421341767
 10
6395.7044901538
 20
5001.0719269947
 10
6369.4067587436
 20
5077.7322713126
 10
6343.1090273334
 20
5154.3926156304
 10
6340.2162768782
 20
5162.8252535054
 10
6337.3235264231
 20
5171.2578913803
 10
6334.430775968
 20
5179.6905292553
 10
6331.2514583383
 20
5188.1194270131
 10
6328.3112710584
 20
5194.7363616695
 10
6325.5606274533
 20
5201.3557701456
 10
6323.5756223984
 20
5207.9851713151
 10
6322.8911557596
 20
5214.6315463969
  0
LWPOLYLINE
  5
A3
330
1F
100
AcDbEntity
  8
0
  6
Continuous
 62
     7
370
    25
100
AcDbPolyline
 90
       20
 70
   128
 43
0.0
 10
6432.8911671185
 20
5290.9783124562
 10
6433.0123679296
 20
5285.6759605721
 10
6433.1195217247
 20
5279.8350267354
 10
6433.2170662125
 20
5273.6256588172
 10
6433.3094391019
 20
5267.2180046887
 10
6433.4010781017
 20
5260.782212221
 10
6433.4964209207
 20
5254.4884292854
 10
6433.7338697985
 20
5240.1404883236
 10
6433.9715977818
 20
5225.8032486557
 10
6434.8206262937
 20
5174.5988212704
 10
6436.3367486364
 20
5083.1623437966
 10
6437.852870979
 20
4991.7258663228
 10
6438.001775852
 20
4982.7454979995
 10
6438.1506807249
 20
4973.7651296761
 10
6438.2995855979
 20
4964.7847613528
 10
6438.4484904708
 20
4955.8043930295
 10
6438.5970427458
 20
4946.8105056143
 10
6438.736009889
 20
4937.4491110396
 10
6438.87181994
 20
4927.9666691972
 10
6439.0187553361
 20
4918.9107884158
  0
LINE
  5
A4
330
1F
100
AcDbEntity
  8
0
  6
Continuous
 62
     7
370
    25
100
AcDbLine
 10
6439.0187553361
 20
4918.9107884158
 30
0.0
 11
6439.0187553361
 21
4918.5814852268
 31
0.0
  0
LINE
  5
A5
330
1F
100
AcDbEntity
  8
0
  6
Continuous
 62
     7
370
    25
100
AcDbLine
 10
6429.2008888675
 20
4903.5045626748
 30
0.0
 11
6118.8366218047
 21
4903.5045626748
 31
0.0
  0
LINE
  5
A6
330
1F
100
AcDbEntity
  8
0
  6
Continuous
 62
     7
370
    25
100
AcDbLine
 10
6237.5187553361
 20
5251.5974117174
 30
0.0
 11
6310.5187553361
 21
5251.5974117174
 31
0.0
  0
LINE
  5
A7
330
1F
100
AcDbEntity
  8
0
  6
Continuous
 62
     7
370
    25
100
AcDbLine
 10
6109.0187553361
 20
4918.9107884158
 30
0.0
 11
6109.0187553361
 21
5323.3437604031
 31
0.0
  0
LINE
  5
A8
330
1F
100
AcDbEntity
  8
0
  6
Continuous
 62
     7
370
    25
100
AcDbLine
 10
6109.0187553361
 20
5342.3437604031
 30
0.0
 11
6109.0187553361
 21
5525.7585301189
 31
0.0
  0
ELLIPSE
  5
A9
330
1F
100
AcDbEntity
  8
0
  6
Continuous
 62
     7
370
    25
100
AcDbEllipse
 10
6109.8585582426
 20
5332.8437604032
 30
0.0
 11
9.125069482252002E-6
 21
5.000000000000909
 31
0.0
210
0.0
220
0.0
230
1.0
 40
0.0261010764
 41
0.0
 42
6.283185307179586
  0
LINE
  5
AA
330
1F
100
AcDbEntity
  8
0
  6
Continuous
 62
     7
370
    25
100
AcDbLine
 10
6439.0187553361
 20
4918.9107884158
 30
0.0
 11
6439.0187553361
 21
5323.3437604031
 31
0.0
  0
LINE
  5
AB
330
1F
100
AcDbEntity
  8
0
  6
Continuous
 62
     7
370
    25
100
AcDbLine
 10
6439.0187553361
 20
5342.3437604031
 30
0.0
 11
6439.0187553361
 21
5525.7585301189
 31
0.0
  0
ELLIPSE
  5
AC
330
1F
100
AcDbEntity
  8
0
  6
Continuous
 62
     7
370
    25
100
AcDbEllipse
 10
6438.1789524296
 20
5332.8437604032
 30
0.0
 11
-9.125069482252002E-6
 21
5.000000000000909
 31
0.0
210
0.0
220
0.0
230
1.0
 40
0.0261010764
 41
0.0
 42
6.283185307179586
  0
LINE
  5
AD
330
1F
100
AcDbEntity
  8
0
  6
Continuous
 62
     7
370
    25
100
AcDbLine
 10
6237.5187553361
 20
5437.8214512087
 30
0.0
 11
6237.5187553361
 21
5251.5974117174
 31
0.0
  0
LINE
  5
AE
330
1F
100
AcDbEntity
  8
0
  6
Continuous
 62
     7
370
    25
100
AcDbLine
 10
6310.5187553361
 20
5251.5974117174
 30
0.0
 11
6310.5187553361
 21
5437.8214512087
 31
0.0
  0
ARC
  5
AF
330
1F
100
AcDbEntity
  8
0
  6
Continuous
 62
     7
370
    25
100
AcDbCircle
 10
6274.0187553361
 20
5403.6844268105
 30
0.0
 40
12.5
100
AcDbArc
 50
180.0000000004
 51
0.0000000004
  0
CIRCLE
  5
B0
330
1F
100
AcDbEntity
  8
0
  6
Continuous
 62
     7
370
    25
100
AcDbCircle
 10
6274.0187553361
 20
5403.6847761775
 30
0.0
 40
12.49999999999986
  0
LINE
  5
B1
330
1F
100
AcDbEntity
  8
0
  6
Continuous
 62
     8
370
    25
100
AcDbLine
 10
6105.3148566965
 20
5333.2736844616
 30
0.0
 11
6105.3148566965
 21
5323.3437604031
 31
0.0
  0
LINE
  5
B2
330
1F
100
AcDbEntity
  8
0
  6
Continuous
 62
     8
370
    25
100
AcDbLine
 10
6105.3148566965
 20
5342.3437604031
 30
0.0
 11
6105.3148566965
 21
5333.2736844616
 31
0.0
  0
LINE
  5
B3
330
1F
100
AcDbEntity
  8
0
  6
Continuous
 62
     8
370
    25
100
AcDbLine
 10
6442.7226539757
 20
5323.3437604031
 30
0.0
 11
6442.7226539757
 21
5342.3437604031
 31
0.0
  0
LINE
  5
B4
330
1F
100
AcDbEntity
  8
0
  6
Continuous
 62
     8
370
    25
100
AcDbLine
 10
6237.5187553361
 20
5251.5974117174
 30
0.0
 11
6237.5187553361
 21
5225.7554512791
 31
0.0
  0
LINE
  5
B5
330
1F
100
AcDbEntity
  8
0
  6
Continuous
 62
     8
370
    25
100
AcDbLine
 10
6310.5187553361
 20
5225.7554512791
 30
0.0
 11
6310.5187553361
 21
5251.5974117174
 31
0.0
  0
LWPOLYLINE
  5
B6
330
1F
100
AcDbEntity
  8
0
  6
Continuous
 62
     8
370
    25
100
AcDbPolyline
 90
       13
 70
   128
 43
0.0
 10
6407.0903425546
 20
5266.5525322488
 10
6401.9804126894
 20
5264.3379436236
 10
6395.413031391
 20
5262.0351780391
 10
6388.3005012666
 20
5259.9938236516
 10
6380.1897480436
 20
5258.0807560828
 10
6371.6314809683
 20
5256.4286965258
 10
6362.2889844401
 20
5254.9709288871
 10
6352.6139328963
 20
5253.7795680822
 10
6345.8319059849
 20
5253.1148757936
 10
6338.9427539424
 20
5252.5711007137
 10
6331.9786907579
 20
5252.1482428414
 10
6321.2832858246
 20
5251.7351194681
 10
6310.5187553361
 20
5251.5974117174
  0
LWPOLYLINE
  5
B7
330
1F
100
AcDbEntity
  8
0
  6
Continuous
 62
     8
370
    25
100
AcDbPolyline
 90
       16
 70
   128
 43
0.0
 10
6237.5187553361
 20
5251.5974117174
 10
6226.7541771388
 20
5251.7351194685
 10
6216.0588199143
 20
5252.1482428414
 10
6209.0946738809
 20
5252.571107212
 10
6202.2055234652
 20
5253.1148822922
 10
6195.4235777759
 20
5253.7795680822
 10
6187.6606166425
 20
5254.711355573
 10
6180.0954686504
 20
5255.8136282538
 10
6172.937508758
 20
5257.058209608
 10
6166.1854199892
 20
5258.4425042713
 10
6159.7370094056
 20
5259.9938236516
 10
6154.9427458518
 20
5261.3256981227
 10
6150.366578836
 20
5262.7737381123
 10
6146.0570979828
 20
5264.3379436236
 10
6142.4033014034
 20
5265.8649583699
 10
6140.9371054638
 20
5266.575258642
  0
LINE
  5
B8
330
1F
100
AcDbEntity
  8
0
  6
Continuous
 62
     7
370
    25
100
AcDbLine
 10
6610.8000096159
 20
5083.2004503235
 30
0.0
 11
6610.9583853576
 21
5083.2004503235
 31
0.0
  0
LINE
  5
B9
330
1F
100
AcDbEntity
  8
0
  6
Continuous
 62
     7
370
    25
100
AcDbLine
 10
6609.5300096159
 20
5083.2004503235
 30
0.0
 11
6609.6894515575
 21
5083.2004503235
 31
0.0
  0
LINE
  5
BA
330
1F
100
AcDbEntity
  8
0
  6
Continuous
 62
     7
370
    25
100
AcDbLine
 10
6608.2600096159
 20
5083.2004503235
 30
0.0
 11
6608.4203845709
 21
5083.2004503235
 31
0.0
  0
LINE
  5
BB
330
1F
100
AcDbEntity
  8
0
  6
Continuous
 62
     7
370
    25
100
AcDbLine
 10
6606.9900096159
 20
5083.2004503235
 30
0.0
 11
6607.1487824377
 21
5083.2004503235
 31
0.0
  0
LINE
  5
BC
330
1F
100
AcDbEntity
  8
0
  6
Continuous
 62
     7
370
    25
100
AcDbLine
 10
6605.7200096159
 20
5083.2004503235
 30
0.0
 11
6605.8786702092
 21
5083.2004503235
 31
0.0
  0
LINE
  5
BD
330
1F
100
AcDbEntity
  8
0
  6
Continuous
 62
     7
370
    25
100
AcDbLine
 10
6604.4500096159
 20
5083.2004503235
 30
0.0
 11
6604.6110753244
 21
5083.2004503235
 31
0.0
  0
LINE
  5
BE
330
1F
100
AcDbEntity
  8
0
  6
Continuous
 62
     7
370
    25
100
AcDbLine
 10
6603.1800096159
 20
5083.2004503235
 30
0.0
 11
6603.3392980783
 21
5083.2004503235
 31
0.0
  0
LINE
  5
BF
330
1F
100
AcDbEntity
  8
0
  6
Continuous
 62
     7
370
    25
100
AcDbLine
 10
6602.7048326316
 20
5103.8004503235
 30
0.0
 11
6602.4476417199
 21
5103.8004503235
 31
0.0
  0
LINE
  5
C0
330
1F
100
AcDbEntity
  8
0
  6
Continuous
 62
     7
370
    25
100
AcDbLine
 10
6603.9748849446
 20
5103.8004503235
 30
0.0
 11
6603.815247009
 21
5103.8004503235
 31
0.0
  0
LINE
  5
C1
330
1F
100
AcDbEntity
  8
0
  6
Continuous
 62
     7
370
    25
100
AcDbLine
 10
6605.2429193074
 20
5103.8004503235
 30
0.0
 11
6605.085247009
 21
5103.8004503235
 31
0.0
  0
LINE
  5
C2
330
1F
100
AcDbEntity
  8
0
  6
Continuous
 62
     7
370
    25
100
AcDbLine
 10
6606.511548413
 20
5103.8004503235
 30
0.0
 11
6606.355247009
 21
5103.8004503235
 31
0.0
  0
LINE
  5
C3
330
1F
100
AcDbEntity
  8
0
  6
Continuous
 62
     7
370
    25
100
AcDbLine
 10
6607.7837013043
 20
5103.8004503235
 30
0.0
 11
6607.625247009
 21
5103.8004503235
 31
0.0
  0
LINE
  5
C4
330
1F
100
AcDbEntity
  8
0
  6
Continuous
 62
     7
370
    25
100
AcDbLine
 10
6609.0545782064
 20
5103.8004503235
 30
0.0
 11
6608.895247009
 21
5103.8004503235
 31
0.0
  0
LINE
  5
C5
330
1F
100
AcDbEntity
  8
0
  6
Continuous
 62
     7
370
    25
100
AcDbLine
 10
6610.324766103
 20
5103.8004503235
 30
0.0
 11
6610.165247009
 21
5103.8004503235
 31
0.0
  0
LINE
  5
C6
330
1F
100
AcDbEntity
  8
0
  6
Continuous
 62
     7
370
    25
100
AcDbLine
 10
6611.5939202567
 20
5103.8004503235
 30
0.0
 11
6611.435247009
 21
5103.8004503235
 31
0.0
  0
LWPOLYLINE
  5
C7
330
1F
100
AcDbEntity
  8
0
  6
Continuous
 62
     7
370
    25
100
AcDbPolyline
 90
        3
 70
   128
 43
0.0
 10
6611.9814759399
 20
5103.1350620084
 10
6611.7961445889
 20
5103.4558744779
 10
6611.5943563903
 20
5103.8051896585
  0
LWPOLYLINE
  5
C8
330
1F
100
AcDbEntity
  8
0
  6
Continuous
 62
     7
370
    25
100
AcDbPolyline
 90
        3
 70
   128
 43
0.0
 10
6610.7279737386
 20
5103.1065003958
 10
6610.5261838208
 20
5103.4558029012
 10
6610.3243940571
 20
5103.8051208804
  0
LWPOLYLINE
  5
C9
330
1F
100
AcDbEntity
  8
0
  6
Continuous
 62
     7
370
    25
100
AcDbPolyline
 90
        3
 70
   128
 43
0.0
 10
6609.4579855052
 20
5103.1064789188
 10
6609.2561944691
 20
5103.455783405
 10
6609.0544035884
 20
5103.805103416
  0
LWPOLYLINE
  5
CA
330
1F
100
AcDbEntity
  8
0
  6
Continuous
 62
     7
370
    25
100
AcDbPolyline
 90
        3
 70
   128
 43
0.0
 10
6608.1879728454
 20
5103.1065020246
 10
6607.9861811249
 20
5103.4558078326
 10
6607.7843895608
 20
5103.8051291105
  0
LWPOLYLINE
  5
CB
330
1F
100
AcDbEntity
  8
0
  6
Continuous
 62
     7
370
    25
100
AcDbPolyline
 90
        3
 70
   128
 43
0.0
 10
6606.9179403593
 20
5103.1065611326
 10
6606.7161483674
 20
5103.4558676016
 10
6606.5143565323
 20
5103.8051893999
  0
LWPOLYLINE
  5
CC
330
1F
100
AcDbEntity
  8
0
  6
Continuous
 62
     7
370
    25
100
AcDbPolyline
 90
        3
 70
   128
 43
0.0
 10
6605.6478925711
 20
5103.1066476016
 10
6605.4461006938
 20
5103.4559540874
 10
6605.2443089734
 20
5103.8052756962
  0
LWPOLYLINE
  5
CD
330
1F
100
AcDbEntity
  8
0
  6
Continuous
 62
     7
370
    25
100
AcDbPolyline
 90
        3
 70
   128
 43
0.0
 10
6604.3778338635
 20
5103.1067530443
 10
6604.176042455
 20
5103.4560589375
 10
6603.9742512028
 20
5103.8053797011
  0
LWPOLYLINE
  5
CE
330
1F
100
AcDbEntity
  8
0
  6
Continuous
 62
     7
370
    25
100
AcDbPolyline
 90
        3
 70
   128
 43
0.0
 10
6603.107768417
 20
5103.1068695714
 10
6602.9059777951
 20
5103.4561743134
 10
6602.7041873286
 20
5103.8054936464
  0
LWPOLYLINE
  5
CF
330
1F
100
AcDbEntity
  8
0
  6
Continuous
 62
     7
370
    25
100
AcDbPolyline
 90
        3
 70
   128
 43
0.0
 10
6603.3389044581
 20
5083.1949156289
 10
6603.5406988656
 20
5083.5442411083
 10
6603.7424934347
 20
5083.8935532202
  0
LWPOLYLINE
  5
D0
330
1F
100
AcDbEntity
  8
0
  6
Continuous
 62
     7
370
    25
100
AcDbPolyline
 90
        3
 70
   128
 43
0.0
 10
6604.608914282
 20
5083.1949323316
 10
6604.8107091458
 20
5083.5442586317
 10
6605.0125041717
 20
5083.8935715223
  0
LWPOLYLINE
  5
D1
330
1F
100
AcDbEntity
  8
0
  6
Continuous
 62
     7
370
    25
100
AcDbPolyline
 90
        3
 70
   128
 43
0.0
 10
6605.8789317716
 20
5083.1949621321
 10
6606.0807267413
 20
5083.5442886887
 10
6606.2825218733
 20
5083.8936017592
  0
LWPOLYLINE
  5
D2
330
1F
100
AcDbEntity
  8
0
  6
Continuous
 62
     7
370
    25
100
AcDbPolyline
 90
        3
 70
   128
 43
0.0
 10
6607.1489534996
 20
5083.1949992695
 10
6607.3507482526
 20
5083.5443255444
 10
6607.5525431675
 20
5083.8936382373
  0
LWPOLYLINE
  5
D3
330
1F
100
AcDbEntity
  8
0
  6
Continuous
 62
     7
370
    25
100
AcDbPolyline
 90
        3
 70
   128
 43
0.0
 10
6608.4189763153
 20
5083.1950384034
 10
6608.6207705604
 20
5083.5443638922
 10
6608.8225649666
 20
5083.8936756984
  0
LWPOLYLINE
  5
D4
330
1F
100
AcDbEntity
  8
0
  6
Continuous
 62
     7
370
    25
100
AcDbPolyline
 90
        3
 70
   128
 43
0.0
 10
6609.6889973757
 20
5083.1950746513
 10
6609.8907908559
 20
5083.5443988936
 10
6610.0925844962
 20
5083.8937093607
  0
LWPOLYLINE
  5
D5
330
1F
100
AcDbEntity
  8
0
  6
Continuous
 62
     7
370
    25
100
AcDbPolyline
 90
        3
 70
   128
 43
0.0
 10
6610.9590141686
 20
5083.1951036403
 10
6611.1608066637
 20
5083.5444262299
 10
6611.3625993175
 20
5083.8937349716
  0
LWPOLYLINE
  5
D6
330
1F
100
AcDbEntity
  8
0
  6
Continuous
 62
     7
370
    25
100
AcDbPolyline
 90
        3
 70
   128
 43
0.0
 10
6604.0451876406
 20
5083.8964332893
 10
6604.2439675515
 20
5083.5523121862
 10
6604.4425444009
 20
5083.2085941884
  0
LWPOLYLINE
  5
D7
330
1F
100
AcDbEntity
  8
0
  6
Continuous
 62
     7
370
    25
100
AcDbPolyline
 90
        3
 70
   128
 43
0.0
 10
6605.3151876406
 20
5083.8964332893
 10
6605.5140689723
 20
5083.5521035909
 10
6605.7125444009
 20
5083.2085941884
  0
LWPOLYLINE
  5
D8
330
1F
100
AcDbEntity
  8
0
  6
Continuous
 62
     7
370
    25
100
AcDbPolyline
 90
        3
 70
   128
 43
0.0
 10
6606.5851876406
 20
5083.8964332893
 10
6606.7841703643
 20
5083.551897715
 10
6606.9825444009
 20
5083.2085941884
  0
LWPOLYLINE
  5
D9
330
1F
100
AcDbEntity
  8
0
  6
Continuous
 62
     7
370
    25
100
AcDbPolyline
 90
        3
 70
   128
 43
0.0
 10
6607.8551876406
 20
5083.8964332893
 10
6608.0542717273
 20
5083.5516945578
 10
6608.2525444009
 20
5083.2085941884
  0
LWPOLYLINE
  5
DA
330
1F
100
AcDbEntity
  8
0
  6
Continuous
 62
     7
370
    25
100
AcDbPolyline
 90
        3
 70
   128
 43
0.0
 10
6609.1251876406
 20
5083.8964332893
 10
6609.3243730614
 20
5083.5514941186
 10
6609.5225444009
 20
5083.2085941884
  0
LWPOLYLINE
  5
DB
330
1F
100
AcDbEntity
  8
0
  6
Continuous
 62
     7
370
    25
100
AcDbPolyline
 90
        3
 70
   128
 43
0.0
 10
6610.3951876406
 20
5083.8964332893
 10
6610.5944743666
 20
5083.5512963968
 10
6610.7925444009
 20
5083.2085941884
  0
LWPOLYLINE
  5
DC
330
1F
100
AcDbEntity
  8
0
  6
Continuous
 62
     7
370
    25
100
AcDbPolyline
 90
        3
 70
   128
 43
0.0
 10
6611.6651876406
 20
5083.8964332893
 10
6611.8645756427
 20
5083.5511013918
 10
6611.9814759399
 20
5083.3488513285
  0
LWPOLYLINE
  5
DD
330
1F
100
AcDbEntity
  8
0
  6
Continuous
 62
     7
370
    25
100
AcDbPolyline
 90
        3
 70
   128
 43
0.0
 10
6603.815865839
 20
5103.8003929756
 10
6603.617388504
 20
5103.4566977415
 10
6603.4187127137
 20
5103.1130255451
  0
LWPOLYLINE
  5
DE
330
1F
100
AcDbEntity
  8
0
  6
Continuous
 62
     7
370
    25
100
AcDbPolyline
 90
        3
 70
   128
 43
0.0
 10
6605.085865839
 20
5103.8003929756
 10
6604.8874877936
 20
5103.4566802877
 10
6604.6887127137
 20
5103.1130255451
  0
LWPOLYLINE
  5
DF
330
1F
100
AcDbEntity
  8
0
  6
Continuous
 62
     7
370
    25
100
AcDbPolyline
 90
        3
 70
   128
 43
0.0
 10
6606.355865839
 20
5103.8003929756
 10
6606.1575871144
 20
5103.4566601663
 10
6605.9587127137
 20
5103.1130255451
  0
LWPOLYLINE
  5
E0
330
1F
100
AcDbEntity
  8
0
  6
Continuous
 62
     7
370
    25
100
AcDbPolyline
 90
        3
 70
   128
 43
0.0
 10
6607.625865839
 20
5103.8003929756
 10
6607.4276864663
 20
5103.4566373764
 10
6607.2287127137
 20
5103.1130255451
  0
LWPOLYLINE
  5
E1
330
1F
100
AcDbEntity
  8
0
  6
Continuous
 62
     7
370
    25
100
AcDbPolyline
 90
        3
 70
   128
 43
0.0
 10
6608.895865839
 20
5103.8003929756
 10
6608.6977858493
 20
5103.4566119172
 10
6608.4987127137
 20
5103.1130255451
  0
LWPOLYLINE
  5
E2
330
1F
100
AcDbEntity
  8
0
  6
Continuous
 62
     7
370
    25
100
AcDbPolyline
 90
        3
 70
   128
 43
0.0
 10
6610.165865839
 20
5103.8003929756
 10
6609.9678852635
 20
5103.4565837881
 10
6609.7687127137
 20
5103.1130255451
  0
LWPOLYLINE
  5
E3
330
1F
100
AcDbEntity
  8
0
  6
Continuous
 62
     7
370
    25
100
AcDbPolyline
 90
        3
 70
   128
 43
0.0
 10
6611.435865839
 20
5103.8003929756
 10
6611.2379847087
 20
5103.456552988
 10
6611.0387127137
 20
5103.1130255451
  0
LINE
  5
E4
330
1F
100
AcDbEntity
  8
0
  6
Continuous
 62
     7
370
    25
100
AcDbLine
 10
6602.545865839
 20
5103.8003929756
 30
0.0
 11
6602.4190526316
 21
5103.5809148433
 31
0.0
  0
LWPOLYLINE
  5
E5
330
1F
100
AcDbEntity
  8
0
  6
Continuous
 62
     7
370
    25
100
AcDbPolyline
 90
        3
 70
   128
 43
0.0
 10
6602.7751876406
 20
5083.8964332893
 10
6602.9738661019
 20
5083.5525235016
 10
6603.1725444009
 20
5083.2085941884
  0
LWPOLYLINE
  5
E6
330
1F
100
AcDbEntity
  8
0
  6
Continuous
 62
     7
370
    25
100
AcDbPolyline
 90
        3
 70
   128
 43
0.0
 10
6603.7360071069
 20
5083.8878611758
 10
6603.8948562566
 20
5083.8878665121
 10
6604.0501392156
 20
5083.887861289
  0
LWPOLYLINE
  5
E7
330
1F
100
AcDbEntity
  8
0
  6
Continuous
 62
     7
370
    25
100
AcDbPolyline
 90
        3
 70
   128
 43
0.0
 10
6605.0060071069
 20
5083.8878611758
 10
6605.1649554376
 20
5083.8878744205
 10
6605.3201386437
 20
5083.8878614571
  0
LWPOLYLINE
  5
E8
330
1F
100
AcDbEntity
  8
0
  6
Continuous
 62
     7
370
    25
100
AcDbPolyline
 90
        3
 70
   128
 43
0.0
 10
6606.2760071069
 20
5083.8878611758
 10
6606.4350546498
 20
5083.8878849017
 10
6606.5901380789
 20
5083.8878616802
  0
LWPOLYLINE
  5
E9
330
1F
100
AcDbEntity
  8
0
  6
Continuous
 62
     7
370
    25
100
AcDbPolyline
 90
        3
 70
   128
 43
0.0
 10
6607.5460071069
 20
5083.8878611758
 10
6607.7051538934
 20
5083.8878979565
 10
6607.8601375212
 20
5083.8878619584
  0
LWPOLYLINE
  5
EA
330
1F
100
AcDbEntity
  8
0
  6
Continuous
 62
     7
370
    25
100
AcDbPolyline
 90
        3
 70
   128
 43
0.0
 10
6608.8160071069
 20
5083.8878611758
 10
6608.9752531682
 20
5083.8879135857
 10
6609.1301369704
 20
5083.8878622919
  0
LWPOLYLINE
  5
EB
330
1F
100
AcDbEntity
  8
0
  6
Continuous
 62
     7
370
    25
100
AcDbPolyline
 90
        3
 70
   128
 43
0.0
 10
6610.0860071069
 20
5083.8878611758
 10
6610.2453524742
 20
5083.8879317901
 10
6610.4001364263
 20
5083.8878626807
  0
LWPOLYLINE
  5
EC
330
1F
100
AcDbEntity
  8
0
  6
Continuous
 62
     7
370
    25
100
AcDbPolyline
 90
        3
 70
   128
 43
0.0
 10
6611.3560071069
 20
5083.8878611758
 10
6611.5154518113
 20
5083.8879525705
 10
6611.6701358887
 20
5083.8878631251
  0
LWPOLYLINE
  5
ED
330
1F
100
AcDbEntity
  8
0
  6
Continuous
 62
     7
370
    25
100
AcDbPolyline
 90
        3
 70
   128
 43
0.0
 10
6604.688506996
 20
5103.1130394757
 10
6604.5298561457
 20
5103.1130341422
 10
6604.374202301
 20
5103.1130393684
  0
LWPOLYLINE
  5
EE
330
1F
100
AcDbEntity
  8
0
  6
Continuous
 62
     7
370
    25
100
AcDbPolyline
 90
        3
 70
   128
 43
0.0
 10
6605.958506996
 20
5103.1130394757
 10
6605.7999553266
 20
5103.1130262367
 10
6605.6442001844
 20
5103.1130392097
  0
LWPOLYLINE
  5
EF
330
1F
100
AcDbEntity
  8
0
  6
Continuous
 62
     7
370
    25
100
AcDbPolyline
 90
        3
 70
   128
 43
0.0
 10
6607.228506996
 20
5103.1130394757
 10
6607.0700545389
 20
5103.1130157584
 10
6606.9141981391
 20
5103.1130389998
  0
LWPOLYLINE
  5
F0
330
1F
100
AcDbEntity
  8
0
  6
Continuous
 62
     7
370
    25
100
AcDbPolyline
 90
        3
 70
   128
 43
0.0
 10
6608.498506996
 20
5103.1130394757
 10
6608.3401537824
 20
5103.1130027064
 10
6608.1841966277
 20
5103.1130387388
  0
LWPOLYLINE
  5
F1
330
1F
100
AcDbEntity
  8
0
  6
Continuous
 62
     7
370
    25
100
AcDbPolyline
 90
        3
 70
   128
 43
0.0
 10
6609.768506996
 20
5103.1130394757
 10
6609.6102530571
 20
5103.1129870801
 10
6609.4541961183
 20
5103.1130384264
  0
LWPOLYLINE
  5
F2
330
1F
100
AcDbEntity
  8
0
  6
Continuous
 62
     7
370
    25
100
AcDbPolyline
 90
        3
 70
   128
 43
0.0
 10
6611.038506996
 20
5103.1130394757
 10
6610.8803523631
 20
5103.1129688786
 10
6610.7241969687
 20
5103.1130380624
  0
LINE
  5
F3
330
1F
100
AcDbEntity
  8
0
  6
Continuous
 62
     7
370
    25
100
AcDbLine
 10
6603.418506996
 20
5103.1130394757
 30
0.0
 11
6603.1042041115
 21
5103.1130394757
 31
0.0
  0
LINE
  5
F4
330
1F
100
AcDbEntity
  8
0
  6
Continuous
 62
     7
370
    25
100
AcDbLine
 10
6602.4660071069
 20
5083.8878611758
 30
0.0
 11
6602.7801397949
 21
5083.8878611758
 31
0.0
  0
LINE
  5
F5
330
1F
100
AcDbEntity
  8
0
  6
Continuous
 62
     7
370
    25
100
AcDbLine
 10
6611.9814759399
 20
5078.504563102
 30
0.0
 11
6553.113637252
 21
5078.5004498068
 31
0.0
  0
LINE
  5
F6
330
1F
100
AcDbEntity
  8
0
  6
Continuous
 62
     7
370
    25
100
AcDbLine
 10
6553.1171309213
 20
5028.5004499288
 30
0.0
 11
6611.9814759399
 21
5028.5045629799
 31
0.0
  0
CIRCLE
  5
F7
330
1F
100
AcDbEntity
  8
0
  6
Continuous
 62
     7
370
    25
100
AcDbCircle
 10
6644.1699851551
 20
5332.8437604031
 30
0.0
 40
8.499999999999524
  0
CIRCLE
  5
F8
330
1F
100
AcDbEntity
  8
0
  6
Continuous
 62
     7
370
    25
100
AcDbCircle
 10
6644.1699851551
 20
5332.8437604031
 30
0.0
 40
9.499999999999897
  0
LWPOLYLINE
  5
F9
330
1F
100
AcDbEntity
  8
0
  6
Continuous
 62
     7
370
    25
100
AcDbPolyline
 90
       12
 70
   128
 43
0.0
 10
6602.545247009
 20
5103.6845694386
 10
6602.5759389426
 20
5103.6755624616
 10
6602.6391916262
 20
5102.7155623235
 10
6602.7004484538
 20
5100.9159869022
 10
6602.7609135758
 20
5098.448350278
 10
6602.8243971029
 20
5095.4810056054
 10
6602.8836916703
 20
5092.3980505374
 10
6602.9464443765
 20
5089.3604051017
 10
6603.0086014703
 20
5086.7159492505
 10
6603.0682858746
 20
5084.7213558309
 10
6603.1318668085
 20
5083.5020739522
 10
6603.1800096159
 20
5083.2735702593
  0
LWPOLYLINE
  5
FA
330
1F
100
AcDbEntity
  8
0
  6
Continuous
 62
     7
370
    25
100
AcDbPolyline
 90
       12
 70
   128
 43
0.0
 10
6603.815247009
 20
5103.6845694386
 10
6603.8459389426
 20
5103.6755624616
 10
6603.9091916262
 20
5102.7155623235
 10
6603.9704484538
 20
5100.9159869022
 10
6604.0309135758
 20
5098.448350278
 10
6604.0943971029
 20
5095.4810056054
 10
6604.1536916703
 20
5092.3980505374
 10
6604.2164443765
 20
5089.3604051017
 10
6604.2786014703
 20
5086.7159492505
 10
6604.3382858746
 20
5084.7213558309
 10
6604.4018668085
 20
5083.5020739522
 10
6604.4500096159
 20
5083.2735702593
  0
LWPOLYLINE
  5
FB
330
1F
100
AcDbEntity
  8
0
  6
Continuous
 62
     7
370
    25
100
AcDbPolyline
 90
       12
 70
   128
 43
0.0
 10
6605.085247009
 20
5103.6845694386
 10
6605.1159389426
 20
5103.6755624616
 10
6605.1791916262
 20
5102.7155623235
 10
6605.2404484538
 20
5100.9159869022
 10
6605.3009135758
 20
5098.448350278
 10
6605.3643971029
 20
5095.4810056054
 10
6605.4236916703
 20
5092.3980505374
 10
6605.4864443765
 20
5089.3604051017
 10
6605.5486014703
 20
5086.7159492505
 10
6605.6082858746
 20
5084.7213558309
 10
6605.6718668085
 20
5083.5020739522
 10
6605.7200096159
 20
5083.2735702593
  0
LWPOLYLINE
  5
FC
330
1F
100
AcDbEntity
  8
0
  6
Continuous
 62
     7
370
    25
100
AcDbPolyline
 90
       12
 70
   128
 43
0.0
 10
6606.355247009
 20
5103.6845694386
 10
6606.3859389426
 20
5103.6755624616
 10
6606.4491916262
 20
5102.7155623235
 10
6606.5104484538
 20
5100.9159869022
 10
6606.5709135758
 20
5098.448350278
 10
6606.6343971029
 20
5095.4810056054
 10
6606.6936916703
 20
5092.3980505374
 10
6606.7564443765
 20
5089.3604051017
 10
6606.8186014703
 20
5086.7159492505
 10
6606.8782858746
 20
5084.7213558309
 10
6606.9418668085
 20
5083.5020739522
 10
6606.9900096159
 20
5083.2735702593
  0
LWPOLYLINE
  5
FD
330
1F
100
AcDbEntity
  8
0
  6
Continuous
 62
     7
370
    25
100
AcDbPolyline
 90
       12
 70
   128
 43
0.0
 10
6607.625247009
 20
5103.6845694386
 10
6607.6559389426
 20
5103.6755624616
 10
6607.7191916262
 20
5102.7155623235
 10
6607.7804484538
 20
5100.9159869022
 10
6607.8409135758
 20
5098.448350278
 10
6607.9043971029
 20
5095.4810056054
 10
6607.9636916703
 20
5092.3980505374
 10
6608.0264443765
 20
5089.3604051017
 10
6608.0886014703
 20
5086.7159492505
 10
6608.1482858746
 20
5084.7213558309
 10
6608.2118668085
 20
5083.5020739522
 10
6608.2600096159
 20
5083.2735702593
  0
LWPOLYLINE
  5
FE
330
1F
100
AcDbEntity
  8
0
  6
Continuous
 62
     7
370
    25
100
AcDbPolyline
 90
       12
 70
   128
 43
0.0
 10
6608.895247009
 20
5103.6845694386
 10
6608.9259389426
 20
5103.6755624616
 10
6608.9891916262
 20
5102.7155623235
 10
6609.0504484538
 20
5100.9159869022
 10
6609.1109135758
 20
5098.448350278
 10
6609.1743971029
 20
5095.4810056054
 10
6609.2336916703
 20
5092.3980505374
 10
6609.2964443765
 20
5089.3604051017
 10
6609.3586014703
 20
5086.7159492505
 10
6609.4182858746
 20
5084.7213558309
 10
6609.4818668085
 20
5083.5020739522
 10
6609.5300096159
 20
5083.2735702593
  0
LWPOLYLINE
  5
FF
330
1F
100
AcDbEntity
  8
0
  6
Continuous
 62
     7
370
    25
100
AcDbPolyline
 90
       12
 70
   128
 43
0.0
 10
6610.165247009
 20
5103.6845694386
 10
6610.1959389426
 20
5103.6755624616
 10
6610.2591916262
 20
5102.7155623235
 10
6610.3204484538
 20
5100.9159869022
 10
6610.3809135758
 20
5098.448350278
 10
6610.4443971029
 20
5095.4810056054
 10
6610.5036916703
 20
5092.3980505374
 10
6610.5664443765
 20
5089.3604051017
 10
6610.6286014703
 20
5086.7159492505
 10
6610.6882858746
 20
5084.7213558309
 10
6610.7518668085
 20
5083.5020739522
 10
6610.8000096159
 20
5083.2735702593
  0
LWPOLYLINE
  5
100
330
1F
100
AcDbEntity
  8
0
  6
Continuous
 62
     7
370
    25
100
AcDbPolyline
 90
       11
 70
   128
 43
0.0
 10
6611.435247009
 20
5103.6845694386
 10
6611.4659389426
 20
5103.6755624616
 10
6611.5291916262
 20
5102.7155623235
 10
6611.5904484538
 20
5100.9159869022
 10
6611.6509135758
 20
5098.448350278
 10
6611.7143971029
 20
5095.4810056054
 10
6611.7736916703
 20
5092.3980505374
 10
6611.8364443765
 20
5089.3604051017
 10
6611.8986014703
 20
5086.7159492505
 10
6611.9582858746
 20
5084.7213558309
 10
6611.9814759399
 20
5084.2766434836
  0
LWPOLYLINE
  5
101
330
1F
100
AcDbEntity
  8
0
  6
Continuous
 62
     7
370
    25
100
AcDbPolyline
 90
       16
 70
   128
 43
0.0
 10
6602.7116049483
 20
5103.726509147
 10
6602.7246142207
 20
5103.7513795718
 10
6602.7787315533
 20
5103.1090584017
 10
6602.8323348935
 20
5101.7690103228
 10
6602.8861808753
 20
5099.828848635
 10
6602.940300224
 20
5097.4291427175
 10
6602.9946929397
 20
5094.7441500926
 10
6603.0493590224
 20
5091.9688447185
 10
6603.1042984721
 20
5089.304758722
 10
6603.1595112888
 20
5086.9453479011
 10
6603.1872202098
 20
5085.9346563576
 10
6603.2087950272
 20
5085.2436585595
 10
6603.238688622
 20
5084.4353557407
 10
6603.2766378476
 20
5083.6867796768
 10
6603.3226427041
 20
5083.235239058
 10
6603.3392980783
 20
5083.2782131915
  0
LWPOLYLINE
  5
102
330
1F
100
AcDbEntity
  8
0
  6
Continuous
 62
     7
370
    25
100
AcDbPolyline
 90
       16
 70
   128
 43
0.0
 10
6603.9817299434
 20
5103.7895201478
 10
6603.9824796009
 20
5103.7932200385
 10
6604.036775957
 20
5103.3148032365
 10
6604.0904272897
 20
5102.1223239865
 10
6604.1442660803
 20
5100.3036701159
 10
6604.1984039741
 20
5097.990536809
 10
6604.2528409711
 20
5095.3510498785
 10
6604.3075770713
 20
5092.5770555457
 10
6604.3626122747
 20
5089.8701764536
 10
6604.4179465813
 20
5087.4271570975
 10
6604.4364578175
 20
5086.7029542903
 10
6604.4550022875
 20
5086.0339457915
 10
6604.4811908699
 20
5085.1941730076
 10
6604.5208155106
 20
5084.1815147209
 10
6604.5588036554
 20
5083.5334333715
 10
6604.6110753244
 20
5083.32063185
  0
LWPOLYLINE
  5
103
330
1F
100
AcDbEntity
  8
0
  6
Continuous
 62
     7
370
    25
100
AcDbPolyline
 90
       15
 70
   128
 43
0.0
 10
6605.2498442497
 20
5103.7764311967
 10
6605.2535958298
 20
5103.7862386541
 10
6605.2758796542
 20
5103.6656529913
 10
6605.2930419305
 20
5103.4898323466
 10
6605.3481702261
 20
5102.4537818119
 10
6605.4032064439
 20
5100.7647256206
 10
6605.4581505837
 20
5098.545854034
 10
6605.5130026457
 20
5095.9589990694
 10
6605.5677626297
 20
5093.1928313829
 10
6605.6224305358
 20
5090.449099692
 10
6605.6769864249
 20
5087.9297006916
 10
6605.7315348269
 20
5085.8169678174
 10
6605.786114949
 20
5084.263190878
 10
6605.8407267912
 20
5083.3814036235
 10
6605.8786702092
 20
5083.2802674354
  0
LWPOLYLINE
  5
104
330
1F
100
AcDbEntity
  8
0
  6
Continuous
 62
     7
370
    25
100
AcDbPolyline
 90
       15
 70
   128
 43
0.0
 10
6606.5185688731
 20
5103.7530252962
 10
6606.5718283712
 20
5103.3485077803
 10
6606.6385514048
 20
5101.8549544251
 10
6606.6746241436
 20
5100.6677179986
 10
6606.7125043637
 20
5099.1850886887
 10
6606.7334303145
 20
5098.2802150436
 10
6606.7519232822
 20
5097.437882676
 10
6606.7703944198
 20
5096.5634586472
 10
6606.8256768514
 20
5093.8198632961
 10
6606.8807628114
 20
5091.052964981
 10
6606.9356522999
 20
5088.4646244163
 10
6606.9903453169
 20
5086.2436755295
 10
6607.0448418623
 20
5084.5521489698
 10
6607.0991288323
 20
5083.5138338872
 10
6607.1487824377
 20
5083.2296817383
  0
LWPOLYLINE
  5
105
330
1F
100
AcDbEntity
  8
0
  6
Continuous
 62
     7
370
    25
100
AcDbPolyline
 90
       18
 70
   128
 43
0.0
 10
6607.7905503634
 20
5103.7652029699
 10
6607.8022981551
 20
5103.7550249673
 10
6607.8283050526
 20
5103.5418807602
 10
6607.8635756044
 20
5102.9870844946
 10
6607.9081098105
 20
5101.8801332567
 10
6607.9619076708
 20
5100.0156898987
 10
6608.0249691854
 20
5097.2681125708
 10
6608.0599738131
 20
5095.5715142064
 10
6608.0972943543
 20
5093.6980887031
 10
6608.1369308091
 20
5091.7039838352
 10
6608.1788831774
 20
5089.6699637109
 10
6608.2081380417
 20
5088.3429036097
 10
6608.2303053899
 20
5087.4065189927
 10
6608.2486583452
 20
5086.6844525856
 10
6608.303595863
 20
5084.8707840835
 10
6608.3583513587
 20
5083.6831065709
 10
6608.4129248323
 20
5083.2075734869
 10
6608.4203845709
 20
5083.2447554636
  0
LWPOLYLINE
  5
106
330
1F
100
AcDbEntity
  8
0
  6
Continuous
 62
     7
370
    25
100
AcDbPolyline
 90
       16
 70
   128
 43
0.0
 10
6609.0613876494
 20
5103.7555279906
 10
6609.0676471647
 20
5103.7779104117
 10
6609.0942322505
 20
5103.5924040692
 10
6609.1156885184
 20
5103.3075973849
 10
6609.1577700232
 20
5102.4239769115
 10
6609.204993694
 20
5100.9754844821
 10
6609.257359531
 20
5098.9093484766
 10
6609.314867534
 20
5096.2498044304
 10
6609.3775177031
 20
5093.1305925792
 10
6609.4453100384
 20
5089.8192096323
 10
6609.4786773255
 20
5088.3183002456
 10
6609.5064376144
 20
5087.1674305975
 10
6609.5615270309
 20
5085.230252791
 10
6609.6160415653
 20
5083.8922916318
 10
6609.6699812178
 20
5083.2504890133
 10
6609.6894515575
 20
5083.2872873264
  0
LWPOLYLINE
  5
107
330
1F
100
AcDbEntity
  8
0
  6
Continuous
 62
     7
370
    25
100
AcDbPolyline
 90
       13
 70
   128
 43
0.0
 10
6610.3317928214
 20
5103.7623789352
 10
6610.3812517844
 20
5103.4002254913
 10
6610.4358119902
 20
5102.2813906797
 10
6610.4903355878
 20
5100.5247608661
 10
6610.5448225772
 20
5098.2579271363
 10
6610.5992786736
 20
5095.6455489537
 10
6610.6537447898
 20
5092.8773767747
 10
6610.7082289765
 20
5090.1544602075
 10
6610.7627312337
 20
5087.6745724605
 10
6610.8172515613
 20
5085.6178348649
 10
6610.8717899593
 20
5084.1336341473
 10
6610.9263464279
 20
5083.3297720457
 10
6610.9583853576
 20
5083.291532425
  0
LWPOLYLINE
  5
108
330
1F
100
AcDbEntity
  8
0
  6
Continuous
 62
     7
370
    25
100
AcDbPolyline
 90
       11
 70
   128
 43
0.0
 10
6611.5939202567
 20
5103.7916608384
 10
6611.5998023621
 20
5103.7957392441
 10
6611.6259847441
 20
5103.6616341549
 10
6611.6725161115
 20
5102.995063733
 10
6611.7277568323
 20
5101.5684107895
 10
6611.7917069064
 20
5099.2150311852
 10
6611.8269479509
 20
5097.6776982324
 10
6611.8598365264
 20
5096.1357352574
 10
6611.9197872583
 20
5093.1580067481
 10
6611.9757017328
 20
5090.3671727046
 10
6611.9814759399
 20
5090.0984173923
  0
LWPOLYLINE
  5
109
330
1F
100
AcDbEntity
  8
0
  6
Continuous
 62
     7
370
    25
100
AcDbPolyline
 90
       12
 70
   128
 43
0.0
 10
6603.1080462641
 20
5103.0281467192
 10
6603.1538823599
 20
5102.7766163436
 10
6603.2174305639
 20
5101.5774612233
 10
6603.276871173
 20
5099.6693745963
 10
6603.3393725611
 20
5097.1620413989
 10
6603.4018195476
 20
5094.3153757331
 10
6603.4612957631
 20
5091.4388691856
 10
6603.5248528641
 20
5088.6919848033
 10
6603.584914783
 20
5086.434023226
 10
6603.6466132753
 20
5084.8045348175
 10
6603.7009251626
 20
5084.0375766323
 10
6603.7359515547
 20
5083.9552942087
  0
LWPOLYLINE
  5
10A
330
1F
100
AcDbEntity
  8
0
  6
Continuous
 62
     7
370
    25
100
AcDbPolyline
 90
       12
 70
   128
 43
0.0
 10
6604.3781138181
 20
5103.0277760099
 10
6604.4238823599
 20
5102.7766163436
 10
6604.4874305639
 20
5101.5774612233
 10
6604.546871173
 20
5099.6693745963
 10
6604.6093725611
 20
5097.1620413989
 10
6604.6718195476
 20
5094.3153757331
 10
6604.7312957631
 20
5091.4388691856
 10
6604.7948528641
 20
5088.6919848033
 10
6604.854914783
 20
5086.434023226
 10
6604.9166132753
 20
5084.8045348175
 10
6604.9709251626
 20
5084.0375766323
 10
6605.0058673361
 20
5083.9554920514
  0
LWPOLYLINE
  5
10B
330
1F
100
AcDbEntity
  8
0
  6
Continuous
 62
     7
370
    25
100
AcDbPolyline
 90
       12
 70
   128
 43
0.0
 10
6605.6481744407
 20
5103.0274433366
 10
6605.6938823599
 20
5102.7766163436
 10
6605.7574305639
 20
5101.5774612233
 10
6605.816871173
 20
5099.6693745963
 10
6605.8793725611
 20
5097.1620413989
 10
6605.9418195476
 20
5094.3153757331
 10
6606.0012957631
 20
5091.4388691856
 10
6606.0648528641
 20
5088.6919848033
 10
6606.124914783
 20
5086.434023226
 10
6606.1866132753
 20
5084.8045348175
 10
6606.2409251626
 20
5084.0375766323
 10
6606.2758676316
 20
5083.9554913572
  0
LWPOLYLINE
  5
10C
330
1F
100
AcDbEntity
  8
0
  6
Continuous
 62
     7
370
    25
100
AcDbPolyline
 90
       12
 70
   128
 43
0.0
 10
6606.9182238187
 20
5103.02717237
 10
6606.9638823599
 20
5102.7766163436
 10
6607.0274305639
 20
5101.5774612233
 10
6607.086871173
 20
5099.6693745963
 10
6607.1493725611
 20
5097.1620413989
 10
6607.2118195476
 20
5094.3153757331
 10
6607.2712957631
 20
5091.4388691856
 10
6607.3348528641
 20
5088.6919848033
 10
6607.394914783
 20
5086.434023226
 10
6607.4566132753
 20
5084.8045348175
 10
6607.5109251626
 20
5084.0375766323
 10
6607.5458680674
 20
5083.9554903334
  0
LWPOLYLINE
  5
10D
330
1F
100
AcDbEntity
  8
0
  6
Continuous
 62
     7
370
    25
100
AcDbPolyline
 90
       12
 70
   128
 43
0.0
 10
6608.18825743
 20
5103.0269879244
 10
6608.2338823599
 20
5102.7766163436
 10
6608.2974305639
 20
5101.5774612233
 10
6608.356871173
 20
5099.6693745963
 10
6608.4193725611
 20
5097.1620413989
 10
6608.4818195476
 20
5094.3153757331
 10
6608.5412957631
 20
5091.4388691856
 10
6608.6048528641
 20
5088.6919848033
 10
6608.664914783
 20
5086.434023226
 10
6608.7266132753
 20
5084.8045348175
 10
6608.7809251626
 20
5084.0375766323
 10
6608.8158686458
 20
5083.9554889747
  0
LWPOLYLINE
  5
10E
330
1F
100
AcDbEntity
  8
0
  6
Continuous
 62
     7
370
    25
100
AcDbPolyline
 90
       12
 70
   128
 43
0.0
 10
6609.4582706058
 20
5103.0269156207
 10
6609.5038823599
 20
5102.7766163436
 10
6609.5674305639
 20
5101.5774612233
 10
6609.626871173
 20
5099.6693745963
 10
6609.6893725611
 20
5097.1620413989
 10
6609.7518195476
 20
5094.3153757331
 10
6609.8112957631
 20
5091.4388691856
 10
6609.8748528641
 20
5088.6919848033
 10
6609.934914783
 20
5086.434023226
 10
6609.9966132753
 20
5084.8045348175
 10
6610.0509251626
 20
5084.0375766323
 10
6610.0858693688
 20
5083.9554872762
  0
LWPOLYLINE
  5
10F
330
1F
100
AcDbEntity
  8
0
  6
Continuous
 62
     7
370
    25
100
AcDbPolyline
 90
       12
 70
   128
 43
0.0
 10
6610.7282585969
 20
5103.0269815209
 10
6610.7738823599
 20
5102.7766163436
 10
6610.8374305639
 20
5101.5774612233
 10
6610.896871173
 20
5099.6693745963
 10
6610.9593725611
 20
5097.1620413989
 10
6611.0218195476
 20
5094.3153757331
 10
6611.0812957631
 20
5091.4388691856
 10
6611.1448528641
 20
5088.6919848033
 10
6611.204914783
 20
5086.434023226
 10
6611.2666132753
 20
5084.8045348175
 10
6611.3209251626
 20
5084.0375766323
 10
6611.3558702386
 20
5083.955485233
  0
ARC
  5
110
330
1F
100
AcDbEntity
  8
0
  6
Continuous
 62
     7
370
    25
100
AcDbCircle
 10
6772.2104128587
 20
5094.0552482123
 30
0.0
 40
169.7341146517031
100
AcDbArc
 50
180.4475318865
 51
183.3986534104
  0
LWPOLYLINE
  5
111
330
1F
100
AcDbEntity
  8
0
  6
Continuous
 62
     7
370
    25
100
AcDbPolyline
 90
       13
 70
   128
 43
0.0
 10
6603.4188321886
 20
5103.0649908754
 10
6603.4713823524
 20
5102.7766164355
 10
6603.5349305563
 20
5101.5774614176
 10
6603.5943711655
 20
5099.6693748742
 10
6603.647375571
 20
5097.5651342588
 10
6603.7012935989
 20
5095.1731918195
 10
6603.7514759399
 20
5092.7294846607
 10
6603.756816672
 20
5092.4716231645
 10
6603.8195693783
 20
5089.6367059564
 10
6603.8817264721
 20
5087.1687374073
 10
6603.9414108764
 20
5085.3072603758
 10
6604.0049918103
 20
5084.1693516724
 10
6604.0448343663
 20
5083.992864842
  0
LWPOLYLINE
  5
112
330
1F
100
AcDbEntity
  8
0
  6
Continuous
 62
     7
370
    25
100
AcDbPolyline
 90
       13
 70
   128
 43
0.0
 10
6604.6888498829
 20
5103.0648937759
 10
6604.7413823524
 20
5102.7766164355
 10
6604.8049305563
 20
5101.5774614176
 10
6604.8643711655
 20
5099.6693748742
 10
6604.917375571
 20
5097.5651342588
 10
6604.9712935989
 20
5095.1731918195
 10
6605.0214759399
 20
5092.7294846607
 10
6605.026816672
 20
5092.4716231645
 10
6605.0895693783
 20
5089.6367059564
 10
6605.1517264721
 20
5087.1687374073
 10
6605.2114108764
 20
5085.3072603758
 10
6605.2749918103
 20
5084.1693516724
 10
6605.3148458273
 20
5083.9928140739
  0
LWPOLYLINE
  5
113
330
1F
100
AcDbEntity
  8
0
  6
Continuous
 62
     7
370
    25
100
AcDbPolyline
 90
       13
 70
   128
 43
0.0
 10
6605.9588675326
 20
5103.0647969217
 10
6606.0113823524
 20
5102.7766164355
 10
6606.0749305563
 20
5101.5774614176
 10
6606.1343711655
 20
5099.6693748742
 10
6606.187375571
 20
5097.5651342588
 10
6606.2412935989
 20
5095.1731918195
 10
6606.2914759399
 20
5092.7294846607
 10
6606.296816672
 20
5092.4716231645
 10
6606.3595693783
 20
5089.6367059564
 10
6606.4217264721
 20
5087.1687374073
 10
6606.4814108764
 20
5085.3072603758
 10
6606.5449918103
 20
5084.1693516724
 10
6606.5848573035
 20
5083.9927632389
  0
LWPOLYLINE
  5
114
330
1F
100
AcDbEntity
  8
0
  6
Continuous
 62
     7
370
    25
100
AcDbPolyline
 90
       13
 70
   128
 43
0.0
 10
6607.228885138
 20
5103.0647003102
 10
6607.2813823524
 20
5102.7766164355
 10
6607.3449305563
 20
5101.5774614176
 10
6607.4043711655
 20
5099.6693748742
 10
6607.457375571
 20
5097.5651342588
 10
6607.5112935989
 20
5095.1731918195
 10
6607.5614759399
 20
5092.7294846607
 10
6607.566816672
 20
5092.4716231645
 10
6607.6295693783
 20
5089.6367059564
 10
6607.6917264721
 20
5087.1687374073
 10
6607.7514108764
 20
5085.3072603758
 10
6607.8149918103
 20
5084.1693516724
 10
6607.8548687951
 20
5083.9927123359
  0
LWPOLYLINE
  5
115
330
1F
100
AcDbEntity
  8
0
  6
Continuous
 62
     7
370
    25
100
AcDbPolyline
 90
       13
 70
   128
 43
0.0
 10
6608.4989026996
 20
5103.0646039388
 10
6608.5513823524
 20
5102.7766164355
 10
6608.6149305563
 20
5101.5774614176
 10
6608.6743711655
 20
5099.6693748742
 10
6608.727375571
 20
5097.5651342588
 10
6608.7812935989
 20
5095.1731918195
 10
6608.8314759399
 20
5092.7294846607
 10
6608.836816672
 20
5092.4716231645
 10
6608.8995693783
 20
5089.6367059564
 10
6608.9617264721
 20
5087.1687374073
 10
6609.0214108764
 20
5085.3072603758
 10
6609.0849918103
 20
5084.1693516724
 10
6609.1248803023
 20
5083.9926613635
  0
LWPOLYLINE
  5
116
330
1F
100
AcDbEntity
  8
0
  6
Continuous
 62
     7
370
    25
100
AcDbPolyline
 90
       13
 70
   128
 43
0.0
 10
6609.768920218
 20
5103.0645078051
 10
6609.8213823524
 20
5102.7766164355
 10
6609.8849305563
 20
5101.5774614176
 10
6609.9443711655
 20
5099.6693748742
 10
6609.997375571
 20
5097.5651342588
 10
6610.0512935989
 20
5095.1731918195
 10
6610.1014759399
 20
5092.7294846607
 10
6610.106816672
 20
5092.4716231645
 10
6610.1695693783
 20
5089.6367059564
 10
6610.2317264721
 20
5087.1687374073
 10
6610.2914108764
 20
5085.3072603758
 10
6610.3549918103
 20
5084.1693516724
 10
6610.3948918254
 20
5083.9926103207
  0
LWPOLYLINE
  5
117
330
1F
100
AcDbEntity
  8
0
  6
Continuous
 62
     7
370
    25
100
AcDbPolyline
 90
       13
 70
   128
 43
0.0
 10
6611.0389376935
 20
5103.0644119064
 10
6611.0913823524
 20
5102.7766164355
 10
6611.1549305563
 20
5101.5774614176
 10
6611.2143711655
 20
5099.6693748742
 10
6611.267375571
 20
5097.5651342588
 10
6611.3212935989
 20
5095.1731918195
 10
6611.3714759399
 20
5092.7294846607
 10
6611.376816672
 20
5092.4716231645
 10
6611.4395693783
 20
5089.6367059564
 10
6611.5017264721
 20
5087.1687374073
 10
6611.5614108764
 20
5085.3072603758
 10
6611.6249918103
 20
5084.1693516724
 10
6611.6649033646
 20
5083.9925592063
  0
LINE
  5
118
330
1F
100
AcDbEntity
  8
0
  6
Continuous
 62
     7
370
    25
100
AcDbLine
 10
6602.4814759399
 20
5103.5448904331
 30
0.0
 11
6602.4814759399
 21
5092.7294846607
 31
0.0
  0
LINE
  5
119
330
1F
100
AcDbEntity
  8
0
  6
Continuous
 62
     7
370
    25
100
AcDbLine
 10
6602.4814759399
 20
5092.7294846607
 30
0.0
 11
6602.4814759399
 21
5083.9434208119
 31
0.0
  0
LINE
  5
11A
330
1F
100
AcDbEntity
  8
0
  6
Continuous
 62
     7
370
    25
100
AcDbLine
 10
6553.1153840867
 20
5053.5004498678
 30
0.0
 11
6553.113637252
 21
5078.5004498068
 31
0.0
  0
LINE
  5
11B
330
1F
100
AcDbEntity
  8
0
  6
Continuous
 62
     7
370
    25
100
AcDbLine
 10
6553.1171309213
 20
5028.5004499288
 30
0.0
 11
6553.1153840867
 21
5053.5004498678
 31
0.0
  0
LINE
  5
11C
330
1F
100
AcDbEntity
  8
0
  6
Continuous
 62
     7
370
    25
100
AcDbLine
 10
6923.108459662
 20
5214.6315463969
 30
0.0
 11
6611.9814759399
 21
4903.5045626748
 31
0.0
  0
LINE
  5
11D
330
1F
100
AcDbEntity
  8
0
  6
Continuous
 62
     7
370
    25
100
AcDbLine
 10
6611.9814759399
 20
4918.5814852268
 30
0.0
 11
6612.0238784466
 21
4918.9107884158
 31
0.0
  0
LWPOLYLINE
  5
11E
330
1F
100
AcDbEntity
  8
0
  6
Continuous
 62
     7
370
    25
100
AcDbPolyline
 90
       19
 70
   128
 43
0.0
 10
6612.0238784466
 20
4918.9107884158
 10
6622.0869673887
 20
4936.0328873958
 10
6632.1724795219
 20
4953.1325479085
 10
6642.7325148051
 20
4969.7573619947
 10
6653.2925500884
 20
4986.3821760808
 10
6663.8525853716
 20
5003.006990167
 10
6674.4126206548
 20
5019.6318042531
 10
6684.9726559381
 20
5036.2566183392
 10
6743.0528499958
 20
5127.693095813
 10
6801.1330440536
 20
5219.1295732868
 10
6807.5218654
 20
5229.1875858089
 10
6813.9106867463
 20
5239.2455983311
 10
6820.2995080927
 20
5249.3036108532
 10
6826.5246685157
 20
5259.5253957953
 10
6830.1873565049
 20
5266.2009582503
 10
6833.8514650594
 20
5272.8750991723
 10
6837.707932128
 20
5279.3567505329
 10
6841.9476956594
 20
5285.4548443037
 10
6846.7616936026
 20
5290.9783124562
  0
LINE
  5
11F
330
1F
100
AcDbEntity
  8
0
  6
Continuous
 62
     7
370
    25
100
AcDbLine
 10
6846.7616936026
 20
5290.9783124562
 30
0.0
 11
6923.108459662
 21
5214.6315463969
 31
0.0
  0
LINE
  5
120
330
1F
100
AcDbEntity
  8
0
  6
Continuous
 62
     7
370
    25
100
AcDbLine
 10
6611.9814759399
 20
4903.5045626748
 30
0.0
 11
6611.9814759399
 21
4918.5814852268
 31
0.0
  0
LINE
  5
121
330
1F
100
AcDbEntity
  8
0
  6
Continuous
 62
     7
370
    25
100
AcDbLine
 10
6612.0238784466
 20
4918.9107884158
 30
0.0
 11
6611.9814759399
 21
5525.7585301189
 31
0.0
  0
LINE
  5
122
330
1F
100
AcDbEntity
  8
0
  6
Continuous
 62
     7
370
    25
100
AcDbLine
 10
6611.9814759399
 20
4918.5814852268
 30
0.0
 11
6611.9814759399
 21
5525.7585301189
 31
0.0
  0
LINE
  5
123
330
1F
100
AcDbEntity
  8
0
  6
Continuous
 62
     7
370
    25
100
AcDbLine
 10
6611.9814759399
 20
5525.7585301189
 30
0.0
 11
6846.7616936026
 21
5290.9783124562
 31
0.0
  0
LINE
  5
124
330
1F
100
AcDbEntity
  8
0
  6
Continuous
 62
     7
370
    25
100
AcDbLine
 10
6109.3148566965
 20
4684.5375865905
 30
0.0
 11
6105.3148566965
 21
4684.5375865905
 31
0.0
  0
LINE
  5
125
330
1F
100
AcDbEntity
  8
0
  6
Continuous
 62
     7
370
    25
100
AcDbLine
 10
6105.3148566965
 20
4665.5375865905
 30
0.0
 11
6109.3148566965
 21
4665.5375865905
 31
0.0
  0
ARC
  5
126
330
1F
100
AcDbEntity
  8
0
  6
Continuous
 62
     7
370
    25
100
AcDbCircle
 10
6105.3148566965
 20
4683.5375865905
 30
0.0
 40
1.000000000000909
100
AcDbArc
 50
90.0
 51
180.0
  0
ARC
  5
127
330
1F
100
AcDbEntity
  8
0
  6
Continuous
 62
     7
370
    25
100
AcDbCircle
 10
6105.3148566965
 20
4666.5375865905
 30
0.0
 40
1.000000000000909
100
AcDbArc
 50
180.0
 51
270.0
  0
ARC
  5
128
330
1F
100
AcDbEntity
  8
0
  6
Continuous
 62
     7
370
    25
100
AcDbCircle
 10
6442.7226539757
 20
4666.5375865905
 30
0.0
 40
1.000000000000909
100
AcDbArc
 50
270.0
 51
0.0
  0
ARC
  5
129
330
1F
100
AcDbEntity
  8
0
  6
Continuous
 62
     7
370
    25
100
AcDbCircle
 10
6442.7226539757
 20
4683.5375865905
 30
0.0
 40
1.000000000000909
100
AcDbArc
 50
0.0
 51
90.0
  0
LINE
  5
12A
330
1F
100
AcDbEntity
  8
0
  6
Continuous
 62
     7
370
    25
100
AcDbLine
 10
6438.7226539757
 20
4665.5375865905
 30
0.0
 11
6442.7226539757
 21
4665.5375865905
 31
0.0
  0
LINE
  5
12B
330
1F
100
AcDbEntity
  8
0
  6
Continuous
 62
     7
370
    25
100
AcDbLine
 10
6442.7226539757
 20
4684.5375865905
 30
0.0
 11
6438.7226539757
 21
4684.5375865905
 31
0.0
  0
LWPOLYLINE
  5
12C
330
1F
100
AcDbEntity
  8
0
  6
Continuous
 62
     7
370
    25
100
AcDbPolyline
 90
        3
 70
   128
 43
0.0
 10
6198.6285744636
 20
4707.5273257028
 10
6198.9778787144
 20
4707.7291160025
 10
6199.3271974611
 20
4707.9309061471
  0
LWPOLYLINE
  5
12D
330
1F
100
AcDbEntity
  8
0
  6
Continuous
 62
     7
370
    25
100
AcDbPolyline
 90
        3
 70
   128
 43
0.0
 10
6198.6286946794
 20
4708.7973940814
 10
6198.9779971376
 20
4708.9991832337
 10
6199.3273138035
 20
4709.2009722321
  0
LWPOLYLINE
  5
12E
330
1F
100
AcDbEntity
  8
0
  6
Continuous
 62
     7
370
    25
100
AcDbPolyline
 90
        3
 70
   128
 43
0.0
 10
6198.6288103766
 20
4710.0674605296
 10
6198.9781106475
 20
4710.2692483121
 10
6199.3274248491
 20
4710.4710359425
  0
LWPOLYLINE
  5
12F
330
1F
100
AcDbEntity
  8
0
  6
Continuous
 62
     7
370
    25
100
AcDbPolyline
 90
        3
 70
   128
 43
0.0
 10
6198.6288890671
 20
4711.3375060918
 10
6198.9781877308
 20
4711.5392928712
 10
6199.327500137
 20
4711.7410794996
  0
LWPOLYLINE
  5
130
330
1F
100
AcDbEntity
  8
0
  6
Continuous
 62
     7
370
    25
100
AcDbPolyline
 90
        3
 70
   128
 43
0.0
 10
6198.6288458987
 20
4712.6074810597
 10
6198.9781470768
 20
4712.8092693333
 10
6199.3274620956
 20
4713.011057454
  0
LWPOLYLINE
  5
131
330
1F
100
AcDbEntity
  8
0
  6
Continuous
 62
     7
370
    25
100
AcDbPolyline
 90
        3
 70
   128
 43
0.0
 10
6198.6288218872
 20
4713.8774671755
 10
6198.9781255285
 20
4714.079256891
 10
6199.3274430611
 20
4714.2810464518
  0
LWPOLYLINE
  5
132
330
1F
100
AcDbEntity
  8
0
  6
Continuous
 62
     7
370
    25
100
AcDbPolyline
 90
        3
 70
   128
 43
0.0
 10
6198.6288156107
 20
4715.1474635508
 10
6198.978121586
 20
4715.3492546171
 10
6199.3274414596
 20
4715.5510455269
  0
LWPOLYLINE
  5
133
330
1F
100
AcDbEntity
  8
0
  6
Continuous
 62
     7
370
    25
100
AcDbPolyline
 90
        3
 70
   128
 43
0.0
 10
6198.6288249409
 20
4716.4174689397
 10
6198.9781330414
 20
4716.6192612264
 10
6199.1478885614
 20
4716.7173235615
  0
LWPOLYLINE
  5
134
330
1F
100
AcDbEntity
  8
0
  6
Continuous
 62
     7
370
    25
100
AcDbPolyline
 90
        3
 70
   128
 43
0.0
 10
6178.7173410968
 20
4716.1857347104
 10
6179.0666551884
 20
4715.9839471276
 10
6179.4159540694
 20
4715.7821593936
  0
LWPOLYLINE
  5
135
330
1F
100
AcDbEntity
  8
0
  6
Continuous
 62
     7
370
    25
100
AcDbPolyline
 90
        3
 70
   128
 43
0.0
 10
6178.7171929992
 20
4714.9158167771
 10
6179.0665032894
 20
4714.7140313667
 10
6179.4157987352
 20
4714.5122458077
  0
LWPOLYLINE
  5
136
330
1F
100
AcDbEntity
  8
0
  6
Continuous
 62
     7
370
    25
100
AcDbPolyline
 90
        3
 70
   128
 43
0.0
 10
6178.7169882269
 20
4713.6459319474
 10
6179.0662984771
 20
4713.4441466095
 10
6179.4155943681
 20
4713.2423611227
  0
LWPOLYLINE
  5
137
330
1F
100
AcDbEntity
  8
0
  6
Continuous
 62
     7
370
    25
100
AcDbPolyline
 90
        3
 70
   128
 43
0.0
 10
6178.7168191425
 20
4712.3760286
 10
6179.0661338684
 20
4712.1742406734
 10
6179.4154346313
 20
4711.9724525944
  0
LWPOLYLINE
  5
138
330
1F
100
AcDbEntity
  8
0
  6
Continuous
 62
     7
370
    25
100
AcDbPolyline
 90
        3
 70
   128
 43
0.0
 10
6178.716702004
 20
4711.1060964201
 10
6179.066020359
 20
4710.9043063178
 10
6179.4153250363
 20
4710.7025160598
  0
LWPOLYLINE
  5
139
330
1F
100
AcDbEntity
  8
0
  6
Continuous
 62
     7
370
    25
100
AcDbPolyline
 90
        3
 70
   128
 43
0.0
 10
6178.7166281408
 20
4709.8361395594
 10
6179.0659493891
 20
4709.6343476947
 10
6179.4152571453
 20
4709.4325556719
  0
LWPOLYLINE
  5
13A
330
1F
100
AcDbEntity
  8
0
  6
Continuous
 62
     7
370
    25
100
AcDbPolyline
 90
        3
 70
   128
 43
0.0
 10
6178.7165896692
 20
4708.5661621457
 10
6179.0659131451
 20
4708.3643689267
 10
6179.4152232287
 20
4708.1625755478
  0
LINE
  5
13B
330
1F
100
AcDbEntity
  8
0
  6
Continuous
 62
     7
370
    25
100
AcDbLine
 10
6178.7165793326
 20
4707.296168228
 30
0.0
 11
6178.8378814191
 21
4707.2260958057
 31
0.0
  0
LINE
  5
13C
330
1F
100
AcDbEntity
  8
0
  6
Continuous
 62
     7
370
    25
100
AcDbLine
 10
6178.7221156248
 20
4707.4549941336
 30
0.0
 11
6178.7221156248
 21
4707.2945788456
 31
0.0
  0
LINE
  5
13D
330
1F
100
AcDbEntity
  8
0
  6
Continuous
 62
     7
370
    25
100
AcDbLine
 10
6178.7221156248
 20
4708.7249941336
 30
0.0
 11
6178.7221156248
 21
4708.565990693
 31
0.0
  0
LINE
  5
13E
330
1F
100
AcDbEntity
  8
0
  6
Continuous
 62
     7
370
    25
100
AcDbLine
 10
6178.7221156248
 20
4709.9949941336
 30
0.0
 11
6178.7221156248
 21
4709.8373657676
 31
0.0
  0
LINE
  5
13F
330
1F
100
AcDbEntity
  8
0
  6
Continuous
 62
     7
370
    25
100
AcDbLine
 10
6178.7221156248
 20
4711.2649941336
 30
0.0
 11
6178.7221156248
 21
4711.1063757893
 31
0.0
  0
LINE
  5
140
330
1F
100
AcDbEntity
  8
0
  6
Continuous
 62
     7
370
    25
100
AcDbLine
 10
6178.7221156248
 20
4712.5349941336
 30
0.0
 11
6178.7221156248
 21
4712.3756150778
 31
0.0
  0
LINE
  5
141
330
1F
100
AcDbEntity
  8
0
  6
Continuous
 62
     7
370
    25
100
AcDbLine
 10
6178.7221156248
 20
4713.8049941336
 30
0.0
 11
6178.7221156248
 21
4713.6458216869
 31
0.0
  0
LINE
  5
142
330
1F
100
AcDbEntity
  8
0
  6
Continuous
 62
     7
370
    25
100
AcDbLine
 10
6178.7221156248
 20
4715.0749941336
 30
0.0
 11
6178.7221156248
 21
4714.9181402502
 31
0.0
  0
LINE
  5
143
330
1F
100
AcDbEntity
  8
0
  6
Continuous
 62
     7
370
    25
100
AcDbLine
 10
6178.7221156248
 20
4716.3449941336
 30
0.0
 11
6178.7221156248
 21
4716.1884070604
 31
0.0
  0
LINE
  5
144
330
1F
100
AcDbEntity
  8
0
  6
Continuous
 62
     7
370
    25
100
AcDbLine
 10
6199.3221156248
 20
4715.551085609
 30
0.0
 11
6199.3221156248
 21
4715.7099193931
 31
0.0
  0
LINE
  5
145
330
1F
100
AcDbEntity
  8
0
  6
Continuous
 62
     7
370
    25
100
AcDbLine
 10
6199.3221156248
 20
4714.281100664
 30
0.0
 11
6199.3221156248
 21
4714.4399193931
 31
0.0
  0
LINE
  5
146
330
1F
100
AcDbEntity
  8
0
  6
Continuous
 62
     7
370
    25
100
AcDbLine
 10
6199.3221156248
 20
4713.0110983314
 30
0.0
 11
6199.3221156248
 21
4713.1699193931
 31
0.0
  0
LINE
  5
147
330
1F
100
AcDbEntity
  8
0
  6
Continuous
 62
     7
370
    25
100
AcDbLine
 10
6199.3221156248
 20
4711.7411011656
 30
0.0
 11
6199.3221156248
 21
4711.8999193931
 31
0.0
  0
LINE
  5
148
330
1F
100
AcDbEntity
  8
0
  6
Continuous
 62
     7
370
    25
100
AcDbLine
 10
6199.3221156248
 20
4710.4710497664
 30
0.0
 11
6199.3221156248
 21
4710.6299193931
 31
0.0
  0
LINE
  5
149
330
1F
100
AcDbEntity
  8
0
  6
Continuous
 62
     7
370
    25
100
AcDbLine
 10
6199.3221156248
 20
4709.2010958057
 30
0.0
 11
6199.3221156248
 21
4709.3599193931
 31
0.0
  0
LINE
  5
14A
330
1F
100
AcDbEntity
  8
0
  6
Continuous
 62
     7
370
    25
100
AcDbLine
 10
6199.3221156248
 20
4707.9310995413
 30
0.0
 11
6199.3221156248
 21
4708.0899193931
 31
0.0
  0
LWPOLYLINE
  5
14B
330
1F
100
AcDbEntity
  8
0
  6
Continuous
 62
     7
370
    25
100
AcDbPolyline
 90
        3
 70
   128
 43
0.0
 10
6179.4180952647
 20
4715.4798825087
 10
6179.07397418
 20
4715.2811025959
 10
6178.7302561218
 20
4715.0825257438
  0
LWPOLYLINE
  5
14C
330
1F
100
AcDbEntity
  8
0
  6
Continuous
 62
     7
370
    25
100
AcDbPolyline
 90
        3
 70
   128
 43
0.0
 10
6179.4180952647
 20
4714.2098825087
 10
6179.0737656275
 20
4714.0110011756
 10
6178.7302561218
 20
4713.8125257438
  0
LWPOLYLINE
  5
14D
330
1F
100
AcDbEntity
  8
0
  6
Continuous
 62
     7
370
    25
100
AcDbPolyline
 90
        3
 70
   128
 43
0.0
 10
6179.4180952647
 20
4712.9398825087
 10
6179.0735597945
 20
4712.7408997841
 10
6178.7302561218
 20
4712.5425257438
  0
LWPOLYLINE
  5
14E
330
1F
100
AcDbEntity
  8
0
  6
Continuous
 62
     7
370
    25
100
AcDbPolyline
 90
        3
 70
   128
 43
0.0
 10
6179.4180952647
 20
4711.6698825087
 10
6179.0733566801
 20
4711.4707984215
 10
6178.7302561218
 20
4711.2725257438
  0
LWPOLYLINE
  5
14F
330
1F
100
AcDbEntity
  8
0
  6
Continuous
 62
     7
370
    25
100
AcDbPolyline
 90
        3
 70
   128
 43
0.0
 10
6179.4180952647
 20
4710.3998825087
 10
6179.0731562838
 20
4710.2006970879
 10
6178.7302561218
 20
4710.0025257438
  0
LWPOLYLINE
  5
150
330
1F
100
AcDbEntity
  8
0
  6
Continuous
 62
     7
370
    25
100
AcDbPolyline
 90
        3
 70
   128
 43
0.0
 10
6179.4180952647
 20
4709.1298825087
 10
6179.0729586048
 20
4708.9305957832
 10
6178.7302561218
 20
4708.7325257438
  0
LWPOLYLINE
  5
151
330
1F
100
AcDbEntity
  8
0
  6
Continuous
 62
     7
370
    25
100
AcDbPolyline
 90
        3
 70
   128
 43
0.0
 10
6179.4180952647
 20
4707.8598825087
 10
6179.0727636425
 20
4707.6604945075
 10
6178.7302561218
 20
4707.4625257438
  0
LWPOLYLINE
  5
152
330
1F
100
AcDbEntity
  8
0
  6
Continuous
 62
     7
370
    25
100
AcDbPolyline
 90
        3
 70
   128
 43
0.0
 10
6199.3216226929
 20
4714.4417243609
 10
6198.9778856905
 20
4714.6402574538
 10
6198.6340372067
 20
4714.8389900997
  0
LWPOLYLINE
  5
153
330
1F
100
AcDbEntity
  8
0
  6
Continuous
 62
     7
370
    25
100
AcDbPolyline
 90
        3
 70
   128
 43
0.0
 10
6199.3216226929
 20
4713.1717243609
 10
6198.977937381
 20
4713.3701577671
 10
6198.6340372067
 20
4713.5689900997
  0
LWPOLYLINE
  5
154
330
1F
100
AcDbEntity
  8
0
  6
Continuous
 62
     7
370
    25
100
AcDbPolyline
 90
        3
 70
   128
 43
0.0
 10
6199.3216226929
 20
4711.9017243609
 10
6198.9779863945
 20
4712.1000581112
 10
6198.6340372067
 20
4712.2989900997
  0
LWPOLYLINE
  5
155
330
1F
100
AcDbEntity
  8
0
  6
Continuous
 62
     7
370
    25
100
AcDbPolyline
 90
        3
 70
   128
 43
0.0
 10
6199.3216226929
 20
4710.6317243609
 10
6198.9780327318
 20
4710.8299584861
 10
6198.6340372067
 20
4711.0289900997
  0
LWPOLYLINE
  5
156
330
1F
100
AcDbEntity
  8
0
  6
Continuous
 62
     7
370
    25
100
AcDbPolyline
 90
        3
 70
   128
 43
0.0
 10
6199.3216226929
 20
4709.3617243609
 10
6198.9780763936
 20
4709.5598588919
 10
6198.6340372067
 20
4709.7589900997
  0
LWPOLYLINE
  5
157
330
1F
100
AcDbEntity
  8
0
  6
Continuous
 62
     7
370
    25
100
AcDbPolyline
 90
        3
 70
   128
 43
0.0
 10
6199.3216226929
 20
4708.0917243609
 10
6198.9781173807
 20
4708.2897593286
 10
6198.6340372067
 20
4708.4889900997
  0
LWPOLYLINE
  5
158
330
1F
100
AcDbEntity
  8
0
  6
Continuous
 62
     7
370
    25
100
AcDbPolyline
 90
        3
 70
   128
 43
0.0
 10
6199.3216226929
 20
4715.7117243609
 10
6198.9778313221
 20
4715.9103571713
 10
6198.6340372067
 20
4716.1089900997
  0
LWPOLYLINE
  5
159
330
1F
100
AcDbEntity
  8
0
  6
Continuous
 62
     7
370
    25
100
AcDbPolyline
 90
        3
 70
   128
 43
0.0
 10
6179.4180952647
 20
4716.7498825087
 10
6179.0741854525
 20
4716.5512040451
 10
6178.7302561218
 20
4716.3525257438
  0
LWPOLYLINE
  5
15A
330
1F
100
AcDbEntity
  8
0
  6
Continuous
 62
     7
370
    25
100
AcDbPolyline
 90
        3
 70
   128
 43
0.0
 10
6179.4162718572
 20
4715.7819857531
 10
6179.416460707
 20
4715.6231344706
 10
6179.4162889429
 20
4715.4788390955
  0
LWPOLYLINE
  5
15B
330
1F
100
AcDbEntity
  8
0
  6
Continuous
 62
     7
370
    25
100
AcDbPolyline
 90
        3
 70
   128
 43
0.0
 10
6179.4162718572
 20
4714.5119857531
 10
6179.4166521799
 20
4714.353033159
 10
6179.4163063122
 20
4714.2088492278
  0
LWPOLYLINE
  5
15C
330
1F
100
AcDbEntity
  8
0
  6
Continuous
 62
     7
370
    25
100
AcDbPolyline
 90
        3
 70
   128
 43
0.0
 10
6179.4162718572
 20
4713.2419857531
 10
6179.4168462764
 20
4713.0829318185
 10
6179.4163239668
 20
4712.9388595149
  0
LWPOLYLINE
  5
15D
330
1F
100
AcDbEntity
  8
0
  6
Continuous
 62
     7
370
    25
100
AcDbPolyline
 90
        3
 70
   128
 43
0.0
 10
6179.4162718572
 20
4711.9719857531
 10
6179.4170429974
 20
4711.8128304491
 10
6179.4163419084
 20
4711.6688699579
  0
LWPOLYLINE
  5
15E
330
1F
100
AcDbEntity
  8
0
  6
Continuous
 62
     7
370
    25
100
AcDbPolyline
 90
        3
 70
   128
 43
0.0
 10
6179.4162718572
 20
4710.7019857531
 10
6179.4172423433
 20
4710.5427290508
 10
6179.4163601387
 20
4710.3988805582
  0
LWPOLYLINE
  5
15F
330
1F
100
AcDbEntity
  8
0
  6
Continuous
 62
     7
370
    25
100
AcDbPolyline
 90
        3
 70
   128
 43
0.0
 10
6179.4162718572
 20
4709.4319857531
 10
6179.417444315
 20
4709.2726276236
 10
6179.4163786595
 20
4709.1288913169
  0
LWPOLYLINE
  5
160
330
1F
100
AcDbEntity
  8
0
  6
Continuous
 62
     7
370
    25
100
AcDbPolyline
 90
        3
 70
   128
 43
0.0
 10
6179.4162718572
 20
4708.1619857531
 10
6179.4176489129
 20
4708.0025261676
 10
6179.4163974725
 20
4707.8589022354
  0
LWPOLYLINE
  5
161
330
1F
100
AcDbEntity
  8
0
  6
Continuous
 62
     7
370
    25
100
AcDbPolyline
 90
        3
 70
   128
 43
0.0
 10
6198.6347047748
 20
4714.8365646938
 10
6198.6346994399
 20
4714.9952155441
 10
6198.6347046673
 20
4715.1508656083
  0
LWPOLYLINE
  5
162
330
1F
100
AcDbEntity
  8
0
  6
Continuous
 62
     7
370
    25
100
AcDbPolyline
 90
        3
 70
   128
 43
0.0
 10
6198.6347047748
 20
4713.5665646938
 10
6198.6346915329
 20
4713.7251163632
 10
6198.6347045083
 20
4713.8808655152
  0
LWPOLYLINE
  5
163
330
1F
100
AcDbEntity
  8
0
  6
Continuous
 62
     7
370
    25
100
AcDbPolyline
 90
        3
 70
   128
 43
0.0
 10
6198.6347047748
 20
4712.2965646938
 10
6198.6346810531
 20
4712.4550171509
 10
6198.6347042976
 20
4712.6108654062
  0
LWPOLYLINE
  5
164
330
1F
100
AcDbEntity
  8
0
  6
Continuous
 62
     7
370
    25
100
AcDbPolyline
 90
        3
 70
   128
 43
0.0
 10
6198.6347047748
 20
4711.0265646938
 10
6198.6346679997
 20
4711.1849179074
 10
6198.6347040355
 20
4711.3408653481
  0
LWPOLYLINE
  5
165
330
1F
100
AcDbEntity
  8
0
  6
Continuous
 62
     7
370
    25
100
AcDbPolyline
 90
        3
 70
   128
 43
0.0
 10
6198.6347047748
 20
4709.7565646938
 10
6198.6346523719
 20
4709.9148186326
 10
6198.6347037219
 20
4710.0708650648
  0
LWPOLYLINE
  5
166
330
1F
100
AcDbEntity
  8
0
  6
Continuous
 62
     7
370
    25
100
AcDbPolyline
 90
        3
 70
   128
 43
0.0
 10
6198.6347047748
 20
4708.4865646938
 10
6198.634634169
 20
4708.6447193266
 10
6198.6347033571
 20
4708.8008652451
  0
LWPOLYLINE
  5
167
330
1F
100
AcDbEntity
  8
0
  6
Continuous
 62
     7
370
    25
100
AcDbPolyline
 90
        3
 70
   128
 43
0.0
 10
6198.6346992641
 20
4707.2260958057
 10
6198.6346133901
 20
4707.3746199895
 10
6198.6347029415
 20
4707.530866076
  0
LINE
  5
168
330
1F
100
AcDbEntity
  8
0
  6
Continuous
 62
     7
370
    25
100
AcDbLine
 10
6198.6347047748
 20
4716.1065646938
 30
0.0
 11
6198.6347047748
 21
4716.4208656692
 31
0.0
  0
LINE
  5
169
330
1F
100
AcDbEntity
  8
0
  6
Continuous
 62
     7
370
    25
100
AcDbLine
 10
6299.0187553361
 20
4707.2260958057
 30
0.0
 11
6299.0187553361
 21
4766.0921876589
 31
0.0
  0
LINE
  5
16A
330
1F
100
AcDbEntity
  8
0
  6
Continuous
 62
     7
370
    25
100
AcDbLine
 10
6249.0187553361
 20
4766.0921876589
 30
0.0
 11
6249.0187553361
 21
4707.2260958057
 31
0.0
  0
LINE
  5
16B
330
1F
100
AcDbEntity
  8
0
  6
Continuous
 62
     7
370
    25
100
AcDbLine
 10
6261.5187553361
 20
4619.2866316259
 30
0.0
 11
6261.5187553361
 21
4614.2866316381
 31
0.0
  0
LINE
  5
16C
330
1F
100
AcDbEntity
  8
0
  6
Continuous
 62
     7
370
    25
100
AcDbLine
 10
6286.5187553361
 20
4614.2866316381
 30
0.0
 11
6286.5187553361
 21
4619.2866316259
 31
0.0
  0
LINE
  5
16D
330
1F
100
AcDbEntity
  8
0
  6
Continuous
 62
     7
370
    25
100
AcDbLine
 10
6109.3148566965
 20
4665.5473197184
 30
0.0
 11
6109.3148566965
 21
4665.5375865905
 31
0.0
  0
LINE
  5
16E
330
1F
100
AcDbEntity
  8
0
  6
Continuous
 62
     7
370
    25
100
AcDbLine
 10
6109.3148566965
 20
4684.5375865905
 30
0.0
 11
6109.3148566965
 21
4665.5473197184
 31
0.0
  0
LINE
  5
16F
330
1F
100
AcDbEntity
  8
0
  6
Continuous
 62
     7
370
    25
100
AcDbLine
 10
6104.3148566965
 20
4666.5462951786
 30
0.0
 11
6104.3148566965
 21
4666.5375865905
 31
0.0
  0
LINE
  5
170
330
1F
100
AcDbEntity
  8
0
  6
Continuous
 62
     7
370
    25
100
AcDbLine
 10
6104.3148566965
 20
4683.5375865905
 30
0.0
 11
6104.3148566965
 21
4666.5462951786
 31
0.0
  0
LINE
  5
171
330
1F
100
AcDbEntity
  8
0
  6
Continuous
 62
     7
370
    25
100
AcDbLine
 10
6443.7226539757
 20
4666.5375865905
 30
0.0
 11
6443.7226539757
 21
4683.5375865905
 31
0.0
  0
LINE
  5
172
330
1F
100
AcDbEntity
  8
0
  6
Continuous
 62
     7
370
    25
100
AcDbLine
 10
6438.7226539757
 20
4665.5375865905
 30
0.0
 11
6438.7226539757
 21
4684.5375865905
 31
0.0
  0
LWPOLYLINE
  5
173
330
1F
100
AcDbEntity
  8
0
  6
Continuous
 62
     7
370
    25
100
AcDbPolyline
 90
       12
 70
   128
 43
0.0
 10
6198.5989220182
 20
4716.4175453859
 10
6198.1626163452
 20
4716.3610070177
 10
6196.8343236156
 20
4716.2976974554
 10
6194.8261997091
 20
4716.2385282793
 10
6192.239652042
 20
4716.1754413544
 10
6189.3752271755
 20
4716.1138137019
 10
6186.5012674665
 20
4716.0536893857
 10
6183.8102228405
 20
4715.9901411817
 10
6181.6501209974
 20
4715.9307005726
 10
6180.1342203584
 20
4715.8681991845
 10
6179.4441289863
 20
4715.805752198
 10
6179.5201851869
 20
4715.7818266138
  0
LWPOLYLINE
  5
174
330
1F
100
AcDbEntity
  8
0
  6
Continuous
 62
     7
370
    25
100
AcDbPolyline
 90
       12
 70
   128
 43
0.0
 10
6198.5988765684
 20
4715.1475394963
 10
6198.1626163452
 20
4715.0910070177
 10
6196.8343236156
 20
4715.0276974554
 10
6194.8261997091
 20
4714.9685282793
 10
6192.239652042
 20
4714.9054413544
 10
6189.3752271755
 20
4714.8438137019
 10
6186.5012674665
 20
4714.7836893857
 10
6183.8102228405
 20
4714.7201411817
 10
6181.6501209974
 20
4714.6607005726
 10
6180.1342203584
 20
4714.5981991845
 10
6179.4441289863
 20
4714.535752198
 10
6179.5199044872
 20
4714.5119149157
  0
LWPOLYLINE
  5
175
330
1F
100
AcDbEntity
  8
0
  6
Continuous
 62
     7
370
    25
100
AcDbPolyline
 90
       12
 70
   128
 43
0.0
 10
6198.5989037634
 20
4713.8775430204
 10
6198.1626163452
 20
4713.8210070177
 10
6196.8343236156
 20
4713.7576974554
 10
6194.8261997091
 20
4713.6985282793
 10
6192.239652042
 20
4713.6354413544
 10
6189.3752271755
 20
4713.5738137019
 10
6186.5012674665
 20
4713.5136893857
 10
6183.8102228405
 20
4713.4501411817
 10
6181.6501209974
 20
4713.3907005726
 10
6180.1342203584
 20
4713.3281991845
 10
6179.4441289863
 20
4713.265752198
 10
6179.5195289192
 20
4713.242033061
  0
LWPOLYLINE
  5
176
330
1F
100
AcDbEntity
  8
0
  6
Continuous
 62
     7
370
    25
100
AcDbPolyline
 90
       12
 70
   128
 43
0.0
 10
6198.5990137332
 20
4712.6075572707
 10
6198.1626163452
 20
4712.5510070177
 10
6196.8343236156
 20
4712.4876974554
 10
6194.8261997091
 20
4712.4285282793
 10
6192.239652042
 20
4712.3654413544
 10
6189.3752271755
 20
4712.3038137019
 10
6186.5012674665
 20
4712.2436893857
 10
6183.8102228405
 20
4712.1801411817
 10
6181.6501209974
 20
4712.1207005726
 10
6180.1342203584
 20
4712.0581991845
 10
6179.4441289863
 20
4711.995752198
 10
6179.5192300833
 20
4711.9721270681
  0
LWPOLYLINE
  5
177
330
1F
100
AcDbEntity
  8
0
  6
Continuous
 62
     7
370
    25
100
AcDbPolyline
 90
       12
 70
   128
 43
0.0
 10
6198.5992137225
 20
4711.3375831862
 10
6198.1626163452
 20
4711.2810070177
 10
6196.8343236156
 20
4711.2176974554
 10
6194.8261997091
 20
4711.1585282793
 10
6192.239652042
 20
4711.0954413544
 10
6189.3752271755
 20
4711.0338137019
 10
6186.5012674665
 20
4710.9736893857
 10
6183.8102228405
 20
4710.9101411817
 10
6181.6501209974
 20
4710.8507005726
 10
6180.1342203584
 20
4710.7881991845
 10
6179.4441289863
 20
4710.725752198
 10
6179.5190225841
 20
4710.7021923427
  0
LWPOLYLINE
  5
178
330
1F
100
AcDbEntity
  8
0
  6
Continuous
 62
     7
370
    25
100
AcDbPolyline
 90
       12
 70
   128
 43
0.0
 10
6198.5988470489
 20
4710.0675356711
 10
6198.1626163452
 20
4710.0110070177
 10
6196.8343236156
 20
4709.9476974554
 10
6194.8261997091
 20
4709.8885282793
 10
6192.239652042
 20
4709.8254413544
 10
6189.3752271755
 20
4709.7638137019
 10
6186.5012674665
 20
4709.7036893857
 10
6183.8102228405
 20
4709.6401411817
 10
6181.6501209974
 20
4709.5807005726
 10
6180.1342203584
 20
4709.5181991845
 10
6179.4441289863
 20
4709.455752198
 10
6179.5188929266
 20
4709.4322331301
  0
LWPOLYLINE
  5
179
330
1F
100
AcDbEntity
  8
0
  6
Continuous
 62
     7
370
    25
100
AcDbPolyline
 90
       12
 70
   128
 43
0.0
 10
6198.5983121979
 20
4708.7974663628
 10
6198.1626163452
 20
4708.7410070177
 10
6196.8343236156
 20
4708.6776974554
 10
6194.8261997091
 20
4708.6185282793
 10
6192.239652042
 20
4708.5554413544
 10
6189.3752271755
 20
4708.4938137019
 10
6186.5012674665
 20
4708.4336893857
 10
6183.8102228405
 20
4708.3701411817
 10
6181.6501209974
 20
4708.3107005726
 10
6180.1342203584
 20
4708.2481991845
 10
6179.4441289863
 20
4708.185752198
 10
6179.5188277118
 20
4708.1622536452
  0
LWPOLYLINE
  5
17A
330
1F
100
AcDbEntity
  8
0
  6
Continuous
 62
     7
370
    25
100
AcDbPolyline
 90
       14
 70
   128
 43
0.0
 10
6198.1261788028
 20
4716.7248023334
 10
6198.085364637
 20
4716.723103462
 10
6196.2766800568
 20
4716.6631759615
 10
6193.4625643241
 20
4716.5939640923
 10
6192.5900741286
 20
4716.5749437663
 10
6191.7044441813
 20
4716.5563674493
 10
6190.7969681169
 20
4716.5378806667
 10
6188.0178997389
 20
4716.4829575249
 10
6185.3120413938
 20
4716.4288401922
 10
6182.8803800771
 20
4716.3752368521
 10
6180.8955311756
 20
4716.3213908703
 10
6179.5008039466
 20
4716.2672715216
 10
6178.7974781797
 20
4716.2128788059
 10
6178.815003362
 20
4716.1884070604
  0
LWPOLYLINE
  5
17B
330
1F
100
AcDbEntity
  8
0
  6
Continuous
 62
     7
370
    25
100
AcDbPolyline
 90
       15
 70
   128
 43
0.0
 10
6199.3039703777
 20
4715.5447745814
 10
6199.2843476452
 20
4715.5345491407
 10
6199.13316175
 20
4715.5137409508
 10
6198.3614228353
 20
4715.4651608984
 10
6196.7633573424
 20
4715.4072959491
 10
6194.1749757325
 20
4715.3401461028
 10
6192.7350026718
 20
4715.3080476004
 10
6191.403972993
 20
4715.2801943256
 10
6188.6362508895
 20
4715.2250921447
 10
6185.8966593545
 20
4715.1707957886
 10
6183.3871094546
 20
4715.1171444559
 10
6181.2886687571
 20
4715.0633056653
 10
6179.7523193297
 20
4715.0091677715
 10
6178.8897278861
 20
4714.9547307745
 10
6178.8054061892
 20
4714.9181402502
  0
LWPOLYLINE
  5
17C
330
1F
100
AcDbEntity
  8
0
  6
Continuous
 62
     7
370
    25
100
AcDbPolyline
 90
       16
 70
   128
 43
0.0
 10
6199.3099280514
 20
4714.274755958
 10
6199.2892479137
 20
4714.2655667801
 10
6199.0327327091
 20
4714.2343349147
 10
6198.2970146301
 20
4714.1918048186
 10
6196.7867418281
 20
4714.1379764918
 10
6194.2495303884
 20
4714.0728499344
 10
6192.5637568139
 20
4714.0360498192
 10
6190.6230857816
 20
4713.9964251463
 10
6188.4812289289
 20
4713.9539759158
 10
6187.3611957828
 20
4713.9316920914
 10
6186.5116880129
 20
4713.9145298151
 10
6183.9301753996
 20
4713.8594015195
 10
6181.7200402755
 20
4713.8043653017
 10
6180.0424774696
 20
4713.7494211619
 10
6179.0198389808
 20
4713.6945690999
 10
6178.7588954358
 20
4713.6458216869
  0
LWPOLYLINE
  5
17D
330
1F
100
AcDbEntity
  8
0
  6
Continuous
 62
     7
370
    25
100
AcDbPolyline
 90
       20
 70
   128
 43
0.0
 10
6199.2985889131
 20
4713.0044835594
 10
6199.291008557
 20
4712.9953420588
 10
6199.0697271521
 20
4712.9661561571
 10
6198.4702947166
 20
4712.9281724294
 10
6197.7314287228
 20
4712.8971428518
 10
6196.7998484306
 20
4712.8665876482
 10
6196.1528260588
 20
4712.848395378
 10
6195.4365381781
 20
4712.8303362549
 10
6193.7863961481
 20
4712.7925329228
 10
6191.6249662691
 20
4712.7474996653
 10
6188.9816731612
 20
4712.6952364825
 10
6186.0045397226
 20
4712.6357433743
 10
6182.9978097549
 20
4712.5690203408
 10
6181.6248002961
 20
4712.532947602
 10
6180.4328847712
 20
4712.4950673819
 10
6179.8983088963
 20
4712.4741414311
 10
6179.5044149325
 20
4712.4556484634
 10
6179.1880940666
 20
4712.4371773258
 10
6178.7270694689
 20
4712.3818948942
 10
6178.7957733186
 20
4712.3688470367
  0
LWPOLYLINE
  5
17E
330
1F
100
AcDbEntity
  8
0
  6
Continuous
 62
     7
370
    25
100
AcDbPolyline
 90
       17
 70
   128
 43
0.0
 10
6199.2891153052
 20
4711.7411011656
 10
6199.2634856242
 20
4711.7193629806
 10
6198.8884488199
 20
4711.6818409868
 10
6198.2244479818
 20
4711.6463572617
 10
6196.3025656947
 20
4711.5815046176
 10
6193.9993445332
 20
4711.5248050484
 10
6191.6986035556
 20
4711.476258554
 10
6189.6461561456
 20
4711.4358651345
 10
6188.0558346754
 20
4711.4052735905
 10
6186.7287175379
 20
4711.379266693
 10
6185.0104112361
 20
4711.3439961412
 10
6183.032882457
 20
4711.2994619351
 10
6181.0445437338
 20
4711.2456640748
 10
6179.4359421865
 20
4711.1826025602
 10
6178.9324826091
 20
4711.1475979325
 10
6178.724011961
 20
4711.1102773913
 10
6178.7393656301
 20
4711.1063757893
  0
LWPOLYLINE
  5
17F
330
1F
100
AcDbEntity
  8
0
  6
Continuous
 62
     7
370
    25
100
AcDbPolyline
 90
       15
 70
   128
 43
0.0
 10
6199.3024971595
 20
4710.4710497664
 10
6199.3209539745
 20
4710.4679801378
 10
6198.9056360882
 20
4710.412145939
 10
6197.7724649898
 20
4710.3567750492
 10
6196.0037443998
 20
4710.3018674685
 10
6193.7279388421
 20
4710.2474231969
 10
6191.1103430955
 20
4710.1934422344
 10
6188.3410766143
 20
4710.1399245809
 10
6186.9623900136
 20
4710.1133394951
 10
6185.8741215786
 20
4710.0918832271
 10
6183.8781217259
 20
4710.0498017224
 10
6181.9359414577
 20
4710.0025780516
 10
6180.2566252923
 20
4709.9502122146
 10
6179.0958347506
 20
4709.8927042116
 10
6178.771598751
 20
4709.8373657676
  0
LWPOLYLINE
  5
180
330
1F
100
AcDbEntity
  8
0
  6
Continuous
 62
     7
370
    25
100
AcDbPolyline
 90
       18
 70
   128
 43
0.0
 10
6199.3221156248
 20
4709.2010958057
 10
6199.3221156248
 20
4709.2010955667
 10
6199.2990825992
 20
4709.1873375133
 10
6199.0567049908
 20
4709.1546422307
 10
6198.1781355553
 20
4709.1042890568
 10
6197.3278019863
 20
4709.0724907606
 10
6196.1110876098
 20
4709.0362779915
 10
6194.4778910471
 20
4708.9956507496
 10
6192.413048249
 20
4708.9506090349
 10
6190.8133388881
 20
4708.9181287402
 10
6189.85300871
 20
4708.8991238484
 10
6188.9257830899
 20
4708.8809167752
 10
6186.1787986135
 20
4708.8263199612
 10
6183.6383356831
 20
4708.7717597554
 10
6181.4889183354
 20
4708.7172361578
 10
6179.8866673942
 20
4708.6627491684
 10
6178.9479629624
 20
4708.608293072
 10
6178.7872037005
 20
4708.565990693
  0
LWPOLYLINE
  5
181
330
1F
100
AcDbEntity
  8
0
  6
Continuous
 62
     7
370
    25
100
AcDbPolyline
 90
       17
 70
   128
 43
0.0
 10
6199.2950590186
 20
4707.9242653452
 10
6199.2494836627
 20
4707.9068298332
 10
6198.9873645039
 20
4707.8789110382
 10
6198.3005313851
 20
4707.8394718085
 10
6197.3534269427
 20
4707.8029593341
 10
6195.0534968147
 20
4707.7387146509
 10
6192.701035683
 20
4707.6861769888
 10
6190.6752650202
 20
4707.6453463477
 10
6189.6031490613
 20
4707.6246298209
 10
6188.7106255931
 20
4707.6077693835
 10
6187.3367838642
 20
4707.5815870015
 10
6185.0293326101
 20
4707.535055634
 10
6182.6191464762
 20
4707.4798149133
 10
6180.4527769354
 20
4707.4158648392
 10
6179.6072019286
 20
4707.3806237947
 10
6179.0649436711
 20
4707.3477352192
 10
6178.7660179801
 20
4707.2945788456
  0
LINE
  5
182
330
1F
100
AcDbEntity
  8
0
  6
Continuous
 62
     7
370
    25
100
AcDbLine
 10
6199.1428196184
 20
4716.7260958057
 30
0.0
 11
6198.3906794181
 21
4716.7260958057
 31
0.0
  0
ARC
  5
183
330
1F
100
AcDbEntity
  8
0
  6
Continuous
 62
     7
370
    25
100
AcDbCircle
 10
6192.2967847162
 20
4478.5608185875
 30
0.0
 40
238.1652884574349
100
AcDbArc
 50
90.01465491
 51
93.241777166
  0
LWPOLYLINE
  5
184
330
1F
100
AcDbEntity
  8
0
  6
Continuous
 62
     7
370
    25
100
AcDbPolyline
 90
       13
 70
   128
 43
0.0
 10
6199.3057940581
 20
4715.7099193931
 10
6199.3214919677
 20
4715.7077322672
 10
6198.8162642864
 20
4715.646632026
 10
6197.392983891
 20
4715.5833224637
 10
6195.1415487359
 20
4715.5217235077
 10
6192.2358676492
 20
4715.4560992543
 10
6190.506532073
 20
4715.4207915375
 10
6187.423024328
 20
4715.361632803
 10
6184.4208428849
 20
4715.2983801194
 10
6181.8737020071
 20
4715.2371232918
 10
6179.9883851639
 20
4715.1766581698
 10
6178.9143265107
 20
4715.1131746427
 10
6178.8286561953
 20
4715.0749941336
  0
LWPOLYLINE
  5
185
330
1F
100
AcDbEntity
  8
0
  6
Continuous
 62
     7
370
    25
100
AcDbPolyline
 90
       13
 70
   128
 43
0.0
 10
6199.3057940581
 20
4714.4399193931
 10
6199.3214919677
 20
4714.4377322672
 10
6198.8162642864
 20
4714.376632026
 10
6197.392983891
 20
4714.3133224637
 10
6195.1415487359
 20
4714.2517235077
 10
6192.2358676492
 20
4714.1860992543
 10
6190.506532073
 20
4714.1507915375
 10
6187.423024328
 20
4714.091632803
 10
6184.4208428849
 20
4714.0283801194
 10
6181.8737020071
 20
4713.9671232918
 10
6179.9883851639
 20
4713.9066581698
 10
6178.9143265107
 20
4713.8431746427
 10
6178.8286561953
 20
4713.8049941336
  0
LWPOLYLINE
  5
186
330
1F
100
AcDbEntity
  8
0
  6
Continuous
 62
     7
370
    25
100
AcDbPolyline
 90
       13
 70
   128
 43
0.0
 10
6199.3057940581
 20
4713.1699193931
 10
6199.3214919677
 20
4713.1677322672
 10
6198.8162642864
 20
4713.106632026
 10
6197.392983891
 20
4713.0433224637
 10
6195.1415487359
 20
4712.9817235077
 10
6192.2358676492
 20
4712.9160992543
 10
6190.506532073
 20
4712.8807915375
 10
6187.423024328
 20
4712.821632803
 10
6184.4208428849
 20
4712.7583801194
 10
6181.8737020071
 20
4712.6971232918
 10
6179.9883851639
 20
4712.6366581698
 10
6178.9143265107
 20
4712.5731746427
 10
6178.8286561953
 20
4712.5349941336
  0
LWPOLYLINE
  5
187
330
1F
100
AcDbEntity
  8
0
  6
Continuous
 62
     7
370
    25
100
AcDbPolyline
 90
       13
 70
   128
 43
0.0
 10
6199.3057940581
 20
4711.8999193931
 10
6199.3214919677
 20
4711.8977322672
 10
6198.8162642864
 20
4711.836632026
 10
6197.392983891
 20
4711.7733224637
 10
6195.1415487359
 20
4711.7117235077
 10
6192.2358676492
 20
4711.6460992543
 10
6190.506532073
 20
4711.6107915375
 10
6187.423024328
 20
4711.551632803
 10
6184.4208428849
 20
4711.4883801194
 10
6181.8737020071
 20
4711.4271232918
 10
6179.9883851639
 20
4711.3666581698
 10
6178.9143265107
 20
4711.3031746427
 10
6178.8286561953
 20
4711.2649941336
  0
LWPOLYLINE
  5
188
330
1F
100
AcDbEntity
  8
0
  6
Continuous
 62
     7
370
    25
100
AcDbPolyline
 90
       13
 70
   128
 43
0.0
 10
6199.3057940581
 20
4710.6299193931
 10
6199.3214919677
 20
4710.6277322672
 10
6198.8162642864
 20
4710.566632026
 10
6197.392983891
 20
4710.5033224637
 10
6195.1415487359
 20
4710.4417235077
 10
6192.2358676492
 20
4710.3760992543
 10
6190.506532073
 20
4710.3407915375
 10
6187.423024328
 20
4710.281632803
 10
6184.4208428849
 20
4710.2183801194
 10
6181.8737020071
 20
4710.1571232918
 10
6179.9883851639
 20
4710.0966581698
 10
6178.9143265107
 20
4710.0331746427
 10
6178.8286561953
 20
4709.9949941336
  0
LWPOLYLINE
  5
189
330
1F
100
AcDbEntity
  8
0
  6
Continuous
 62
     7
370
    25
100
AcDbPolyline
 90
       13
 70
   128
 43
0.0
 10
6199.3057940581
 20
4709.3599193931
 10
6199.3214919677
 20
4709.3577322672
 10
6198.8162642864
 20
4709.296632026
 10
6197.392983891
 20
4709.2333224637
 10
6195.1415487359
 20
4709.1717235077
 10
6192.2358676492
 20
4709.1060992543
 10
6190.506532073
 20
4709.0707915375
 10
6187.423024328
 20
4709.011632803
 10
6184.4208428849
 20
4708.9483801194
 10
6181.8737020071
 20
4708.8871232918
 10
6179.9883851639
 20
4708.8266581698
 10
6178.9143265107
 20
4708.7631746427
 10
6178.8286561953
 20
4708.7249941336
  0
LWPOLYLINE
  5
18A
330
1F
100
AcDbEntity
  8
0
  6
Continuous
 62
     7
370
    25
100
AcDbPolyline
 90
       13
 70
   128
 43
0.0
 10
6199.3057940581
 20
4708.0899193931
 10
6199.3214919677
 20
4708.0877322672
 10
6198.8162642864
 20
4708.026632026
 10
6197.392983891
 20
4707.9633224637
 10
6195.1415487359
 20
4707.9017235077
 10
6192.2358676492
 20
4707.8360992543
 10
6190.506532073
 20
4707.8007915375
 10
6187.423024328
 20
4707.741632803
 10
6184.4208428849
 20
4707.6783801194
 10
6181.8737020071
 20
4707.6171232918
 10
6179.9883851639
 20
4707.5566581698
 10
6178.9143265107
 20
4707.4931746427
 10
6178.8286561953
 20
4707.4549941336
  0
LINE
  5
18B
330
1F
100
AcDbEntity
  8
0
  6
Continuous
 62
     7
370
    25
100
AcDbLine
 10
6198.1261728704
 20
4716.7260958057
 30
0.0
 11
6192.2366646267
 21
4716.7260958057
 31
0.0
  0
LWPOLYLINE
  5
18C
330
1F
100
AcDbEntity
  8
0
  6
Continuous
 62
     7
370
    25
100
AcDbPolyline
 90
       13
 70
   128
 43
0.0
 10
6198.6052589679
 20
4716.1089167936
 10
6198.6341259285
 20
4716.1046072655
 10
6198.1626164393
 20
4716.0435070243
 10
6196.8343237961
 20
4715.9801974619
 10
6194.8261999626
 20
4715.921028286
 10
6192.2396523555
 20
4715.8579413616
 10
6189.3752275069
 20
4715.7963137086
 10
6186.5012678047
 20
4715.7361893932
 10
6183.8102231417
 20
4715.6726411893
 10
6181.65012123
 20
4715.6132005801
 10
6180.3111870878
 20
4715.5601961746
 10
6179.5561836919
 20
4715.5062781466
 10
6179.4958870287
 20
4715.4801242906
  0
LWPOLYLINE
  5
18D
330
1F
100
AcDbEntity
  8
0
  6
Continuous
 62
     7
370
    25
100
AcDbPolyline
 90
       13
 70
   128
 43
0.0
 10
6198.6053964261
 20
4714.8388962725
 10
6198.6341259285
 20
4714.8346072655
 10
6198.1626164393
 20
4714.7735070243
 10
6196.8343237961
 20
4714.7101974619
 10
6194.8261999626
 20
4714.651028286
 10
6192.2396523555
 20
4714.5879413616
 10
6189.3752275069
 20
4714.5263137087
 10
6186.5012678047
 20
4714.4661893932
 10
6183.8102231417
 20
4714.4026411893
 10
6181.65012123
 20
4714.3432005801
 10
6180.3111870878
 20
4714.2901961746
 10
6179.5561836919
 20
4714.2362781466
 10
6179.4958551238
 20
4714.2101104517
  0
LWPOLYLINE
  5
18E
330
1F
100
AcDbEntity
  8
0
  6
Continuous
 62
     7
370
    25
100
AcDbPolyline
 90
       13
 70
   128
 43
0.0
 10
6198.6055342995
 20
4713.5688756895
 10
6198.6341259285
 20
4713.5646072655
 10
6198.1626164393
 20
4713.5035070243
 10
6196.8343237961
 20
4713.4401974619
 10
6194.8261999626
 20
4713.381028286
 10
6192.2396523555
 20
4713.3179413616
 10
6189.3752275069
 20
4713.2563137087
 10
6186.5012678047
 20
4713.1961893932
 10
6183.8102231417
 20
4713.1326411893
 10
6181.65012123
 20
4713.0732005801
 10
6180.3111870878
 20
4713.0201961746
 10
6179.5561836919
 20
4712.9662781466
 10
6179.4958232146
 20
4712.940096611
  0
LWPOLYLINE
  5
18F
330
1F
100
AcDbEntity
  8
0
  6
Continuous
 62
     7
370
    25
100
AcDbPolyline
 90
       13
 70
   128
 43
0.0
 10
6198.6056725924
 20
4712.2988550439
 10
6198.6341259285
 20
4712.2946072655
 10
6198.1626164393
 20
4712.2335070243
 10
6196.8343237961
 20
4712.1701974619
 10
6194.8261999626
 20
4712.111028286
 10
6192.2396523555
 20
4712.0479413616
 10
6189.3752275069
 20
4711.9863137086
 10
6186.5012678047
 20
4711.9261893932
 10
6183.8102231417
 20
4711.8626411893
 10
6181.65012123
 20
4711.8032005801
 10
6180.3111870878
 20
4711.7501961746
 10
6179.5561836919
 20
4711.6962781466
 10
6179.4957913005
 20
4711.6700827682
  0
LWPOLYLINE
  5
190
330
1F
100
AcDbEntity
  8
0
  6
Continuous
 62
     7
370
    25
100
AcDbPolyline
 90
       13
 70
   128
 43
0.0
 10
6198.6058113087
 20
4711.028834335
 10
6198.6341259285
 20
4711.0246072655
 10
6198.1626164393
 20
4710.9635070243
 10
6196.8343237961
 20
4710.9001974619
 10
6194.8261999626
 20
4710.841028286
 10
6192.2396523555
 20
4710.7779413616
 10
6189.3752275069
 20
4710.7163137086
 10
6186.5012678047
 20
4710.6561893932
 10
6183.8102231417
 20
4710.5926411893
 10
6181.65012123
 20
4710.5332005801
 10
6180.3111870878
 20
4710.4801961746
 10
6179.5561836919
 20
4710.4262781466
 10
6179.4957593808
 20
4710.4000689229
  0
LWPOLYLINE
  5
191
330
1F
100
AcDbEntity
  8
0
  6
Continuous
 62
     7
370
    25
100
AcDbPolyline
 90
       13
 70
   128
 43
0.0
 10
6198.6059504527
 20
4709.7588135623
 10
6198.6341259285
 20
4709.7546072655
 10
6198.1626164393
 20
4709.6935070243
 10
6196.8343237961
 20
4709.6301974619
 10
6194.8261999626
 20
4709.571028286
 10
6192.2396523555
 20
4709.5079413616
 10
6189.3752275069
 20
4709.4463137086
 10
6186.5012678047
 20
4709.3861893932
 10
6183.8102231417
 20
4709.3226411893
 10
6181.65012123
 20
4709.2632005801
 10
6180.3111870878
 20
4709.2101961746
 10
6179.5561836919
 20
4709.1562781466
 10
6179.4957274548
 20
4709.1300550749
  0
LWPOLYLINE
  5
192
330
1F
100
AcDbEntity
  8
0
  6
Continuous
 62
     7
370
    25
100
AcDbPolyline
 90
       13
 70
   128
 43
0.0
 10
6198.6060900286
 20
4708.4887927251
 10
6198.6341259285
 20
4708.4846072655
 10
6198.1626164393
 20
4708.4235070243
 10
6196.8343237961
 20
4708.3601974619
 10
6194.8261999626
 20
4708.301028286
 10
6192.2396523555
 20
4708.2379413616
 10
6189.3752275069
 20
4708.1763137087
 10
6186.5012678047
 20
4708.1161893932
 10
6183.8102231417
 20
4708.0526411893
 10
6181.65012123
 20
4707.9932005801
 10
6180.3111870878
 20
4707.9401961746
 10
6179.5561836919
 20
4707.8862781466
 10
6179.4956955221
 20
4707.860041224
  0
LINE
  5
193
330
1F
100
AcDbEntity
  8
0
  6
Continuous
 62
     7
370
    25
100
AcDbLine
 10
6192.2357044816
 20
4716.7260958057
 30
0.0
 11
6179.4074947088
 21
4716.7260958057
 31
0.0
  0
LWPOLYLINE
  5
194
330
1F
100
AcDbEntity
  8
0
  6
Continuous
 62
     7
370
    25
100
AcDbPolyline
 90
       28
 70
   128
 43
0.0
 10
6249.0187553361
 20
4766.0921876589
 10
6249.1942279358
 20
4766.0923942626
 10
6249.7181824841
 20
4766.092597966
 10
6250.5832638077
 20
4766.0927959096
 10
6251.7773280612
 20
4766.0929853147
 10
6253.2836131998
 20
4766.0931635224
 10
6255.0809742821
 20
4766.0933280312
 10
6257.1441802981
 20
4766.0934765317
 10
6259.4442683582
 20
4766.0936069391
 10
6261.9489502678
 20
4766.0937174231
 10
6264.6230657832
 20
4766.0938064324
 10
6267.4290761844
 20
4766.0938727178
 10
6270.327591236
 20
4766.0939153486
 10
6273.2779221405
 20
4766.0939337264
 10
6276.2386527192
 20
4766.0939275933
 10
6279.1682208046
 20
4766.0938970353
 10
6282.0255016827
 20
4766.0938424814
 10
6284.770385393
 20
4766.0937646974
 10
6287.3643397852
 20
4766.0936647753
 10
6289.7709514256
 20
4766.0935441177
 10
6291.9564367622
 20
4766.0934044184
 10
6293.8901163714
 20
4766.0932476384
 10
6295.5448456303
 20
4766.0930759787
 10
6296.8973957672
 20
4766.0928918489
 10
6297.928779943
 20
4766.0926978338
 10
6298.6245197848
 20
4766.092496657
 10
6298.9748486302
 20
4766.0922911425
 10
6299.0187553361
 20
4766.0921876589
  0
LWPOLYLINE
  5
195
330
1F
100
AcDbEntity
  8
0
  6
Continuous
 62
     7
370
    25
100
AcDbPolyline
 90
       19
 70
   128
 43
0.0
 10
6115.1463435537
 20
4472.445878143
 10
6115.7126647676
 20
4465.9128755325
 10
6117.0587270098
 20
4459.4135466159
 10
6119.1662339365
 20
4453.0161687704
 10
6122.0168892042
 20
4446.7890193732
 10
6125.609434113
 20
4440.7567917935
 10
6129.9219479338
 20
4434.9388239059
 10
6134.9052017606
 20
4429.3952447696
 10
6140.5099666874
 20
4424.1861834437
 10
6146.7241433368
 20
4419.334164776
 10
6153.5174582625
 20
4414.8528449563
 10
6160.8153113911
 20
4410.787441202
 10
6168.5431026494
 20
4407.1831707304
 10
6176.6793460068
 20
4404.0582928061
 10
6185.1886543696
 20
4401.4188337803
 10
6193.9794538545
 20
4399.2900166136
 10
6202.9601705784
 20
4397.6970642659
 10
6213.9960125946
 20
4396.5006551442
 10
6225.1463549126
 20
4396.0991120836
  0
LINE
  5
196
330
1F
100
AcDbEntity
  8
0
  6
Continuous
 62
     7
370
    25
100
AcDbLine
 10
6109.0187553361
 20
4707.2260958057
 30
0.0
 11
6115.1463435537
 21
4472.445878143
 31
0.0
  0
LINE
  5
197
330
1F
100
AcDbEntity
  8
0
  6
Continuous
 62
     7
370
    25
100
AcDbLine
 10
6439.0187553361
 20
4707.2260958057
 30
0.0
 11
6109.0187553361
 21
4707.2260958057
 31
0.0
  0
LINE
  5
198
330
1F
100
AcDbEntity
  8
0
  6
Continuous
 62
     7
370
    25
100
AcDbLine
 10
6432.8911671185
 20
4472.445878143
 30
0.0
 11
6439.0187553361
 21
4707.2260958057
 31
0.0
  0
LWPOLYLINE
  5
199
330
1F
100
AcDbEntity
  8
0
  6
Continuous
 62
     7
370
    25
100
AcDbPolyline
 90
       19
 70
   128
 43
0.0
 10
6322.8911557596
 20
4396.0991120836
 10
6332.1436074461
 20
4396.3790755486
 10
6341.3628196619
 20
4397.2111890897
 10
6350.4518578996
 20
4398.5837874256
 10
6359.3137876519
 20
4400.4852052754
 10
6367.913551544
 20
4402.9150037871
 10
6376.2234572286
 20
4405.8580832858
 10
6384.15747126
 20
4409.2807509228
 10
6391.6295601926
 20
4413.1493138493
 10
6398.6061849528
 20
4417.454724369
 10
6405.0690193294
 20
4422.1766052654
 10
6410.9526502431
 20
4427.2630254171
 10
6416.1916646148
 20
4432.6620537027
 10
6420.7583917183
 20
4438.3569469898
 10
6424.645424681
 20
4444.324505722
 10
6427.8153683617
 20
4450.5004238845
 10
6430.2308276189
 20
4456.8203954623
 10
6432.1199940391
 20
4464.5855505941
 10
6432.8911671185
 20
4472.445878143
  0
LINE
  5
19A
330
1F
100
AcDbEntity
  8
0
  6
Continuous
 62
     7
370
    25
100
AcDbLine
 10
6322.8911557596
 20
4396.0991120836
 30
0.0
 11
6225.1463549126
 21
4396.0991120836
 31
0.0
  0
ELLIPSE
  5
19B
330
1F
100
AcDbEntity
  8
0
  6
Continuous
 62
     7
370
    25
100
AcDbEllipse
 10
6310.5187553361
 20
4509.2813300173
 30
0.0
 11
-8.731149137020111E-11
 21
110.0076868781271
 31
0.0
210
0.0
220
0.0
230
1.0
 40
0.9999301242
 41
4.71238898038391
 42
6.283185307179586
  0
LINE
  5
19C
330
1F
100
AcDbEntity
  8
0
  6
Continuous
 62
     7
370
    25
100
AcDbLine
 10
6237.5187553361
 20
4619.2890168954
 30
0.0
 11
6310.5187553361
 21
4619.2890168954
 31
0.0
  0
ELLIPSE
  5
19D
330
1F
100
AcDbEntity
  8
0
  6
Continuous
 62
     7
370
    25
100
AcDbEllipse
 10
6237.5187553361
 20
4509.2813300173
 30
0.0
 11
-8.731149137020111E-11
 21
110.0076868781271
 31
0.0
210
0.0
220
0.0
230
1.0
 40
0.9999301242
 41
0.0
 42
1.570796326794103
  0
LINE
  5
19E
330
1F
100
AcDbEntity
  8
0
  6
Continuous
 62
     7
370
    25
100
AcDbLine
 10
6127.5187553361
 20
4485.020892916
 30
0.0
 11
6127.5187553361
 21
4509.2813300173
 31
0.0
  0
ELLIPSE
  5
19F
330
1F
100
AcDbEntity
  8
0
  6
Continuous
 62
     7
370
    25
100
AcDbEllipse
 10
6237.5187553361
 20
4485.020892916
 30
0.0
 11
110.0
 21
0.0
 31
0.0
210
0.0
220
0.0
230
1.0
 40
0.7072534177
 41
3.141592653589793
 42
4.712388980384699
  0
LINE
  5
1A0
330
1F
100
AcDbEntity
  8
0
  6
Continuous
 62
     7
370
    25
100
AcDbLine
 10
6310.5187553361
 20
4407.2230169658
 30
0.0
 11
6237.5187553361
 21
4407.2230169658
 31
0.0
  0
ELLIPSE
  5
1A1
330
1F
100
AcDbEntity
  8
0
  6
Continuous
 62
     7
370
    25
100
AcDbEllipse
 10
6310.5187553361
 20
4485.020892916
 30
0.0
 11
110.0
 21
0.0
 31
0.0
210
0.0
220
0.0
230
1.0
 40
0.7072534177
 41
4.712388980384699
 42
6.283185307179586
  0
LINE
  5
1A2
330
1F
100
AcDbEntity
  8
0
  6
Continuous
 62
     7
370
    25
100
AcDbLine
 10
6420.5187553361
 20
4485.020892916
 30
0.0
 11
6420.5187553361
 21
4509.2813300173
 31
0.0
  0
LWPOLYLINE
  5
1A3
330
1F
100
AcDbEntity
  8
0
  6
Continuous
 62
     7
370
    25
100
AcDbPolyline
 90
       19
 70
   128
 43
0.0
 10
6109.0187553361
 20
4707.183693299
 10
6109.2814440164
 20
4697.1206043568
 10
6109.5447179251
 20
4687.0350922237
 10
6109.8203765329
 20
4676.4750569404
 10
6110.0960351407
 20
4665.9150216572
 10
6110.3716937484
 20
4655.354986374
 10
6110.6473523562
 20
4644.7949510908
 10
6110.9230109639
 20
4634.2349158075
 10
6112.4391333066
 20
4576.1547217497
 10
6113.9552556493
 20
4518.074527692
 10
6114.122029107
 20
4511.6857063456
 10
6114.2888025647
 20
4505.2968849993
 10
6114.4555760224
 20
4498.9080636529
 10
6114.6180780525
 20
4492.6829032299
 10
6114.7136903263
 20
4489.0202152407
 10
6114.8093396758
 20
4485.3561066862
 10
6114.9100094385
 20
4481.4996396176
 10
6115.0206829519
 20
4477.2598760862
 10
6115.1463435537
 20
4472.445878143
  0
LINE
  5
1A4
330
1F
100
AcDbEntity
  8
0
  6
Continuous
 62
     7
370
    25
100
AcDbLine
 10
6109.0187553361
 20
4707.183693299
 30
0.0
 11
6109.0187553361
 21
4707.2260958057
 31
0.0
  0
LWPOLYLINE
  5
1A5
330
1F
100
AcDbEntity
  8
0
  6
Continuous
 62
     7
370
    25
100
AcDbPolyline
 90
       37
 70
   128
 43
0.0
 10
6109.9890636251
 20
4670.0375866028
 10
6109.9870809551
 20
4670.1134871706
 10
6109.9811931875
 20
4670.3390040076
 10
6109.9715792191
 20
4670.7072848987
 10
6109.9585311656
 20
4671.2071398156
 10
6109.9424454855
 20
4671.8233809194
 10
6109.9238109339
 20
4672.537284036
 10
6109.9031937122
 20
4673.3271575806
 10
6109.8812202645
 20
4674.1690016451
 10
6109.8585582426
 20
4675.0372372236
 10
6109.8358962208
 20
4675.9054834175
 10
6109.8139227731
 20
4676.7473590055
 10
6109.7933055514
 20
4677.5372840238
 10
6109.7746709998
 20
4678.2512570005
 10
6109.7585853197
 20
4678.8675842281
 10
6109.7455372661
 20
4679.3675389154
 10
6109.7359232978
 20
4679.7359301925
 10
6109.7300355302
 20
4679.9615646767
 10
6109.7280528602
 20
4680.0375865783
 10
6109.7300355302
 20
4679.9616860105
 10
6109.7359232978
 20
4679.7361691735
 10
6109.7455372661
 20
4679.3678882824
 10
6109.7585853197
 20
4678.8680333655
 10
6109.7746709998
 20
4678.2517922617
 10
6109.7933055514
 20
4677.5378891451
 10
6109.8139227731
 20
4676.7480156005
 10
6109.8358962208
 20
4675.906171536
 10
6109.8585582426
 20
4675.0379359575
 10
6109.8812202645
 20
4674.1696897636
 10
6109.9031937122
 20
4673.3278141756
 10
6109.9238109339
 20
4672.5378891573
 10
6109.9424454855
 20
4671.8239161806
 10
6109.9585311656
 20
4671.207588953
 10
6109.9715792191
 20
4670.7076342657
 10
6109.9811931875
 20
4670.3392429886
 10
6109.9870809551
 20
4670.1136085044
 10
6109.9890636251
 20
4670.0375866028
  0
LINE
  5
1A6
330
1F
100
AcDbEntity
  8
0
  6
Continuous
 62
     7
370
    25
100
AcDbLine
 10
6439.0187553361
 20
4707.183693299
 30
0.0
 11
6439.0187553361
 21
4707.2260958057
 31
0.0
  0
LWPOLYLINE
  5
1A7
330
1F
100
AcDbEntity
  8
0
  6
Continuous
 62
     7
370
    25
100
AcDbPolyline
 90
       20
 70
   128
 43
0.0
 10
6432.8911671185
 20
4472.445878143
 10
6433.0123679296
 20
4477.0890253784
 10
6433.1195217247
 20
4481.1939573291
 10
6433.2170662125
 20
4484.9307060291
 10
6433.3094391019
 20
4488.4693035125
 10
6433.4010781017
 20
4491.9797818134
 10
6433.4964209207
 20
4495.6321729659
 10
6433.7338697985
 20
4504.7284533857
 10
6433.9715977818
 20
4513.835427814
 10
6434.8206262937
 20
4546.3603364863
 10
6436.3367486364
 20
4604.4405305441
 10
6437.852870979
 20
4662.5207246019
 10
6438.001775852
 20
4668.2250293754
 10
6438.1506807249
 20
4673.929334149
 10
6438.2995855979
 20
4679.6336389225
 10
6438.4484904708
 20
4685.337943696
 10
6438.5970427458
 20
4691.0287385815
 10
6438.736009889
 20
4696.3522765072
 10
6438.87181994
 20
4701.5548495745
 10
6439.0187553361
 20
4707.183693299
  0
LWPOLYLINE
  5
1A8
330
1F
100
AcDbEntity
  8
0
  6
Continuous
 62
     7
370
    25
100
AcDbPolyline
 90
       37
 70
   128
 43
0.0
 10
6438.309457812
 20
4680.0375865783
 10
6438.307475142
 20
4679.9615646767
 10
6438.3015873744
 20
4679.7359301925
 10
6438.2919734061
 20
4679.3675389154
 10
6438.2789253525
 20
4678.8675842281
 10
6438.2628396724
 20
4678.2512570005
 10
6438.2442051208
 20
4677.5372840238
 10
6438.2235878991
 20
4676.7473590055
 10
6438.2016144514
 20
4675.9054834175
 10
6438.1789524296
 20
4675.0372372236
 10
6438.1562904077
 20
4674.1690016451
 10
6438.13431696
 20
4673.3271575806
 10
6438.1136997383
 20
4672.537284036
 10
6438.0950651867
 20
4671.8233809194
 10
6438.0789795066
 20
4671.2071398156
 10
6438.0659314531
 20
4670.7072848987
 10
6438.0563174847
 20
4670.3390040076
 10
6438.0504297171
 20
4670.1134871706
 10
6438.0484470471
 20
4670.0375866028
 10
6438.0504297171
 20
4670.1136085044
 10
6438.0563174847
 20
4670.3392429886
 10
6438.0659314531
 20
4670.7076342657
 10
6438.0789795066
 20
4671.207588953
 10
6438.0950651867
 20
4671.8239161806
 10
6438.1136997383
 20
4672.5378891573
 10
6438.13431696
 20
4673.3278141756
 10
6438.1562904077
 20
4674.1696897636
 10
6438.1789524296
 20
4675.0379359575
 10
6438.2016144514
 20
4675.906171536
 10
6438.2235878991
 20
4676.7480156005
 10
6438.2442051208
 20
4677.5378891451
 10
6438.2628396724
 20
4678.2517922617
 10
6438.2789253525
 20
4678.8680333655
 10
6438.2919734061
 20
4679.3678882824
 10
6438.3015873744
 20
4679.7361691735
 10
6438.307475142
 20
4679.9616860105
 10
6438.309457812
 20
4680.0375865783
  0
ARC
  5
1A9
330
1F
100
AcDbEntity
  8
0
  6
Continuous
 62
     7
370
    25
100
AcDbCircle
 10
6310.5199331988
 20
4509.2771826571
 30
0.0
 40
109.9988221403765
100
AcDbArc
 50
0.0004296896
 51
90.0006135208
  0
LINE
  5
1AA
330
1F
100
AcDbEntity
  8
0
  6
Continuous
 62
     7
370
    25
100
AcDbLine
 10
6310.5187553361
 20
4619.2760047912
 30
0.0
 11
6310.5187553361
 21
4619.2890168954
 31
0.0
  0
LINE
  5
1AB
330
1F
100
AcDbEntity
  8
0
  6
Continuous
 62
     7
370
    25
100
AcDbLine
 10
6237.5187553361
 20
4619.2890168954
 30
0.0
 11
6237.5187553361
 21
4619.2760047912
 31
0.0
  0
ARC
  5
1AC
330
1F
100
AcDbEntity
  8
0
  6
Continuous
 62
     7
370
    25
100
AcDbCircle
 10
6237.5175588403
 20
4509.2772012906
 30
0.0
 40
109.998803507133
100
AcDbArc
 50
89.9993767736
 51
179.9995800161
  0
LWPOLYLINE
  5
1AD
330
1F
100
AcDbEntity
  8
0
  6
Continuous
 62
     7
370
    25
100
AcDbPolyline
 90
       11
 70
   128
 43
0.0
 10
6274.0187553361
 20
4619.2875050433
 10
6271.9062450821
 20
4619.28749248
 10
6269.8545079018
 20
4619.2874551514
 10
6267.9225685384
 20
4619.2873941316
 10
6266.1660053699
 20
4619.2873111759
 10
6264.6353515204
 20
4619.2872086707
 10
6263.3746411144
 20
4619.287089565
 10
6262.4201424949
 20
4619.2869572853
 10
6261.7993148493
 20
4619.2868156369
 10
6261.5300182585
 20
4619.2866686948
 10
6261.5187553361
 20
4619.2866316259
  0
LWPOLYLINE
  5
1AE
330
1F
100
AcDbEntity
  8
0
  6
Continuous
 62
     7
370
    25
100
AcDbPolyline
 90
       11
 70
   128
 43
0.0
 10
6286.5187553361
 20
4619.2866316259
 10
6286.5074924137
 20
4619.2866686948
 10
6286.2381958229
 20
4619.2868156369
 10
6285.6173681773
 20
4619.2869572853
 10
6284.6628695578
 20
4619.287089565
 10
6283.4021591518
 20
4619.2872086707
 10
6281.8715053023
 20
4619.2873111759
 10
6280.1149421338
 20
4619.2873941316
 10
6278.1830027704
 20
4619.2874551514
 10
6276.1312655901
 20
4619.28749248
 10
6274.0187553361
 20
4619.2875050433
  0
LWPOLYLINE
  5
1AF
330
1F
100
AcDbEntity
  8
0
  6
Continuous
 62
     7
370
    25
100
AcDbPolyline
 90
       38
 70
   128
 43
0.0
 10
6274.0187553361
 20
4614.2857582208
 10
6276.1312655901
 20
4614.2857707841
 10
6278.1830027704
 20
4614.2858081127
 10
6280.1149421338
 20
4614.2858691325
 10
6281.8715053023
 20
4614.2859520882
 10
6283.4021591518
 20
4614.2860545934
 10
6284.6628695578
 20
4614.2861736991
 10
6285.6173681773
 20
4614.2863059788
 10
6286.2381958229
 20
4614.2864476272
 10
6286.5074924137
 20
4614.2865945693
 10
6286.4175107768
 20
4614.2867425777
 10
6285.9708395203
 20
4614.2868873946
 10
6285.180328563
 20
4614.2870248539
 10
6284.0687194657
 20
4614.2871510011
 10
6282.6679911983
 20
4614.2872622071
 10
6281.0184401628
 20
4614.2873552728
 10
6279.1675209391
 20
4614.2874275209
 10
6277.1684811034
 20
4614.2874768729
 10
6275.078829392
 20
4614.287501909
 10
6272.9586812802
 20
4614.287501909
 10
6270.8690295688
 20
4614.2874768729
 10
6268.869989733
 20
4614.2874275209
 10
6267.0190705094
 20
4614.2873552728
 10
6265.3695194739
 20
4614.2872622071
 10
6263.9687912065
 20
4614.2871510011
 10
6262.8571821092
 20
4614.2870248539
 10
6262.0666711519
 20
4614.2868873946
 10
6261.6199998954
 20
4614.2867425777
 10
6261.5300182585
 20
4614.2865945693
 10
6261.7993148493
 20
4614.2864476272
 10
6262.4201424949
 20
4614.2863059788
 10
6263.3746411144
 20
4614.2861736991
 10
6264.6353515204
 20
4614.2860545934
 10
6266.1660053699
 20
4614.2859520882
 10
6267.9225685384
 20
4614.2858691325
 10
6269.8545079018
 20
4614.2858081127
 10
6271.9062450821
 20
4614.2857707841
 10
6274.0187553361
 20
4614.2857582208
  0
LINE
  5
1B0
330
1F
100
AcDbEntity
  8
0
  6
Continuous
 62
     7
370
    25
100
AcDbLine
 10
6310.5187553361
 20
4407.2230169658
 30
0.0
 11
6310.5187553361
 21
4455.5749873518
 31
0.0
  0
LWPOLYLINE
  5
1B1
330
1F
100
AcDbEntity
  8
0
  6
Continuous
 62
     7
370
    25
100
AcDbPolyline
 90
       24
 70
   128
 43
0.0
 10
6420.5187553361
 20
4509.2780075931
 10
6420.4371059547
 20
4507.2090843069
 10
6420.2465377955
 20
4505.5020822647
 10
6420.017485325
 20
4504.1569672837
 10
6419.6210133225
 20
4502.4308894036
 10
6419.119381922
 20
4500.7391186415
 10
6418.5538899871
 20
4499.1730177829
 10
6417.8414600402
 20
4497.5017460478
 10
6416.2825657178
 20
4494.5181092251
 10
6414.3607207324
 20
4491.5616616651
 10
6412.1455039123
 20
4488.7267514787
 10
6407.3737410816
 20
4483.8200047233
 10
6401.9804126894
 20
4479.4422081237
 10
6395.4130922925
 20
4475.1277549087
 10
6388.3005012666
 20
4471.3042378102
 10
6380.1898223723
 20
4467.7199772098
 10
6371.6314809683
 20
4464.6255781736
 10
6362.2890692907
 20
4461.8943368334
 10
6352.6139328963
 20
4459.6628863581
 10
6345.8319869403
 20
4458.417453339
 10
6338.9428365192
 20
4457.3987835165
 10
6331.9786907579
 20
4456.6068758272
 10
6321.283333359
 20
4455.8326630729
 10
6310.5187553361
 20
4455.5749873518
  0
LWPOLYLINE
  5
1B2
330
1F
100
AcDbEntity
  8
0
  6
Continuous
 62
     7
370
    25
100
AcDbPolyline
 90
       26
 70
   128
 43
0.0
 10
6237.5187553361
 20
4455.5749873518
 10
6226.7542246981
 20
4455.832659846
 10
6216.0588199143
 20
4456.6068758272
 10
6209.0947564913
 20
4457.3987733266
 10
6202.2056044534
 20
4458.4174394521
 10
6195.4235777759
 20
4459.6628863581
 10
6187.6606989315
 20
4461.4080590503
 10
6180.0955211431
 20
4463.4731780826
 10
6172.9375585191
 20
4465.8046509894
 10
6166.1854901786
 20
4468.3976277616
 10
6159.7370094056
 20
4471.3042378102
 10
6154.94280209
 20
4473.7987392584
 10
6150.3666307744
 20
4476.5113834664
 10
6146.0570979828
 20
4479.4422081237
 10
6142.4033439018
 20
4482.3020359056
 10
6138.993176842
 20
4485.396860806
 10
6135.8920067599
 20
4488.7267514787
 10
6133.7728215751
 20
4491.4280658018
 10
6131.9072661837
 20
4494.2604002724
 10
6130.3944630976
 20
4497.0787442662
 10
6129.1943095268
 20
4499.9403507823
 10
6128.6080295735
 20
4501.7390466735
 10
6128.1159029079
 20
4503.6898554447
 10
6127.8357001705
 20
4505.2041244574
 10
6127.6158415142
 20
4507.0220483812
 10
6127.5187553361
 20
4509.2780075931
  0
LINE
  5
1B3
330
1F
100
AcDbEntity
  8
0
  6
Continuous
 62
     7
370
    25
100
AcDbLine
 10
6237.5187553361
 20
4455.5749873518
 30
0.0
 11
6237.5187553361
 21
4407.2230169658
 31
0.0
  0
LINE
  5
1B4
330
1F
100
AcDbEntity
  8
0
  6
Continuous
 62
     7
370
    25
100
AcDbLine
 10
6310.5187553361
 20
4455.5749873518
 30
0.0
 11
6310.5187553361
 21
4619.2760047912
 31
0.0
  0
LINE
  5
1B5
330
1F
100
AcDbEntity
  8
0
  6
Continuous
 62
     7
370
    25
100
AcDbLine
 10
6237.5187553361
 20
4619.2760047912
 30
0.0
 11
6237.5187553361
 21
4455.5749873518
 31
0.0
  0
LINE
  5
1B6
330
1F
100
AcDbEntity
  8
0
  6
Continuous
 62
     7
370
    25
100
AcDbLine
 10
6237.5187553361
 20
4455.5749873518
 30
0.0
 11
6310.5187553361
 21
4455.5749873518
 31
0.0
  0
CIRCLE
  5
1B7
330
1F
100
AcDbEntity
  8
0
  6
Continuous
 62
     7
370
    25
100
AcDbCircle
 10
6296.5187629837
 20
4512.1952662068
 30
0.0
 40
4.000007647566521
  0
CIRCLE
  5
1B8
330
1F
100
AcDbEntity
  8
0
  6
Continuous
 62
     7
370
    25
100
AcDbCircle
 10
6281.5187629837
 20
4512.1952662068
 30
0.0
 40
4.00000764756834
  0
CIRCLE
  5
1B9
330
1F
100
AcDbEntity
  8
0
  6
Continuous
 62
     7
370
    25
100
AcDbCircle
 10
6266.5187629837
 20
4512.1952662068
 30
0.0
 40
4.00000764756925
  0
CIRCLE
  5
1BA
330
1F
100
AcDbEntity
  8
0
  6
Continuous
 62
     7
370
    25
100
AcDbCircle
 10
6251.5187629837
 20
4512.1952662068
 30
0.0
 40
4.000007647564702
  0
LINE
  5
1BB
330
1F
100
AcDbEntity
  8
0
  6
Continuous
 62
     8
370
    25
100
AcDbLine
 10
6105.3148566965
 20
4665.5473197184
 30
0.0
 11
6105.3148566965
 21
4665.5375865905
 31
0.0
  0
LINE
  5
1BC
330
1F
100
AcDbEntity
  8
0
  6
Continuous
 62
     8
370
    25
100
AcDbLine
 10
6105.3148566965
 20
4684.5375865905
 30
0.0
 11
6105.3148566965
 21
4665.5473197184
 31
0.0
  0
LINE
  5
1BD
330
1F
100
AcDbEntity
  8
0
  6
Continuous
 62
     8
370
    25
100
AcDbLine
 10
6442.7226539757
 20
4665.5375865905
 30
0.0
 11
6442.7226539757
 21
4684.5375865905
 31
0.0
  0
LINE
  5
1BE
330
1F
100
AcDbEntity
  8
0
  6
Continuous
 62
     8
370
    25
100
AcDbLine
 10
6237.5187553361
 20
4619.2760047912
 30
0.0
 11
6261.5187553361
 21
4619.2760047912
 31
0.0
  0
LINE
  5
1BF
330
1F
100
AcDbEntity
  8
0
  6
Continuous
 62
     8
370
    25
100
AcDbLine
 10
6286.5187553361
 20
4619.2760047912
 30
0.0
 11
6310.5187553361
 21
4619.2760047912
 31
0.0
  0
ENDSEC
  0
SECTION
  2
OBJECTS
  0
DICTIONARY
  5
C
330
0
100
AcDbDictionary
281
     1
  3
ACAD_GROUP
350
D
  3
ACAD_LAYOUT
350
1A
  3
ACAD_MLINESTYLE
350
17
  3
ACAD_PLOTSETTINGS
350
19
  3
ACAD_PLOTSTYLENAME
350
E
  3
ACAD_SCALELIST
350
47
  3
DWGPROPS
350
1C0
  0
DICTIONARY
  5
D
102
{ACAD_REACTORS
330
C
102
}
330
C
100
AcDbDictionary
281
     1
  0
DICTIONARY
  5
1A
102
{ACAD_REACTORS
330
C
102
}
330
C
100
AcDbDictionary
281
     1
  3
Layout1
350
1E
  3
Layout2
350
26
  3
Model
350
22
  0
DICTIONARY
  5
17
102
{ACAD_REACTORS
330
C
102
}
330
C
100
AcDbDictionary
281
     1
  3
Standard
350
18
  0
DICTIONARY
  5
19
102
{ACAD_REACTORS
330
C
102
}
330
C
100
AcDbDictionary
281
     1
  0
ACDBDICTIONARYWDFLT
  5
E
102
{ACAD_REACTORS
330
C
102
}
330
C
100
AcDbDictionary
281
     1
  3
Normal
350
F
100
AcDbDictionaryWithDefault
340
F
  0
DICTIONARY
  5
47
102
{ACAD_REACTORS
330
C
102
}
330
C
100
AcDbDictionary
281
     1
  3
A0
350
48
  3
A1
350
49
  3
A2
350
4A
  3
A3
350
4B
  3
A4
350
4C
  3
A5
350
4D
  3
A6
350
4E
  3
A7
350
4F
  3
A8
350
50
  3
A9
350
51
  3
B0
350
52
  3
B1
350
53
  3
B2
350
54
  3
B3
350
55
  3
B4
350
56
  3
B5
350
57
  3
B6
350
58
  3
B7
350
59
  3
B8
350
5A
  3
B9
350
5B
  3
C0
350
5C
  3
C1
350
5D
  3
C2
350
5E
  3
C3
350
5F
  3
C4
350
60
  3
C5
350
61
  3
C6
350
62
  3
C7
350
63
  3
C8
350
64
  3
C9
350
65
  3
D0
350
66
  3
D1
350
67
  3
D2
350
68
  0
XRECORD
  5
1C0
102
{ACAD_REACTORS
330
C
102
}
330
C
100
AcDbXrecord
280
     1
  1
DWGPROPS COOKIE
  2

  3

  4

  6

  7

  8
radek.stransky
  9

300
=
301
=
302
=
303
=
304
=
305
=
306
=
307
=
308
=
309
=
 40
0.0
 41
2459815.169426435
 42
2459815.169426829
  1

 90
        0
  0
LAYOUT
  5
1E
102
{ACAD_REACTORS
330
1A
102
}
330
1A
100
AcDbPlotSettings
  1

  2
none_device
  4

  6

 40
0.0
 41
0.0
 42
0.0
 43
0.0
 44
0.0
 45
0.0
 46
0.0
 47
0.0
 48
0.0
 49
0.0
140
0.0
141
0.0
142
1.0
143
1.0
 70
   688
 72
     1
 73
     0
 74
     5
  7

 75
    16
147
1.0
148
0.0
149
0.0
100
AcDbLayout
  1
Layout1
 70
     1
 71
     1
 10
0.0
 20
0.0
 11
420.0
 21
297.0
 12
0.0
 22
0.0
 32
0.0
 14
1.0000000000E+20
 24
1.0000000000E+20
 34
1.0000000000E+20
 15
-1.0000000000E+20
 25
-1.0000000000E+20
 35
-1.0000000000E+20
146
0.0
 13
0.0
 23
0.0
 33
0.0
 16
1.0
 26
0.0
 36
0.0
 17
0.0
 27
1.0
 37
0.0
 76
     0
330
1B
  0
LAYOUT
  5
26
102
{ACAD_REACTORS
330
1A
102
}
330
1A
100
AcDbPlotSettings
  1

  2
none_device
  4

  6

 40
0.0
 41
0.0
 42
0.0
 43
0.0
 44
0.0
 45
0.0
 46
0.0
 47
0.0
 48
0.0
 49
0.0
140
0.0
141
0.0
142
1.0
143
1.0
 70
   688
 72
     1
 73
     0
 74
     5
  7

 75
    16
147
1.0
148
0.0
149
0.0
100
AcDbLayout
  1
Layout2
 70
     1
 71
     2
 10
0.0
 20
0.0
 11
0.0
 21
0.0
 12
0.0
 22
0.0
 32
0.0
 14
0.0
 24
0.0
 34
0.0
 15
0.0
 25
0.0
 35
0.0
146
0.0
 13
0.0
 23
0.0
 33
0.0
 16
1.0
 26
0.0
 36
0.0
 17
0.0
 27
1.0
 37
0.0
 76
     0
330
23
  0
LAYOUT
  5
22
102
{ACAD_REACTORS
330
1A
102
}
330
1A
100
AcDbPlotSettings
  1

  2
none_device
  4
Letter_(8.50_x_11.00_Inches)
  6

 40
6.35
 41
6.35
 42
6.35000508
 43
6.35000508
 44
215.9
 45
279.4
 46
0.0
 47
0.0
 48
0.0
 49
0.0
140
0.0
141
0.0
142
1.0
143
1.0
 70
  1712
 72
     1
 73
     0
 74
     0
  7

 75
     0
147
1.0
148
0.0
149
0.0
100
AcDbLayout
  1
Model
 70
     1
 71
     0
 10
0.0
 20
0.0
 11
20000.0
 21
10000.0
 12
0.0
 22
0.0
 32
0.0
 14
0.0
 24
0.0
 34
0.0
 15
20000.0
 25
10000.0
 35
0.0
146
0.0
 13
0.0
 23
0.0
 33
0.0
 16
1.0
 26
0.0
 36
0.0
 17
0.0
 27
1.0
 37
0.0
 76
     0
330
1F
331
29
  0
MLINESTYLE
  5
18
102
{ACAD_REACTORS
330
17
102
}
330
17
100
AcDbMlineStyle
  2
Standard
 70
     0
  3

 62
   256
 51
90.0
 52
90.0
 71
     2
 49
0.5
 62
   256
  6
BYLAYER
 49
-0.5
 62
   256
  6
BYLAYER
  0
ACDBPLACEHOLDER
  5
F
102
{ACAD_REACTORS
330
E
102
}
330
E
  0
SCALE
  5
48
102
{ACAD_REACTORS
330
47
102
}
330
47
100
AcDbScale
 70
     0
300
1:1
140
1.0
141
1.0
290
     1
  0
SCALE
  5
49
102
{ACAD_REACTORS
330
47
102
}
330
47
100
AcDbScale
 70
     0
300
1:2
140
1.0
141
2.0
290
     0
  0
SCALE
  5
4A
102
{ACAD_REACTORS
330
47
102
}
330
47
100
AcDbScale
 70
     0
300
1:4
140
1.0
141
4.0
290
     0
  0
SCALE
  5
4B
102
{ACAD_REACTORS
330
47
102
}
330
47
100
AcDbScale
 70
     0
300
1:5
140
1.0
141
5.0
290
     0
  0
SCALE
  5
4C
102
{ACAD_REACTORS
330
47
102
}
330
47
100
AcDbScale
 70
     0
300
1:8
140
1.0
141
8.0
290
     0
  0
SCALE
  5
4D
102
{ACAD_REACTORS
330
47
102
}
330
47
100
AcDbScale
 70
     0
300
1:10
140
1.0
141
10.0
290
     0
  0
SCALE
  5
4E
102
{ACAD_REACTORS
330
47
102
}
330
47
100
AcDbScale
 70
     0
300
1:16
140
1.0
141
16.0
290
     0
  0
SCALE
  5
4F
102
{ACAD_REACTORS
330
47
102
}
330
47
100
AcDbScale
 70
     0
300
1:20
140
1.0
141
20.0
290
     0
  0
SCALE
  5
50
102
{ACAD_REACTORS
330
47
102
}
330
47
100
AcDbScale
 70
     0
300
1:30
140
1.0
141
30.0
290
     0
  0
SCALE
  5
51
102
{ACAD_REACTORS
330
47
102
}
330
47
100
AcDbScale
 70
     0
300
1:40
140
1.0
141
40.0
290
     0
  0
SCALE
  5
52
102
{ACAD_REACTORS
330
47
102
}
330
47
100
AcDbScale
 70
     0
300
1:50
140
1.0
141
50.0
290
     0
  0
SCALE
  5
53
102
{ACAD_REACTORS
330
47
102
}
330
47
100
AcDbScale
 70
     0
300
1:100
140
1.0
141
100.0
290
     0
  0
SCALE
  5
54
102
{ACAD_REACTORS
330
47
102
}
330
47
100
AcDbScale
 70
     0
300
2:1
140
2.0
141
1.0
290
     0
  0
SCALE
  5
55
102
{ACAD_REACTORS
330
47
102
}
330
47
100
AcDbScale
 70
     0
300
4:1
140
4.0
141
1.0
290
     0
  0
SCALE
  5
56
102
{ACAD_REACTORS
330
47
102
}
330
47
100
AcDbScale
 70
     0
300
8:1
140
8.0
141
1.0
290
     0
  0
SCALE
  5
57
102
{ACAD_REACTORS
330
47
102
}
330
47
100
AcDbScale
 70
     0
300
10:1
140
10.0
141
1.0
290
     0
  0
SCALE
  5
58
102
{ACAD_REACTORS
330
47
102
}
330
47
100
AcDbScale
 70
     0
300
100:1
140
100.0
141
1.0
290
     0
  0
SCALE
  5
59
102
{ACAD_REACTORS
330
47
102
}
330
47
100
AcDbScale
 70
     0
300
1/128" = 1'-0"
140
0.0078125
141
12.0
290
     0
  0
SCALE
  5
5A
102
{ACAD_REACTORS
330
47
102
}
330
47
100
AcDbScale
 70
     0
300
1/64" = 1'-0"
140
0.015625
141
12.0
290
     0
  0
SCALE
  5
5B
102
{ACAD_REACTORS
330
47
102
}
330
47
100
AcDbScale
 70
     0
300
1/32" = 1'-0"
140
0.03125
141
12.0
290
     0
  0
SCALE
  5
5C
102
{ACAD_REACTORS
330
47
102
}
330
47
100
AcDbScale
 70
     0
300
1/16" = 1'-0"
140
0.0625
141
12.0
290
     0
  0
SCALE
  5
5D
102
{ACAD_REACTORS
330
47
102
}
330
47
100
AcDbScale
 70
     0
300
3/32" = 1'-0"
140
0.09375
141
12.0
290
     0
  0
SCALE
  5
5E
102
{ACAD_REACTORS
330
47
102
}
330
47
100
AcDbScale
 70
     0
300
1/8" = 1'-0"
140
0.125
141
12.0
290
     0
  0
SCALE
  5
5F
102
{ACAD_REACTORS
330
47
102
}
330
47
100
AcDbScale
 70
     0
300
3/16" = 1'-0"
140
0.1875
141
12.0
290
     0
  0
SCALE
  5
60
102
{ACAD_REACTORS
330
47
102
}
330
47
100
AcDbScale
 70
     0
300
1/4" = 1'-0"
140
0.25
141
12.0
290
     0
  0
SCALE
  5
61
102
{ACAD_REACTORS
330
47
102
}
330
47
100
AcDbScale
 70
     0
300
3/8" = 1'-0"
140
0.375
141
12.0
290
     0
  0
SCALE
  5
62
102
{ACAD_REACTORS
330
47
102
}
330
47
100
AcDbScale
 70
     0
300
1/2" = 1'-0"
140
0.5
141
12.0
290
     0
  0
SCALE
  5
63
102
{ACAD_REACTORS
330
47
102
}
330
47
100
AcDbScale
 70
     0
300
3/4" = 1'-0"
140
0.75
141
12.0
290
     0
  0
SCALE
  5
64
102
{ACAD_REACTORS
330
47
102
}
330
47
100
AcDbScale
 70
     0
300
1" = 1'-0"
140
1.0
141
12.0
290
     0
  0
SCALE
  5
65
102
{ACAD_REACTORS
330
47
102
}
330
47
100
AcDbScale
 70
     0
300
1-1/2" = 1'-0"
140
1.5
141
12.0
290
     0
  0
SCALE
  5
66
102
{ACAD_REACTORS
330
47
102
}
330
47
100
AcDbScale
 70
     0
300
3" = 1'-0"
140
3.0
141
12.0
290
     0
  0
SCALE
  5
67
102
{ACAD_REACTORS
330
47
102
}
330
47
100
AcDbScale
 70
     0
300
6" = 1'-0"
140
6.0
141
12.0
290
     0
  0
SCALE
  5
68
102
{ACAD_REACTORS
330
47
102
}
330
47
100
AcDbScale
 70
     0
300
1'-0" = 1'-0"
140
12.0
141
12.0
290
     0
  0
ENDSEC
  0
EOF
