  0
SECTION
  2
HEADER
  9
$ACADVER
  1
AC1015
  9
$ACADMAINTVER
 70
     6
  9
$DWGCODEPAGE
  3
ANSI_1250
  9
$INSBASE
 10
0.0
 20
0.0
 30
0.0
  9
$EXTMIN
 10
0.0
 20
0.0
 30
0.0
  9
$EXTMAX
 10
20000.0
 20
10000.0
 30
0.0
  9
$LIMMIN
 10
0.0
 20
0.0
  9
$LIMMAX
 10
20000.0
 20
10000.0
  9
$ORTHOMODE
 70
     0
  9
$REGENMODE
 70
     1
  9
$FILLMODE
 70
     1
  9
$QTEXTMODE
 70
     0
  9
$MIRRTEXT
 70
     1
  9
$LTSCALE
 40
1.0
  9
$ATTMODE
 70
     1
  9
$TEXTSIZE
 40
2.0
  9
$TRACEWID
 40
1.0
  9
$TEXTSTYLE
  7
Standard
  9
$CLAYER
  8
0
  9
$CELTYPE
  6
ByLayer
  9
$CECOLOR
 62
   256
  9
$CELTSCALE
 40
1.0
  9
$DISPSILH
 70
     0
  9
$DIMSCALE
 40
1.0
  9
$DIMASZ
 40
2.0
  9
$DIMEXO
 40
1.0
  9
$DIMDLI
 40
3.75
  9
$DIMRND
 40
0.0
  9
$DIMDLE
 40
0.0
  9
$DIMEXE
 40
1.0
  9
$DIMTP
 40
0.0
  9
$DIMTM
 40
0.0
  9
$DIMTXT
 40
2.0
  9
$DIMCEN
 40
2.5
  9
$DIMTSZ
 40
0.0
  9
$DIMTOL
 70
     0
  9
$DIMLIM
 70
     0
  9
$DIMTIH
 70
     1
  9
$DIMTOH
 70
     1
  9
$DIMSE1
 70
     0
  9
$DIMSE2
 70
     0
  9
$DIMTAD
 70
     1
  9
$DIMZIN
 70
     0
  9
$DIMBLK
  1

  9
$DIMASO
 70
     1
  9
$DIMSHO
 70
     1
  9
$DIMPOST
  1

  9
$DIMAPOST
  1

  9
$DIMALT
 70
     0
  9
$DIMALTD
 70
     3
  9
$DIMALTF
 40
0.0393700787
  9
$DIMLFAC
 40
1.0
  9
$DIMTOFL
 70
     1
  9
$DIMTVP
 40
0.0
  9
$DIMTIX
 70
     0
  9
$DIMSOXD
 70
     0
  9
$DIMSAH
 70
     0
  9
$DIMBLK1
  1

  9
$DIMBLK2
  1

  9
$DIMSTYLE
  2
ISO-25
  9
$DIMCLRD
 70
     0
  9
$DIMCLRE
 70
     0
  9
$DIMCLRT
 70
     0
  9
$DIMTFAC
 40
1.0
  9
$DIMGAP
 40
1.524
  9
$DIMJUST
 70
     0
  9
$DIMSD1
 70
     0
  9
$DIMSD2
 70
     0
  9
$DIMTOLJ
 70
     0
  9
$DIMTZIN
 70
     0
  9
$DIMALTZ
 70
     0
  9
$DIMALTTZ
 70
     0
  9
$DIMUPT
 70
     0
  9
$DIMDEC
 70
     2
  9
$DIMTDEC
 70
     0
  9
$DIMALTU
 70
     2
  9
$DIMALTTD
 70
     3
  9
$DIMTXSTY
  7
Standard
  9
$DIMAUNIT
 70
     0
  9
$DIMADEC
 70
     2
  9
$DIMALTRND
 40
0.0
  9
$DIMAZIN
 70
     0
  9
$DIMDSEP
 70
    44
  9
$DIMATFIT
 70
     3
  9
$DIMFRAC
 70
     0
  9
$DIMLDRBLK
  1

  9
$DIMLUNIT
 70
     2
  9
$DIMLWD
 70
    -2
  9
$DIMLWE
 70
    -2
  9
$DIMTMOVE
 70
     0
  9
$LUNITS
 70
     2
  9
$LUPREC
 70
     3
  9
$SKETCHINC
 40
1.0
  9
$FILLETRAD
 40
10.0
  9
$AUNITS
 70
     0
  9
$AUPREC
 70
     2
  9
$MENU
  1
.
  9
$ELEVATION
 40
0.0
  9
$PELEVATION
 40
0.0
  9
$THICKNESS
 40
0.0
  9
$LIMCHECK
 70
     0
  9
$CHAMFERA
 40
0.0
  9
$CHAMFERB
 40
0.0
  9
$CHAMFERC
 40
0.0
  9
$CHAMFERD
 40
0.0
  9
$SKPOLY
 70
     0
  9
$TDCREATE
 40
2459991.576542072
  9
$TDUCREATE
 40
2459991.534875405
  9
$TDUPDATE
 40
2459991.576542477
  9
$TDUUPDATE
 40
2459991.53487581
  9
$TDINDWG
 40
0.0000000116
  9
$TDUSRTIMER
 40
0.0000000116
  9
$USRTIMER
 70
     1
  9
$ANGBASE
 50
0.0
  9
$ANGDIR
 70
     0
  9
$PDMODE
 70
     0
  9
$PDSIZE
 40
-1.0
  9
$PLINEWID
 40
0.0
  9
$SPLFRAME
 70
     0
  9
$SPLINETYPE
 70
     6
  9
$SPLINESEGS
 70
     8
  9
$HANDSEED
  5
1FB
  9
$SURFTAB1
 70
     6
  9
$SURFTAB2
 70
     6
  9
$SURFTYPE
 70
     6
  9
$SURFU
 70
     6
  9
$SURFV
 70
     6
  9
$UCSBASE
  2

  9
$UCSNAME
  2

  9
$UCSORG
 10
0.0
 20
0.0
 30
0.0
  9
$UCSXDIR
 10
1.0
 20
0.0
 30
0.0
  9
$UCSYDIR
 10
0.0
 20
1.0
 30
0.0
  9
$UCSORTHOREF
  2

  9
$UCSORTHOVIEW
 70
     0
  9
$UCSORGTOP
 10
0.0
 20
0.0
 30
0.0
  9
$UCSORGBOTTOM
 10
0.0
 20
0.0
 30
0.0
  9
$UCSORGLEFT
 10
0.0
 20
0.0
 30
0.0
  9
$UCSORGRIGHT
 10
0.0
 20
0.0
 30
0.0
  9
$UCSORGFRONT
 10
0.0
 20
0.0
 30
0.0
  9
$UCSORGBACK
 10
0.0
 20
0.0
 30
0.0
  9
$PUCSBASE
  2

  9
$PUCSNAME
  2

  9
$PUCSORG
 10
0.0
 20
0.0
 30
0.0
  9
$PUCSXDIR
 10
1.0
 20
0.0
 30
0.0
  9
$PUCSYDIR
 10
0.0
 20
1.0
 30
0.0
  9
$PUCSORTHOREF
  2

  9
$PUCSORTHOVIEW
 70
     0
  9
$PUCSORGTOP
 10
0.0
 20
0.0
 30
0.0
  9
$PUCSORGBOTTOM
 10
0.0
 20
0.0
 30
0.0
  9
$PUCSORGLEFT
 10
0.0
 20
0.0
 30
0.0
  9
$PUCSORGRIGHT
 10
0.0
 20
0.0
 30
0.0
  9
$PUCSORGFRONT
 10
0.0
 20
0.0
 30
0.0
  9
$PUCSORGBACK
 10
0.0
 20
0.0
 30
0.0
  9
$USERI1
 70
     0
  9
$USERI2
 70
     0
  9
$USERI3
 70
     0
  9
$USERI4
 70
     0
  9
$USERI5
 70
     0
  9
$USERR1
 40
0.0
  9
$USERR2
 40
0.0
  9
$USERR3
 40
0.0
  9
$USERR4
 40
0.0
  9
$USERR5
 40
0.0
  9
$WORLDVIEW
 70
     1
  9
$SHADEDGE
 70
     3
  9
$SHADEDIF
 70
    70
  9
$TILEMODE
 70
     1
  9
$MAXACTVP
 70
    64
  9
$PINSBASE
 10
0.0
 20
0.0
 30
0.0
  9
$PLIMCHECK
 70
     0
  9
$PEXTMIN
 10
1.0000000000E+20
 20
1.0000000000E+20
 30
1.0000000000E+20
  9
$PEXTMAX
 10
-1.0000000000E+20
 20
-1.0000000000E+20
 30
-1.0000000000E+20
  9
$PLIMMIN
 10
0.0
 20
0.0
  9
$PLIMMAX
 10
420.0
 20
297.0
  9
$UNITMODE
 70
     0
  9
$VISRETAIN
 70
     1
  9
$PLINEGEN
 70
     0
  9
$PSLTSCALE
 70
     1
  9
$TREEDEPTH
 70
  3020
  9
$CMLSTYLE
  2
Standard
  9
$CMLJUST
 70
     0
  9
$CMLSCALE
 40
20.0
  9
$PROXYGRAPHICS
 70
     1
  9
$MEASUREMENT
 70
     1
  9
$CELWEIGHT
370
    -1
  9
$ENDCAPS
280
     0
  9
$JOINSTYLE
280
     0
  9
$LWDISPLAY
290
     1
  9
$INSUNITS
 70
     4
  9
$HYPERLINKBASE
  1

  9
$STYLESHEET
  1

  9
$XEDIT
290
     1
  9
$CEPSNTYPE
380
     0
  9
$PSTYLEMODE
290
     1
  9
$FINGERPRINTGUID
  2
{aba7f960-53be-4762-ad23-b1abf3d3c3f8}
  9
$VERSIONGUID
  2
{FAEB1C32-E019-11D5-929B-00C0DF256EC4}
  9
$EXTNAMES
290
     1
  9
$PSVPSCALE
 40
0.0
  9
$OLESTARTUP
290
     0
  0
ENDSEC
  0
SECTION
  2
CLASSES
  0
CLASS
  1
ACDBDICTIONARYWDFLT
  2
AcDbDictionaryWithDefault
  3
ObjectDBX Classes
 90
        0
280
     0
281
     0
  0
CLASS
  1
VISUALSTYLE
  2
AcDbVisualStyle
  3
ObjectDBX Classes
 90
     4095
280
     0
281
     0
  0
CLASS
  1
MATERIAL
  2
AcDbMaterial
  3
ObjectDBX Classes
 90
     1153
280
     0
281
     0
  0
CLASS
  1
SCALE
  2
AcDbScale
  3
ObjectDBX Classes
 90
     1153
280
     0
281
     0
  0
CLASS
  1
TABLESTYLE
  2
AcDbTableStyle
  3
ObjectDBX Classes
 90
     4095
280
     0
281
     0
  0
CLASS
  1
MLEADERSTYLE
  2
AcDbMLeaderStyle
  3
ACDB_MLEADERSTYLE_CLASS
 90
     4095
280
     0
281
     0
  0
CLASS
  1
SUN
  2
AcDbSun
  3
SCENEOE
 90
     1153
280
     0
281
     0
  0
CLASS
  1
ACDBPLACEHOLDER
  2
AcDbPlaceHolder
  3
ObjectDBX Classes
 90
        0
280
     0
281
     0
  0
CLASS
  1
LAYOUT
  2
AcDbLayout
  3
ObjectDBX Classes
 90
        0
280
     0
281
     0
  0
ENDSEC
  0
SECTION
  2
TABLES
  0
TABLE
  2
VPORT
  5
8
330
0
100
AcDbSymbolTable
 70
     1
  0
VPORT
  5
29
330
8
100
AcDbSymbolTableRecord
100
AcDbViewportTableRecord
  2
*Active
 70
     0
 10
0.0
 20
0.0
 11
1.0
 21
1.0
 12
10000.0
 22
5000.0
 13
0.0
 23
0.0
 14
10.0
 24
10.0
 15
10.0
 25
10.0
 16
0.0
 26
0.0
 36
1.0
 17
0.0
 27
0.0
 37
0.0
 40
10000.0
 41
2.0
 42
50.0
 43
0.0
 44
0.0
 50
0.0
 51
0.0
 71
     0
 72
  2000
 73
     1
 74
     3
 75
     0
 76
     0
 77
     0
 78
     0
281
     0
 65
     1
110
0.0
120
0.0
130
0.0
111
1.0
121
0.0
131
0.0
112
0.0
122
1.0
132
0.0
 79
     0
146
0.0
  0
ENDTAB
  0
TABLE
  2
LTYPE
  5
5
330
0
100
AcDbSymbolTable
 70
     6
  0
LTYPE
  5
14
330
5
100
AcDbSymbolTableRecord
100
AcDbLinetypeTableRecord
  2
ByBlock
 70
     0
  3

 72
    65
 73
     0
 40
0.0
  0
LTYPE
  5
15
330
5
100
AcDbSymbolTableRecord
100
AcDbLinetypeTableRecord
  2
ByLayer
 70
     0
  3

 72
    65
 73
     0
 40
0.0
  0
LTYPE
  5
16
330
5
100
AcDbSymbolTableRecord
100
AcDbLinetypeTableRecord
  2
Continuous
 70
     0
  3
Solid line
 72
    65
 73
     0
 40
0.0
  0
LTYPE
  5
6E
330
5
100
AcDbSymbolTableRecord
100
AcDbLinetypeTableRecord
  2
HIDDEN
 70
     0
  3
Hidden __ __ __ __ __ __ __ __ __ __ __ __ __ __
 72
    65
 73
     2
 40
1.905
 49
1.27
 74
     0
 49
-0.635
 74
     0
  0
LTYPE
  5
6F
330
5
100
AcDbSymbolTableRecord
100
AcDbLinetypeTableRecord
  2
PHANTOM
 70
     0
  3
Phantom ______  __  __  ______  __  __  ______
 72
    65
 73
     6
 40
12.7
 49
6.35
 74
     0
 49
-1.27
 74
     0
 49
1.27
 74
     0
 49
-1.27
 74
     0
 49
1.27
 74
     0
 49
-1.27
 74
     0
  0
LTYPE
  5
70
330
5
100
AcDbSymbolTableRecord
100
AcDbLinetypeTableRecord
  2
CENTER
 70
     0
  3
Center ____ _ ____ _ ____ _ ____ _ ____ _ ____
 72
    65
 73
     4
 40
10.16
 49
6.35
 74
     0
 49
-1.27
 74
     0
 49
1.27
 74
     0
 49
-1.27
 74
     0
  0
LTYPE
  5
71
330
5
100
AcDbSymbolTableRecord
100
AcDbLinetypeTableRecord
  2
CENTERX2
 70
     0
  3
Center (2x) ________  __  ________  __  _____
 72
    65
 73
     4
 40
20.32
 49
12.7
 74
     0
 49
-2.54
 74
     0
 49
2.54
 74
     0
 49
-2.54
 74
     0
  0
LTYPE
  5
72
330
5
100
AcDbSymbolTableRecord
100
AcDbLinetypeTableRecord
  2
DOT2
 70
     0
  3
Dot (.5x) ........................................
 72
    65
 73
     2
 40
0.635
 49
0.0
 74
     0
 49
-0.635
 74
     0
  0
ENDTAB
  0
TABLE
  2
LAYER
  5
2
330
0
100
AcDbSymbolTable
 70
    13
  0
LAYER
  5
10
330
2
100
AcDbSymbolTableRecord
100
AcDbLayerTableRecord
  2
0
 70
     0
 62
     7
  6
Continuous
370
    -3
390
F
  0
LAYER
  5
73
330
2
100
AcDbSymbolTableRecord
100
AcDbLayerTableRecord
  2
FORMAT
 70
     0
 62
     7
  6
Continuous
370
    -3
390
F
  0
LAYER
  5
74
330
2
100
AcDbSymbolTableRecord
100
AcDbLayerTableRecord
  2
OSA
 70
     0
 62
     7
  6
CENTER
370
    -3
390
F
  0
LAYER
  5
75
330
2
100
AcDbSymbolTableRecord
100
AcDbLayerTableRecord
  2
0_35
 70
     0
 62
     7
  6
Continuous
370
    35
390
F
  0
LAYER
  5
76
330
2
100
AcDbSymbolTableRecord
100
AcDbLayerTableRecord
  2
0_5
 70
     0
 62
     7
  6
Continuous
370
    50
390
F
  0
LAYER
  5
77
330
2
100
AcDbSymbolTableRecord
100
AcDbLayerTableRecord
  2
0_25
 70
     0
 62
     7
  6
Continuous
370
    25
390
F
  0
LAYER
  5
78
330
2
100
AcDbSymbolTableRecord
100
AcDbLayerTableRecord
  2
0_18
 70
     0
 62
     7
  6
Continuous
370
    -3
390
F
  0
LAYER
  5
79
330
2
100
AcDbSymbolTableRecord
100
AcDbLayerTableRecord
  2
SLD-0
 70
     0
 62
   179
  6
Continuous
370
    -3
390
F
  0
LAYER
  5
7A
330
2
100
AcDbSymbolTableRecord
100
AcDbLayerTableRecord
  2
KOTY
 70
     0
 62
     7
  6
Continuous
370
    -3
390
F
  0
LAYER
  5
7B
330
2
100
AcDbSymbolTableRecord
100
AcDbLayerTableRecord
  2
SILNA
 70
     0
 62
   179
  6
Continuous
370
    -3
390
F
  0
LAYER
  5
7C
330
2
100
AcDbSymbolTableRecord
100
AcDbLayerTableRecord
  2
0_18_1
 70
     0
 62
   179
  6
Continuous
370
    -3
390
F
  0
LAYER
  5
7D
330
2
100
AcDbSymbolTableRecord
100
AcDbLayerTableRecord
  2
0_35_1
 70
     0
 62
   179
  6
Continuous
370
    35
390
F
  0
LAYER
  5
7E
330
2
100
AcDbSymbolTableRecord
100
AcDbLayerTableRecord
  2
0_5_1
 70
     0
 62
   179
  6
Continuous
370
    50
390
F
  0
ENDTAB
  0
TABLE
  2
STYLE
  5
3
330
0
100
AcDbSymbolTable
 70
     1
  0
STYLE
  5
11
330
3
100
AcDbSymbolTableRecord
100
AcDbTextStyleTableRecord
  2
Standard
 70
     0
 40
0.0
 41
1.0
 50
0.0
 71
     0
 42
2.0
  3
txt
  4

  0
ENDTAB
  0
TABLE
  2
VIEW
  5
6
330
0
100
AcDbSymbolTable
 70
     0
  0
ENDTAB
  0
TABLE
  2
UCS
  5
7
330
0
100
AcDbSymbolTable
 70
     0
  0
ENDTAB
  0
TABLE
  2
APPID
  5
9
330
0
100
AcDbSymbolTable
 70
     1
  0
APPID
  5
12
330
9
100
AcDbSymbolTableRecord
100
AcDbRegAppTableRecord
  2
ACAD
 70
     0
  0
ENDTAB
  0
TABLE
  2
DIMSTYLE
  5
A
330
0
100
AcDbSymbolTable
 70
     1
100
AcDbDimStyleTable
  0
DIMSTYLE
105
27
330
A
100
AcDbSymbolTableRecord
100
AcDbDimStyleTableRecord
  2
ISO-25
 70
     0
 41
2.5
 42
0.625
 43
3.75
 44
1.25
 73
     0
 74
     0
 77
     1
 78
     8
140
2.5
141
2.5
143
0.0393700787
147
0.625
171
     3
172
     1
178
     0
271
     2
272
     2
274
     3
278
    44
283
     0
284
     8
340
11
  0
ENDTAB
  0
TABLE
  2
BLOCK_RECORD
  5
1
330
0
100
AcDbSymbolTable
 70
     1
  0
BLOCK_RECORD
  5
1F
330
1
100
AcDbSymbolTableRecord
100
AcDbBlockTableRecord
  2
*Model_Space
340
22
  0
BLOCK_RECORD
  5
1B
330
1
100
AcDbSymbolTableRecord
100
AcDbBlockTableRecord
  2
*Paper_Space
340
1E
  0
BLOCK_RECORD
  5
23
330
1
100
AcDbSymbolTableRecord
100
AcDbBlockTableRecord
  2
*Paper_Space0
340
26
  0
ENDTAB
  0
ENDSEC
  0
SECTION
  2
BLOCKS
  0
BLOCK
  5
20
330
1F
100
AcDbEntity
  8
0
100
AcDbBlockBegin
  2
*Model_Space
 70
     0
 10
0.0
 20
0.0
 30
0.0
  3
*Model_Space
  1

  0
ENDBLK
  5
21
330
1F
100
AcDbEntity
  8
0
100
AcDbBlockEnd
  0
BLOCK
  5
1C
330
1B
100
AcDbEntity
 67
     1
  8
0
100
AcDbBlockBegin
  2
*Paper_Space
 70
     0
 10
0.0
 20
0.0
 30
0.0
  3
*Paper_Space
  1

  0
ENDBLK
  5
1D
330
1B
100
AcDbEntity
 67
     1
  8
0
100
AcDbBlockEnd
  0
BLOCK
  5
24
330
23
100
AcDbEntity
  8
0
100
AcDbBlockBegin
  2
*Paper_Space0
 70
     0
 10
0.0
 20
0.0
 30
0.0
  3
*Paper_Space0
  1

  0
ENDBLK
  5
25
330
23
100
AcDbEntity
  8
0
100
AcDbBlockEnd
  0
ENDSEC
  0
SECTION
  2
ENTITIES
  0
CIRCLE
  5
7F
330
1F
100
AcDbEntity
  8
0
  6
Continuous
 62
     7
370
    25
100
AcDbCircle
 10
6274.0187553361
 20
5246.2001236508
 30
0.0
 40
5.800000000000182
  0
CIRCLE
  5
80
330
1F
100
AcDbEntity
  8
0
  6
Continuous
 62
     7
370
    25
100
AcDbCircle
 10
6274.0187553361
 20
5246.2001236508
 30
0.0
 40
6.0
  0
CIRCLE
  5
81
330
1F
100
AcDbEntity
  8
0
  6
Continuous
 62
     7
370
    25
100
AcDbCircle
 10
6274.0187553361
 20
5246.2001236508
 30
0.0
 40
8.899999999999636
  0
ARC
  5
82
330
1F
100
AcDbEntity
  8
0
  6
Continuous
 62
     7
370
    25
100
AcDbCircle
 10
6289.7187553361
 20
5206.9501236508
 30
0.0
 40
1.000000000000909
100
AcDbArc
 50
0.0
 51
90.0
  0
ARC
  5
83
330
1F
100
AcDbEntity
  8
0
  6
Continuous
 62
     7
370
    25
100
AcDbCircle
 10
6289.7187553361
 20
5194.0501236508
 30
0.0
 40
1.0
100
AcDbArc
 50
270.0
 51
0.0
  0
LINE
  5
84
330
1F
100
AcDbEntity
  8
0
  6
Continuous
 62
     7
370
    25
100
AcDbLine
 10
6258.3187553361
 20
5193.0501236508
 30
0.0
 11
6289.7187553361
 21
5193.0501236508
 31
0.0
  0
LINE
  5
85
330
1F
100
AcDbEntity
  8
0
  6
Continuous
 62
     7
370
    25
100
AcDbLine
 10
6257.3187553361
 20
5206.9501236508
 30
0.0
 11
6257.3187553361
 21
5194.0501236508
 31
0.0
  0
LINE
  5
86
330
1F
100
AcDbEntity
  8
0
  6
Continuous
 62
     7
370
    25
100
AcDbLine
 10
6289.7187553361
 20
5207.9501236508
 30
0.0
 11
6258.3187553361
 21
5207.9501236508
 31
0.0
  0
ARC
  5
87
330
1F
100
AcDbEntity
  8
0
  6
Continuous
 62
     7
370
    25
100
AcDbCircle
 10
6258.3187553361
 20
5194.0501236508
 30
0.0
 40
1.0
100
AcDbArc
 50
180.0
 51
270.0
  0
LINE
  5
88
330
1F
100
AcDbEntity
  8
0
  6
Continuous
 62
     7
370
    25
100
AcDbLine
 10
6290.7187553361
 20
5194.0501236508
 30
0.0
 11
6290.7187553361
 21
5206.9501236508
 31
0.0
  0
ARC
  5
89
330
1F
100
AcDbEntity
  8
0
  6
Continuous
 62
     7
370
    25
100
AcDbCircle
 10
6258.3187553361
 20
5206.9501236508
 30
0.0
 40
1.000000000000909
100
AcDbArc
 50
90.0
 51
180.0
  0
LINE
  5
8A
330
1F
100
AcDbEntity
  8
0
  6
Continuous
 62
     7
370
    25
100
AcDbLine
 10
6349.0187553361
 20
5299.2001236508
 30
0.0
 11
6199.0187553361
 21
5299.2001236508
 31
0.0
  0
LINE
  5
8B
330
1F
100
AcDbEntity
  8
0
  6
Continuous
 62
     7
370
    25
100
AcDbLine
 10
6349.0187553361
 20
5299.2001236508
 30
0.0
 11
6349.0187553361
 21
5289.2001236508
 31
0.0
  0
LINE
  5
8C
330
1F
100
AcDbEntity
  8
0
  6
Continuous
 62
     7
370
    25
100
AcDbLine
 10
6349.0187553361
 20
5289.2001236508
 30
0.0
 11
6199.0187553361
 21
5289.2001236508
 31
0.0
  0
LINE
  5
8D
330
1F
100
AcDbEntity
  8
0
  6
Continuous
 62
     7
370
    25
100
AcDbLine
 10
6199.0187553361
 20
5299.2001236508
 30
0.0
 11
6199.0187553361
 21
5289.2001236508
 31
0.0
  0
ARC
  5
8E
330
1F
100
AcDbEntity
  8
0
  6
Continuous
 62
     7
370
    25
100
AcDbCircle
 10
6349.0187553361
 20
5289.2001236508
 30
0.0
 40
10.0
100
AcDbArc
 50
0.0
 51
90.0
  0
LINE
  5
8F
330
1F
100
AcDbEntity
  8
0
  6
Continuous
 62
     7
370
    25
100
AcDbLine
 10
6349.0187553361
 20
5289.2001236508
 30
0.0
 11
6359.0187553361
 21
5289.2001236508
 31
0.0
  0
LINE
  5
90
330
1F
100
AcDbEntity
  8
0
  6
Continuous
 62
     7
370
    25
100
AcDbLine
 10
6189.0187553361
 20
5289.2001236508
 30
0.0
 11
6199.0187553361
 21
5289.2001236508
 31
0.0
  0
ARC
  5
91
330
1F
100
AcDbEntity
  8
0
  6
Continuous
 62
     7
370
    25
100
AcDbCircle
 10
6199.0187553361
 20
5289.2001236508
 30
0.0
 40
10.0
100
AcDbArc
 50
90.0
 51
180.0
  0
LINE
  5
92
330
1F
100
AcDbEntity
  8
0
  6
Continuous
 62
     7
370
    25
100
AcDbLine
 10
6199.0187553361
 20
5139.2001236508
 30
0.0
 11
6349.0187553361
 21
5139.2001236508
 31
0.0
  0
LINE
  5
93
330
1F
100
AcDbEntity
  8
0
  6
Continuous
 62
     7
370
    25
100
AcDbLine
 10
6349.0187553361
 20
5139.2001236508
 30
0.0
 11
6349.0187553361
 21
5129.2001236508
 31
0.0
  0
LINE
  5
94
330
1F
100
AcDbEntity
  8
0
  6
Continuous
 62
     7
370
    25
100
AcDbLine
 10
6199.0187553361
 20
5129.2001236508
 30
0.0
 11
6349.0187553361
 21
5129.2001236508
 31
0.0
  0
LINE
  5
95
330
1F
100
AcDbEntity
  8
0
  6
Continuous
 62
     7
370
    25
100
AcDbLine
 10
6199.0187553361
 20
5139.2001236508
 30
0.0
 11
6199.0187553361
 21
5129.2001236508
 31
0.0
  0
LWPOLYLINE
  5
96
330
1F
100
AcDbEntity
  8
0
  6
Continuous
 62
     7
370
    25
100
AcDbPolyline
 90
       20
 70
   128
 43
0.0
 10
6230.0187553361
 20
5131.4341723247
 10
6229.4543268966
 20
5131.3689209874
 10
6228.957426547
 20
5131.196498981
 10
6228.5216765751
 20
5130.932954183
 10
6228.1669226463
 20
5130.5721255183
 10
6228.0187754864
 20
5130.1761162055
 10
6228.1664317207
 20
5129.8498468367
 10
6228.5595995999
 20
5129.6396750846
 10
6229.1035677464
 20
5129.5232882349
 10
6229.732960794
 20
5129.4730910116
 10
6230.3876028136
 20
5129.4763890864
 10
6230.9995124975
 20
5129.5325568217
 10
6231.5030532103
 20
5129.6480986206
 10
6231.8493656749
 20
5129.8305652877
 10
6232.0100052547
 20
5130.0851779208
 10
6231.9615814374
 20
5130.4136927242
 10
6231.6698734809
 20
5130.8019118795
 10
6231.1134320506
 20
5131.1805575336
 10
6230.5801604501
 20
5131.3696252634
 10
6230.0187553361
 20
5131.4341723247
  0
LWPOLYLINE
  5
97
330
1F
100
AcDbEntity
  8
0
  6
Continuous
 62
     7
370
    25
100
AcDbPolyline
 90
       20
 70
   128
 43
0.0
 10
6318.0187553361
 20
5131.4341723247
 10
6317.4543268966
 20
5131.3689209874
 10
6316.957426547
 20
5131.196498981
 10
6316.5216765751
 20
5130.932954183
 10
6316.1669226463
 20
5130.5721255183
 10
6316.0187754864
 20
5130.1761162055
 10
6316.1664317207
 20
5129.8498468367
 10
6316.5595995999
 20
5129.6396750846
 10
6317.1035677464
 20
5129.5232882349
 10
6317.732960794
 20
5129.4730910116
 10
6318.3876028136
 20
5129.4763890864
 10
6318.9995124975
 20
5129.5325568217
 10
6319.5030532103
 20
5129.6480986206
 10
6319.8493656749
 20
5129.8305652877
 10
6320.0100052547
 20
5130.0851779208
 10
6319.9615814374
 20
5130.4136927242
 10
6319.6698734809
 20
5130.8019118795
 10
6319.1134320506
 20
5131.1805575336
 10
6318.5801604501
 20
5131.3696252634
 10
6318.0187553361
 20
5131.4341723247
  0
LINE
  5
98
330
1F
100
AcDbEntity
  8
0
  6
Continuous
 62
     7
370
    25
100
AcDbLine
 10
6199.0187553361
 20
5289.2001236508
 30
0.0
 11
6199.0187553361
 21
5139.2001236508
 31
0.0
  0
LINE
  5
99
330
1F
100
AcDbEntity
  8
0
  6
Continuous
 62
     7
370
    25
100
AcDbLine
 10
6349.0187553361
 20
5139.2001236508
 30
0.0
 11
6349.0187553361
 21
5289.2001236508
 31
0.0
  0
LINE
  5
9A
330
1F
100
AcDbEntity
  8
0
  6
Continuous
 62
     7
370
    25
100
AcDbLine
 10
6289.7187553361
 20
5208.1001236508
 30
0.0
 11
6258.3187553361
 21
5208.1001236508
 31
0.0
  0
LINE
  5
9B
330
1F
100
AcDbEntity
  8
0
  6
Continuous
 62
     7
370
    25
100
AcDbLine
 10
6257.1687553361
 20
5206.9501236508
 30
0.0
 11
6257.1687553361
 21
5194.0501236508
 31
0.0
  0
ARC
  5
9C
330
1F
100
AcDbEntity
  8
0
  6
Continuous
 62
     7
370
    25
100
AcDbCircle
 10
6289.7187553361
 20
5194.0501236508
 30
0.0
 40
1.150000000000546
100
AcDbArc
 50
270.0
 51
0.0
  0
ARC
  5
9D
330
1F
100
AcDbEntity
  8
0
  6
Continuous
 62
     7
370
    25
100
AcDbCircle
 10
6258.3187553361
 20
5206.9501236508
 30
0.0
 40
1.150000000000546
100
AcDbArc
 50
90.0
 51
180.0
  0
ARC
  5
9E
330
1F
100
AcDbEntity
  8
0
  6
Continuous
 62
     7
370
    25
100
AcDbCircle
 10
6258.3187553361
 20
5194.0501236508
 30
0.0
 40
1.150000000000546
100
AcDbArc
 50
180.0
 51
270.0
  0
LINE
  5
9F
330
1F
100
AcDbEntity
  8
0
  6
Continuous
 62
     7
370
    25
100
AcDbLine
 10
6258.3187553361
 20
5192.9001236508
 30
0.0
 11
6289.7187553361
 21
5192.9001236508
 31
0.0
  0
ARC
  5
A0
330
1F
100
AcDbEntity
  8
0
  6
Continuous
 62
     7
370
    25
100
AcDbCircle
 10
6289.7187553361
 20
5206.9501236508
 30
0.0
 40
1.150000000000546
100
AcDbArc
 50
0.0
 51
90.0
  0
LINE
  5
A1
330
1F
100
AcDbEntity
  8
0
  6
Continuous
 62
     7
370
    25
100
AcDbLine
 10
6290.8687553361
 20
5194.0501236508
 30
0.0
 11
6290.8687553361
 21
5206.9501236508
 31
0.0
  0
ARC
  5
A2
330
1F
100
AcDbEntity
  8
0
  6
Continuous
 62
     7
370
    25
100
AcDbCircle
 10
6199.0187553361
 20
5139.2001236508
 30
0.0
 40
10.0
100
AcDbArc
 50
180.0
 51
270.0
  0
LINE
  5
A3
330
1F
100
AcDbEntity
  8
0
  6
Continuous
 62
     7
370
    25
100
AcDbLine
 10
6189.0187553361
 20
5139.2001236508
 30
0.0
 11
6199.0187553361
 21
5139.2001236508
 31
0.0
  0
LINE
  5
A4
330
1F
100
AcDbEntity
  8
0
  6
Continuous
 62
     7
370
    25
100
AcDbLine
 10
6349.0187553361
 20
5139.2001236508
 30
0.0
 11
6359.0187553361
 21
5139.2001236508
 31
0.0
  0
ARC
  5
A5
330
1F
100
AcDbEntity
  8
0
  6
Continuous
 62
     7
370
    25
100
AcDbCircle
 10
6349.0187553361
 20
5139.2001236508
 30
0.0
 40
10.0
100
AcDbArc
 50
270.0
 51
0.0
  0
LINE
  5
A6
330
1F
100
AcDbEntity
  8
0
  6
Continuous
 62
     7
370
    25
100
AcDbLine
 10
6189.0187553361
 20
5289.2001236508
 30
0.0
 11
6189.0187553361
 21
5139.2001236508
 31
0.0
  0
LINE
  5
A7
330
1F
100
AcDbEntity
  8
0
  6
Continuous
 62
     7
370
    25
100
AcDbLine
 10
6359.0187553361
 20
5139.2001236508
 30
0.0
 11
6359.0187553361
 21
5289.2001236508
 31
0.0
  0
ARC
  5
A8
330
1F
100
AcDbEntity
  8
0
  6
Continuous
 62
     7
370
    25
100
AcDbCircle
 10
6230.0252586321
 20
5134.2933120283
 30
0.0
 40
3.86452188983489
100
AcDbArc
 50
244.8871918589
 51
295.2385136043
  0
ARC
  5
A9
330
1F
100
AcDbEntity
  8
0
  6
Continuous
 62
     7
370
    25
100
AcDbCircle
 10
6318.0252586321
 20
5134.2933120283
 30
0.0
 40
3.86452188983489
100
AcDbArc
 50
244.8871918589
 51
295.2385136043
  0
LINE
  5
AA
330
1F
100
AcDbEntity
  8
0
  6
Continuous
 62
     7
370
    25
100
AcDbLine
 10
6290.9097965485
 20
5302.1994545927
 30
0.0
 11
6290.9097965485
 21
5312.1994545927
 31
0.0
  0
LINE
  5
AB
330
1F
100
AcDbEntity
  8
0
  6
Continuous
 62
     7
370
    25
100
AcDbLine
 10
6298.5158319549
 20
5312.1994545927
 30
0.0
 11
6290.9097965485
 21
5312.1994545927
 31
0.0
  0
LINE
  5
AC
330
1F
100
AcDbEntity
  8
0
  6
Continuous
 62
     7
370
    25
100
AcDbLine
 10
6298.5158319549
 20
5312.1994545927
 30
0.0
 11
6298.5158319549
 21
5302.1994545927
 31
0.0
  0
LINE
  5
AD
330
1F
100
AcDbEntity
  8
0
  6
Continuous
 62
     7
370
    25
100
AcDbLine
 10
6298.5158319549
 20
5302.1994545927
 30
0.0
 11
6300.9200102279
 21
5302.1994545927
 31
0.0
  0
LINE
  5
AE
330
1F
100
AcDbEntity
  8
0
  6
Continuous
 62
     7
370
    25
100
AcDbLine
 10
6300.9200102279
 20
5299.2001236508
 30
0.0
 11
6300.9200102279
 21
5302.1994545927
 31
0.0
  0
LINE
  5
AF
330
1F
100
AcDbEntity
  8
0
  6
Continuous
 62
     7
370
    25
100
AcDbLine
 10
6288.5056182756
 20
5302.1994545927
 30
0.0
 11
6288.5056182756
 21
5299.2001236508
 31
0.0
  0
LINE
  5
B0
330
1F
100
AcDbEntity
  8
0
  6
Continuous
 62
     7
370
    25
100
AcDbLine
 10
6288.5056182756
 20
5302.1994545927
 30
0.0
 11
6290.9097965485
 21
5302.1994545927
 31
0.0
  0
LINE
  5
B1
330
1F
100
AcDbEntity
  8
0
  6
Continuous
 62
     7
370
    25
100
AcDbLine
 10
6305.4449081325
 20
5302.1994545927
 30
0.0
 11
6305.4449081325
 21
5299.2001236508
 31
0.0
  0
LINE
  5
B2
330
1F
100
AcDbEntity
  8
0
  6
Continuous
 62
     7
370
    25
100
AcDbLine
 10
6300.9200102279
 20
5302.1994545927
 30
0.0
 11
6305.4449081325
 21
5302.1994545927
 31
0.0
  0
LINE
  5
B3
330
1F
100
AcDbEntity
  8
0
  6
Continuous
 62
     7
370
    25
100
AcDbLine
 10
6307.3788742299
 20
5302.1994545927
 30
0.0
 11
6307.3788742299
 21
5312.1994545927
 31
0.0
  0
LINE
  5
B4
330
1F
100
AcDbEntity
  8
0
  6
Continuous
 62
     7
370
    25
100
AcDbLine
 10
6298.5158319549
 20
5312.1994545927
 30
0.0
 11
6307.3788742299
 21
5312.1994545927
 31
0.0
  0
LINE
  5
B5
330
1F
100
AcDbEntity
  8
0
  6
Continuous
 62
     7
370
    25
100
AcDbLine
 10
6313.4973117756
 20
5312.1994545927
 30
0.0
 11
6313.4973117756
 21
5302.1994545927
 31
0.0
  0
LINE
  5
B6
330
1F
100
AcDbEntity
  8
0
  6
Continuous
 62
     7
370
    25
100
AcDbLine
 10
6313.4973117756
 20
5302.1994545927
 30
0.0
 11
6315.431277873
 21
5302.1994545927
 31
0.0
  0
LINE
  5
B7
330
1F
100
AcDbEntity
  8
0
  6
Continuous
 62
     7
370
    25
100
AcDbLine
 10
6315.431277873
 20
5299.2001236508
 30
0.0
 11
6315.431277873
 21
5302.1994545927
 31
0.0
  0
LINE
  5
B8
330
1F
100
AcDbEntity
  8
0
  6
Continuous
 62
     7
370
    25
100
AcDbLine
 10
6305.4449081325
 20
5302.1994545927
 30
0.0
 11
6307.3788742299
 21
5302.1994545927
 31
0.0
  0
LINE
  5
B9
330
1F
100
AcDbEntity
  8
0
  6
Continuous
 62
     7
370
    25
100
AcDbLine
 10
6313.4973117756
 20
5312.1994545927
 30
0.0
 11
6307.3788742299
 21
5312.1994545927
 31
0.0
  0
LINE
  5
BA
330
1F
100
AcDbEntity
  8
0
  6
Continuous
 62
     7
370
    25
100
AcDbLine
 10
6285.0372755154
 20
5312.1994545927
 30
0.0
 11
6285.0372755154
 21
5302.1994545927
 31
0.0
  0
LINE
  5
BB
330
1F
100
AcDbEntity
  8
0
  6
Continuous
 62
     7
370
    25
100
AcDbLine
 10
6285.0372755154
 20
5312.1994545927
 30
0.0
 11
6290.9097965485
 21
5312.1994545927
 31
0.0
  0
LINE
  5
BC
330
1F
100
AcDbEntity
  8
0
  6
Continuous
 62
     7
370
    25
100
AcDbLine
 10
6285.5074876909
 20
5299.2001236508
 30
0.0
 11
6285.5074876909
 21
5302.1994545927
 31
0.0
  0
LINE
  5
BD
330
1F
100
AcDbEntity
  8
0
  6
Continuous
 62
     7
370
    25
100
AcDbLine
 10
6285.5074876909
 20
5302.1994545927
 30
0.0
 11
6288.5056182756
 21
5302.1994545927
 31
0.0
  0
LINE
  5
BE
330
1F
100
AcDbEntity
  8
0
  6
Continuous
 62
     7
370
    25
100
AcDbLine
 10
6316.4878330175
 20
5302.1994545927
 30
0.0
 11
6316.4878330175
 21
5312.1994545927
 31
0.0
  0
LINE
  5
BF
330
1F
100
AcDbEntity
  8
0
  6
Continuous
 62
     7
370
    25
100
AcDbLine
 10
6313.4973117756
 20
5312.1994545927
 30
0.0
 11
6316.4878330175
 21
5312.1994545927
 31
0.0
  0
LINE
  5
C0
330
1F
100
AcDbEntity
  8
0
  6
Continuous
 62
     7
370
    25
100
AcDbLine
 10
6283.5496776547
 20
5302.1994545927
 30
0.0
 11
6283.5496776547
 21
5312.1994545927
 31
0.0
  0
LINE
  5
C1
330
1F
100
AcDbEntity
  8
0
  6
Continuous
 62
     7
370
    25
100
AcDbLine
 10
6283.0794654792
 20
5302.1994545927
 30
0.0
 11
6283.0794654792
 21
5299.2001236508
 31
0.0
  0
LINE
  5
C2
330
1F
100
AcDbEntity
  8
0
  6
Continuous
 62
     7
370
    25
100
AcDbLine
 10
6283.0794654792
 20
5302.1994545927
 30
0.0
 11
6283.5496776547
 21
5302.1994545927
 31
0.0
  0
LINE
  5
C3
330
1F
100
AcDbEntity
  8
0
  6
Continuous
 62
     7
370
    25
100
AcDbLine
 10
6285.0372755154
 20
5302.1994545927
 30
0.0
 11
6285.5074876909
 21
5302.1994545927
 31
0.0
  0
LINE
  5
C4
330
1F
100
AcDbEntity
  8
0
  6
Continuous
 62
     7
370
    25
100
AcDbLine
 10
6285.0372755154
 20
5312.1994545927
 30
0.0
 11
6283.5496776547
 21
5312.1994545927
 31
0.0
  0
LINE
  5
C5
330
1F
100
AcDbEntity
  8
0
  6
Continuous
 62
     7
370
    25
100
AcDbLine
 10
6316.958045193
 20
5302.1994545927
 30
0.0
 11
6316.958045193
 21
5299.2001236508
 31
0.0
  0
LINE
  5
C6
330
1F
100
AcDbEntity
  8
0
  6
Continuous
 62
     7
370
    25
100
AcDbLine
 10
6315.431277873
 20
5302.1994545927
 30
0.0
 11
6316.958045193
 21
5302.1994545927
 31
0.0
  0
LINE
  5
C7
330
1F
100
AcDbEntity
  8
0
  6
Continuous
 62
     7
370
    25
100
AcDbLine
 10
6297.9688009276
 20
5125.1994545927
 30
0.0
 11
6297.9688009276
 21
5115.1994545927
 31
0.0
  0
LINE
  5
C8
330
1F
100
AcDbEntity
  8
0
  6
Continuous
 62
     7
370
    25
100
AcDbLine
 10
6306.8823947767
 20
5115.1994545927
 30
0.0
 11
6306.8823947767
 21
5125.1994545927
 31
0.0
  0
LINE
  5
C9
330
1F
100
AcDbEntity
  8
0
  6
Continuous
 62
     7
370
    25
100
AcDbLine
 10
6306.8823947767
 20
5115.1994545927
 30
0.0
 11
6297.9688009276
 21
5115.1994545927
 31
0.0
  0
LINE
  5
CA
330
1F
100
AcDbEntity
  8
0
  6
Continuous
 62
     7
370
    25
100
AcDbLine
 10
6313.1724862956
 20
5125.1994545927
 30
0.0
 11
6313.1724862956
 21
5115.1994545927
 31
0.0
  0
LINE
  5
CB
330
1F
100
AcDbEntity
  8
0
  6
Continuous
 62
     7
370
    25
100
AcDbLine
 10
6304.8941708787
 20
5129.2001236508
 30
0.0
 11
6304.8941708787
 21
5125.1994545927
 31
0.0
  0
LINE
  5
CC
330
1F
100
AcDbEntity
  8
0
  6
Continuous
 62
     7
370
    25
100
AcDbLine
 10
6315.1607101936
 20
5125.1994545927
 30
0.0
 11
6315.1607101936
 21
5129.2001236508
 31
0.0
  0
LINE
  5
CD
330
1F
100
AcDbEntity
  8
0
  6
Continuous
 62
     7
370
    25
100
AcDbLine
 10
6315.1607101936
 20
5125.1994545927
 30
0.0
 11
6313.1724862956
 21
5125.1994545927
 31
0.0
  0
LINE
  5
CE
330
1F
100
AcDbEntity
  8
0
  6
Continuous
 62
     7
370
    25
100
AcDbLine
 10
6306.8823947767
 20
5125.1994545927
 30
0.0
 11
6304.8941708787
 21
5125.1994545927
 31
0.0
  0
LINE
  5
CF
330
1F
100
AcDbEntity
  8
0
  6
Continuous
 62
     7
370
    25
100
AcDbLine
 10
6306.8823947767
 20
5115.1994545927
 30
0.0
 11
6313.1724862956
 21
5115.1994545927
 31
0.0
  0
LINE
  5
D0
330
1F
100
AcDbEntity
  8
0
  6
Continuous
 62
     7
370
    25
100
AcDbLine
 10
6300.3434645998
 20
5125.1994545927
 30
0.0
 11
6300.3434645998
 21
5129.2001236508
 31
0.0
  0
LINE
  5
D1
330
1F
100
AcDbEntity
  8
0
  6
Continuous
 62
     7
370
    25
100
AcDbLine
 10
6304.8941708787
 20
5125.1994545927
 30
0.0
 11
6300.3434645998
 21
5125.1994545927
 31
0.0
  0
LINE
  5
D2
330
1F
100
AcDbEntity
  8
0
  6
Continuous
 62
     7
370
    25
100
AcDbLine
 10
6290.4561400852
 20
5115.1994545927
 30
0.0
 11
6290.4561400852
 21
5125.1994545927
 31
0.0
  0
LINE
  5
D3
330
1F
100
AcDbEntity
  8
0
  6
Continuous
 62
     7
370
    25
100
AcDbLine
 10
6290.4561400852
 20
5125.1994545927
 30
0.0
 11
6288.081476413
 21
5125.1994545927
 31
0.0
  0
LINE
  5
D4
330
1F
100
AcDbEntity
  8
0
  6
Continuous
 62
     7
370
    25
100
AcDbLine
 10
6288.081476413
 20
5129.2001236508
 30
0.0
 11
6288.081476413
 21
5125.1994545927
 31
0.0
  0
LINE
  5
D5
330
1F
100
AcDbEntity
  8
0
  6
Continuous
 62
     7
370
    25
100
AcDbLine
 10
6300.3434645998
 20
5125.1994545927
 30
0.0
 11
6297.9688009276
 21
5125.1994545927
 31
0.0
  0
LINE
  5
D6
330
1F
100
AcDbEntity
  8
0
  6
Continuous
 62
     7
370
    25
100
AcDbLine
 10
6290.4561400852
 20
5115.1994545927
 30
0.0
 11
6297.9688009276
 21
5115.1994545927
 31
0.0
  0
LINE
  5
D7
330
1F
100
AcDbEntity
  8
0
  6
Continuous
 62
     7
370
    25
100
AcDbLine
 10
6284.8150699681
 20
5125.1994545927
 30
0.0
 11
6284.8150699681
 21
5115.1994545927
 31
0.0
  0
LINE
  5
D8
330
1F
100
AcDbEntity
  8
0
  6
Continuous
 62
     7
370
    25
100
AcDbLine
 10
6290.4561400852
 20
5115.1994545927
 30
0.0
 11
6284.8150699681
 21
5115.1994545927
 31
0.0
  0
LINE
  5
D9
330
1F
100
AcDbEntity
  8
0
  6
Continuous
 62
     7
370
    25
100
AcDbLine
 10
6285.2015097423
 20
5125.1994545927
 30
0.0
 11
6285.2015097423
 21
5129.2001236508
 31
0.0
  0
LINE
  5
DA
330
1F
100
AcDbEntity
  8
0
  6
Continuous
 62
     7
370
    25
100
AcDbLine
 10
6288.081476413
 20
5125.1994545927
 30
0.0
 11
6285.2015097423
 21
5125.1994545927
 31
0.0
  0
LINE
  5
DB
330
1F
100
AcDbEntity
  8
0
  6
Continuous
 62
     7
370
    25
100
AcDbLine
 10
6316.4450100277
 20
5115.1994545927
 30
0.0
 11
6316.4450100277
 21
5125.1994545927
 31
0.0
  0
LINE
  5
DC
330
1F
100
AcDbEntity
  8
0
  6
Continuous
 62
     7
370
    25
100
AcDbLine
 10
6316.4450100277
 20
5115.1994545927
 30
0.0
 11
6313.1724862956
 21
5115.1994545927
 31
0.0
  0
LINE
  5
DD
330
1F
100
AcDbEntity
  8
0
  6
Continuous
 62
     7
370
    25
100
AcDbLine
 10
6283.5925006445
 20
5115.1994545927
 30
0.0
 11
6283.5925006445
 21
5125.1994545927
 31
0.0
  0
LINE
  5
DE
330
1F
100
AcDbEntity
  8
0
  6
Continuous
 62
     7
370
    25
100
AcDbLine
 10
6283.5925006445
 20
5125.1994545927
 30
0.0
 11
6283.2060608704
 21
5125.1994545927
 31
0.0
  0
LINE
  5
DF
330
1F
100
AcDbEntity
  8
0
  6
Continuous
 62
     7
370
    25
100
AcDbLine
 10
6283.2060608704
 20
5129.2001236508
 30
0.0
 11
6283.2060608704
 21
5125.1994545927
 31
0.0
  0
LINE
  5
E0
330
1F
100
AcDbEntity
  8
0
  6
Continuous
 62
     7
370
    25
100
AcDbLine
 10
6285.2015097423
 20
5125.1994545927
 30
0.0
 11
6284.8150699681
 21
5125.1994545927
 31
0.0
  0
LINE
  5
E1
330
1F
100
AcDbEntity
  8
0
  6
Continuous
 62
     7
370
    25
100
AcDbLine
 10
6283.5925006445
 20
5115.1994545927
 30
0.0
 11
6284.8150699681
 21
5115.1994545927
 31
0.0
  0
LINE
  5
E2
330
1F
100
AcDbEntity
  8
0
  6
Continuous
 62
     7
370
    25
100
AcDbLine
 10
6316.8314498018
 20
5131.1203073161
 30
0.0
 11
6316.8314498018
 21
5130.6228733364
 31
0.0
  0
LINE
  5
E3
330
1F
100
AcDbEntity
  8
0
  6
Continuous
 62
     7
370
    25
100
AcDbLine
 10
6316.8314498018
 20
5129.2001236508
 30
0.0
 11
6316.8314498018
 21
5125.1994545927
 31
0.0
  0
LINE
  5
E4
330
1F
100
AcDbEntity
  8
0
  6
Continuous
 62
     7
370
    25
100
AcDbLine
 10
6316.8314498018
 20
5125.1994545927
 30
0.0
 11
6315.1607101936
 21
5125.1994545927
 31
0.0
  0
LINE
  5
E5
330
1F
100
AcDbEntity
  8
0
  6
Continuous
 62
     7
370
    25
100
AcDbLine
 10
6666.8270025922
 20
5255.1001236508
 30
0.0
 11
6666.6270025922
 21
5255.1001236508
 31
0.0
  0
LINE
  5
E6
330
1F
100
AcDbEntity
  8
0
  6
Continuous
 62
     7
370
    25
100
AcDbLine
 10
6666.6270025922
 20
5237.3001236508
 30
0.0
 11
6666.8270025922
 21
5237.3001236508
 31
0.0
  0
ARC
  5
E7
330
1F
100
AcDbEntity
  8
0
  6
Continuous
 62
     7
370
    25
100
AcDbCircle
 10
6655.6011961405
 20
5246.2001236508
 30
0.0
 40
14.32580645161324
100
AcDbArc
 50
321.592052989
 51
335.239598896
  0
ARC
  5
E8
330
1F
100
AcDbEntity
  8
0
  6
Continuous
 62
     7
370
    25
100
AcDbCircle
 10
6655.6011961405
 20
5246.2001236508
 30
0.0
 40
14.32580645161324
100
AcDbArc
 50
24.760401104
 51
38.407947011
  0
LWPOLYLINE
  5
E9
330
1F
100
AcDbEntity
  8
0
  6
Continuous
 62
     7
370
    25
100
AcDbPolyline
 90
        3
 70
   128
 43
0.0
 10
6656.1307431755
 20
5238.3025269296
 10
6656.2871805229
 20
5238.5733145936
 10
6656.4436180014
 20
5238.8440966095
  0
LWPOLYLINE
  5
EA
330
1F
100
AcDbEntity
  8
0
  6
Continuous
 62
     7
370
    25
100
AcDbPolyline
 90
        3
 70
   128
 43
0.0
 10
6656.4957993447
 20
5254.0935561792
 10
6656.3393711183
 20
5253.822781578
 10
6656.1829427793
 20
5253.5520229807
  0
LWPOLYLINE
  5
EB
330
1F
100
AcDbEntity
  8
0
  6
Continuous
 62
     7
370
    25
100
AcDbPolyline
 90
        3
 70
   128
 43
0.0
 10
6655.6829427793
 20
5238.848224321
 10
6655.8393711183
 20
5238.5774657237
 10
6655.9957993447
 20
5238.3066911224
  0
LINE
  5
EC
330
1F
100
AcDbEntity
  8
0
  6
Continuous
 62
     7
370
    25
100
AcDbLine
 10
6656.6270025922
 20
5254.1001236508
 30
0.0
 11
6656.5019399419
 21
5254.1001236508
 31
0.0
  0
LINE
  5
ED
330
1F
100
AcDbEntity
  8
0
  6
Continuous
 62
     7
370
    25
100
AcDbLine
 10
6656.0018425453
 20
5238.3001236508
 30
0.0
 11
6656.1269109132
 21
5238.3001236508
 31
0.0
  0
LINE
  5
EE
330
1F
100
AcDbEntity
  8
0
  6
Continuous
 62
     7
370
    25
100
AcDbLine
 10
6656.439378846
 20
5238.8413919996
 30
0.0
 11
6656.6270025922
 21
5238.8413919996
 31
0.0
  0
LINE
  5
EF
330
1F
100
AcDbEntity
  8
0
  6
Continuous
 62
     7
370
    25
100
AcDbLine
 10
6656.189378846
 20
5253.558855302
 30
0.0
 11
6655.939378846
 21
5253.558855302
 31
0.0
  0
LINE
  5
F0
330
1F
100
AcDbEntity
  8
0
  6
Continuous
 62
     7
370
    25
100
AcDbLine
 10
6655.6270025921
 20
5238.8413919996
 30
0.0
 11
6655.6868900914
 21
5238.8413919996
 31
0.0
  0
LINE
  5
F1
330
1F
100
AcDbEntity
  8
0
  6
Continuous
 62
     7
370
    25
100
AcDbLine
 10
6668.700384302
 20
5252.0001236508
 30
0.0
 11
6668.6099904924
 21
5252.0001236508
 31
0.0
  0
LINE
  5
F2
330
1F
100
AcDbEntity
  8
0
  6
Continuous
 62
     7
370
    25
100
AcDbLine
 10
6668.6099904924
 20
5240.4001236508
 30
0.0
 11
6668.700384302
 21
5240.4001236508
 31
0.0
  0
ARC
  5
F3
330
1F
100
AcDbEntity
  8
0
  6
Continuous
 62
     7
370
    25
100
AcDbCircle
 10
6655.6011961405
 20
5246.2001236508
 30
0.0
 40
14.32580645161215
100
AcDbArc
 50
336.1174094853
 51
0.0
  0
ARC
  5
F4
330
1F
100
AcDbEntity
  8
0
  6
Continuous
 62
     7
370
    25
100
AcDbCircle
 10
6655.6011961405
 20
5246.2001236508
 30
0.0
 40
14.32580645161291
100
AcDbArc
 50
0.0
 51
23.8825905147
  0
ARC
  5
F5
330
1F
100
AcDbEntity
  8
0
  6
Continuous
 62
     7
370
    25
100
AcDbCircle
 10
6586.1609627348
 20
5306.5386027782
 30
0.0
 40
19.99999999999996
100
AcDbArc
 50
231.2500580058
 51
234.7813683994
  0
LINE
  5
F6
330
1F
100
AcDbEntity
  8
0
  6
Continuous
 62
     7
370
    25
100
AcDbLine
 10
6574.1270025922
 20
5312.1994545927
 30
0.0
 11
6574.1270025922
 21
5302.1994545927
 31
0.0
  0
LINE
  5
F7
330
1F
100
AcDbEntity
  8
0
  6
Continuous
 62
     7
370
    25
100
AcDbLine
 10
6607.1270025922
 20
5302.1994545927
 30
0.0
 11
6607.1270025922
 21
5312.1994545927
 31
0.0
  0
ARC
  5
F8
330
1F
100
AcDbEntity
  8
0
  6
Continuous
 62
     7
370
    25
100
AcDbCircle
 10
6586.1609627348
 20
5120.8603064072
 30
0.0
 40
19.99999999999944
100
AcDbArc
 50
125.2186316006
 51
129.4608478259
  0
LINE
  5
F9
330
1F
100
AcDbEntity
  8
0
  6
Continuous
 62
     7
370
    25
100
AcDbLine
 10
6574.1270025922
 20
5125.1994545927
 30
0.0
 11
6574.1270025922
 21
5115.1994545927
 31
0.0
  0
ARC
  5
FA
330
1F
100
AcDbEntity
  8
0
  6
Continuous
 62
     7
370
    25
100
AcDbCircle
 10
6595.0930424495
 20
5120.8603064072
 30
0.0
 40
20.00000000000049
100
AcDbArc
 50
50.5373212074
 51
54.7813683994
  0
LINE
  5
FB
330
1F
100
AcDbEntity
  8
0
  6
Continuous
 62
     7
370
    25
100
AcDbLine
 10
6607.1270025922
 20
5115.1994545927
 30
0.0
 11
6607.1270025922
 21
5125.1994545927
 31
0.0
  0
LINE
  5
FC
330
1F
100
AcDbEntity
  8
0
  6
Continuous
 62
     7
370
    25
100
AcDbLine
 10
6666.8270025922
 20
5255.1001236508
 30
0.0
 11
6666.8270025922
 21
5237.3001236508
 31
0.0
  0
LINE
  5
FD
330
1F
100
AcDbEntity
  8
0
  6
Continuous
 62
     7
370
    25
100
AcDbLine
 10
6668.6099904924
 20
5252.2001236508
 30
0.0
 11
6668.6099904924
 21
5240.2001236508
 31
0.0
  0
LWPOLYLINE
  5
FE
330
1F
100
AcDbEntity
  8
0
  6
Continuous
 62
     7
370
    25
100
AcDbPolyline
 90
       14
 70
   128
 43
0.0
 10
6655.9393337696
 20
5253.5454170032
 10
6655.9413136067
 20
5253.5583303388
 10
6655.9898370974
 20
5253.189584724
 10
6656.0242691012
 20
5252.551294165
 10
6656.0572490395
 20
5251.645332174
 10
6656.0831882982
 20
5250.7368314041
 10
6656.1107994385
 20
5249.6767892982
 10
6656.1611382552
 20
5247.5330169085
 10
6656.2081537585
 20
5245.3127598235
 10
6656.2580916811
 20
5243.1325435997
 10
6656.3071823142
 20
5241.2526726049
 10
6656.3547720963
 20
5239.8481259696
 10
6656.405214572
 20
5239.0172924272
 10
6656.4392303894
 20
5238.9094420872
  0
ARC
  5
FF
330
1F
100
AcDbEntity
  8
0
  6
Continuous
 62
     7
370
    25
100
AcDbCircle
 10
6196.7365723652
 20
5231.6623049324
 30
0.0
 40
459.4386603919625
100
AcDbArc
 50
0.830996926
 51
2.7992940475
  0
LWPOLYLINE
  5
100
330
1F
100
AcDbEntity
  8
0
  6
Continuous
 62
     7
370
    25
100
AcDbPolyline
 90
       11
 70
   128
 43
0.0
 10
6655.6270025922
 20
5251.7862671211
 10
6655.6732994371
 20
5249.9325126933
 10
6655.7070484902
 20
5248.4217143058
 10
6655.7396948124
 20
5246.8339674257
 10
6655.7706537571
 20
5245.2474904782
 10
6655.803685664
 20
5243.6669617757
 10
6655.8374001795
 20
5242.1835104434
 10
6655.8696823128
 20
5240.8887667518
 10
6655.917272095
 20
5239.3809097984
 10
6655.9677145707
 20
5238.4889649512
 10
6656.0018425453
 20
5238.3728000034
  0
LWPOLYLINE
  5
101
330
1F
100
AcDbEntity
  8
0
  6
Continuous
 62
     7
370
    25
100
AcDbPolyline
 90
        5
 70
   128
 43
0.0
 10
6656.5019399419
 20
5254.0864376997
 10
6656.5038136053
 20
5254.0995574186
 10
6656.552337096
 20
5253.7036890114
 10
6656.5907265832
 20
5252.9186421714
 10
6656.6270025922
 20
5251.7862671211
  0
LWPOLYLINE
  5
102
330
1F
100
AcDbEntity
  8
0
  6
Continuous
 62
     7
370
    25
100
AcDbPolyline
 90
        3
 70
   128
 43
0.0
 10
6655.6270025921
 20
5239.4819694451
 10
6655.655214572
 20
5239.0172924272
 10
6655.6826273105
 20
5238.9303777682
  0
LWPOLYLINE
  5
103
330
1F
100
AcDbEntity
  8
0
  6
Continuous
 62
     7
370
    25
100
AcDbPolyline
 90
       11
 70
   128
 43
0.0
 10
6656.1893821308
 20
5253.4748004996
 10
6656.2139556433
 20
5253.4676828614
 10
6656.2641680842
 20
5252.7700555764
 10
6656.3126915749
 20
5251.4654602112
 10
6656.3607994385
 20
5249.6767892982
 10
6656.4111382552
 20
5247.5330169085
 10
6656.4581537585
 20
5245.3127598235
 10
6656.5080916811
 20
5243.1325435997
 10
6656.5571823142
 20
5241.2526726049
 10
6656.6047720963
 20
5239.8481259696
 10
6656.6270025922
 20
5239.4819694451
  0
LINE
  5
104
330
1F
100
AcDbEntity
  8
0
  6
Continuous
 62
     7
370
    25
100
AcDbLine
 10
6668.700384302
 20
5252.0001236508
 30
0.0
 11
6668.700384302
 21
5240.4001236508
 31
0.0
  0
ARC
  5
105
330
1F
100
AcDbEntity
  8
0
  6
Continuous
 62
     7
370
    25
100
AcDbCircle
 10
6656.6270025922
 20
5139.2001236508
 30
0.0
 40
10.0
100
AcDbArc
 50
270.0
 51
0.0
  0
LINE
  5
106
330
1F
100
AcDbEntity
  8
0
  6
Continuous
 62
     7
370
    25
100
AcDbLine
 10
6656.6270025922
 20
5139.2001236508
 30
0.0
 11
6656.6270025922
 21
5129.2001236508
 31
0.0
  0
LINE
  5
107
330
1F
100
AcDbEntity
  8
0
  6
Continuous
 62
     7
370
    25
100
AcDbLine
 10
6656.6270025922
 20
5139.2001236508
 30
0.0
 11
6666.6270025922
 21
5139.2001236508
 31
0.0
  0
LINE
  5
108
330
1F
100
AcDbEntity
  8
0
  6
Continuous
 62
     7
370
    25
100
AcDbLine
 10
6656.6270025922
 20
5289.2001236508
 30
0.0
 11
6656.6270025922
 21
5139.2001236508
 31
0.0
  0
LINE
  5
109
330
1F
100
AcDbEntity
  8
0
  6
Continuous
 62
     7
370
    25
100
AcDbLine
 10
6656.6270025922
 20
5289.2001236508
 30
0.0
 11
6666.6270025922
 21
5289.2001236508
 31
0.0
  0
LINE
  5
10A
330
1F
100
AcDbEntity
  8
0
  6
Continuous
 62
     7
370
    25
100
AcDbLine
 10
6666.6270025922
 20
5289.2001236508
 30
0.0
 11
6666.6270025922
 21
5139.2001236508
 31
0.0
  0
ARC
  5
10B
330
1F
100
AcDbEntity
  8
0
  6
Continuous
 62
     7
370
    25
100
AcDbCircle
 10
6656.6270025922
 20
5289.2001236508
 30
0.0
 40
10.0
100
AcDbArc
 50
0.0
 51
90.0
  0
LINE
  5
10C
330
1F
100
AcDbEntity
  8
0
  6
Continuous
 62
     7
370
    25
100
AcDbLine
 10
6656.6270025922
 20
5299.2001236508
 30
0.0
 11
6656.6270025922
 21
5289.2001236508
 31
0.0
  0
ARC
  5
10D
330
1F
100
AcDbEntity
  8
0
  6
Continuous
 62
     7
370
    25
100
AcDbCircle
 10
6593.5223088959
 20
5311.2395024759
 30
0.0
 40
21.04012486170987
100
AcDbArc
 50
252.2635942508
 51
270.1549881366
  0
ARC
  5
10E
330
1F
100
AcDbEntity
  8
0
  6
Continuous
 62
     7
370
    25
100
AcDbCircle
 10
6578.4771533451
 20
5299.9105081658
 30
0.0
 40
9.71105644519442
100
AcDbArc
 50
270.0440664255
 51
296.2303601998
  0
LINE
  5
10F
330
1F
100
AcDbEntity
  8
0
  6
Continuous
 62
     7
370
    25
100
AcDbLine
 10
6587.1126805887
 20
5291.1994545927
 30
0.0
 11
6582.7692580653
 21
5291.1994545927
 31
0.0
  0
LINE
  5
110
330
1F
100
AcDbEntity
  8
0
  6
Continuous
 62
     7
370
    25
100
AcDbLine
 10
6589.6173094087
 20
5302.1994545927
 30
0.0
 11
6589.6173094087
 21
5312.1994545927
 31
0.0
  0
LINE
  5
111
330
1F
100
AcDbEntity
  8
0
  6
Continuous
 62
     7
370
    25
100
AcDbLine
 10
6581.1097279661
 20
5312.1994545927
 30
0.0
 11
6581.1097279661
 21
5302.1994545927
 31
0.0
  0
LINE
  5
112
330
1F
100
AcDbEntity
  8
0
  6
Continuous
 62
     7
370
    25
100
AcDbLine
 10
6581.1097279661
 20
5312.1994545927
 30
0.0
 11
6589.6173094087
 21
5312.1994545927
 31
0.0
  0
LINE
  5
113
330
1F
100
AcDbEntity
  8
0
  6
Continuous
 62
     7
370
    25
100
AcDbLine
 10
6587.1126805887
 20
5302.1994545927
 30
0.0
 11
6587.1126805887
 21
5291.1994545927
 31
0.0
  0
LINE
  5
114
330
1F
100
AcDbEntity
  8
0
  6
Continuous
 62
     7
370
    25
100
AcDbLine
 10
6582.7692580653
 20
5291.1994545927
 30
0.0
 11
6582.7692580653
 21
5302.1994545927
 31
0.0
  0
LINE
  5
115
330
1F
100
AcDbEntity
  8
0
  6
Continuous
 62
     7
370
    25
100
AcDbLine
 10
6582.7692580653
 20
5302.1994545927
 30
0.0
 11
6587.1126805887
 21
5302.1994545927
 31
0.0
  0
LINE
  5
116
330
1F
100
AcDbEntity
  8
0
  6
Continuous
 62
     7
370
    25
100
AcDbLine
 10
6597.5411375621
 20
5312.1994545927
 30
0.0
 11
6597.5411375621
 21
5302.1994545927
 31
0.0
  0
LINE
  5
117
330
1F
100
AcDbEntity
  8
0
  6
Continuous
 62
     7
370
    25
100
AcDbLine
 10
6597.5411375621
 20
5302.1994545927
 30
0.0
 11
6600.0457663821
 21
5302.1994545927
 31
0.0
  0
LINE
  5
118
330
1F
100
AcDbEntity
  8
0
  6
Continuous
 62
     7
370
    25
100
AcDbLine
 10
6600.0457663821
 20
5291.1994545927
 30
0.0
 11
6600.0457663821
 21
5302.1994545927
 31
0.0
  0
LWPOLYLINE
  5
119
330
1F
100
AcDbEntity
  8
0
  6
Continuous
 62
     7
370
    25
100
AcDbPolyline
 90
        3
 70
   128
 43
0.0
 10
6593.5792234854
 20
5290.1994545927
 10
6596.8124949337
 20
5290.4409367591
 10
6600.0457663821
 20
5291.1994545927
  0
LINE
  5
11A
330
1F
100
AcDbEntity
  8
0
  6
Continuous
 62
     7
370
    25
100
AcDbLine
 10
6587.1126805887
 20
5302.1994545927
 30
0.0
 11
6589.6173094087
 21
5302.1994545927
 31
0.0
  0
LINE
  5
11B
330
1F
100
AcDbEntity
  8
0
  6
Continuous
 62
     7
370
    25
100
AcDbLine
 10
6597.5411375621
 20
5312.1994545927
 30
0.0
 11
6589.6173094087
 21
5312.1994545927
 31
0.0
  0
LINE
  5
11C
330
1F
100
AcDbEntity
  8
0
  6
Continuous
 62
     7
370
    25
100
AcDbLine
 10
6575.8595163514
 20
5302.1994545927
 30
0.0
 11
6575.8595163514
 21
5312.1994545927
 31
0.0
  0
LWPOLYLINE
  5
11D
330
1F
100
AcDbEntity
  8
0
  6
Continuous
 62
     7
370
    25
100
AcDbPolyline
 90
        3
 70
   128
 43
0.0
 10
6574.1999862523
 20
5291.1994545927
 10
6576.2911804329
 20
5290.4527395489
 10
6578.4846221588
 20
5290.1994545927
  0
LINE
  5
11E
330
1F
100
AcDbEntity
  8
0
  6
Continuous
 62
     7
370
    25
100
AcDbLine
 10
6574.1999862523
 20
5302.1994545927
 30
0.0
 11
6574.1999862523
 21
5291.1994545927
 31
0.0
  0
LINE
  5
11F
330
1F
100
AcDbEntity
  8
0
  6
Continuous
 62
     7
370
    25
100
AcDbLine
 10
6574.1999862523
 20
5302.1994545927
 30
0.0
 11
6575.8595163514
 21
5302.1994545927
 31
0.0
  0
LINE
  5
120
330
1F
100
AcDbEntity
  8
0
  6
Continuous
 62
     7
370
    25
100
AcDbLine
 10
6581.1097279661
 20
5302.1994545927
 30
0.0
 11
6582.7692580653
 21
5302.1994545927
 31
0.0
  0
LINE
  5
121
330
1F
100
AcDbEntity
  8
0
  6
Continuous
 62
     7
370
    25
100
AcDbLine
 10
6581.1097279661
 20
5312.1994545927
 30
0.0
 11
6575.8595163514
 21
5312.1994545927
 31
0.0
  0
LWPOLYLINE
  5
122
330
1F
100
AcDbEntity
  8
0
  6
Continuous
 62
     7
370
    25
100
AcDbPolyline
 90
        3
 70
   128
 43
0.0
 10
6603.5396969286
 20
5291.1994545927
 10
6604.6046161656
 20
5290.4527395489
 10
6605.7216039188
 20
5290.1994545927
  0
LINE
  5
123
330
1F
100
AcDbEntity
  8
0
  6
Continuous
 62
     7
370
    25
100
AcDbLine
 10
6603.5396969286
 20
5291.1994545927
 30
0.0
 11
6600.0457663821
 21
5291.1994545927
 31
0.0
  0
LINE
  5
124
330
1F
100
AcDbEntity
  8
0
  6
Continuous
 62
     7
370
    25
100
AcDbLine
 10
6604.3847956494
 20
5302.1994545927
 30
0.0
 11
6604.3847956494
 21
5312.1994545927
 31
0.0
  0
LINE
  5
125
330
1F
100
AcDbEntity
  8
0
  6
Continuous
 62
     7
370
    25
100
AcDbLine
 10
6597.5411375621
 20
5312.1994545927
 30
0.0
 11
6604.3847956494
 21
5312.1994545927
 31
0.0
  0
LINE
  5
126
330
1F
100
AcDbEntity
  8
0
  6
Continuous
 62
     7
370
    25
100
AcDbLine
 10
6603.5396969286
 20
5302.1994545927
 30
0.0
 11
6603.5396969286
 21
5291.1994545927
 31
0.0
  0
LINE
  5
127
330
1F
100
AcDbEntity
  8
0
  6
Continuous
 62
     7
370
    25
100
AcDbLine
 10
6600.0457663821
 20
5302.1994545927
 30
0.0
 11
6603.5396969286
 21
5302.1994545927
 31
0.0
  0
LINE
  5
128
330
1F
100
AcDbEntity
  8
0
  6
Continuous
 62
     7
370
    25
100
AcDbLine
 10
6607.0584121881
 20
5312.1994545927
 30
0.0
 11
6607.0584121881
 21
5302.1994545927
 31
0.0
  0
LINE
  5
129
330
1F
100
AcDbEntity
  8
0
  6
Continuous
 62
     7
370
    25
100
AcDbLine
 10
6607.0584121881
 20
5302.1994545927
 30
0.0
 11
6607.9035109089
 21
5302.1994545927
 31
0.0
  0
LINE
  5
12A
330
1F
100
AcDbEntity
  8
0
  6
Continuous
 62
     7
370
    25
100
AcDbLine
 10
6607.9035109089
 20
5291.1994545927
 30
0.0
 11
6607.9035109089
 21
5302.1994545927
 31
0.0
  0
ARC
  5
12B
330
1F
100
AcDbEntity
  8
0
  6
Continuous
 62
     7
370
    25
100
AcDbCircle
 10
6605.6438963856
 20
5293.2493642594
 30
0.0
 40
3.050899446993896
100
AcDbArc
 50
271.4595024526
 51
317.7858604943
  0
LINE
  5
12C
330
1F
100
AcDbEntity
  8
0
  6
Continuous
 62
     7
370
    25
100
AcDbLine
 10
6603.5396969286
 20
5302.1994545927
 30
0.0
 11
6604.3847956494
 21
5302.1994545927
 31
0.0
  0
LINE
  5
12D
330
1F
100
AcDbEntity
  8
0
  6
Continuous
 62
     7
370
    25
100
AcDbLine
 10
6607.0584121881
 20
5312.1994545927
 30
0.0
 11
6604.3847956494
 21
5312.1994545927
 31
0.0
  0
LINE
  5
12E
330
1F
100
AcDbEntity
  8
0
  6
Continuous
 62
     7
370
    25
100
AcDbLine
 10
6573.6677619669
 20
5290.9723809143
 30
0.0
 11
6573.3504942754
 21
5291.1994545927
 31
0.0
  0
LINE
  5
12F
330
1F
100
AcDbEntity
  8
0
  6
Continuous
 62
     7
370
    25
100
AcDbLine
 10
6574.1999862523
 20
5291.1994545927
 30
0.0
 11
6573.3504942754
 21
5291.1994545927
 31
0.0
  0
LINE
  5
130
330
1F
100
AcDbEntity
  8
0
  6
Continuous
 62
     7
370
    25
100
AcDbLine
 10
6574.1270025922
 20
5312.1994545927
 30
0.0
 11
6575.8595163514
 21
5312.1994545927
 31
0.0
  0
LINE
  5
131
330
1F
100
AcDbEntity
  8
0
  6
Continuous
 62
     7
370
    25
100
AcDbLine
 10
6573.3504942754
 20
5291.1994545927
 30
0.0
 11
6573.3504942754
 21
5302.1994545927
 31
0.0
  0
LINE
  5
132
330
1F
100
AcDbEntity
  8
0
  6
Continuous
 62
     7
370
    25
100
AcDbLine
 10
6573.3504942754
 20
5302.1994545927
 30
0.0
 11
6574.1999862523
 21
5302.1994545927
 31
0.0
  0
LINE
  5
133
330
1F
100
AcDbEntity
  8
0
  6
Continuous
 62
     7
370
    25
100
AcDbLine
 10
6607.0584121881
 20
5312.1994545927
 30
0.0
 11
6607.1270025922
 21
5312.1994545927
 31
0.0
  0
LINE
  5
134
330
1F
100
AcDbEntity
  8
0
  6
Continuous
 62
     7
370
    25
100
AcDbLine
 10
6597.0377709729
 20
5125.1994545927
 30
0.0
 11
6597.0377709729
 21
5115.1994545927
 31
0.0
  0
LINE
  5
135
330
1F
100
AcDbEntity
  8
0
  6
Continuous
 62
     7
370
    25
100
AcDbLine
 10
6589.0687481815
 20
5115.1994545927
 30
0.0
 11
6589.0687481815
 21
5125.1994545927
 31
0.0
  0
LINE
  5
136
330
1F
100
AcDbEntity
  8
0
  6
Continuous
 62
     7
370
    25
100
AcDbLine
 10
6589.0687481815
 20
5125.1994545927
 30
0.0
 11
6586.5498338684
 21
5125.1994545927
 31
0.0
  0
LINE
  5
137
330
1F
100
AcDbEntity
  8
0
  6
Continuous
 62
     7
370
    25
100
AcDbLine
 10
6586.5498338684
 20
5136.1994545927
 30
0.0
 11
6586.5498338684
 21
5125.1994545927
 31
0.0
  0
ARC
  5
138
330
1F
100
AcDbEntity
  8
0
  6
Continuous
 62
     7
370
    25
100
AcDbCircle
 10
6593.0209478535
 20
5115.7623185128
 30
0.0
 40
21.43716043132564
100
AcDbArc
 50
89.913639397
 51
107.5696133291
  0
LWPOLYLINE
  5
139
330
1F
100
AcDbEntity
  8
0
  6
Continuous
 62
     7
370
    25
100
AcDbPolyline
 90
        3
 70
   128
 43
0.0
 10
6599.556685286
 20
5136.1994545927
 10
6596.3825705438
 20
5136.9461696365
 10
6593.0532595772
 20
5137.1994545927
  0
LINE
  5
13A
330
1F
100
AcDbEntity
  8
0
  6
Continuous
 62
     7
370
    25
100
AcDbLine
 10
6599.556685286
 20
5125.1994545927
 30
0.0
 11
6599.556685286
 21
5136.1994545927
 31
0.0
  0
LINE
  5
13B
330
1F
100
AcDbEntity
  8
0
  6
Continuous
 62
     7
370
    25
100
AcDbLine
 10
6599.556685286
 20
5125.1994545927
 30
0.0
 11
6597.0377709729
 21
5125.1994545927
 31
0.0
  0
LINE
  5
13C
330
1F
100
AcDbEntity
  8
0
  6
Continuous
 62
     7
370
    25
100
AcDbLine
 10
6589.0687481815
 20
5115.1994545927
 30
0.0
 11
6597.0377709729
 21
5115.1994545927
 31
0.0
  0
LWPOLYLINE
  5
13D
330
1F
100
AcDbEntity
  8
0
  6
Continuous
 62
     7
370
    25
100
AcDbPolyline
 90
        3
 70
   128
 43
0.0
 10
6582.2597328407
 20
5136.1994545927
 10
6580.2509579152
 20
5136.9461696365
 10
6578.1439652788
 20
5137.1994545927
  0
LINE
  5
13E
330
1F
100
AcDbEntity
  8
0
  6
Continuous
 62
     7
370
    25
100
AcDbLine
 10
6582.2597328407
 20
5136.1994545927
 30
0.0
 11
6586.5498338684
 21
5136.1994545927
 31
0.0
  0
LWPOLYLINE
  5
13F
330
1F
100
AcDbEntity
  8
0
  6
Continuous
 62
     7
370
    25
100
AcDbPolyline
 90
        3
 70
   128
 43
0.0
 10
6605.5362968906
 20
5137.1994545927
 10
6604.3424678171
 20
5136.9579724263
 10
6603.1486387437
 20
5136.1994545927
  0
LINE
  5
140
330
1F
100
AcDbEntity
  8
0
  6
Continuous
 62
     7
370
    25
100
AcDbLine
 10
6599.556685286
 20
5136.1994545927
 30
0.0
 11
6603.1486387437
 21
5136.1994545927
 31
0.0
  0
LINE
  5
141
330
1F
100
AcDbEntity
  8
0
  6
Continuous
 62
     7
370
    25
100
AcDbLine
 10
6580.6656090227
 20
5125.1994545927
 30
0.0
 11
6580.6656090227
 21
5115.1994545927
 31
0.0
  0
LINE
  5
142
330
1F
100
AcDbEntity
  8
0
  6
Continuous
 62
     7
370
    25
100
AcDbLine
 10
6589.0687481815
 20
5115.1994545927
 30
0.0
 11
6580.6656090227
 21
5115.1994545927
 31
0.0
  0
LINE
  5
143
330
1F
100
AcDbEntity
  8
0
  6
Continuous
 62
     7
370
    25
100
AcDbLine
 10
6582.2597328407
 20
5125.1994545927
 30
0.0
 11
6582.2597328407
 21
5136.1994545927
 31
0.0
  0
LINE
  5
144
330
1F
100
AcDbEntity
  8
0
  6
Continuous
 62
     7
370
    25
100
AcDbLine
 10
6586.5498338684
 20
5125.1994545927
 30
0.0
 11
6582.2597328407
 21
5125.1994545927
 31
0.0
  0
LINE
  5
145
330
1F
100
AcDbEntity
  8
0
  6
Continuous
 62
     7
370
    25
100
AcDbLine
 10
6604.0734292388
 20
5115.1994545927
 30
0.0
 11
6604.0734292388
 21
5125.1994545927
 31
0.0
  0
LINE
  5
146
330
1F
100
AcDbEntity
  8
0
  6
Continuous
 62
     7
370
    25
100
AcDbLine
 10
6604.0734292388
 20
5115.1994545927
 30
0.0
 11
6597.0377709729
 21
5115.1994545927
 31
0.0
  0
LINE
  5
147
330
1F
100
AcDbEntity
  8
0
  6
Continuous
 62
     7
370
    25
100
AcDbLine
 10
6603.1486387437
 20
5136.1994545927
 30
0.0
 11
6603.1486387437
 21
5125.1994545927
 31
0.0
  0
LINE
  5
148
330
1F
100
AcDbEntity
  8
0
  6
Continuous
 62
     7
370
    25
100
AcDbLine
 10
6603.1486387437
 20
5125.1994545927
 30
0.0
 11
6599.556685286
 21
5125.1994545927
 31
0.0
  0
LINE
  5
149
330
1F
100
AcDbEntity
  8
0
  6
Continuous
 62
     7
370
    25
100
AcDbLine
 10
6575.6223215349
 20
5115.1994545927
 30
0.0
 11
6575.6223215349
 21
5125.1994545927
 31
0.0
  0
LINE
  5
14A
330
1F
100
AcDbEntity
  8
0
  6
Continuous
 62
     7
370
    25
100
AcDbLine
 10
6575.6223215349
 20
5125.1994545927
 30
0.0
 11
6574.0281977169
 21
5125.1994545927
 31
0.0
  0
LINE
  5
14B
330
1F
100
AcDbEntity
  8
0
  6
Continuous
 62
     7
370
    25
100
AcDbLine
 10
6574.0281977169
 20
5136.1994545927
 30
0.0
 11
6574.0281977169
 21
5125.1994545927
 31
0.0
  0
ARC
  5
14C
330
1F
100
AcDbEntity
  8
0
  6
Continuous
 62
     7
370
    25
100
AcDbCircle
 10
6578.155227126
 20
5128.1833321355
 30
0.0
 40
9.016129490679194
100
AcDbArc
 50
90.0715669048
 51
117.2412717626
  0
LINE
  5
14D
330
1F
100
AcDbEntity
  8
0
  6
Continuous
 62
     7
370
    25
100
AcDbLine
 10
6582.2597328407
 20
5125.1994545927
 30
0.0
 11
6580.6656090227
 21
5125.1994545927
 31
0.0
  0
LINE
  5
14E
330
1F
100
AcDbEntity
  8
0
  6
Continuous
 62
     7
370
    25
100
AcDbLine
 10
6575.6223215349
 20
5115.1994545927
 30
0.0
 11
6580.6656090227
 21
5115.1994545927
 31
0.0
  0
LINE
  5
14F
330
1F
100
AcDbEntity
  8
0
  6
Continuous
 62
     7
370
    25
100
AcDbLine
 10
6606.9991645423
 20
5125.1994545927
 30
0.0
 11
6606.9991645423
 21
5115.1994545927
 31
0.0
  0
ARC
  5
150
330
1F
100
AcDbEntity
  8
0
  6
Continuous
 62
     7
370
    25
100
AcDbCircle
 10
6605.4142380479
 20
5133.5575640895
 30
0.0
 40
3.643935344973911
100
AcDbArc
 50
46.469701152
 51
88.080436582
  0
LINE
  5
151
330
1F
100
AcDbEntity
  8
0
  6
Continuous
 62
     7
370
    25
100
AcDbLine
 10
6607.9239550374
 20
5125.1994545927
 30
0.0
 11
6607.9239550374
 21
5136.1994545927
 31
0.0
  0
LINE
  5
152
330
1F
100
AcDbEntity
  8
0
  6
Continuous
 62
     7
370
    25
100
AcDbLine
 10
6607.9239550374
 20
5125.1994545927
 30
0.0
 11
6606.9991645423
 21
5125.1994545927
 31
0.0
  0
LINE
  5
153
330
1F
100
AcDbEntity
  8
0
  6
Continuous
 62
     7
370
    25
100
AcDbLine
 10
6604.0734292388
 20
5125.1994545927
 30
0.0
 11
6603.1486387437
 21
5125.1994545927
 31
0.0
  0
LINE
  5
154
330
1F
100
AcDbEntity
  8
0
  6
Continuous
 62
     7
370
    25
100
AcDbLine
 10
6604.0734292388
 20
5115.1994545927
 30
0.0
 11
6606.9991645423
 21
5115.1994545927
 31
0.0
  0
LINE
  5
155
330
1F
100
AcDbEntity
  8
0
  6
Continuous
 62
     7
370
    25
100
AcDbLine
 10
6573.3300501469
 20
5136.1994545927
 30
0.0
 11
6573.4574830658
 21
5136.2922710359
 31
0.0
  0
LINE
  5
156
330
1F
100
AcDbEntity
  8
0
  6
Continuous
 62
     7
370
    25
100
AcDbLine
 10
6573.3300501469
 20
5136.1994545927
 30
0.0
 11
6574.0281977169
 21
5136.1994545927
 31
0.0
  0
LINE
  5
157
330
1F
100
AcDbEntity
  8
0
  6
Continuous
 62
     7
370
    25
100
AcDbLine
 10
6575.6223215349
 20
5115.1994545927
 30
0.0
 11
6574.1270025922
 21
5115.1994545927
 31
0.0
  0
LINE
  5
158
330
1F
100
AcDbEntity
  8
0
  6
Continuous
 62
     7
370
    25
100
AcDbLine
 10
6573.3300501469
 20
5125.1994545927
 30
0.0
 11
6573.3300501469
 21
5136.1994545927
 31
0.0
  0
LINE
  5
159
330
1F
100
AcDbEntity
  8
0
  6
Continuous
 62
     7
370
    25
100
AcDbLine
 10
6574.0281977169
 20
5125.1994545927
 30
0.0
 11
6573.3300501469
 21
5125.1994545927
 31
0.0
  0
LINE
  5
15A
330
1F
100
AcDbEntity
  8
0
  6
Continuous
 62
     7
370
    25
100
AcDbLine
 10
6607.1270025922
 20
5115.1994545927
 30
0.0
 11
6606.9991645423
 21
5115.1994545927
 31
0.0
  0
LINE
  5
15B
330
1F
100
AcDbEntity
  8
0
  6
Continuous
 62
     7
370
    25
100
AcDbLine
 10
6653.6270025921
 20
5287.1894545927
 30
0.0
 11
6555.6270025921
 21
5287.1894545927
 31
0.0
  0
LINE
  5
15C
330
1F
100
AcDbEntity
  8
0
  6
Continuous
 62
     7
370
    25
100
AcDbLine
 10
6653.6270025921
 20
5140.2094545927
 30
0.0
 11
6653.6270025921
 21
5287.1894545927
 31
0.0
  0
LINE
  5
15D
330
1F
100
AcDbEntity
  8
0
  6
Continuous
 62
     7
370
    25
100
AcDbLine
 10
6555.6270025921
 20
5140.2094545927
 30
0.0
 11
6653.6270025921
 21
5140.2094545927
 31
0.0
  0
LINE
  5
15E
330
1F
100
AcDbEntity
  8
0
  6
Continuous
 62
     7
370
    25
100
AcDbLine
 10
6555.6270025921
 20
5140.2094545927
 30
0.0
 11
6555.6270025921
 21
5287.1894545927
 31
0.0
  0
LINE
  5
15F
330
1F
100
AcDbEntity
  8
0
  6
Continuous
 62
     7
370
    25
100
AcDbLine
 10
6555.6270025921
 20
5287.1894545927
 30
0.0
 11
6555.6270025921
 21
5289.1894545927
 31
0.0
  0
LINE
  5
160
330
1F
100
AcDbEntity
  8
0
  6
Continuous
 62
     7
370
    25
100
AcDbLine
 10
6652.919895811
 20
5289.1894545927
 30
0.0
 11
6555.6270025921
 21
5289.1894545927
 31
0.0
  0
ARC
  5
161
330
1F
100
AcDbEntity
  8
0
  6
Continuous
 62
     7
370
    25
100
AcDbCircle
 10
6648.9513855821
 20
5286.6613743457
 30
0.0
 40
4.705344107758532
100
AcDbArc
 50
6.4438749229
 51
32.498566346
  0
LINE
  5
162
330
1F
100
AcDbEntity
  8
0
  6
Continuous
 62
     7
370
    25
100
AcDbLine
 10
6653.6270025921
 20
5287.1894545927
 30
0.0
 11
6655.6270025921
 21
5287.1894545927
 31
0.0
  0
LINE
  5
163
330
1F
100
AcDbEntity
  8
0
  6
Continuous
 62
     7
370
    25
100
AcDbLine
 10
6655.6270025921
 20
5245.1994545927
 30
0.0
 11
6655.6270025921
 21
5287.1894545927
 31
0.0
  0
LINE
  5
164
330
1F
100
AcDbEntity
  8
0
  6
Continuous
 62
     7
370
    25
100
AcDbLine
 10
6655.6270025921
 20
5245.1994545927
 30
0.0
 11
6655.6270025921
 21
5182.1994545927
 31
0.0
  0
LINE
  5
165
330
1F
100
AcDbEntity
  8
0
  6
Continuous
 62
     7
370
    25
100
AcDbLine
 10
6655.6270025921
 20
5140.2094545927
 30
0.0
 11
6655.6270025921
 21
5182.1994545927
 31
0.0
  0
LINE
  5
166
330
1F
100
AcDbEntity
  8
0
  6
Continuous
 62
     7
370
    25
100
AcDbLine
 10
6655.6270025921
 20
5140.2094545927
 30
0.0
 11
6653.6270025921
 21
5140.2094545927
 31
0.0
  0
LINE
  5
167
330
1F
100
AcDbEntity
  8
0
  6
Continuous
 62
     7
370
    25
100
AcDbLine
 10
6553.6270025921
 20
5287.1894545927
 30
0.0
 11
6555.6270025921
 21
5287.1894545927
 31
0.0
  0
LINE
  5
168
330
1F
100
AcDbEntity
  8
0
  6
Continuous
 62
     7
370
    25
100
AcDbLine
 10
6555.6270025921
 20
5140.2094545927
 30
0.0
 11
6553.6270025921
 21
5140.2094545927
 31
0.0
  0
LINE
  5
169
330
1F
100
AcDbEntity
  8
0
  6
Continuous
 62
     7
370
    25
100
AcDbLine
 10
6553.6270025921
 20
5140.2094545927
 30
0.0
 11
6553.6270025921
 21
5287.1894545927
 31
0.0
  0
ARC
  5
16A
330
1F
100
AcDbEntity
  8
0
  6
Continuous
 62
     7
370
    25
100
AcDbCircle
 10
6650.3507110771
 20
5140.2427985665
 30
0.0
 40
3.276461187388058
100
AcDbArc
 50
321.6406579458
 51
359.4169007851
  0
LINE
  5
16B
330
1F
100
AcDbEntity
  8
0
  6
Continuous
 62
     7
370
    25
100
AcDbLine
 10
6555.6270025921
 20
5138.2094545927
 30
0.0
 11
6652.919895811
 21
5138.2094545927
 31
0.0
  0
LINE
  5
16C
330
1F
100
AcDbEntity
  8
0
  6
Continuous
 62
     7
370
    25
100
AcDbLine
 10
6555.6270025921
 20
5138.2094545927
 30
0.0
 11
6555.6270025921
 21
5140.2094545927
 31
0.0
  0
ARC
  5
16D
330
1F
100
AcDbEntity
  8
0
  6
Continuous
 62
     7
370
    25
100
AcDbCircle
 10
6653.6270025921
 20
5287.1894545927
 30
0.0
 40
2.000000000001819
100
AcDbArc
 50
0.0000000001
 51
89.9999999999
  0
ARC
  5
16E
330
1F
100
AcDbEntity
  8
0
  6
Continuous
 62
     7
370
    25
100
AcDbCircle
 10
6653.6270025922
 20
5287.1894545927
 30
0.0
 40
0.999999999994543
100
AcDbArc
 50
359.9999999996
 51
90.0000000003
  0
LINE
  5
16F
330
1F
100
AcDbEntity
  8
0
  6
Continuous
 62
     7
370
    25
100
AcDbLine
 10
6653.6270025921
 20
5289.1894545927
 30
0.0
 11
6653.6270025921
 21
5288.1894545927
 31
0.0
  0
ARC
  5
170
330
1F
100
AcDbEntity
  8
0
  6
Continuous
 62
     7
370
    25
100
AcDbCircle
 10
6653.6270025922
 20
5140.2094545927
 30
0.0
 40
2.0
100
AcDbArc
 50
270.0
 51
0.0
  0
LINE
  5
171
330
1F
100
AcDbEntity
  8
0
  6
Continuous
 62
     7
370
    25
100
AcDbLine
 10
6653.6270025921
 20
5138.2094545927
 30
0.0
 11
6653.6270025921
 21
5139.2094545927
 31
0.0
  0
ARC
  5
172
330
1F
100
AcDbEntity
  8
0
  6
Continuous
 62
     7
370
    25
100
AcDbCircle
 10
6653.6270025922
 20
5140.2094545927
 30
0.0
 40
0.9999999999972715
100
AcDbArc
 50
269.9999999998
 51
0.0000000002
  0
LINE
  5
173
330
1F
100
AcDbEntity
  8
0
  6
Continuous
 62
     7
370
    25
100
AcDbLine
 10
6553.6270025921
 20
5139.1994545927
 30
0.0
 11
6554.6270025921
 21
5139.1994545927
 31
0.0
  0
LINE
  5
174
330
1F
100
AcDbEntity
  8
0
  6
Continuous
 62
     7
370
    25
100
AcDbLine
 10
6553.6270025921
 20
5140.2094545927
 30
0.0
 11
6553.6270025921
 21
5139.1994545927
 31
0.0
  0
LINE
  5
175
330
1F
100
AcDbEntity
  8
0
  6
Continuous
 62
     7
370
    25
100
AcDbLine
 10
6554.6270025921
 20
5140.2094545927
 30
0.0
 11
6554.6270025921
 21
5139.1994545927
 31
0.0
  0
ARC
  5
176
330
1F
100
AcDbEntity
  8
0
  6
Continuous
 62
     7
370
    25
100
AcDbCircle
 10
6555.6270025922
 20
5139.1994545927
 30
0.0
 40
1.000000000000909
100
AcDbArc
 50
180.0
 51
270.0
  0
LINE
  5
177
330
1F
100
AcDbEntity
  8
0
  6
Continuous
 62
     7
370
    25
100
AcDbLine
 10
6555.6270025922
 20
5138.1994545927
 30
0.0
 11
6555.6270025922
 21
5137.1994545927
 31
0.0
  0
ARC
  5
178
330
1F
100
AcDbEntity
  8
0
  6
Continuous
 62
     7
370
    25
100
AcDbCircle
 10
6555.6270025922
 20
5139.1994545927
 30
0.0
 40
2.000000000000909
100
AcDbArc
 50
180.0
 51
270.0
  0
LINE
  5
179
330
1F
100
AcDbEntity
  8
0
  6
Continuous
 62
     7
370
    25
100
AcDbLine
 10
6653.6270025921
 20
5137.1994545927
 30
0.0
 11
6653.6270025921
 21
5138.1994545927
 31
0.0
  0
LINE
  5
17A
330
1F
100
AcDbEntity
  8
0
  6
Continuous
 62
     7
370
    25
100
AcDbLine
 10
6653.6270025921
 20
5137.1994545927
 30
0.0
 11
6555.6270025922
 21
5137.1994545927
 31
0.0
  0
LINE
  5
17B
330
1F
100
AcDbEntity
  8
0
  6
Continuous
 62
     7
370
    25
100
AcDbLine
 10
6653.6270025921
 20
5138.1994545927
 30
0.0
 11
6555.6270025922
 21
5138.1994545927
 31
0.0
  0
LINE
  5
17C
330
1F
100
AcDbEntity
  8
0
  6
Continuous
 62
     7
370
    25
100
AcDbLine
 10
6553.6270025921
 20
5288.1994545927
 30
0.0
 11
6554.6270025921
 21
5288.1994545927
 31
0.0
  0
LINE
  5
17D
330
1F
100
AcDbEntity
  8
0
  6
Continuous
 62
     7
370
    25
100
AcDbLine
 10
6553.6270025921
 20
5288.1994545927
 30
0.0
 11
6553.6270025921
 21
5287.1894545927
 31
0.0
  0
LINE
  5
17E
330
1F
100
AcDbEntity
  8
0
  6
Continuous
 62
     7
370
    25
100
AcDbLine
 10
6554.6270025921
 20
5288.1994545927
 30
0.0
 11
6554.6270025921
 21
5287.1894545927
 31
0.0
  0
ARC
  5
17F
330
1F
100
AcDbEntity
  8
0
  6
Continuous
 62
     7
370
    25
100
AcDbCircle
 10
6555.6270025922
 20
5288.1994545927
 30
0.0
 40
2.000000000000909
100
AcDbArc
 50
90.0
 51
180.0
  0
LINE
  5
180
330
1F
100
AcDbEntity
  8
0
  6
Continuous
 62
     7
370
    25
100
AcDbLine
 10
6555.6270025922
 20
5289.1994545927
 30
0.0
 11
6555.6270025922
 21
5290.1994545927
 31
0.0
  0
ARC
  5
181
330
1F
100
AcDbEntity
  8
0
  6
Continuous
 62
     7
370
    25
100
AcDbCircle
 10
6555.6270025922
 20
5288.1994545927
 30
0.0
 40
1.000000000000909
100
AcDbArc
 50
90.0
 51
180.0
  0
LINE
  5
182
330
1F
100
AcDbEntity
  8
0
  6
Continuous
 62
     7
370
    25
100
AcDbLine
 10
6653.6270025921
 20
5290.1994545927
 30
0.0
 11
6653.6270025921
 21
5289.1994545927
 31
0.0
  0
LINE
  5
183
330
1F
100
AcDbEntity
  8
0
  6
Continuous
 62
     7
370
    25
100
AcDbLine
 10
6555.6270025922
 20
5289.1994545927
 30
0.0
 11
6653.6270025921
 21
5289.1994545927
 31
0.0
  0
LINE
  5
184
330
1F
100
AcDbEntity
  8
0
  6
Continuous
 62
     7
370
    25
100
AcDbLine
 10
6555.6270025922
 20
5290.1994545927
 30
0.0
 11
6653.6270025921
 21
5290.1994545927
 31
0.0
  0
LINE
  5
185
330
1F
100
AcDbEntity
  8
0
  6
Continuous
 62
     7
370
    25
100
AcDbLine
 10
6653.6270025921
 20
5289.1894545927
 30
0.0
 11
6652.919895811
 21
5289.1894545927
 31
0.0
  0
LINE
  5
186
330
1F
100
AcDbEntity
  8
0
  6
Continuous
 62
     7
370
    25
100
AcDbLine
 10
6653.6270025921
 20
5288.1894545927
 30
0.0
 11
6653.3909848762
 21
5288.1894545927
 31
0.0
  0
LINE
  5
187
330
1F
100
AcDbEntity
  8
0
  6
Continuous
 62
     7
370
    25
100
AcDbLine
 10
6652.919895811
 20
5138.2094545927
 30
0.0
 11
6653.6270025921
 21
5138.2094545927
 31
0.0
  0
LINE
  5
188
330
1F
100
AcDbEntity
  8
0
  6
Continuous
 62
     7
370
    25
100
AcDbLine
 10
6653.3874407827
 20
5139.2094545927
 30
0.0
 11
6653.6270025921
 21
5139.2094545927
 31
0.0
  0
CIRCLE
  5
189
330
1F
100
AcDbEntity
  8
0
  6
Continuous
 62
     7
100
AcDbCircle
 10
6300.0187553361
 20
4883.0338591551
 30
0.0
 40
13.99999999999991
  0
CIRCLE
  5
18A
330
1F
100
AcDbEntity
  8
0
  6
Continuous
 62
     7
100
AcDbCircle
 10
6221.0187553361
 20
4883.0338591551
 30
0.0
 40
4.750000000000448
  0
ARC
  5
18B
330
1F
100
AcDbEntity
  8
0
  6
Continuous
 62
     7
370
    25
100
AcDbCircle
 10
6274.0187553361
 20
4818.0596656068
 30
0.0
 40
14.32580645161324
100
AcDbArc
 50
231.592052989
 51
245.239598896
  0
ARC
  5
18C
330
1F
100
AcDbEntity
  8
0
  6
Continuous
 62
     7
370
    25
100
AcDbCircle
 10
6274.0187553361
 20
4818.0596656068
 30
0.0
 40
14.32580645161324
100
AcDbArc
 50
294.760401104
 51
308.407947011
  0
LINE
  5
18D
330
1F
100
AcDbEntity
  8
0
  6
Continuous
 62
     7
370
    25
100
AcDbLine
 10
6282.9187553361
 20
4806.8338591551
 30
0.0
 11
6282.9187553361
 21
4807.0338591551
 31
0.0
  0
LINE
  5
18E
330
1F
100
AcDbEntity
  8
0
  6
Continuous
 62
     7
370
    25
100
AcDbLine
 10
6265.1187553361
 20
4807.0338591551
 30
0.0
 11
6265.1187553361
 21
4806.8338591551
 31
0.0
  0
LINE
  5
18F
330
1F
100
AcDbEntity
  8
0
  6
Continuous
 62
     7
370
    25
100
AcDbLine
 10
6281.7547679271
 20
4818.2064774804
 30
0.0
 11
6280.0187553361
 21
4820.0338591551
 31
0.0
  0
LINE
  5
190
330
1F
100
AcDbEntity
  8
0
  6
Continuous
 62
     7
370
    25
100
AcDbLine
 10
6268.0187553361
 20
4820.0338591551
 30
0.0
 11
6266.585473786
 21
4818.525141734
 31
0.0
  0
LWPOLYLINE
  5
191
330
1F
100
AcDbEntity
  8
0
  6
Continuous
 62
     7
370
    25
100
AcDbPolyline
 90
        3
 70
   128
 43
0.0
 10
6266.6668560063
 20
4817.227918968
 10
6266.3960974089
 20
4817.071490629
 10
6266.3309579673
 20
4817.0338591551
  0
LWPOLYLINE
  5
192
330
1F
100
AcDbEntity
  8
0
  6
Continuous
 62
     7
370
    25
100
AcDbPolyline
 90
        3
 70
   128
 43
0.0
 10
6281.708120793
 20
4817.4451360508
 10
6281.4436680929
 20
4817.6014813237
 10
6281.1792863102
 20
4817.7578266101
  0
LWPOLYLINE
  5
193
330
1F
100
AcDbEntity
  8
0
  6
Continuous
 62
     7
370
    25
100
AcDbPolyline
 90
        3
 70
   128
 43
0.0
 10
6266.6668560063
 20
4818.227918968
 10
6266.3960974089
 20
4818.071490629
 10
6266.1253228077
 20
4817.9150624026
  0
LWPOLYLINE
  5
194
330
1F
100
AcDbEntity
  8
0
  6
Continuous
 62
     7
370
    25
100
AcDbPolyline
 90
        3
 70
   128
 43
0.0
 10
6266.1211586149
 20
4817.7801185718
 10
6266.3919462789
 20
4817.6236812244
 10
6266.6600236849
 20
4817.468806266
  0
LWPOLYLINE
  5
195
330
1F
100
AcDbEntity
  8
0
  6
Continuous
 62
     7
370
    25
100
AcDbPolyline
 90
        3
 70
   128
 43
0.0
 10
6281.4900888562
 20
4817.0338591551
 10
6281.6455643933
 20
4817.1236812244
 10
6281.9163520573
 20
4817.2801185718
  0
LWPOLYLINE
  5
196
330
1F
100
AcDbEntity
  8
0
  6
Continuous
 62
     7
370
    25
100
AcDbPolyline
 90
        3
 70
   128
 43
0.0
 10
6281.3747823774
 20
4817.9672437459
 10
6281.6455643933
 20
4818.1236812244
 10
6281.7555773314
 20
4818.1872370451
  0
LINE
  5
197
330
1F
100
AcDbEntity
  8
0
  6
Continuous
 62
     7
370
    25
100
AcDbLine
 10
6281.9187553361
 20
4817.2837175766
 30
0.0
 11
6281.9187553361
 21
4817.4090228792
 31
0.0
  0
LINE
  5
198
330
1F
100
AcDbEntity
  8
0
  6
Continuous
 62
     7
370
    25
100
AcDbLine
 10
6266.1187553361
 20
4817.9088130976
 30
0.0
 11
6266.1187553361
 21
4817.7837491134
 31
0.0
  0
LINE
  5
199
330
1F
100
AcDbEntity
  8
0
  6
Continuous
 62
     7
370
    25
100
AcDbLine
 10
6266.6600236849
 20
4817.4714829013
 30
0.0
 11
6266.6600236849
 21
4817.2239716559
 31
0.0
  0
LINE
  5
19A
330
1F
100
AcDbEntity
  8
0
  6
Continuous
 62
     7
370
    25
100
AcDbLine
 10
6281.3726312562
 20
4817.7268823725
 30
0.0
 11
6281.3726312562
 21
4817.9768823725
 31
0.0
  0
LINE
  5
19B
330
1F
100
AcDbEntity
  8
0
  6
Continuous
 62
     7
370
    25
100
AcDbLine
 10
6266.6600236849
 20
4818.4714829013
 30
0.0
 11
6266.6600236849
 21
4818.2239716559
 31
0.0
  0
LINE
  5
19C
330
1F
100
AcDbEntity
  8
0
  6
Continuous
 62
     7
370
    25
100
AcDbLine
 10
6279.8187553361
 20
4804.9604774453
 30
0.0
 11
6279.8187553361
 21
4805.0508712549
 31
0.0
  0
LINE
  5
19D
330
1F
100
AcDbEntity
  8
0
  6
Continuous
 62
     7
370
    25
100
AcDbLine
 10
6268.2187553361
 20
4805.0508712549
 30
0.0
 11
6268.2187553361
 21
4804.9604774453
 31
0.0
  0
ARC
  5
19E
330
1F
100
AcDbEntity
  8
0
  6
Continuous
 62
     7
370
    25
100
AcDbCircle
 10
6274.0187553361
 20
4818.0596656068
 30
0.0
 40
14.32580645161291
100
AcDbArc
 50
246.1174094853
 51
270.0
  0
ARC
  5
19F
330
1F
100
AcDbEntity
  8
0
  6
Continuous
 62
     7
370
    25
100
AcDbCircle
 10
6274.0187553361
 20
4818.0596656068
 30
0.0
 40
14.32580645161291
100
AcDbArc
 50
270.0
 51
293.8825905147
  0
LINE
  5
1A0
330
1F
100
AcDbEntity
  8
0
  6
Continuous
 62
     7
370
    25
100
AcDbLine
 10
6280.0187553361
 20
4805.0508712549
 30
0.0
 11
6268.0187553361
 21
4805.0508712549
 31
0.0
  0
LINE
  5
1A1
330
1F
100
AcDbEntity
  8
0
  6
Continuous
 62
     7
370
    25
100
AcDbLine
 10
6282.9187553361
 20
4806.8338591551
 30
0.0
 11
6265.1187553361
 21
4806.8338591551
 31
0.0
  0
LWPOLYLINE
  5
1A2
330
1F
100
AcDbEntity
  8
0
  6
Continuous
 62
     7
370
    25
100
AcDbPolyline
 90
       11
 70
   128
 43
0.0
 10
6279.4639638593
 20
4818.6036127078
 10
6278.5231740218
 20
4818.5420992344
 10
6277.4883185884
 20
4818.4816624863
 10
6276.3466737811
 20
4818.4207592308
 10
6275.1293619038
 20
4818.3613112051
 10
6273.8717882525
 20
4818.3042520761
 10
6272.6082817315
 20
4818.2471174801
 10
6271.373592418
 20
4818.1883857922
 10
6269.9879270452
 20
4818.118629453
 10
6268.6812004742
 20
4818.0480134462
 10
6268.4326116636
 20
4818.0338591551
  0
LINE
  5
1A3
330
1F
100
AcDbEntity
  8
0
  6
Continuous
 62
     7
370
    25
100
AcDbLine
 10
6269.0689399798
 20
4818.6036127078
 30
0.0
 11
6279.4639638593
 21
4818.6036127078
 31
0.0
  0
LWPOLYLINE
  5
1A4
330
1F
100
AcDbEntity
  8
0
  6
Continuous
 62
     7
370
    25
100
AcDbPolyline
 90
       11
 70
   128
 43
0.0
 10
6274.0187553361
 20
4818.0338591551
 10
6275.3452240088
 20
4818.0508293591
 10
6276.6054364964
 20
4818.0681406137
 10
6277.8247930999
 20
4818.0861629299
 10
6278.900926051
 20
4818.1033827125
 10
6279.8647443712
 20
4818.1204311553
 10
6280.6328758767
 20
4818.1374880723
 10
6281.2286694816
 20
4818.1555913384
 10
6281.5990772075
 20
4818.1730564539
 10
6281.7608050678
 20
4818.1905384788
 10
6281.7430632243
 20
4818.1953580127
  0
LWPOLYLINE
  5
1A5
330
1F
100
AcDbEntity
  8
0
  6
Continuous
 62
     7
370
    25
100
AcDbPolyline
 90
        6
 70
   128
 43
0.0
 10
6266.5928198058
 20
4818.5181630151
 10
6266.5840566946
 20
4818.5208327093
 10
6266.7445565896
 20
4818.5382750698
 10
6267.1045206099
 20
4818.5557337931
 10
6267.6747126972
 20
4818.5738227477
 10
6269.0689399798
 20
4818.6036127078
  0
LINE
  5
1A6
330
1F
100
AcDbEntity
  8
0
  6
Continuous
 62
     7
370
    25
100
AcDbLine
 10
6274.0187553361
 20
4818.0338591551
 30
0.0
 11
6268.4326116636
 21
4818.0338591551
 31
0.0
  0
LWPOLYLINE
  5
1A7
330
1F
100
AcDbEntity
  8
0
  6
Continuous
 62
     7
370
    25
100
AcDbPolyline
 90
        5
 70
   128
 43
0.0
 10
6268.4326116636
 20
4818.0338591551
 10
6267.0560495377
 20
4817.9875623101
 10
6266.4375591929
 20
4817.9538132571
 10
6266.1442241076
 20
4817.9211669348
 10
6266.1570647552
 20
4817.9088130976
  0
LWPOLYLINE
  5
1A8
330
1F
100
AcDbEntity
  8
0
  6
Continuous
 62
     7
370
    25
100
AcDbPolyline
 90
       11
 70
   128
 43
0.0
 10
6281.8705317626
 20
4817.4090228792
 10
6281.909635482
 20
4817.4015388813
 10
6281.6691698051
 20
4817.369256748
 10
6281.1011474643
 20
4817.3355422325
 10
6280.2377492241
 20
4817.3025103256
 10
6278.500676061
 20
4817.2554948223
 10
6276.3029342196
 20
4817.2051560056
 10
6273.9241712528
 20
4817.157048142
 10
6271.547620601
 20
4817.1085246513
 10
6269.8628548454
 20
4817.0701351641
 10
6268.4326116636
 20
4817.0338591551
  0
LWPOLYLINE
  5
1A9
330
1F
100
AcDbEntity
  8
0
  6
Continuous
 62
     7
370
    25
100
AcDbPolyline
 90
       10
 70
   128
 43
0.0
 10
6279.4639638593
 20
4818.6036127078
 10
6279.0959383993
 20
4818.5927242071
 10
6277.251578676
 20
4818.5440013724
 10
6275.0844237439
 20
4818.4938691706
 10
6272.8639605308
 20
4818.446906104
 10
6270.7040966183
 20
4818.3966936631
 10
6268.8780162036
 20
4818.3481701724
 10
6267.5330970119
 20
4818.3000623088
 10
6266.7817418992
 20
4818.2497234921
 10
6266.7505349577
 20
4818.2281540826
  0
LWPOLYLINE
  5
1AA
330
1F
100
AcDbEntity
  8
0
  6
Continuous
 62
     7
370
    25
100
AcDbPolyline
 90
       14
 70
   128
 43
0.0
 10
6281.3048993219
 20
4817.7272082376
 10
6281.3689944508
 20
4817.7140388799
 10
6280.9176040861
 20
4817.6649482468
 10
6279.8116569243
 20
4817.6150103242
 10
6279.4639638593
 20
4817.6036127078
 10
6279.0959383993
 20
4817.5927242071
 10
6277.251578676
 20
4817.5440013724
 10
6275.0844237439
 20
4817.4938691706
 10
6272.8639605308
 20
4817.446906104
 10
6270.7040966183
 20
4817.3966936631
 10
6268.8780162036
 20
4817.3481701724
 10
6267.5330970119
 20
4817.3000623088
 10
6266.7817418992
 20
4817.2497234921
 10
6266.7505349577
 20
4817.2281540826
  0
LWPOLYLINE
  5
1AB
330
1F
100
AcDbEntity
  8
0
  6
Continuous
 62
     7
370
    25
100
AcDbPolyline
 90
       14
 70
   128
 43
0.0
 10
6281.35345412
 20
4817.9672318866
 10
6281.3689944508
 20
4817.9640388799
 10
6280.9176040861
 20
4817.9149482468
 10
6279.8116569243
 20
4817.8650103242
 10
6278.1935987518
 20
4817.8179948209
 10
6276.1464344624
 20
4817.7676560042
 10
6273.9306516499
 20
4817.7195481406
 10
6271.7169295763
 20
4817.6710246499
 10
6270.3020900266
 20
4817.6365926461
 10
6269.0689399798
 20
4817.6036127078
 10
6268.2248576253
 20
4817.5776734491
 10
6267.5330970119
 20
4817.5500623088
 10
6266.7817418992
 20
4817.4997234921
 10
6266.7409969915
 20
4817.4715616936
  0
LWPOLYLINE
  5
1AC
330
1F
100
AcDbEntity
  8
0
  6
Continuous
 62
     7
370
    25
100
AcDbPolyline
 90
       10
 70
   128
 43
0.0
 10
6274.0187553361
 20
4818.0338591551
 10
6272.7790205112
 20
4818.0094061026
 10
6271.547620601
 20
4817.9835246486
 10
6270.0583966509
 20
4817.9497963227
 10
6268.7546462259
 20
4817.9174186115
 10
6267.6825306904
 20
4817.8863491411
 10
6266.851599091
 20
4817.8531242594
 10
6266.3219859386
 20
4817.8194718129
 10
6266.121025424
 20
4817.7874941046
 10
6266.1450513977
 20
4817.7837491134
  0
ARC
  5
1AD
330
1F
100
AcDbEntity
  8
0
  6
Continuous
 62
     7
370
    25
100
AcDbCircle
 10
6273.6439467365
 20
4953.0947691716
 30
0.0
 40
136.0614262603569
100
AcDbArc
 50
270.1578329629
 51
273.4489206626
  0
LINE
  5
1AE
330
1F
100
AcDbEntity
  8
0
  6
Continuous
 62
     7
370
    25
100
AcDbLine
 10
6279.8187553361
 20
4804.9604774453
 30
0.0
 11
6268.2187553361
 21
4804.9604774453
 31
0.0
  0
LINE
  5
1AF
330
1F
100
AcDbEntity
  8
0
  6
Continuous
 62
     7
370
    25
100
AcDbLine
 10
6349.0187553361
 20
4817.0338591551
 30
0.0
 11
6349.0187553361
 21
4807.0338591551
 31
0.0
  0
LINE
  5
1B0
330
1F
100
AcDbEntity
  8
0
  6
Continuous
 62
     7
370
    25
100
AcDbLine
 10
6359.0187553361
 20
4817.0338591551
 30
0.0
 11
6349.0187553361
 21
4817.0338591551
 31
0.0
  0
ARC
  5
1B1
330
1F
100
AcDbEntity
  8
0
  6
Continuous
 62
     7
370
    25
100
AcDbCircle
 10
6349.0187553361
 20
4817.0338591551
 30
0.0
 40
10.0
100
AcDbArc
 50
270.0
 51
0.0
  0
LINE
  5
1B2
330
1F
100
AcDbEntity
  8
0
  6
Continuous
 62
     7
370
    25
100
AcDbLine
 10
6349.0187553361
 20
4807.0338591551
 30
0.0
 11
6199.0187553361
 21
4807.0338591551
 31
0.0
  0
LINE
  5
1B3
330
1F
100
AcDbEntity
  8
0
  6
Continuous
 62
     7
370
    25
100
AcDbLine
 10
6199.0187553361
 20
4817.0338591551
 30
0.0
 11
6199.0187553361
 21
4807.0338591551
 31
0.0
  0
LINE
  5
1B4
330
1F
100
AcDbEntity
  8
0
  6
Continuous
 62
     7
370
    25
100
AcDbLine
 10
6349.0187553361
 20
4817.0338591551
 30
0.0
 11
6199.0187553361
 21
4817.0338591551
 31
0.0
  0
ARC
  5
1B5
330
1F
100
AcDbEntity
  8
0
  6
Continuous
 62
     7
370
    25
100
AcDbCircle
 10
6199.0187553361
 20
4817.0338591551
 30
0.0
 40
10.0
100
AcDbArc
 50
180.0
 51
270.0
  0
LINE
  5
1B6
330
1F
100
AcDbEntity
  8
0
  6
Continuous
 62
     7
370
    25
100
AcDbLine
 10
6199.0187553361
 20
4817.0338591551
 30
0.0
 11
6189.0187553361
 21
4817.0338591551
 31
0.0
  0
LINE
  5
1B7
330
1F
100
AcDbEntity
  8
0
  6
Continuous
 62
     7
370
    25
100
AcDbLine
 10
6286.5401988966
 20
4892.5511337811
 30
0.0
 11
6292.6586364423
 21
4897.8013453958
 31
0.0
  0
ARC
  5
1B8
330
1F
100
AcDbEntity
  8
0
  6
Continuous
 62
     7
370
    25
100
AcDbCircle
 10
6300.0187553361
 20
4883.0338591551
 30
0.0
 40
16.5000000000007
100
AcDbArc
 50
84.7738977794
 51
116.4916773116
  0
LINE
  5
1B9
330
1F
100
AcDbEntity
  8
0
  6
Continuous
 62
     7
370
    25
100
AcDbLine
 10
6301.5216787173
 20
4899.4652687511
 30
0.0
 11
6309.1277141237
 21
4896.7916522124
 31
0.0
  0
ARC
  5
1BA
330
1F
100
AcDbEntity
  8
0
  6
Continuous
 62
     7
370
    25
100
AcDbCircle
 10
6300.0187553361
 20
4883.0338591551
 30
0.0
 40
16.50000000000036
100
AcDbArc
 50
24.7738977794
 51
56.4916773116
  0
LINE
  5
1BB
330
1F
100
AcDbEntity
  8
0
  6
Continuous
 62
     7
370
    25
100
AcDbLine
 10
6315.0002351568
 20
4889.9479941251
 30
0.0
 11
6316.4878330175
 21
4882.0241659717
 31
0.0
  0
ARC
  5
1BC
330
1F
100
AcDbEntity
  8
0
  6
Continuous
 62
     7
370
    25
100
AcDbCircle
 10
6300.0187553361
 20
4883.0338591551
 30
0.0
 40
16.50000000000023
100
AcDbArc
 50
324.7738977794
 51
356.4916773116
  0
LINE
  5
1BD
330
1F
100
AcDbEntity
  8
0
  6
Continuous
 62
     7
370
    25
100
AcDbLine
 10
6313.4973117756
 20
4873.5165845291
 30
0.0
 11
6307.3788742299
 21
4868.2663729144
 31
0.0
  0
ARC
  5
1BE
330
1F
100
AcDbEntity
  8
0
  6
Continuous
 62
     7
370
    25
100
AcDbCircle
 10
6300.0187553361
 20
4883.0338591551
 30
0.0
 40
16.49999999999948
100
AcDbArc
 50
264.7738977794
 51
296.4916773116
  0
LINE
  5
1BF
330
1F
100
AcDbEntity
  8
0
  6
Continuous
 62
     7
370
    25
100
AcDbLine
 10
6298.5158319549
 20
4866.6024495592
 30
0.0
 11
6290.9097965485
 21
4869.2760660979
 31
0.0
  0
ARC
  5
1C0
330
1F
100
AcDbEntity
  8
0
  6
Continuous
 62
     7
370
    25
100
AcDbCircle
 10
6300.0187553361
 20
4883.0338591551
 30
0.0
 40
16.4999999999996
100
AcDbArc
 50
204.7738977794
 51
236.4916773116
  0
LINE
  5
1C1
330
1F
100
AcDbEntity
  8
0
  6
Continuous
 62
     7
370
    25
100
AcDbLine
 10
6285.0372755154
 20
4876.1197241852
 30
0.0
 11
6283.5496776547
 21
4884.0435523386
 31
0.0
  0
ARC
  5
1C2
330
1F
100
AcDbEntity
  8
0
  6
Continuous
 62
     7
370
    25
100
AcDbCircle
 10
6300.0187553361
 20
4883.0338591551
 30
0.0
 40
16.50000000000023
100
AcDbArc
 50
144.7738977794
 51
176.4916773116
  0
CIRCLE
  5
1C3
330
1F
100
AcDbEntity
  8
0
  6
Continuous
 62
     7
370
    25
100
AcDbCircle
 10
6300.0187553361
 20
4883.0338591551
 30
0.0
 40
12.10000000000013
  0
ARC
  5
1C4
330
1F
100
AcDbEntity
  8
0
  6
Continuous
 62
     7
370
    25
100
AcDbCircle
 10
6300.0187553361
 20
4883.0338591551
 30
0.0
 40
17.30000000000072
100
AcDbArc
 50
92.9862131448
 51
108.2793619462
  0
LINE
  5
1C5
330
1F
100
AcDbEntity
  8
0
  6
Continuous
 62
     7
370
    25
100
AcDbLine
 10
6294.5926025397
 20
4899.460875495
 30
0.0
 11
6292.6586364423
 21
4897.8013453958
 31
0.0
  0
LINE
  5
1C6
330
1F
100
AcDbEntity
  8
0
  6
Continuous
 62
     7
370
    25
100
AcDbLine
 10
6301.5216787173
 20
4899.4652687511
 30
0.0
 11
6299.1175004443
 21
4900.3103674719
 31
0.0
  0
ARC
  5
1C7
330
1F
100
AcDbEntity
  8
0
  6
Continuous
 62
     7
370
    25
100
AcDbCircle
 10
6300.0187553361
 20
4883.0338591551
 30
0.0
 40
17.30000000000041
100
AcDbArc
 50
32.9862131448
 51
48.2793619462
  0
LINE
  5
1C8
330
1F
100
AcDbEntity
  8
0
  6
Continuous
 62
     7
370
    25
100
AcDbLine
 10
6315.0002351568
 20
4889.9479941251
 30
0.0
 11
6314.5300229813
 21
4892.4526229451
 31
0.0
  0
LINE
  5
1C9
330
1F
100
AcDbEntity
  8
0
  6
Continuous
 62
     7
370
    25
100
AcDbLine
 10
6311.5318923966
 20
4895.9465534916
 30
0.0
 11
6309.1277141237
 21
4896.7916522124
 31
0.0
  0
ARC
  5
1CA
330
1F
100
AcDbEntity
  8
0
  6
Continuous
 62
     7
370
    25
100
AcDbCircle
 10
6300.0187553361
 20
4883.0338591551
 30
0.0
 40
17.30000000000068
100
AcDbArc
 50
152.9862131448
 51
168.2793619462
  0
LINE
  5
1CB
330
1F
100
AcDbEntity
  8
0
  6
Continuous
 62
     7
370
    25
100
AcDbLine
 10
6283.0794654792
 20
4886.5481811586
 30
0.0
 11
6283.5496776547
 21
4884.0435523386
 31
0.0
  0
LINE
  5
1CC
330
1F
100
AcDbEntity
  8
0
  6
Continuous
 62
     7
370
    25
100
AcDbLine
 10
6286.5401988966
 20
4892.5511337811
 30
0.0
 11
6284.6062327992
 21
4890.891603682
 31
0.0
  0
ARC
  5
1CD
330
1F
100
AcDbEntity
  8
0
  6
Continuous
 62
     7
370
    25
100
AcDbCircle
 10
6300.0187553361
 20
4883.0338591551
 30
0.0
 40
17.29999999999945
100
AcDbArc
 50
332.9862131448
 51
348.2793619462
  0
LINE
  5
1CE
330
1F
100
AcDbEntity
  8
0
  6
Continuous
 62
     7
370
    25
100
AcDbLine
 10
6313.4973117756
 20
4873.5165845291
 30
0.0
 11
6315.431277873
 21
4875.1761146283
 31
0.0
  0
LINE
  5
1CF
330
1F
100
AcDbEntity
  8
0
  6
Continuous
 62
     7
370
    25
100
AcDbLine
 10
6316.958045193
 20
4879.5195371517
 30
0.0
 11
6316.4878330175
 21
4882.0241659717
 31
0.0
  0
ARC
  5
1D0
330
1F
100
AcDbEntity
  8
0
  6
Continuous
 62
     7
370
    25
100
AcDbCircle
 10
6300.0187553361
 20
4883.0338591551
 30
0.0
 40
17.29999999999973
100
AcDbArc
 50
212.9862131448
 51
228.2793619462
  0
LINE
  5
1D1
330
1F
100
AcDbEntity
  8
0
  6
Continuous
 62
     7
370
    25
100
AcDbLine
 10
6288.5056182756
 20
4870.1211648187
 30
0.0
 11
6290.9097965485
 21
4869.2760660979
 31
0.0
  0
LINE
  5
1D2
330
1F
100
AcDbEntity
  8
0
  6
Continuous
 62
     7
370
    25
100
AcDbLine
 10
6285.0372755154
 20
4876.1197241852
 30
0.0
 11
6285.5074876909
 21
4873.6150953652
 31
0.0
  0
ARC
  5
1D3
330
1F
100
AcDbEntity
  8
0
  6
Continuous
 62
     7
370
    25
100
AcDbCircle
 10
6300.0187553361
 20
4883.0338591551
 30
0.0
 40
17.29999999999928
100
AcDbArc
 50
272.9862131448
 51
288.2793619462
  0
LINE
  5
1D4
330
1F
100
AcDbEntity
  8
0
  6
Continuous
 62
     7
370
    25
100
AcDbLine
 10
6298.5158319549
 20
4866.6024495592
 30
0.0
 11
6300.9200102279
 21
4865.7573508384
 31
0.0
  0
LINE
  5
1D5
330
1F
100
AcDbEntity
  8
0
  6
Continuous
 62
     7
370
    25
100
AcDbLine
 10
6305.4449081325
 20
4866.6068428153
 30
0.0
 11
6307.3788742299
 21
4868.2663729144
 31
0.0
  0
LINE
  5
1D6
330
1F
100
AcDbEntity
  8
0
  6
Continuous
 62
     7
370
    25
100
AcDbLine
 10
6345.0187553361
 20
4820.0338591551
 30
0.0
 11
6345.0187553361
 21
4918.0338591551
 31
0.0
  0
LINE
  5
1D7
330
1F
100
AcDbEntity
  8
0
  6
Continuous
 62
     7
370
    25
100
AcDbLine
 10
6203.0187553361
 20
4820.0338591551
 30
0.0
 11
6345.0187553361
 21
4820.0338591551
 31
0.0
  0
LINE
  5
1D8
330
1F
100
AcDbEntity
  8
0
  6
Continuous
 62
     7
370
    25
100
AcDbLine
 10
6203.0187553361
 20
4918.0338591551
 30
0.0
 11
6203.0187553361
 21
4820.0338591551
 31
0.0
  0
LINE
  5
1D9
330
1F
100
AcDbEntity
  8
0
  6
Continuous
 62
     7
370
    25
100
AcDbLine
 10
6203.0187553361
 20
4918.0338591551
 30
0.0
 11
6345.0187553361
 21
4918.0338591551
 31
0.0
  0
CIRCLE
  5
1DA
330
1F
100
AcDbEntity
  8
0
  6
Continuous
 62
     7
370
    25
100
AcDbCircle
 10
6221.0187553361
 20
4883.0338591551
 30
0.0
 40
4.749999999999091
  0
LINE
  5
1DB
330
1F
100
AcDbEntity
  8
0
  6
Continuous
 62
     7
370
    25
100
AcDbLine
 10
6345.0187553361
 20
4920.0338591551
 30
0.0
 11
6345.0187553361
 21
4918.0338591551
 31
0.0
  0
LINE
  5
1DC
330
1F
100
AcDbEntity
  8
0
  6
Continuous
 62
     7
370
    25
100
AcDbLine
 10
6345.0187553361
 20
4920.0338591551
 30
0.0
 11
6203.0187553361
 21
4920.0338591551
 31
0.0
  0
LINE
  5
1DD
330
1F
100
AcDbEntity
  8
0
  6
Continuous
 62
     7
370
    25
100
AcDbLine
 10
6203.0187553361
 20
4918.0338591551
 30
0.0
 11
6203.0187553361
 21
4920.0338591551
 31
0.0
  0
LINE
  5
1DE
330
1F
100
AcDbEntity
  8
0
  6
Continuous
 62
     7
370
    25
100
AcDbLine
 10
6201.0187553361
 20
4918.0338591551
 30
0.0
 11
6203.0187553361
 21
4918.0338591551
 31
0.0
  0
ARC
  5
1DF
330
1F
100
AcDbEntity
  8
0
  6
Continuous
 62
     7
370
    25
100
AcDbCircle
 10
6203.0520993098
 20
4817.4646744212
 30
0.0
 40
3.276461187412543
100
AcDbArc
 50
90.583099215
 51
128.359342054
  0
LINE
  5
1E0
330
1F
100
AcDbEntity
  8
0
  6
Continuous
 62
     7
370
    25
100
AcDbLine
 10
6201.0187553361
 20
4820.0338591551
 30
0.0
 11
6201.0187553361
 21
4918.0338591551
 31
0.0
  0
ARC
  5
1E1
330
1F
100
AcDbEntity
  8
0
  6
Continuous
 62
     7
370
    25
100
AcDbCircle
 10
6344.490675089
 20
4816.0653489262
 30
0.0
 40
4.705344107807504
100
AcDbArc
 50
57.5014336541
 51
83.5561250769
  0
LINE
  5
1E2
330
1F
100
AcDbEntity
  8
0
  6
Continuous
 62
     7
370
    25
100
AcDbLine
 10
6347.0187553361
 20
4918.0338591551
 30
0.0
 11
6347.0187553361
 21
4820.0338591551
 31
0.0
  0
LINE
  5
1E3
330
1F
100
AcDbEntity
  8
0
  6
Continuous
 62
     7
370
    25
100
AcDbLine
 10
6345.0187553361
 20
4918.0338591551
 30
0.0
 11
6347.0187553361
 21
4918.0338591551
 31
0.0
  0
ARC
  5
1E4
330
1F
100
AcDbEntity
  8
0
  6
Continuous
 62
     7
370
    25
100
AcDbCircle
 10
6199.0502451072
 20
4820.5619394022
 30
0.0
 40
4.705344107747177
100
AcDbArc
 50
327.5014336539
 51
353.5561250771
  0
LINE
  5
1E5
330
1F
100
AcDbEntity
  8
0
  6
Continuous
 62
     7
370
    25
100
AcDbLine
 10
6203.0187553361
 20
4819.0338591551
 30
0.0
 11
6203.0187553361
 21
4818.0338591551
 31
0.0
  0
ARC
  5
1E6
330
1F
100
AcDbEntity
  8
0
  6
Continuous
 62
     7
370
    25
100
AcDbCircle
 10
6201.8230962245
 20
4820.629317821
 30
0.0
 40
1.993762539905034
100
AcDbArc
 50
306.8484045655
 51
342.622816069
  0
LINE
  5
1E7
330
1F
100
AcDbEntity
  8
0
  6
Continuous
 62
     7
370
    25
100
AcDbLine
 10
6230.0187553361
 20
4820.0338591551
 30
0.0
 11
6230.0187553361
 21
4818.0338591551
 31
0.0
  0
LINE
  5
1E8
330
1F
100
AcDbEntity
  8
0
  6
Continuous
 62
     7
370
    25
100
AcDbLine
 10
6203.0187553361
 20
4818.0338591551
 30
0.0
 11
6230.0187553361
 21
4818.0338591551
 31
0.0
  0
LINE
  5
1E9
330
1F
100
AcDbEntity
  8
0
  6
Continuous
 62
     7
370
    25
100
AcDbLine
 10
6201.0187553361
 20
4820.0338591551
 30
0.0
 11
6202.0187553361
 21
4820.0338591551
 31
0.0
  0
LWPOLYLINE
  5
1EA
330
1F
100
AcDbEntity
  8
0
  6
Continuous
 62
     7
370
    25
100
AcDbPolyline
 90
        6
 70
   128
 43
0.0
 10
6203.0187553361
 20
4820.7409659363
 10
6202.6567969108
 20
4820.5742419696
 10
6202.343924187
 20
4820.4075181864
 10
6202.1226336528
 20
4820.2408626653
 10
6202.0227692357
 20
4820.0742071142
 10
6202.0187553361
 20
4820.0338591551
  0
LINE
  5
1EB
330
1F
100
AcDbEntity
  8
0
  6
Continuous
 62
     7
370
    25
100
AcDbLine
 10
6318.0187553361
 20
4818.0338591551
 30
0.0
 11
6318.0187553361
 21
4820.0338591551
 31
0.0
  0
ARC
  5
1EC
330
1F
100
AcDbEntity
  8
0
  6
Continuous
 62
     7
370
    25
100
AcDbCircle
 10
6347.58794007
 20
4820.0672031289
 30
0.0
 40
3.276461187363307
100
AcDbArc
 50
180.5830992147
 51
218.3593420543
  0
LINE
  5
1ED
330
1F
100
AcDbEntity
  8
0
  6
Continuous
 62
     7
370
    25
100
AcDbLine
 10
6318.0187553361
 20
4818.0338591551
 30
0.0
 11
6345.0187553361
 21
4818.0338591551
 31
0.0
  0
LINE
  5
1EE
330
1F
100
AcDbEntity
  8
0
  6
Continuous
 62
     7
370
    25
100
AcDbLine
 10
6345.0187553361
 20
4819.0338591551
 30
0.0
 11
6345.0187553361
 21
4818.0338591551
 31
0.0
  0
LWPOLYLINE
  5
1EF
330
1F
100
AcDbEntity
  8
0
  6
Continuous
 62
     7
370
    25
100
AcDbPolyline
 90
        6
 70
   128
 43
0.0
 10
6344.3116485549
 20
4820.0338591551
 10
6344.4783725216
 20
4819.6719007298
 10
6344.6450963048
 20
4819.359028006
 10
6344.8117518259
 20
4819.1377374719
 10
6344.9784073771
 20
4819.0378730547
 10
6345.0187553361
 20
4819.0338591551
  0
LINE
  5
1F0
330
1F
100
AcDbEntity
  8
0
  6
Continuous
 62
     7
370
    25
100
AcDbLine
 10
6347.0187553361
 20
4820.0338591551
 30
0.0
 11
6346.0187553361
 21
4820.0338591551
 31
0.0
  0
ARC
  5
1F1
330
1F
100
AcDbEntity
  8
0
  6
Continuous
 62
     7
370
    25
100
AcDbCircle
 10
6344.4232966702
 20
4818.8382000435
 30
0.0
 40
1.993762539968873
100
AcDbArc
 50
36.8484045661
 51
72.6228160684
  0
ARC
  5
1F2
330
1F
100
AcDbEntity
  8
0
  6
Continuous
 62
     7
370
    25
100
AcDbCircle
 10
6203.0187553361
 20
4918.0338591551
 30
0.0
 40
1.000000000000909
100
AcDbArc
 50
90.0
 51
180.0
  0
ARC
  5
1F3
330
1F
100
AcDbEntity
  8
0
  6
Continuous
 62
     7
370
    25
100
AcDbCircle
 10
6203.0187553361
 20
4918.0338591551
 30
0.0
 40
2.0
100
AcDbArc
 50
90.0
 51
180.0
  0
ARC
  5
1F4
330
1F
100
AcDbEntity
  8
0
  6
Continuous
 62
     7
370
    25
100
AcDbCircle
 10
6345.0187553361
 20
4918.0338591551
 30
0.0
 40
2.000000000000909
100
AcDbArc
 50
0.0
 51
90.0
  0
ARC
  5
1F5
330
1F
100
AcDbEntity
  8
0
  6
Continuous
 62
     7
370
    25
100
AcDbCircle
 10
6345.0187553361
 20
4918.0338591551
 30
0.0
 40
1.000000000000909
100
AcDbArc
 50
0.0
 51
90.0
  0
ARC
  5
1F6
330
1F
100
AcDbEntity
  8
0
  6
Continuous
 62
     7
370
    25
100
AcDbCircle
 10
6203.0187553361
 20
4820.0338591551
 30
0.0
 40
2.0
100
AcDbArc
 50
180.0
 51
270.0
  0
ARC
  5
1F7
330
1F
100
AcDbEntity
  8
0
  6
Continuous
 62
     7
370
    25
100
AcDbCircle
 10
6203.0187553361
 20
4820.0338591551
 30
0.0
 40
1.0
100
AcDbArc
 50
180.0
 51
270.0
  0
ARC
  5
1F8
330
1F
100
AcDbEntity
  8
0
  6
Continuous
 62
     7
370
    25
100
AcDbCircle
 10
6345.0187553361
 20
4820.0338591551
 30
0.0
 40
2.0
100
AcDbArc
 50
270.0
 51
0.0
  0
ARC
  5
1F9
330
1F
100
AcDbEntity
  8
0
  6
Continuous
 62
     7
370
    25
100
AcDbCircle
 10
6345.0187553361
 20
4820.0338591551
 30
0.0
 40
1.0
100
AcDbArc
 50
270.0
 51
0.0
  0
ENDSEC
  0
SECTION
  2
OBJECTS
  0
DICTIONARY
  5
C
330
0
100
AcDbDictionary
281
     1
  3
ACAD_GROUP
350
D
  3
ACAD_LAYOUT
350
1A
  3
ACAD_MLINESTYLE
350
17
  3
ACAD_PLOTSETTINGS
350
19
  3
ACAD_PLOTSTYLENAME
350
E
  3
ACAD_SCALELIST
350
47
  3
DWGPROPS
350
1FA
  0
DICTIONARY
  5
D
102
{ACAD_REACTORS
330
C
102
}
330
C
100
AcDbDictionary
281
     1
  0
DICTIONARY
  5
1A
102
{ACAD_REACTORS
330
C
102
}
330
C
100
AcDbDictionary
281
     1
  3
Layout1
350
1E
  3
Layout2
350
26
  3
Model
350
22
  0
DICTIONARY
  5
17
102
{ACAD_REACTORS
330
C
102
}
330
C
100
AcDbDictionary
281
     1
  3
Standard
350
18
  0
DICTIONARY
  5
19
102
{ACAD_REACTORS
330
C
102
}
330
C
100
AcDbDictionary
281
     1
  0
ACDBDICTIONARYWDFLT
  5
E
102
{ACAD_REACTORS
330
C
102
}
330
C
100
AcDbDictionary
281
     1
  3
Normal
350
F
100
AcDbDictionaryWithDefault
340
F
  0
DICTIONARY
  5
47
102
{ACAD_REACTORS
330
C
102
}
330
C
100
AcDbDictionary
281
     1
  3
A0
350
48
  3
A1
350
49
  3
A2
350
4A
  3
A3
350
4B
  3
A4
350
4C
  3
A5
350
4D
  3
A6
350
4E
  3
A7
350
4F
  3
A8
350
50
  3
A9
350
51
  3
B0
350
52
  3
B1
350
53
  3
B2
350
54
  3
B3
350
55
  3
B4
350
56
  3
B5
350
57
  3
B6
350
58
  3
B7
350
59
  3
B8
350
5A
  3
B9
350
5B
  3
C0
350
5C
  3
C1
350
5D
  3
C2
350
5E
  3
C3
350
5F
  3
C4
350
60
  3
C5
350
61
  3
C6
350
62
  3
C7
350
63
  3
C8
350
64
  3
C9
350
65
  3
D0
350
66
  3
D1
350
67
  3
D2
350
68
  0
XRECORD
  5
1FA
102
{ACAD_REACTORS
330
C
102
}
330
C
100
AcDbXrecord
280
     1
  1
DWGPROPS COOKIE
  2

  3

  4

  6

  7

  8
radek.stransky
  9

300
=
301
=
302
=
303
=
304
=
305
=
306
=
307
=
308
=
309
=
 40
0.0
 41
2459991.534875405
 42
2459991.53487581
  1

 90
        0
  0
LAYOUT
  5
1E
102
{ACAD_REACTORS
330
1A
102
}
330
1A
100
AcDbPlotSettings
  1

  2
none_device
  4

  6

 40
0.0
 41
0.0
 42
0.0
 43
0.0
 44
0.0
 45
0.0
 46
0.0
 47
0.0
 48
0.0
 49
0.0
140
0.0
141
0.0
142
1.0
143
1.0
 70
   688
 72
     1
 73
     0
 74
     5
  7

 75
    16
147
1.0
148
0.0
149
0.0
100
AcDbLayout
  1
Layout1
 70
     1
 71
     1
 10
0.0
 20
0.0
 11
420.0
 21
297.0
 12
0.0
 22
0.0
 32
0.0
 14
1.0000000000E+20
 24
1.0000000000E+20
 34
1.0000000000E+20
 15
-1.0000000000E+20
 25
-1.0000000000E+20
 35
-1.0000000000E+20
146
0.0
 13
0.0
 23
0.0
 33
0.0
 16
1.0
 26
0.0
 36
0.0
 17
0.0
 27
1.0
 37
0.0
 76
     0
330
1B
  0
LAYOUT
  5
26
102
{ACAD_REACTORS
330
1A
102
}
330
1A
100
AcDbPlotSettings
  1

  2
none_device
  4

  6

 40
0.0
 41
0.0
 42
0.0
 43
0.0
 44
0.0
 45
0.0
 46
0.0
 47
0.0
 48
0.0
 49
0.0
140
0.0
141
0.0
142
1.0
143
1.0
 70
   688
 72
     1
 73
     0
 74
     5
  7

 75
    16
147
1.0
148
0.0
149
0.0
100
AcDbLayout
  1
Layout2
 70
     1
 71
     2
 10
0.0
 20
0.0
 11
0.0
 21
0.0
 12
0.0
 22
0.0
 32
0.0
 14
0.0
 24
0.0
 34
0.0
 15
0.0
 25
0.0
 35
0.0
146
0.0
 13
0.0
 23
0.0
 33
0.0
 16
1.0
 26
0.0
 36
0.0
 17
0.0
 27
1.0
 37
0.0
 76
     0
330
23
  0
LAYOUT
  5
22
102
{ACAD_REACTORS
330
1A
102
}
330
1A
100
AcDbPlotSettings
  1

  2
none_device
  4
Letter_(8.50_x_11.00_Inches)
  6

 40
6.35
 41
6.35
 42
6.35000508
 43
6.35000508
 44
215.9
 45
279.4
 46
0.0
 47
0.0
 48
0.0
 49
0.0
140
0.0
141
0.0
142
1.0
143
1.0
 70
  1712
 72
     1
 73
     0
 74
     0
  7

 75
     0
147
1.0
148
0.0
149
0.0
100
AcDbLayout
  1
Model
 70
     1
 71
     0
 10
0.0
 20
0.0
 11
20000.0
 21
10000.0
 12
0.0
 22
0.0
 32
0.0
 14
0.0
 24
0.0
 34
0.0
 15
20000.0
 25
10000.0
 35
0.0
146
0.0
 13
0.0
 23
0.0
 33
0.0
 16
1.0
 26
0.0
 36
0.0
 17
0.0
 27
1.0
 37
0.0
 76
     0
330
1F
331
29
  0
MLINESTYLE
  5
18
102
{ACAD_REACTORS
330
17
102
}
330
17
100
AcDbMlineStyle
  2
Standard
 70
     0
  3

 62
   256
 51
90.0
 52
90.0
 71
     2
 49
0.5
 62
   256
  6
BYLAYER
 49
-0.5
 62
   256
  6
BYLAYER
  0
ACDBPLACEHOLDER
  5
F
102
{ACAD_REACTORS
330
E
102
}
330
E
  0
SCALE
  5
48
102
{ACAD_REACTORS
330
47
102
}
330
47
100
AcDbScale
 70
     0
300
1:1
140
1.0
141
1.0
290
     1
  0
SCALE
  5
49
102
{ACAD_REACTORS
330
47
102
}
330
47
100
AcDbScale
 70
     0
300
1:2
140
1.0
141
2.0
290
     0
  0
SCALE
  5
4A
102
{ACAD_REACTORS
330
47
102
}
330
47
100
AcDbScale
 70
     0
300
1:4
140
1.0
141
4.0
290
     0
  0
SCALE
  5
4B
102
{ACAD_REACTORS
330
47
102
}
330
47
100
AcDbScale
 70
     0
300
1:5
140
1.0
141
5.0
290
     0
  0
SCALE
  5
4C
102
{ACAD_REACTORS
330
47
102
}
330
47
100
AcDbScale
 70
     0
300
1:8
140
1.0
141
8.0
290
     0
  0
SCALE
  5
4D
102
{ACAD_REACTORS
330
47
102
}
330
47
100
AcDbScale
 70
     0
300
1:10
140
1.0
141
10.0
290
     0
  0
SCALE
  5
4E
102
{ACAD_REACTORS
330
47
102
}
330
47
100
AcDbScale
 70
     0
300
1:16
140
1.0
141
16.0
290
     0
  0
SCALE
  5
4F
102
{ACAD_REACTORS
330
47
102
}
330
47
100
AcDbScale
 70
     0
300
1:20
140
1.0
141
20.0
290
     0
  0
SCALE
  5
50
102
{ACAD_REACTORS
330
47
102
}
330
47
100
AcDbScale
 70
     0
300
1:30
140
1.0
141
30.0
290
     0
  0
SCALE
  5
51
102
{ACAD_REACTORS
330
47
102
}
330
47
100
AcDbScale
 70
     0
300
1:40
140
1.0
141
40.0
290
     0
  0
SCALE
  5
52
102
{ACAD_REACTORS
330
47
102
}
330
47
100
AcDbScale
 70
     0
300
1:50
140
1.0
141
50.0
290
     0
  0
SCALE
  5
53
102
{ACAD_REACTORS
330
47
102
}
330
47
100
AcDbScale
 70
     0
300
1:100
140
1.0
141
100.0
290
     0
  0
SCALE
  5
54
102
{ACAD_REACTORS
330
47
102
}
330
47
100
AcDbScale
 70
     0
300
2:1
140
2.0
141
1.0
290
     0
  0
SCALE
  5
55
102
{ACAD_REACTORS
330
47
102
}
330
47
100
AcDbScale
 70
     0
300
4:1
140
4.0
141
1.0
290
     0
  0
SCALE
  5
56
102
{ACAD_REACTORS
330
47
102
}
330
47
100
AcDbScale
 70
     0
300
8:1
140
8.0
141
1.0
290
     0
  0
SCALE
  5
57
102
{ACAD_REACTORS
330
47
102
}
330
47
100
AcDbScale
 70
     0
300
10:1
140
10.0
141
1.0
290
     0
  0
SCALE
  5
58
102
{ACAD_REACTORS
330
47
102
}
330
47
100
AcDbScale
 70
     0
300
100:1
140
100.0
141
1.0
290
     0
  0
SCALE
  5
59
102
{ACAD_REACTORS
330
47
102
}
330
47
100
AcDbScale
 70
     0
300
1/128" = 1'-0"
140
0.0078125
141
12.0
290
     0
  0
SCALE
  5
5A
102
{ACAD_REACTORS
330
47
102
}
330
47
100
AcDbScale
 70
     0
300
1/64" = 1'-0"
140
0.015625
141
12.0
290
     0
  0
SCALE
  5
5B
102
{ACAD_REACTORS
330
47
102
}
330
47
100
AcDbScale
 70
     0
300
1/32" = 1'-0"
140
0.03125
141
12.0
290
     0
  0
SCALE
  5
5C
102
{ACAD_REACTORS
330
47
102
}
330
47
100
AcDbScale
 70
     0
300
1/16" = 1'-0"
140
0.0625
141
12.0
290
     0
  0
SCALE
  5
5D
102
{ACAD_REACTORS
330
47
102
}
330
47
100
AcDbScale
 70
     0
300
3/32" = 1'-0"
140
0.09375
141
12.0
290
     0
  0
SCALE
  5
5E
102
{ACAD_REACTORS
330
47
102
}
330
47
100
AcDbScale
 70
     0
300
1/8" = 1'-0"
140
0.125
141
12.0
290
     0
  0
SCALE
  5
5F
102
{ACAD_REACTORS
330
47
102
}
330
47
100
AcDbScale
 70
     0
300
3/16" = 1'-0"
140
0.1875
141
12.0
290
     0
  0
SCALE
  5
60
102
{ACAD_REACTORS
330
47
102
}
330
47
100
AcDbScale
 70
     0
300
1/4" = 1'-0"
140
0.25
141
12.0
290
     0
  0
SCALE
  5
61
102
{ACAD_REACTORS
330
47
102
}
330
47
100
AcDbScale
 70
     0
300
3/8" = 1'-0"
140
0.375
141
12.0
290
     0
  0
SCALE
  5
62
102
{ACAD_REACTORS
330
47
102
}
330
47
100
AcDbScale
 70
     0
300
1/2" = 1'-0"
140
0.5
141
12.0
290
     0
  0
SCALE
  5
63
102
{ACAD_REACTORS
330
47
102
}
330
47
100
AcDbScale
 70
     0
300
3/4" = 1'-0"
140
0.75
141
12.0
290
     0
  0
SCALE
  5
64
102
{ACAD_REACTORS
330
47
102
}
330
47
100
AcDbScale
 70
     0
300
1" = 1'-0"
140
1.0
141
12.0
290
     0
  0
SCALE
  5
65
102
{ACAD_REACTORS
330
47
102
}
330
47
100
AcDbScale
 70
     0
300
1-1/2" = 1'-0"
140
1.5
141
12.0
290
     0
  0
SCALE
  5
66
102
{ACAD_REACTORS
330
47
102
}
330
47
100
AcDbScale
 70
     0
300
3" = 1'-0"
140
3.0
141
12.0
290
     0
  0
SCALE
  5
67
102
{ACAD_REACTORS
330
47
102
}
330
47
100
AcDbScale
 70
     0
300
6" = 1'-0"
140
6.0
141
12.0
290
     0
  0
SCALE
  5
68
102
{ACAD_REACTORS
330
47
102
}
330
47
100
AcDbScale
 70
     0
300
1'-0" = 1'-0"
140
12.0
141
12.0
290
     0
  0
ENDSEC
  0
EOF
